  0
SECTION
  2
HEADER
  9
$ACADVER
  1
AC1015
  9
$ACADMAINTVER
 70
    20
  9
$DWGCODEPAGE
  3
ANSI_932
  9
$INSBASE
 10
0.0
 20
0.0
 30
0.0
  9
$EXTMIN
 10
-35.00823911746056
 20
-64.60246700175867
 30
-0.0015258207003583
  9
$EXTMAX
 10
235.0082403747462
 20
336.7713621692049
 30
0.0000000349246037
  9
$LIMMIN
 10
0.0
 20
0.0
  9
$LIMMAX
 10
0.0
 20
0.0
  9
$ORTHOMODE
 70
     0
  9
$REGENMODE
 70
     1
  9
$FILLMODE
 70
     1
  9
$QTEXTMODE
 70
     0
  9
$MIRRTEXT
 70
     1
  9
$LTSCALE
 40
7.619999999999998
  9
$ATTMODE
 70
     1
  9
$TEXTSIZE
 40
0.0
  9
$TRACEWID
 40
1.0
  9
$TEXTSTYLE
  7
STANDARD
  9
$CLAYER
  8
DATA
  9
$CELTYPE
  6
ByLayer
  9
$CECOLOR
 62
   256
  9
$CELTSCALE
 40
1.0
  9
$DISPSILH
 70
     0
  9
$DIMSCALE
 40
1.0
  9
$DIMASZ
 40
0.18
  9
$DIMEXO
 40
0.0625
  9
$DIMDLI
 40
0.38
  9
$DIMRND
 40
0.0
  9
$DIMDLE
 40
0.0
  9
$DIMEXE
 40
0.18
  9
$DIMTP
 40
0.0
  9
$DIMTM
 40
0.0
  9
$DIMTXT
 40
0.18
  9
$DIMCEN
 40
0.09
  9
$DIMTSZ
 40
0.0
  9
$DIMTOL
 70
     0
  9
$DIMLIM
 70
     0
  9
$DIMTIH
 70
     1
  9
$DIMTOH
 70
     1
  9
$DIMSE1
 70
     0
  9
$DIMSE2
 70
     0
  9
$DIMTAD
 70
     0
  9
$DIMZIN
 70
     0
  9
$DIMBLK
  1

  9
$DIMASO
 70
     1
  9
$DIMSHO
 70
     1
  9
$DIMPOST
  1

  9
$DIMAPOST
  1

  9
$DIMALT
 70
     0
  9
$DIMALTD
 70
     2
  9
$DIMALTF
 40
25.4
  9
$DIMLFAC
 40
1.0
  9
$DIMTOFL
 70
     0
  9
$DIMTVP
 40
0.0
  9
$DIMTIX
 70
     0
  9
$DIMSOXD
 70
     0
  9
$DIMSAH
 70
     0
  9
$DIMBLK1
  1

  9
$DIMBLK2
  1

  9
$DIMSTYLE
  2
STANDARD
  9
$DIMCLRD
 70
     0
  9
$DIMCLRE
 70
     0
  9
$DIMCLRT
 70
     0
  9
$DIMTFAC
 40
1.0
  9
$DIMGAP
 40
0.09
  9
$DIMJUST
 70
     0
  9
$DIMSD1
 70
     0
  9
$DIMSD2
 70
     0
  9
$DIMTOLJ
 70
     1
  9
$DIMTZIN
 70
     0
  9
$DIMALTZ
 70
     0
  9
$DIMALTTZ
 70
     0
  9
$DIMUPT
 70
     0
  9
$DIMDEC
 70
     4
  9
$DIMTDEC
 70
     4
  9
$DIMALTU
 70
     2
  9
$DIMALTTD
 70
     2
  9
$DIMTXSTY
  7
STANDARD
  9
$DIMAUNIT
 70
     0
  9
$DIMADEC
 70
     0
  9
$DIMALTRND
 40
0.0
  9
$DIMAZIN
 70
     0
  9
$DIMDSEP
 70
    46
  9
$DIMATFIT
 70
     3
  9
$DIMFRAC
 70
     0
  9
$DIMLDRBLK
  1

  9
$DIMLUNIT
 70
     2
  9
$DIMLWD
 70
    -2
  9
$DIMLWE
 70
    -2
  9
$DIMTMOVE
 70
     0
  9
$LUNITS
 70
     2
  9
$LUPREC
 70
     4
  9
$SKETCHINC
 40
0.1
  9
$FILLETRAD
 40
0.0
  9
$AUNITS
 70
     0
  9
$AUPREC
 70
     0
  9
$MENU
  1
acad
  9
$ELEVATION
 40
0.0
  9
$PELEVATION
 40
0.0
  9
$THICKNESS
 40
0.0
  9
$LIMCHECK
 70
     0
  9
$CHAMFERA
 40
0.0
  9
$CHAMFERB
 40
0.0
  9
$CHAMFERC
 40
0.0
  9
$CHAMFERD
 40
0.0
  9
$SKPOLY
 70
     0
  9
$TDCREATE
 40
2455281.429918982
  9
$TDUCREATE
 40
2455281.054918982
  9
$TDUPDATE
 40
2455281.433152338
  9
$TDUUPDATE
 40
2455281.058152338
  9
$TDINDWG
 40
0.0002533681
  9
$TDUSRTIMER
 40
0.0002533681
  9
$USRTIMER
 70
     1
  9
$ANGBASE
 50
0.0
  9
$ANGDIR
 70
     0
  9
$PDMODE
 70
     1
  9
$PDSIZE
 40
-2.0
  9
$PLINEWID
 40
0.0
  9
$SPLFRAME
 70
     0
  9
$SPLINETYPE
 70
     6
  9
$SPLINESEGS
 70
     8
  9
$HANDSEED
  5
219
  9
$SURFTAB1
 70
     6
  9
$SURFTAB2
 70
     6
  9
$SURFTYPE
 70
     6
  9
$SURFU
 70
     6
  9
$SURFV
 70
     6
  9
$UCSBASE
  2

  9
$UCSNAME
  2

  9
$UCSORG
 10
0.0
 20
0.0
 30
0.0
  9
$UCSXDIR
 10
1.0
 20
0.0
 30
0.0
  9
$UCSYDIR
 10
0.0
 20
1.0
 30
0.0
  9
$UCSORTHOREF
  2

  9
$UCSORTHOVIEW
 70
     0
  9
$UCSORGTOP
 10
0.0
 20
0.0
 30
0.0
  9
$UCSORGBOTTOM
 10
0.0
 20
0.0
 30
0.0
  9
$UCSORGLEFT
 10
0.0
 20
0.0
 30
0.0
  9
$UCSORGRIGHT
 10
0.0
 20
0.0
 30
0.0
  9
$UCSORGFRONT
 10
0.0
 20
0.0
 30
0.0
  9
$UCSORGBACK
 10
0.0
 20
0.0
 30
0.0
  9
$PUCSBASE
  2

  9
$PUCSNAME
  2

  9
$PUCSORG
 10
0.0
 20
0.0
 30
0.0
  9
$PUCSXDIR
 10
1.0
 20
0.0
 30
0.0
  9
$PUCSYDIR
 10
0.0
 20
1.0
 30
0.0
  9
$PUCSORTHOREF
  2

  9
$PUCSORTHOVIEW
 70
     0
  9
$PUCSORGTOP
 10
0.0
 20
0.0
 30
0.0
  9
$PUCSORGBOTTOM
 10
0.0
 20
0.0
 30
0.0
  9
$PUCSORGLEFT
 10
0.0
 20
0.0
 30
0.0
  9
$PUCSORGRIGHT
 10
0.0
 20
0.0
 30
0.0
  9
$PUCSORGFRONT
 10
0.0
 20
0.0
 30
0.0
  9
$PUCSORGBACK
 10
0.0
 20
0.0
 30
0.0
  9
$USERI1
 70
     0
  9
$USERI2
 70
     0
  9
$USERI3
 70
     0
  9
$USERI4
 70
     0
  9
$USERI5
 70
     0
  9
$USERR1
 40
0.0
  9
$USERR2
 40
0.0
  9
$USERR3
 40
0.0
  9
$USERR4
 40
0.0
  9
$USERR5
 40
0.0
  9
$WORLDVIEW
 70
     1
  9
$SHADEDGE
 70
     3
  9
$SHADEDIF
 70
    70
  9
$TILEMODE
 70
     1
  9
$MAXACTVP
 70
    64
  9
$PINSBASE
 10
0.0
 20
0.0
 30
0.0
  9
$PLIMCHECK
 70
     0
  9
$PEXTMIN
 10
1.000000000000000E+20
 20
1.000000000000000E+20
 30
1.000000000000000E+20
  9
$PEXTMAX
 10
-1.000000000000000E+20
 20
-1.000000000000000E+20
 30
-1.000000000000000E+20
  9
$PLIMMIN
 10
0.0
 20
0.0
  9
$PLIMMAX
 10
12.0
 20
9.0
  9
$UNITMODE
 70
     0
  9
$VISRETAIN
 70
     0
  9
$PLINEGEN
 70
     1
  9
$PSLTSCALE
 70
     0
  9
$TREEDEPTH
 70
  3020
  9
$CMLSTYLE
  2
Standard
  9
$CMLJUST
 70
     0
  9
$CMLSCALE
 40
1.0
  9
$PROXYGRAPHICS
 70
     1
  9
$MEASUREMENT
 70
     0
  9
$CELWEIGHT
370
    -1
  9
$ENDCAPS
280
     0
  9
$JOINSTYLE
280
     0
  9
$LWDISPLAY
290
     0
  9
$INSUNITS
 70
     0
  9
$HYPERLINKBASE
  1

  9
$STYLESHEET
  1

  9
$XEDIT
290
     1
  9
$CEPSNTYPE
380
     0
  9
$PSTYLEMODE
290
     1
  9
$FINGERPRINTGUID
  2
{A651C79D-098B-43A9-A88B-323313B8F02A}
  9
$VERSIONGUID
  2
{B229C32B-2F4D-4860-87BA-1FBFAFBE7F7D}
  9
$EXTNAMES
290
     1
  9
$PSVPSCALE
 40
0.0
  9
$OLESTARTUP
290
     0
  0
ENDSEC
  0
SECTION
  2
CLASSES
  0
CLASS
  1
ACDBDICTIONARYWDFLT
  2
AcDbDictionaryWithDefault
  3
ObjectDBX Classes
 90
        0
280
     0
281
     0
  0
CLASS
  1
MATERIAL
  2
AcDbMaterial
  3
ObjectDBX Classes
 90
     1153
280
     0
281
     0
  0
CLASS
  1
VISUALSTYLE
  2
AcDbVisualStyle
  3
ObjectDBX Classes
 90
     4095
280
     0
281
     0
  0
CLASS
  1
SCALE
  2
AcDbScale
  3
ObjectDBX Classes
 90
     1153
280
     0
281
     0
  0
CLASS
  1
TABLESTYLE
  2
AcDbTableStyle
  3
ObjectDBX Classes
 90
     4095
280
     0
281
     0
  0
CLASS
  1
MLEADERSTYLE
  2
AcDbMLeaderStyle
  3
ACDB_MLEADERSTYLE_CLASS
 90
     4095
280
     0
281
     0
  0
CLASS
  1
DICTIONARYVAR
  2
AcDbDictionaryVar
  3
ObjectDBX Classes
 90
        0
280
     0
281
     0
  0
CLASS
  1
CELLSTYLEMAP
  2
AcDbCellStyleMap
  3
ObjectDBX Classes
 90
     1152
280
     0
281
     0
  0
CLASS
  1
ACDBPLACEHOLDER
  2
AcDbPlaceHolder
  3
ObjectDBX Classes
 90
        0
280
     0
281
     0
  0
CLASS
  1
LAYOUT
  2
AcDbLayout
  3
ObjectDBX Classes
 90
        0
280
     0
281
     0
  0
ENDSEC
  0
SECTION
  2
TABLES
  0
TABLE
  2
VPORT
  5
14D
330
0
100
AcDbSymbolTable
 70
     1
  0
VPORT
  5
1C0
330
14D
100
AcDbSymbolTableRecord
100
AcDbViewportTableRecord
  2
*ACTIVE
 70
     0
 10
0.0
 20
0.0
 11
1.0
 21
1.0
 12
100.0000006286427
 22
136.0844475837231
 13
0.0
 23
0.0
 14
1.0
 24
1.0
 15
0.0
 25
0.0
 16
0.0
 26
0.0
 36
1.0
 17
0.0
 27
0.0
 37
0.0
 40
404.33599765193
 41
1.966748768472906
 42
50.0
 43
0.0
 44
0.0
 50
0.0
 51
0.0
 71
     0
 72
  2000
 73
     1
 74
     1
 75
     0
 76
     0
 77
     0
 78
     0
281
     0
 65
     1
110
0.0
120
0.0
130
0.0
111
1.0
121
0.0
131
0.0
112
0.0
122
1.0
132
0.0
 79
     0
146
0.0
  0
ENDTAB
  0
TABLE
  2
LTYPE
  5
14A
330
0
100
AcDbSymbolTable
 70
    11
  0
LTYPE
  5
1AA
330
14A
100
AcDbSymbolTableRecord
100
AcDbLinetypeTableRecord
  2
ByBlock
 70
     0
  3

 72
    65
 73
     0
 40
0.0
  0
LTYPE
  5
1AB
330
14A
100
AcDbSymbolTableRecord
100
AcDbLinetypeTableRecord
  2
ByLayer
 70
     0
  3

 72
    65
 73
     0
 40
0.0
  0
LTYPE
  5
1AC
330
14A
100
AcDbSymbolTableRecord
100
AcDbLinetypeTableRecord
  2
CONTINUOUS
 70
     0
  3
Solid line
 72
    65
 73
     0
 40
0.0
  0
ENDTAB
  0
TABLE
  2
LAYER
  5
147
330
0
100
AcDbSymbolTable
 70
     6
  0
LAYER
  5
1A4
102
{ACAD_XDICTIONARY
360
1D4
102
}
330
147
100
AcDbSymbolTableRecord
100
AcDbLayerTableRecord
  2
0
 70
     0
 62
     7
  6
CONTINUOUS
370
    -3
390
154
  0
LAYER
  5
1BF
102
{ACAD_XDICTIONARY
360
1D6
102
}
330
147
100
AcDbSymbolTableRecord
100
AcDbLayerTableRecord
  2
DATA
 70
     0
 62
     7
  6
CONTINUOUS
370
    -3
390
154
  0
LAYER
  5
1CB
102
{ACAD_XDICTIONARY
360
1D8
102
}
330
147
100
AcDbSymbolTableRecord
100
AcDbLayerTableRecord
  2
HIBINO-BASE
 70
     0
 62
     7
  6
CONTINUOUS
370
    -3
390
154
  0
LAYER
  5
1CD
102
{ACAD_XDICTIONARY
360
1DA
102
}
330
147
100
AcDbSymbolTableRecord
100
AcDbLayerTableRecord
  2
SPEC
 70
     0
 62
     7
  6
CONTINUOUS
370
    -3
390
154
  0
LAYER
  5
1CE
102
{ACAD_XDICTIONARY
360
1DC
102
}
330
147
100
AcDbSymbolTableRecord
100
AcDbLayerTableRecord
  2
DIMNSIONS
 70
     0
 62
     7
  6
CONTINUOUS
370
    -3
390
154
  0
ENDTAB
  0
TABLE
  2
STYLE
  5
148
330
0
100
AcDbSymbolTable
 70
     3
  0
STYLE
  5
1A5
330
148
100
AcDbSymbolTableRecord
100
AcDbTextStyleTableRecord
  2
STANDARD
 70
     0
 40
0.0
 41
1.0
 50
0.0
 71
     0
 42
0.0
  3
txt
  4
BIGFONT.SHX
  0
ENDTAB
  0
TABLE
  2
VIEW
  5
14B
330
0
100
AcDbSymbolTable
 70
     0
  0
ENDTAB
  0
TABLE
  2
UCS
  5
14C
330
0
100
AcDbSymbolTable
 70
     0
  0
ENDTAB
  0
TABLE
  2
APPID
  5
14E
330
0
100
AcDbSymbolTable
 70
     3
  0
APPID
  5
1A6
330
14E
100
AcDbSymbolTableRecord
100
AcDbRegAppTableRecord
  2
ACAD
 70
     0
  0
APPID
  5
1AD
330
14E
100
AcDbSymbolTableRecord
100
AcDbRegAppTableRecord
  2
AcadAnnotative
 70
     0
  0
APPID
  5
214
330
14E
100
AcDbSymbolTableRecord
100
AcDbRegAppTableRecord
  2
ACAD_MLEADERVER
 70
     0
  0
ENDTAB
  0
TABLE
  2
DIMSTYLE
  5
14F
330
0
100
AcDbSymbolTable
 70
     2
100
AcDbDimStyleTable
 71
     0
  0
DIMSTYLE
105
1A7
330
14F
100
AcDbSymbolTableRecord
100
AcDbDimStyleTableRecord
  2
STANDARD
 70
     0
279
     2
340
1A5
  0
ENDTAB
  0
TABLE
  2
BLOCK_RECORD
  5
146
330
0
100
AcDbSymbolTable
 70
     0
  0
BLOCK_RECORD
  5
1BB
330
146
100
AcDbSymbolTableRecord
100
AcDbBlockTableRecord
  2
*Model_Space
340
1BE
  0
BLOCK_RECORD
  5
1B7
330
146
100
AcDbSymbolTableRecord
100
AcDbBlockTableRecord
  2
*Paper_Space
340
1BA
  0
ENDTAB
  0
ENDSEC
  0
SECTION
  2
BLOCKS
  0
BLOCK
  5
1BC
330
1BB
100
AcDbEntity
  8
0
100
AcDbBlockBegin
  2
*Model_Space
 70
     0
 10
0.0
 20
0.0
 30
0.0
  3
*Model_Space
  1

  0
ENDBLK
  5
1BD
330
1BB
100
AcDbEntity
  8
0
100
AcDbBlockEnd
  0
BLOCK
  5
1B8
330
1B7
100
AcDbEntity
 67
     1
  8
0
100
AcDbBlockBegin
  2
*Paper_Space
 70
     0
 10
0.0
 20
0.0
 30
0.0
  3
*Paper_Space
  1

  0
ENDBLK
  5
1B9
330
1B7
100
AcDbEntity
 67
     1
  8
0
100
AcDbBlockEnd
  0
ENDSEC
  0
SECTION
  2
ENTITIES
  0
LINE
  5
2D
330
1BB
100
AcDbEntity
  8
HIBINO-BASE
  6
Continuous
 62
     7
100
AcDbLine
 10
-34.99999999999999
 20
336.7591372734525
 30
0.0
 11
235.0
 21
336.7591372734525
 31
0.0
  0
LINE
  5
2E
330
1BB
100
AcDbEntity
  8
HIBINO-BASE
  6
Continuous
 62
     7
100
AcDbLine
 10
235.0
 20
-53.24086272654742
 30
0.0
 11
-34.99999999999999
 21
-53.24086272654742
 31
0.0
  0
LINE
  5
2F
330
1BB
100
AcDbEntity
  8
HIBINO-BASE
  6
Continuous
 62
     7
100
AcDbLine
 10
-34.99999999999999
 20
-53.24086272654742
 30
0.0
 11
-34.99999999999999
 21
336.7591372734525
 31
0.0
  0
LINE
  5
30
330
1BB
100
AcDbEntity
  8
HIBINO-BASE
  6
Continuous
 62
     7
100
AcDbLine
 10
235.0
 20
336.7591372734525
 30
0.0
 11
235.0
 21
-53.24086272654742
 31
0.0
  0
LINE
  5
31
330
1BB
100
AcDbEntity
  8
HIBINO-BASE
  6
Continuous
 62
     7
100
AcDbLine
 10
100.0
 20
-19.49086272654739
 30
0.0
 11
235.0
 21
-19.49086272654739
 31
0.0
  0
LINE
  5
32
330
1BB
100
AcDbEntity
  8
HIBINO-BASE
  6
Continuous
 62
     7
100
AcDbLine
 10
100.0
 20
-53.24086272654742
 30
0.0
 11
100.0
 21
-19.49086272654739
 31
0.0
  0
TEXT
  5
33
330
1BB
100
AcDbEntity
  8
HIBINO-BASE
 62
     7
100
AcDbText
 10
101.35
 20
-23.25390272654741
 30
0.0
 40
2.44326171875
  1
NOTE
 41
0.7
 11
101.35
 21
-20.81064100779741
 31
0.0
100
AcDbText
 73
     3
  0
LINE
  5
34
330
1BB
100
AcDbEntity
  8
HIBINO-BASE
  6
Continuous
 62
     7
100
AcDbLine
 10
152.5
 20
-53.24086272654742
 30
0.0
 11
152.5
 21
-19.49086272654739
 31
0.0
  0
TEXT
  5
35
330
1BB
100
AcDbEntity
  8
HIBINO-BASE
 62
     7
100
AcDbText
 10
153.8499999999999
 20
-23.25390272654741
 30
0.0
 40
2.44326171875
  1
TITLE
 41
0.7
 11
153.8499999999999
 21
-20.81064100779741
 31
0.0
100
AcDbText
 73
     3
  0
LINE
  5
36
330
1BB
100
AcDbEntity
  8
HIBINO-BASE
  6
Continuous
 62
     7
100
AcDbLine
 10
100.0
 20
-38.24086272654739
 30
0.0
 11
235.0
 21
-38.24086272654739
 31
0.0
  0
TEXT
  5
37
330
1BB
100
AcDbEntity
  8
HIBINO-BASE
 62
     7
100
AcDbText
 10
172.5999999999999
 20
-41.9194227265474
 30
0.0
 40
2.44326171875
  1
DRAWN
 41
0.7
 11
172.5999999999999
 21
-39.4761610077974
 31
0.0
100
AcDbText
 73
     3
  0
TEXT
  5
38
330
1BB
100
AcDbEntity
  8
HIBINO-BASE
 62
     7
100
AcDbText
 10
135.0999999999999
 20
-41.9194227265474
 30
0.0
 40
2.44326171875
  1
DATE
 41
0.7
 11
135.0999999999999
 21
-39.4761610077974
 31
0.0
100
AcDbText
 73
     3
  0
TEXT
  5
39
330
1BB
100
AcDbEntity
  8
HIBINO-BASE
 62
     7
100
AcDbText
 10
120.1
 20
-41.9194227265474
 30
0.0
 40
2.44326171875
  1
SCALE
 41
0.7
 11
120.1
 21
-39.4761610077974
 31
0.0
100
AcDbText
 73
     3
  0
TEXT
  5
3A
330
1BB
100
AcDbEntity
  8
HIBINO-BASE
 62
     7
100
AcDbText
 10
153.8499999999999
 20
-41.9194227265474
 30
0.0
 40
2.44326171875
  1
DESIGN
 41
0.7
 11
153.8499999999999
 21
-39.4761610077974
 31
0.0
100
AcDbText
 73
     3
  0
TEXT
  5
3B
330
1BB
100
AcDbEntity
  8
HIBINO-BASE
 62
     7
100
AcDbText
 10
210.1
 20
-41.9194227265474
 30
0.0
 40
2.44326171875
  1
DRAWING NO.
 41
0.7
 11
210.1
 21
-39.4761610077974
 31
0.0
100
AcDbText
 73
     3
  0
TEXT
  5
3C
330
1BB
100
AcDbEntity
  8
HIBINO-BASE
 62
     7
100
AcDbText
 10
191.35
 20
-41.9194227265474
 30
0.0
 40
2.44326171875
  1
CHECK
 41
0.7
 11
191.35
 21
-39.4761610077974
 31
0.0
100
AcDbText
 73
     3
  0
LINE
  5
3D
330
1BB
100
AcDbEntity
  8
HIBINO-BASE
  6
Continuous
 62
     7
100
AcDbLine
 10
121.5625
 20
-51.36586272654742
 30
0.0
 11
127.1875
 21
-45.74086272654739
 31
0.0
  0
TEXT
  5
3E
330
1BB
100
AcDbEntity
  8
HIBINO-BASE
 62
     7
100
AcDbText
 10
120.625
 20
-47.40427772654737
 30
0.0
 40
2.44326171875
  1
1
 41
0.7
 11
120.625
 21
-44.96101600779737
 31
0.0
100
AcDbText
 73
     3
  0
LINE
  5
3F
330
1BB
100
AcDbEntity
  8
HIBINO-BASE
  6
Continuous
 62
     7
100
AcDbLine
 10
118.75
 20
-53.24086272654742
 30
0.0
 11
118.75
 21
-38.24086272654739
 31
0.0
  0
LINE
  5
40
330
1BB
100
AcDbEntity
  8
HIBINO-BASE
  6
Continuous
 62
     7
100
AcDbLine
 10
133.7499999999999
 20
-53.24086272654742
 30
0.0
 11
133.7499999999999
 21
-38.24086272654739
 31
0.0
  0
LINE
  5
41
330
1BB
100
AcDbEntity
  8
HIBINO-BASE
  6
Continuous
 62
     7
100
AcDbLine
 10
171.2499999999999
 20
-38.24086272654739
 30
0.0
 11
171.2499999999999
 21
-53.24086272654742
 31
0.0
  0
LINE
  5
42
330
1BB
100
AcDbEntity
  8
HIBINO-BASE
  6
Continuous
 62
     7
100
AcDbLine
 10
208.75
 20
-38.24086272654739
 30
0.0
 11
208.75
 21
-53.24086272654742
 31
0.0
  0
LINE
  5
43
330
1BB
100
AcDbEntity
  8
HIBINO-BASE
  6
Continuous
 62
     7
100
AcDbLine
 10
190.0
 20
-53.24086272654742
 30
0.0
 11
190.0
 21
-38.24086272654739
 31
0.0
  0
TEXT
  5
44
330
1BB
100
AcDbEntity
  8
HIBINO-BASE
 62
     7
100
AcDbText
 10
135.03481
 20
-48.94539272654739
 30
0.0
 40
2.44326171875
  1
'10.03.
 41
0.7
 11
135.03481
 21
-46.5021310077974
 31
0.0
100
AcDbText
 73
     3
  0
TEXT
  5
45
330
1BB
100
AcDbEntity
  8
HIBINO-BASE
 62
     7
100
AcDbText
 10
126.25
 20
-50.21677772654738
 30
0.0
 40
2.44326171875
  1
1.5
 41
0.7
 11
126.25
 21
-47.77351600779738
 31
0.0
100
AcDbText
 73
     3
  0
TEXT
  5
46
330
1BB
100
AcDbEntity
  8
HIBINO-BASE
 62
     7
100
AcDbText
 10
105.825
 20
-50.2768627265474
 30
0.0
 40
4.886523437499999
  1
A4
 41
0.7
 11
105.825
 21
-45.3903392890474
 31
0.0
100
AcDbText
 73
     3
  0
TEXT
  5
47
330
1BB
100
AcDbEntity
  8
HIBINO-BASE
 62
     7
100
AcDbText
 10
101.4375
 20
-42.17004522654742
 30
0.0
 40
2.44326171875
  1
PAPER SIZE
 41
0.7
 11
101.4375
 21
-39.72678350779742
 31
0.0
100
AcDbText
 73
     3
  0
TEXT
  5
48
330
1BB
100
AcDbEntity
  8
HIBINO-BASE
 62
     7
100
AcDbText
 10
-30.62868387980281
 20
-62.83260303392956
 30
0.0
 40
5.293733723958332
  1
Hibino-Intersound Corporation
 41
0.7
 11
-30.62868387980281
 21
-57.53886930997122
 31
0.0
100
AcDbText
 73
     3
  0
TEXT
  5
49
330
1BB
100
AcDbEntity
  8
HIBINO-BASE
 62
     7
100
AcDbText
 10
130.9689499059817
 20
-62.36709453324063
 30
0.0
 40
5.293733723958332
  1
ヒビノインターサウンド株式会社
 41
0.7
 11
130.9689499059817
 21
-57.07336080928229
 31
0.0
100
AcDbText
 73
     3
  0
TEXT
  5
4A
330
1BB
100
AcDbEntity
  8
HIBINO-BASE
 62
     7
100
AcDbText
 10
172.9396339498101
 20
-48.87637897360889
 30
0.0
 40
2.44326171875
  1
T.Ootake
 41
0.7
 11
172.9396339498101
 21
-46.43311725485889
 31
0.0
100
AcDbText
 73
     3
  0
LINE
  5
4B
330
1BB
100
AcDbEntity
  8
SPEC
  6
Continuous
 62
     7
100
AcDbLine
 10
-23.74999999999999
 20
321.7591372734525
 30
0.0
 11
197.5
 21
321.7591372734525
 31
0.0
  0
LINE
  5
4C
330
1BB
100
AcDbEntity
  8
SPEC
  6
Continuous
 62
     7
100
AcDbLine
 10
-23.74999999999999
 20
316.1341372734525
 30
0.0
 11
197.5
 21
316.1341372734525
 31
0.0
  0
LINE
  5
4D
330
1BB
100
AcDbEntity
  8
SPEC
  6
Continuous
 62
     7
100
AcDbLine
 10
-23.74999999999999
 20
304.8841372734525
 30
0.0
 11
197.5
 21
304.8841372734525
 31
0.0
  0
LINE
  5
4E
330
1BB
100
AcDbEntity
  8
SPEC
  6
Continuous
 62
     7
100
AcDbLine
 10
-23.74999999999999
 20
310.5091372734525
 30
0.0
 11
197.5
 21
310.5091372734525
 31
0.0
  0
LINE
  5
4F
330
1BB
100
AcDbEntity
  8
SPEC
  6
Continuous
 62
     7
100
AcDbLine
 10
-23.74999999999999
 20
321.7591372734525
 30
0.0
 11
-23.74999999999999
 21
304.8841372734525
 31
0.0
  0
TEXT
  5
50
330
1BB
100
AcDbEntity
  8
SPEC
 62
     7
100
AcDbText
 10
-21.87499999999999
 20
323.8490422734527
 30
0.0
 40
3.664892578124999
  1
仕様
 41
0.7
 11
-21.87499999999999
 21
327.5139348515776
 31
0.0
100
AcDbText
 73
     3
  0
LINE
  5
51
330
1BB
100
AcDbEntity
  8
SPEC
  6
Continuous
 62
     7
100
AcDbLine
 10
25.0
 20
321.7591372734525
 30
0.0
 11
25.0
 21
304.8841372734525
 31
0.0
  0
LINE
  5
52
330
1BB
100
AcDbEntity
  8
SPEC
  6
Continuous
 62
     7
100
AcDbLine
 10
197.5
 20
321.7591372734525
 30
0.0
 11
197.5
 21
304.8841372734525
 31
0.0
  0
TEXT
  5
53
330
1BB
100
AcDbEntity
  8
SPEC
 62
     7
100
AcDbText
 10
-22.40000000000001
 20
317.3160139401193
 30
0.0
 40
2.850472005208333
  1
HDMI入出力端子
 41
0.7
 11
-22.40000000000001
 21
320.1664859453276
 31
0.0
100
AcDbText
 73
     3
  0
TEXT
  5
54
330
1BB
100
AcDbEntity
  8
SPEC
 62
     7
100
AcDbText
 10
-22.41726833107644
 20
312.0509384441937
 30
0.0
 40
2.850472005208333
  1
寸法
 41
0.7
 11
-22.41726833107644
 21
314.901410449402
 31
0.0
100
AcDbText
 73
     3
  0
TEXT
  5
55
330
1BB
100
AcDbEntity
  8
SPEC
 62
     7
100
AcDbText
 10
-22.38656082088635
 20
306.3774630518214
 30
0.0
 40
2.850472005208333
  1
重量
 41
0.7
 11
-22.38656082088635
 21
309.2279350570297
 31
0.0
100
AcDbText
 73
     3
  0
TEXT
  5
56
330
1BB
100
AcDbEntity
  8
SPEC
 62
     7
100
AcDbText
 10
26.39968051268045
 20
311.9456987328707
 30
0.0
 40
2.850472005208333
  1
71(W)\U+00D7115(H)\U+00D736(D)mm(突起部含まず)
 41
0.7
 11
26.39968051268045
 21
314.796170738079
 31
0.0
100
AcDbText
 73
     3
  0
TEXT
  5
57
330
1BB
100
AcDbEntity
  8
SPEC
 62
     7
100
AcDbText
 10
26.34423344892804
 20
306.5306430515595
 30
0.0
 40
2.850472005208333
  1
約90g
 41
0.7
 11
26.34423344892804
 21
309.3811150567679
 31
0.0
100
AcDbText
 73
     3
  0
TEXT
  5
58
330
1BB
100
AcDbEntity
  8
SPEC
 62
     7
100
AcDbText
 10
26.5008834961228
 20
317.3704361019229
 30
0.0
 40
2.850472005208333
  1
type A 19pin
 41
0.7
 11
26.5008834961228
 21
320.2209081071312
 31
0.0
100
AcDbText
 73
     3
  0
TEXT
  5
59
330
1BB
100
AcDbEntity
  8
DIMNSIONS
 62
     7
100
AcDbText
 10
69.99999999999999
 20
-34.83662772654739
 30
0.0
 40
3.664892578124999
  1
(単位：mm)
 41
0.7
 11
69.99999999999999
 21
-31.17173514842239
 31
0.0
100
AcDbText
 73
     3
  0
LINE
  5
5A
330
1BB
100
AcDbEntity
  8
DIMNSIONS
  6
Continuous
 62
     7
100
AcDbLine
 10
6.375
 20
31.25
 30
0.0
 11
-15.5
 21
31.25
 31
0.0
  0
LINE
  5
5B
330
1BB
100
AcDbEntity
  8
DIMNSIONS
  6
Continuous
 62
     7
100
AcDbLine
 10
6.375
 20
146.25
 30
0.0
 11
-15.5
 21
146.25
 31
0.0
  0
LINE
  5
5C
330
1BB
100
AcDbEntity
  8
DIMNSIONS
  6
Continuous
 62
     7
100
AcDbLine
 10
-12.5
 20
31.25
 30
0.0
 11
-12.5
 21
146.25
 31
0.0
  0
LINE
  5
5D
330
1BB
100
AcDbEntity
  8
DIMNSIONS
  6
Continuous
 62
     7
100
AcDbLine
 10
-12.5
 20
31.25
 30
0.0
 11
-13.50505969272537
 21
35.00093383789063
 31
0.0
  0
LINE
  5
5E
330
1BB
100
AcDbEntity
  8
DIMNSIONS
  6
Continuous
 62
     7
100
AcDbLine
 10
-12.5
 20
31.25
 30
0.0
 11
-11.49494030727463
 21
35.00093383789063
 31
0.0
  0
LINE
  5
5F
330
1BB
100
AcDbEntity
  8
DIMNSIONS
  6
Continuous
 62
     7
100
AcDbLine
 10
-12.5
 20
146.25
 30
0.0
 11
-11.49494030727463
 21
142.4990661621094
 31
0.0
  0
LINE
  5
60
330
1BB
100
AcDbEntity
  8
DIMNSIONS
  6
Continuous
 62
     7
100
AcDbLine
 10
-12.5
 20
146.25
 30
0.0
 11
-13.50505969272537
 21
142.4990661621094
 31
0.0
  0
TEXT
  5
61
330
1BB
100
AcDbEntity
  8
DIMNSIONS
 62
     7
100
AcDbText
 10
-13.99083333333332
 20
84.78125
 30
0.0
 40
4.072102864583333
  1
115
 50
90.0
 41
0.7
 11
-18.06293619791665
 21
84.78125
 31
0.0
100
AcDbText
 73
     3
  0
LINE
  5
62
330
1BB
100
AcDbEntity
  8
DIMNSIONS
  6
Continuous
 62
     7
100
AcDbLine
 10
9.375
 20
31.25
 30
0.0
 11
9.375
 21
6.375
 31
0.0
  0
LINE
  5
63
330
1BB
100
AcDbEntity
  8
DIMNSIONS
  6
Continuous
 62
     7
100
AcDbLine
 10
80.37499999999999
 20
31.25
 30
0.0
 11
80.37499999999999
 21
6.375
 31
0.0
  0
LINE
  5
64
330
1BB
100
AcDbEntity
  8
DIMNSIONS
  6
Continuous
 62
     7
100
AcDbLine
 10
9.375
 20
9.375
 30
0.0
 11
80.37499999999999
 21
9.375
 31
0.0
  0
LINE
  5
65
330
1BB
100
AcDbEntity
  8
DIMNSIONS
  6
Continuous
 62
     7
100
AcDbLine
 10
9.375
 20
9.375
 30
0.0
 11
13.12593383789063
 21
10.38005969272535
 31
0.0
  0
LINE
  5
66
330
1BB
100
AcDbEntity
  8
DIMNSIONS
  6
Continuous
 62
     7
100
AcDbLine
 10
9.375
 20
9.375
 30
0.0
 11
13.12593383789063
 21
8.369940307274646
 31
0.0
  0
LINE
  5
67
330
1BB
100
AcDbEntity
  8
DIMNSIONS
  6
Continuous
 62
     7
100
AcDbLine
 10
80.37499999999999
 20
9.375
 30
0.0
 11
76.62406616210937
 21
8.369940307274646
 31
0.0
  0
LINE
  5
68
330
1BB
100
AcDbEntity
  8
DIMNSIONS
  6
Continuous
 62
     7
100
AcDbLine
 10
80.37499999999999
 20
9.375
 30
0.0
 11
76.62406616210937
 21
10.38005969272535
 31
0.0
  0
TEXT
  5
69
330
1BB
100
AcDbEntity
  8
DIMNSIONS
 62
     7
100
AcDbText
 10
42.22916666666665
 20
10.86583333333334
 30
0.0
 40
4.072102864583333
  1
71
 41
0.7
 11
42.22916666666665
 21
14.93793619791667
 31
0.0
100
AcDbText
 73
     3
  0
LINE
  5
6A
330
1BB
100
AcDbEntity
  8
DIMNSIONS
  6
Continuous
 62
     7
100
AcDbLine
 10
36.875
 20
47.0
 30
0.0
 11
-6.125
 21
47.0
 31
0.0
  0
LINE
  5
6B
330
1BB
100
AcDbEntity
  8
DIMNSIONS
  6
Continuous
 62
     7
100
AcDbLine
 10
36.875
 20
130.5
 30
0.0
 11
-6.125
 21
130.5
 31
0.0
  0
LINE
  5
6C
330
1BB
100
AcDbEntity
  8
DIMNSIONS
  6
Continuous
 62
     7
100
AcDbLine
 10
-3.125
 20
47.0
 30
0.0
 11
-3.125
 21
130.5
 31
0.0
  0
LINE
  5
6D
330
1BB
100
AcDbEntity
  8
DIMNSIONS
  6
Continuous
 62
     7
100
AcDbLine
 10
-3.125
 20
47.0
 30
0.0
 11
-4.130059692725367
 21
50.75093383789063
 31
0.0
  0
LINE
  5
6E
330
1BB
100
AcDbEntity
  8
DIMNSIONS
  6
Continuous
 62
     7
100
AcDbLine
 10
-3.125
 20
47.0
 30
0.0
 11
-2.119940307274632
 21
50.75093383789063
 31
0.0
  0
LINE
  5
6F
330
1BB
100
AcDbEntity
  8
DIMNSIONS
  6
Continuous
 62
     7
100
AcDbLine
 10
-3.125
 20
130.5
 30
0.0
 11
-2.119940307274632
 21
126.7490661621093
 31
0.0
  0
LINE
  5
70
330
1BB
100
AcDbEntity
  8
DIMNSIONS
  6
Continuous
 62
     7
100
AcDbLine
 10
-3.125
 20
130.5
 30
0.0
 11
-4.130059692725367
 21
126.7490661621093
 31
0.0
  0
TEXT
  5
71
330
1BB
100
AcDbEntity
  8
DIMNSIONS
 62
     7
100
AcDbText
 10
-4.615833333333337
 20
83.45833333333333
 30
0.0
 40
4.072102864583333
  1
83.5
 50
90.0
 41
0.7
 11
-8.68793619791667
 21
83.45833333333333
 31
0.0
100
AcDbText
 73
     3
  0
LINE
  5
72
330
1BB
100
AcDbEntity
  8
DIMNSIONS
  6
Continuous
 62
     7
100
AcDbLine
 10
9.898796168636224
 20
178.125
 30
0.0
 11
-15.5
 21
178.125
 31
0.0
  0
LINE
  5
73
330
1BB
100
AcDbEntity
  8
DIMNSIONS
  6
Continuous
 62
     7
100
AcDbLine
 10
21.86976834962286
 20
214.125
 30
0.0
 11
-15.5
 21
214.125
 31
0.0
  0
LINE
  5
74
330
1BB
100
AcDbEntity
  8
DIMNSIONS
  6
Continuous
 62
     7
100
AcDbLine
 10
-12.5
 20
178.125
 30
0.0
 11
-12.5
 21
214.125
 31
0.0
  0
LINE
  5
75
330
1BB
100
AcDbEntity
  8
DIMNSIONS
  6
Continuous
 62
     7
100
AcDbLine
 10
-12.5
 20
178.125
 30
0.0
 11
-13.50505969272537
 21
181.8759338378906
 31
0.0
  0
LINE
  5
76
330
1BB
100
AcDbEntity
  8
DIMNSIONS
  6
Continuous
 62
     7
100
AcDbLine
 10
-12.5
 20
178.125
 30
0.0
 11
-11.49494030727463
 21
181.8759338378906
 31
0.0
  0
LINE
  5
77
330
1BB
100
AcDbEntity
  8
DIMNSIONS
  6
Continuous
 62
     7
100
AcDbLine
 10
-12.5
 20
214.125
 30
0.0
 11
-11.49494030727463
 21
210.3740661621094
 31
0.0
  0
LINE
  5
78
330
1BB
100
AcDbEntity
  8
DIMNSIONS
  6
Continuous
 62
     7
100
AcDbLine
 10
-12.5
 20
214.125
 30
0.0
 11
-13.50505969272537
 21
210.3740661621094
 31
0.0
  0
TEXT
  5
79
330
1BB
100
AcDbEntity
  8
DIMNSIONS
 62
     7
100
AcDbText
 10
-13.99083333333332
 20
193.4791666666666
 30
0.0
 40
4.072102864583333
  1
36
 50
90.0
 41
0.7
 11
-18.06293619791665
 21
193.4791666666666
 31
0.0
100
AcDbText
 73
     3
  0
LINE
  5
7A
330
1BB
100
AcDbEntity
  8
DIMNSIONS
  6
Continuous
 62
     7
100
AcDbLine
 10
9.898796168636224
 20
178.125
 30
0.0
 11
-6.125
 21
178.125
 31
0.0
  0
LINE
  5
7B
330
1BB
100
AcDbEntity
  8
DIMNSIONS
  6
Continuous
 62
     7
100
AcDbLine
 10
6.375000000000014
 20
183.725
 30
0.0
 11
-6.125
 21
183.725
 31
0.0
  0
LINE
  5
7C
330
1BB
100
AcDbEntity
  8
DIMNSIONS
  6
Continuous
 62
     7
100
AcDbLine
 10
-3.125
 20
183.725
 30
0.0
 11
-3.125
 21
178.125
 31
0.0
  0
LINE
  5
7D
330
1BB
100
AcDbEntity
  8
DIMNSIONS
  6
Continuous
 62
     7
100
AcDbLine
 10
-3.125
 20
178.125
 30
0.0
 11
-3.125
 21
170.625
 31
0.0
  0
LINE
  5
7E
330
1BB
100
AcDbEntity
  8
DIMNSIONS
  6
Continuous
 62
     7
100
AcDbLine
 10
-3.125
 20
178.125
 30
0.0
 11
-2.119940307274632
 21
174.3740661621094
 31
0.0
  0
LINE
  5
7F
330
1BB
100
AcDbEntity
  8
DIMNSIONS
  6
Continuous
 62
     7
100
AcDbLine
 10
-3.125
 20
178.125
 30
0.0
 11
-4.130059692725367
 21
174.3740661621094
 31
0.0
  0
LINE
  5
80
330
1BB
100
AcDbEntity
  8
DIMNSIONS
  6
Continuous
 62
     7
100
AcDbLine
 10
-3.125
 20
183.725
 30
0.0
 11
-3.125
 21
195.4375
 31
0.0
  0
LINE
  5
81
330
1BB
100
AcDbEntity
  8
DIMNSIONS
  6
Continuous
 62
     7
100
AcDbLine
 10
-3.125
 20
183.725
 30
0.0
 11
-4.130059692725367
 21
187.4759338378906
 31
0.0
  0
LINE
  5
82
330
1BB
100
AcDbEntity
  8
DIMNSIONS
  6
Continuous
 62
     7
100
AcDbLine
 10
-3.125
 20
183.725
 30
0.0
 11
-2.119940307274632
 21
187.4759338378906
 31
0.0
  0
TEXT
  5
83
330
1BB
100
AcDbEntity
  8
DIMNSIONS
 62
     7
100
AcDbText
 10
-4.615833333333323
 20
187.5
 30
0.0
 40
4.072102864583333
  1
5.6
 50
90.0
 41
0.7
 11
-8.687936197916656
 21
187.5
 31
0.0
100
AcDbText
 73
     3
  0
LINE
  5
84
330
1BB
100
AcDbEntity
  8
DIMNSIONS
  6
Continuous
 62
     7
100
AcDbLine
 10
49.12894910858052
 20
173.125
 30
0.0
 11
-15.49999999999998
 21
173.125
 31
0.0
  0
LINE
  5
85
330
1BB
100
AcDbEntity
  8
DIMNSIONS
  6
Continuous
 62
     7
100
AcDbLine
 10
6.375
 20
178.125
 30
0.0
 11
-15.49999999999998
 21
178.125
 31
0.0
  0
LINE
  5
86
330
1BB
100
AcDbEntity
  8
DIMNSIONS
  6
Continuous
 62
     7
100
AcDbLine
 10
-12.49999999999998
 20
178.125
 30
0.0
 11
-12.49999999999998
 21
173.125
 31
0.0
  0
LINE
  5
87
330
1BB
100
AcDbEntity
  8
DIMNSIONS
  6
Continuous
 62
     7
100
AcDbLine
 10
-12.49999999999998
 20
173.125
 30
0.0
 11
-12.49999999999998
 21
166.1041666666666
 31
0.0
  0
LINE
  5
88
330
1BB
100
AcDbEntity
  8
DIMNSIONS
  6
Continuous
 62
     7
100
AcDbLine
 10
-12.49999999999998
 20
173.125
 30
0.0
 11
-11.49494030727462
 21
169.3740661621094
 31
0.0
  0
LINE
  5
89
330
1BB
100
AcDbEntity
  8
DIMNSIONS
  6
Continuous
 62
     7
100
AcDbLine
 10
-12.49999999999998
 20
173.125
 30
0.0
 11
-13.50505969272535
 21
169.3740661621094
 31
0.0
  0
LINE
  5
8A
330
1BB
100
AcDbEntity
  8
DIMNSIONS
  6
Continuous
 62
     7
100
AcDbLine
 10
-12.49999999999998
 20
178.125
 30
0.0
 11
-12.49999999999998
 21
185.625
 31
0.0
  0
LINE
  5
8B
330
1BB
100
AcDbEntity
  8
DIMNSIONS
  6
Continuous
 62
     7
100
AcDbLine
 10
-12.49999999999998
 20
178.125
 30
0.0
 11
-13.50505969272535
 21
181.8759338378906
 31
0.0
  0
LINE
  5
8C
330
1BB
100
AcDbEntity
  8
DIMNSIONS
  6
Continuous
 62
     7
100
AcDbLine
 10
-12.49999999999998
 20
178.125
 30
0.0
 11
-11.49494030727462
 21
181.8759338378906
 31
0.0
  0
TEXT
  5
8D
330
1BB
100
AcDbEntity
  8
DIMNSIONS
 62
     7
100
AcDbText
 10
-13.99083333333332
 20
166.1041666666667
 30
0.0
 40
4.072102864583333
  1
5
 50
90.0
 41
0.7
 11
-18.06293619791665
 21
166.1041666666667
 31
0.0
100
AcDbText
 73
     3
  0
TEXT
  5
8E
330
1BB
100
AcDbEntity
  8
DATA
 62
     7
100
AcDbText
 10
-19.99999999999998
 20
-46.88386272654743
 30
0.0
 40
2.44326171875
  1
仕様および外観は予告なく変更されることがありますので、ご了承ください。
 41
0.7
 11
-19.99999999999998
 21
-44.44060100779743
 31
0.0
100
AcDbText
 73
     3
  0
TEXT
  5
8F
330
1BB
100
AcDbEntity
  8
DATA
 62
     7
100
AcDbText
 10
174.775
 20
-36.63422966148786
 30
0.0
 40
3.664892578124999
  1
WP-HDMI
 41
0.7
 11
174.775
 21
-32.96933708336286
 31
0.0
100
AcDbText
 73
     3
  0
TEXT
  5
90
330
1BB
100
AcDbEntity
  8
DATA
 62
     7
100
AcDbText
 10
174.8320650654141
 20
-24.72435440998117
 30
0.0
 40
3.664892578124999
  1
Gefen
 41
0.7
 11
174.8320650654141
 21
-21.05946183185617
 31
0.0
100
AcDbText
 73
     3
  0
TEXT
  5
91
330
1BB
100
AcDbEntity
  8
DATA
 62
     7
100
AcDbText
 10
171.85
 20
-30.25770451058388
 30
0.0
 40
2.44326171875
  1
HDMIウォールプレート
 41
0.7
 11
171.85
 21
-27.81444279183387
 31
0.0
100
AcDbText
 73
     3
  0
LINE
  5
92
330
1BB
100
AcDbEntity
  8
DATA
  6
Continuous
 62
     7
100
AcDbLine
 10
9.375
 20
34.25
 30
0.0
 11
9.375
 21
143.25
 31
0.0
  0
ARC
  5
93
330
1BB
100
AcDbEntity
  8
DATA
  6
Continuous
 62
     7
100
AcDbCircle
 10
12.375
 20
34.25
 30
0.0
 40
3.0
100
AcDbArc
 50
180.0
 51
270.0
  0
LINE
  5
94
330
1BB
100
AcDbEntity
  8
DATA
  6
Continuous
 62
     7
100
AcDbLine
 10
77.375
 20
31.25
 30
0.0
 11
12.375
 21
31.25
 31
0.0
  0
ARC
  5
95
330
1BB
100
AcDbEntity
  8
DATA
  6
Continuous
 62
     7
100
AcDbCircle
 10
77.375
 20
34.24999999999999
 30
0.0
 40
2.999999999999985
100
AcDbArc
 50
270.0
 51
0.0000000000002274
  0
LINE
  5
96
330
1BB
100
AcDbEntity
  8
DATA
  6
Continuous
 62
     7
100
AcDbLine
 10
80.37499999999999
 20
143.25
 30
0.0
 11
80.37499999999999
 21
34.25
 31
0.0
  0
ARC
  5
97
330
1BB
100
AcDbEntity
  8
DATA
  6
Continuous
 62
     7
100
AcDbCircle
 10
77.375
 20
143.25
 30
0.0
 40
3.0
100
AcDbArc
 50
0.0
 51
90.0
  0
LINE
  5
98
330
1BB
100
AcDbEntity
  8
DATA
  6
Continuous
 62
     7
100
AcDbLine
 10
12.375
 20
146.25
 30
0.0
 11
77.375
 21
146.25
 31
0.0
  0
ARC
  5
99
330
1BB
100
AcDbEntity
  8
DATA
  6
Continuous
 62
     7
100
AcDbCircle
 10
12.375
 20
143.25
 30
0.0
 40
3.0
100
AcDbArc
 50
90.0
 51
180.0
  0
CIRCLE
  5
9A
330
1BB
100
AcDbEntity
  8
DATA
  6
Continuous
 62
     7
100
AcDbCircle
 10
44.87499999999999
 20
130.5
 30
0.0
 40
2.600000000000001
  0
CIRCLE
  5
9B
330
1BB
100
AcDbEntity
  8
DATA
  6
Continuous
 62
     7
100
AcDbCircle
 10
44.87499999999999
 20
47.0
 30
0.0
 40
2.600000000000001
  0
CIRCLE
  5
9C
330
1BB
100
AcDbEntity
  8
DATA
  6
Continuous
 62
     7
100
AcDbCircle
 10
44.87499999999999
 20
130.5
 30
0.0
 40
5.0
  0
CIRCLE
  5
9D
330
1BB
100
AcDbEntity
  8
DATA
  6
Continuous
 62
     7
100
AcDbCircle
 10
44.87499999999999
 20
47.0
 30
0.0
 40
5.0
  0
LINE
  5
9E
330
1BB
100
AcDbEntity
  8
DATA
  6
Continuous
 62
     7
100
AcDbLine
 10
143.75
 20
34.25
 30
0.0
 11
143.75
 21
143.25
 31
0.0
  0
ARC
  5
9F
330
1BB
100
AcDbEntity
  8
DATA
  6
Continuous
 62
     7
100
AcDbCircle
 10
146.75
 20
34.25
 30
0.0
 40
2.999999999999985
100
AcDbArc
 50
180.0
 51
270.0000000000003
  0
LINE
  5
A0
330
1BB
100
AcDbEntity
  8
DATA
  6
Continuous
 62
     7
100
AcDbLine
 10
211.75
 20
31.25
 30
0.0
 11
146.75
 21
31.25
 31
0.0
  0
ARC
  5
A1
330
1BB
100
AcDbEntity
  8
DATA
  6
Continuous
 62
     7
100
AcDbCircle
 10
211.75
 20
34.25
 30
0.0
 40
3.0
100
AcDbArc
 50
270.0
 51
0.0
  0
LINE
  5
A2
330
1BB
100
AcDbEntity
  8
DATA
  6
Continuous
 62
     7
100
AcDbLine
 10
214.75
 20
143.25
 30
0.0
 11
214.75
 21
34.25
 31
0.0
  0
ARC
  5
A3
330
1BB
100
AcDbEntity
  8
DATA
  6
Continuous
 62
     7
100
AcDbCircle
 10
211.75
 20
143.25
 30
0.0
 40
3.0
100
AcDbArc
 50
0.0
 51
90.0
  0
LINE
  5
A4
330
1BB
100
AcDbEntity
  8
DATA
  6
Continuous
 62
     7
100
AcDbLine
 10
146.75
 20
146.25
 30
0.0
 11
211.75
 21
146.25
 31
0.0
  0
ARC
  5
A5
330
1BB
100
AcDbEntity
  8
DATA
  6
Continuous
 62
     7
100
AcDbCircle
 10
146.75
 20
143.25
 30
0.0
 40
3.0
100
AcDbArc
 50
90.0
 51
180.0
  0
CIRCLE
  5
A6
330
1BB
100
AcDbEntity
  8
DATA
  6
Continuous
 62
     7
100
AcDbCircle
 10
179.25
 20
130.5
 30
0.0
 40
2.600000000000008
  0
CIRCLE
  5
A7
330
1BB
100
AcDbEntity
  8
DATA
  6
Continuous
 62
     7
100
AcDbCircle
 10
179.25
 20
47.0
 30
0.0
 40
2.600000000000008
  0
CIRCLE
  5
A8
330
1BB
100
AcDbEntity
  8
DATA
  6
Continuous
 62
     7
100
AcDbCircle
 10
179.25
 20
130.5
 30
0.0
 40
5.0
  0
CIRCLE
  5
A9
330
1BB
100
AcDbEntity
  8
DATA
  6
Continuous
 62
     7
100
AcDbCircle
 10
179.25
 20
47.0
 30
0.0
 40
5.0
  0
LINE
  5
AA
330
1BB
100
AcDbEntity
  8
DATA
  6
Continuous
 62
     7
100
AcDbLine
 10
181.3862941517207
 20
72.24999999999993
 30
0.0
 11
181.3862941517207
 21
105.2499999999999
 31
0.0
  0
LINE
  5
AB
330
1BB
100
AcDbEntity
  8
DATA
  6
Continuous
 62
     7
100
AcDbLine
 10
128.125
 20
142.8
 30
0.0
 11
128.125
 21
34.6999999999999
 31
0.0
  0
LINE
  5
AC
330
1BB
100
AcDbEntity
  8
DATA
  6
Continuous
 62
     7
100
AcDbLine
 10
122.525
 20
146.25
 30
0.0
 11
122.525
 21
31.24999999999989
 31
0.0
  0
ARC
  5
AD
330
1BB
100
AcDbEntity
  8
DATA
  6
Continuous
 62
     7
100
AcDbCircle
 10
122.7578753095828
 20
140.3580729662793
 30
0.0
 40
5.896527374692809
100
AcDbArc
 50
24.46452065473169
 51
92.26340734801317
  0
ARC
  5
AE
330
1BB
100
AcDbEntity
  8
DATA
  6
Continuous
 62
     7
100
AcDbCircle
 10
122.7578753095828
 20
37.14192703372066
 30
0.0
 40
5.896527374692807
100
AcDbArc
 50
267.7365926519868
 51
335.5354793452683
  0
LWPOLYLINE
  5
AF
330
1BB
100
AcDbEntity
  8
DATA
  6
Continuous
 62
     7
100
AcDbPolyline
 90
        4
 70
     0
 43
0.0
 10
43.9729935472127
 20
80.93012700418043
 10
47.97299354721277
 20
80.93012700418043
 10
47.97299354721277
 20
96.93012700418055
 10
43.9729935472127
 20
96.93012700418055
  0
LINE
  5
B6
330
1BB
100
AcDbEntity
  8
DATA
  6
Continuous
 62
     7
100
AcDbLine
 10
41.97299354721276
 20
94.43012700418007
 30
0.0
 11
41.97299354721276
 21
83.43012700418077
 31
0.0
  0
ARC
  5
B7
330
1BB
100
AcDbEntity
  8
DATA
  6
Continuous
 62
     7
100
AcDbCircle
 10
39.8240139553762
 20
79.66094333071115
 30
0.0
 40
4.338762363909416
100
AcDbArc
 50
17.00900813209684
 51
60.31060837608423
  0
ARC
  5
B8
330
1BB
100
AcDbEntity
  8
DATA
  6
Continuous
 62
     7
100
AcDbCircle
 10
39.8240139553762
 20
98.19931067764988
 30
0.0
 40
4.338762363909638
100
AcDbArc
 50
299.6893916239147
 51
342.9909918679025
  0
CIRCLE
  5
B9
330
1BB
100
AcDbEntity
  8
DATA
  6
Continuous
 62
     7
100
AcDbCircle
 10
54.82894910858031
 20
88.9390736599973
 30
0.0
 40
1.175000000000068
  0
LWPOLYLINE
  5
BA
330
1BB
100
AcDbEntity
  8
DATA
  6
Continuous
 62
     7
100
AcDbPolyline
 90
        6
 70
     1
 43
0.0
 10
57.5289491085801
 20
88.9390736599973
 10
56.17894910858016
 20
91.27734225021523
 10
53.47894910858049
 20
91.27734225021523
 10
52.12894910858052
 20
88.9390736599973
 10
53.47894910858049
 20
86.60080506977928
 10
56.17894910858016
 20
86.60080506977928
  0
LWPOLYLINE
  5
C3
330
1BB
100
AcDbEntity
  8
DATA
  6
Continuous
 62
     7
100
AcDbPolyline
 90
        4
 70
     1
 43
0.0
 10
44.375
 20
94.25
 10
45.375
 20
94.25
 10
45.375
 20
83.25000000000001
 10
44.375
 20
83.25000000000001
  0
LINE
  5
CA
330
1BB
100
AcDbEntity
  8
DATA
  6
Continuous
 62
     7
100
AcDbLine
 10
133.125
 20
86.60080506977928
 30
0.0
 11
133.125
 21
91.27734225021523
 31
0.0
  0
LINE
  5
CB
330
1BB
100
AcDbEntity
  8
DATA
  6
Continuous
 62
     7
100
AcDbLine
 10
128.125
 20
91.27734225021523
 30
0.0
 11
133.125
 21
91.27734225021523
 31
0.0
  0
LINE
  5
CC
330
1BB
100
AcDbEntity
  8
DATA
  6
Continuous
 62
     7
100
AcDbLine
 10
128.125
 20
86.60080506977928
 30
0.0
 11
133.125
 21
86.60080506977928
 31
0.0
  0
LINE
  5
CD
330
1BB
100
AcDbEntity
  8
DATA
  6
Continuous
 62
     7
100
AcDbLine
 10
133.125
 20
88.75
 30
0.0
 11
128.125
 21
88.74999999999996
 31
0.0
  0
LINE
  5
CE
330
1BB
100
AcDbEntity
  8
DATA
  6
Continuous
 62
     7
100
AcDbLine
 10
101.525
 20
105.2499999999999
 30
0.0
 11
101.525
 21
96.43907365999728
 31
0.0
  0
LINE
  5
CF
330
1BB
100
AcDbEntity
  8
DATA
  6
Continuous
 62
     7
100
AcDbLine
 10
101.525
 20
81.43907365999726
 30
0.0
 11
101.525
 21
72.24999999999993
 31
0.0
  0
LINE
  5
D0
330
1BB
100
AcDbEntity
  8
DATA
  6
Continuous
 62
     7
100
AcDbLine
 10
122.525
 20
72.24999999999993
 30
0.0
 11
101.525
 21
72.24999999999993
 31
0.0
  0
LINE
  5
D1
330
1BB
100
AcDbEntity
  8
DATA
  6
Continuous
 62
     7
100
AcDbLine
 10
101.525
 20
105.2499999999999
 30
0.0
 11
122.525
 21
105.2499999999999
 31
0.0
  0
LINE
  5
D2
330
1BB
100
AcDbEntity
  8
DATA
  6
Continuous
 62
     7
100
AcDbLine
 10
92.125
 20
86.60080506977928
 30
0.0
 11
92.125
 21
91.27734225021523
 31
0.0
  0
LINE
  5
D3
330
1BB
100
AcDbEntity
  8
DATA
  6
Continuous
 62
     7
100
AcDbLine
 10
97.125
 20
81.43907365999726
 30
0.0
 11
97.125
 21
96.43907365999728
 31
0.0
  0
LINE
  5
D4
330
1BB
100
AcDbEntity
  8
DATA
  6
Continuous
 62
     7
100
AcDbLine
 10
97.125
 20
91.27734225021523
 30
0.0
 11
92.125
 21
91.27734225021523
 31
0.0
  0
LINE
  5
D5
330
1BB
100
AcDbEntity
  8
DATA
  6
Continuous
 62
     7
100
AcDbLine
 10
97.125
 20
86.60080506977928
 30
0.0
 11
92.125
 21
86.60080506977928
 31
0.0
  0
LINE
  5
D6
330
1BB
100
AcDbEntity
  8
DATA
  6
Continuous
 62
     7
100
AcDbLine
 10
109.125
 20
81.43907365999726
 30
0.0
 11
109.125
 21
96.43907365999728
 31
0.0
  0
LINE
  5
D7
330
1BB
100
AcDbEntity
  8
DATA
  6
Continuous
 62
     7
100
AcDbLine
 10
97.125
 20
96.43907365999728
 30
0.0
 11
109.125
 21
96.43907365999728
 31
0.0
  0
LINE
  5
D8
330
1BB
100
AcDbEntity
  8
DATA
  6
Continuous
 62
     7
100
AcDbLine
 10
97.125
 20
81.43907365999726
 30
0.0
 11
109.125
 21
81.43907365999726
 31
0.0
  0
LINE
  5
D9
330
1BB
100
AcDbEntity
  8
DATA
  6
Continuous
 62
     7
100
AcDbLine
 10
104.125
 20
87.24999999999999
 30
0.0
 11
104.125
 21
90.25
 31
0.0
  0
LINE
  5
DA
330
1BB
100
AcDbEntity
  8
DATA
  6
Continuous
 62
     7
100
AcDbLine
 10
104.125
 20
87.24999999999999
 30
0.0
 11
97.125
 21
87.24999999999999
 31
0.0
  0
LINE
  5
DB
330
1BB
100
AcDbEntity
  8
DATA
  6
Continuous
 62
     7
100
AcDbLine
 10
97.125
 20
90.25
 30
0.0
 11
104.125
 21
90.25
 31
0.0
  0
LINE
  5
DC
330
1BB
100
AcDbEntity
  8
DATA
  6
Continuous
 62
     7
100
AcDbLine
 10
113.325
 20
97.64999999999997
 30
0.0
 11
122.525
 21
97.64999999999997
 31
0.0
  0
LINE
  5
DD
330
1BB
100
AcDbEntity
  8
DATA
  6
Continuous
 62
     7
100
AcDbLine
 10
113.325
 20
79.84999999999994
 30
0.0
 11
122.525
 21
79.84999999999994
 31
0.0
  0
ARC
  5
DE
330
1BB
100
AcDbEntity
  8
DATA
  6
Continuous
 62
     7
100
AcDbCircle
 10
113.325
 20
101.4499999999999
 30
0.0
 40
3.800000000000003
100
AcDbArc
 50
90.00000000000003
 51
270.0
  0
ARC
  5
DF
330
1BB
100
AcDbEntity
  8
DATA
  6
Continuous
 62
     7
100
AcDbCircle
 10
113.325
 20
76.04999999999995
 30
0.0
 40
3.799999999999996
100
AcDbArc
 50
89.99999999999996
 51
270.0
  0
CIRCLE
  5
E0
330
1BB
100
AcDbEntity
  8
DATA
  6
Continuous
 62
     7
100
AcDbCircle
 10
113.325
 20
101.4499999999999
 30
0.0
 40
1.4
  0
CIRCLE
  5
E1
330
1BB
100
AcDbEntity
  8
DATA
  6
Continuous
 62
     7
100
AcDbCircle
 10
113.325
 20
76.04999999999995
 30
0.0
 40
1.4
  0
LINE
  5
E2
330
1BB
100
AcDbEntity
  8
DATA
  6
Continuous
 62
     7
100
AcDbLine
 10
116.3
 20
105.2499999999999
 30
0.0
 11
116.3
 21
97.64999999999997
 31
0.0
  0
LINE
  5
E3
330
1BB
100
AcDbEntity
  8
DATA
  6
Continuous
 62
     7
100
AcDbLine
 10
116.3
 20
79.84999999999994
 30
0.0
 11
116.3
 21
72.24999999999993
 31
0.0
  0
LINE
  5
E4
330
1BB
100
AcDbEntity
  8
DATA
  6
Continuous
 62
     7
100
AcDbLine
 10
181.3862941517207
 20
105.2499999999999
 30
0.0
 11
182.9862941517207
 21
105.2499999999999
 31
0.0
  0
LINE
  5
E5
330
1BB
100
AcDbEntity
  8
DATA
  6
Continuous
 62
     7
100
AcDbLine
 10
181.3862941517207
 20
72.24999999999993
 30
0.0
 11
182.9862941517207
 21
72.24999999999993
 31
0.0
  0
LINE
  5
E6
330
1BB
100
AcDbEntity
  8
DATA
  6
Continuous
 62
     7
100
AcDbLine
 10
182.9862941517207
 20
72.24999999999993
 30
0.0
 11
182.9862941517207
 21
105.2499999999999
 31
0.0
  0
LWPOLYLINE
  5
E7
330
1BB
100
AcDbEntity
  8
DATA
  6
Continuous
 62
     7
100
AcDbPolyline
 90
        4
 70
     0
 43
0.0
 10
185.9424997763122
 20
80.93012700418043
 10
189.9424997763123
 20
80.93012700418043
 10
189.9424997763123
 20
96.93012700418055
 10
185.9424997763122
 20
96.93012700418055
  0
LINE
  5
EE
330
1BB
100
AcDbEntity
  8
DATA
  6
Continuous
 62
     7
100
AcDbLine
 10
183.9424997763123
 20
94.43012700418007
 30
0.0
 11
183.9424997763123
 21
83.43012700418077
 31
0.0
  0
ARC
  5
EF
330
1BB
100
AcDbEntity
  8
DATA
  6
Continuous
 62
     7
100
AcDbCircle
 10
181.7935201844757
 20
79.66094333071115
 30
0.0
 40
4.338762363909416
100
AcDbArc
 50
17.00900813209684
 51
60.31060837608423
  0
ARC
  5
F0
330
1BB
100
AcDbEntity
  8
DATA
  6
Continuous
 62
     7
100
AcDbCircle
 10
181.7935201844757
 20
98.19931067764988
 30
0.0
 40
4.338762363909638
100
AcDbArc
 50
299.6893916239147
 51
342.9909918679025
  0
CIRCLE
  5
F1
330
1BB
100
AcDbEntity
  8
DATA
  6
Continuous
 62
     7
100
AcDbCircle
 10
196.7984553376798
 20
88.9390736599973
 30
0.0
 40
1.175000000000068
  0
LWPOLYLINE
  5
F2
330
1BB
100
AcDbEntity
  8
DATA
  6
Continuous
 62
     7
100
AcDbPolyline
 90
        6
 70
     1
 43
0.0
 10
199.4984553376795
 20
88.9390736599973
 10
198.1484553376797
 20
91.27734225021523
 10
195.44845533768
 20
91.27734225021523
 10
194.09845533768
 20
88.9390736599973
 10
195.44845533768
 20
86.60080506977928
 10
198.1484553376797
 20
86.60080506977928
  0
LWPOLYLINE
  5
FB
330
1BB
100
AcDbEntity
  8
DATA
  6
Continuous
 62
     7
100
AcDbPolyline
 90
        4
 70
     1
 43
0.0
 10
186.3445062290995
 20
94.25
 10
187.3445062290995
 20
94.25
 10
187.3445062290995
 20
83.25000000000001
 10
186.3445062290995
 20
83.25000000000001
  0
LINE
  5
102
330
1BB
100
AcDbEntity
  8
DATA
  6
Continuous
 62
     7
100
AcDbLine
 10
199.8391565104246
 20
91.86776332777149
 30
0.0
 11
199.8391565104246
 21
85.63223667222851
 31
0.0
  0
LINE
  5
103
330
1BB
100
AcDbEntity
  8
DATA
  6
Continuous
 62
     7
100
AcDbLine
 10
189.9424997763123
 20
91.86776332777149
 30
0.0
 11
199.8391565104246
 21
91.86776332777149
 31
0.0
  0
LINE
  5
104
330
1BB
100
AcDbEntity
  8
DATA
  6
Continuous
 62
     7
100
AcDbLine
 10
189.9424997763123
 20
85.63223667222851
 30
0.0
 11
199.8391565104246
 21
85.63223667222851
 31
0.0
  0
LINE
  5
105
330
1BB
100
AcDbEntity
  8
DATA
  6
Continuous
 62
     7
100
AcDbLine
 10
181.3862941517207
 20
81.25
 30
0.0
 11
175.3862941517207
 21
81.25
 31
0.0
  0
LINE
  5
106
330
1BB
100
AcDbEntity
  8
DATA
  6
Continuous
 62
     7
100
AcDbLine
 10
175.3862941517207
 20
96.25
 30
0.0
 11
181.3862941517207
 21
96.25
 31
0.0
  0
LINE
  5
107
330
1BB
100
AcDbEntity
  8
DATA
  6
Continuous
 62
     7
100
AcDbLine
 10
175.3862941517207
 20
81.25
 30
0.0
 11
175.3862941517207
 21
96.25
 31
0.0
  0
LINE
  5
108
330
1BB
100
AcDbEntity
  8
DATA
  6
Continuous
 62
     7
100
AcDbLine
 10
175.3862941517207
 20
84.95
 30
0.0
 11
165.3862941517207
 21
84.95
 31
0.0
  0
LINE
  5
109
330
1BB
100
AcDbEntity
  8
DATA
  6
Continuous
 62
     7
100
AcDbLine
 10
165.3862941517207
 20
92.55
 30
0.0
 11
175.3862941517207
 21
92.55
 31
0.0
  0
LINE
  5
10A
330
1BB
100
AcDbEntity
  8
DATA
  6
Continuous
 62
     7
100
AcDbLine
 10
165.3862941517207
 20
84.95
 30
0.0
 11
165.3862941517207
 21
92.55
 31
0.0
  0
ARC
  5
10B
330
1BB
100
AcDbEntity
  8
DATA
  6
Continuous
 62
     7
100
AcDbCircle
 10
74.4779506794887
 20
183.4862849142309
 30
0.0
 40
5.901878987298563
100
AcDbArc
 50
294.7144096425628
 51
2.318092089745675
  0
ARC
  5
10C
330
1BB
100
AcDbEntity
  8
DATA
  6
Continuous
 62
     7
100
AcDbCircle
 10
15.2720493205113
 20
183.4862849142309
 30
0.0
 40
5.901878987298565
100
AcDbArc
 50
177.6819079102543
 51
245.2855903574372
  0
LINE
  5
10D
330
1BB
100
AcDbEntity
  8
DATA
  6
Continuous
 62
     7
100
AcDbLine
 10
12.80450000000007
 20
178.125
 30
0.0
 11
76.94550000000003
 21
178.125
 31
0.0
  0
LINE
  5
10E
330
1BB
100
AcDbEntity
  8
DATA
  6
Continuous
 62
     7
100
AcDbLine
 10
9.375
 20
183.725
 30
0.0
 11
80.37499999999999
 21
183.725
 31
0.0
  0
LINE
  5
10F
330
1BB
100
AcDbEntity
  8
DATA
  6
Continuous
 62
     7
100
AcDbLine
 10
24.86976834962286
 20
214.125
 30
0.0
 11
29.86976834962286
 21
214.125
 31
0.0
  0
LINE
  5
110
330
1BB
100
AcDbEntity
  8
DATA
  6
Continuous
 62
     7
100
AcDbLine
 10
52.12894910858052
 20
173.125
 30
0.0
 11
52.12894910858052
 21
178.125
 31
0.0
  0
LINE
  5
111
330
1BB
100
AcDbEntity
  8
DATA
  6
Continuous
 62
     7
100
AcDbLine
 10
57.5289491085801
 20
173.125
 30
0.0
 11
57.5289491085801
 21
178.125
 31
0.0
  0
LINE
  5
112
330
1BB
100
AcDbEntity
  8
DATA
  6
Continuous
 62
     7
100
AcDbLine
 10
52.12894910858052
 20
173.125
 30
0.0
 11
57.5289491085801
 21
173.125
 31
0.0
  0
LINE
  5
113
330
1BB
100
AcDbEntity
  8
DATA
  6
Continuous
 62
     7
100
AcDbLine
 10
53.47894910858049
 20
173.125
 30
0.0
 11
53.47894910858049
 21
178.125
 31
0.0
  0
LINE
  5
114
330
1BB
100
AcDbEntity
  8
DATA
  6
Continuous
 62
     7
100
AcDbLine
 10
56.17894910858016
 20
173.125
 30
0.0
 11
56.17894910858016
 21
178.125
 31
0.0
  0
LINE
  5
115
330
1BB
100
AcDbEntity
  8
DATA
  6
Continuous
 62
     7
100
AcDbLine
 10
29.86976834962286
 20
214.125
 30
0.0
 11
29.86976834962286
 21
209.125
 31
0.0
  0
LINE
  5
116
330
1BB
100
AcDbEntity
  8
DATA
  6
Continuous
 62
     7
100
AcDbLine
 10
24.86976834962286
 20
214.125
 30
0.0
 11
24.86976834962286
 21
209.125
 31
0.0
  0
LINE
  5
117
330
1BB
100
AcDbEntity
  8
DATA
  6
Continuous
 62
     7
100
AcDbLine
 10
27.36976834962286
 20
214.125
 30
0.0
 11
27.36976834962286
 21
209.125
 31
0.0
  0
LINE
  5
118
330
1BB
100
AcDbEntity
  8
DATA
  6
Continuous
 62
     7
100
AcDbLine
 10
25.96976834962287
 20
201.125
 30
0.0
 11
28.76976834962285
 21
201.125
 31
0.0
  0
LINE
  5
119
330
1BB
100
AcDbEntity
  8
DATA
  6
Continuous
 62
     7
100
AcDbLine
 10
25.96976834962287
 20
201.125
 30
0.0
 11
25.96976834962287
 21
209.125
 31
0.0
  0
LINE
  5
11A
330
1BB
100
AcDbEntity
  8
DATA
  6
Continuous
 62
     7
100
AcDbLine
 10
28.76976834962285
 20
201.125
 30
0.0
 11
25.96976834962287
 21
201.125
 31
0.0
  0
LINE
  5
11B
330
1BB
100
AcDbEntity
  8
DATA
  6
Continuous
 62
     7
100
AcDbLine
 10
28.76976834962285
 20
209.125
 30
0.0
 11
28.76976834962285
 21
201.125
 31
0.0
  0
LINE
  5
11C
330
1BB
100
AcDbEntity
  8
DATA
  6
Continuous
 62
     7
100
AcDbLine
 10
47.97299354721277
 20
183.725
 30
0.0
 11
47.97299354721277
 21
191.125
 31
0.0
  0
LINE
  5
11D
330
1BB
100
AcDbEntity
  8
DATA
  6
Continuous
 62
     7
100
AcDbLine
 10
41.97299354721276
 20
183.725
 30
0.0
 11
41.97299354721276
 21
205.9610706891244
 31
0.0
  0
LINE
  5
11E
330
1BB
100
AcDbEntity
  8
DATA
  6
Continuous
 62
     7
100
AcDbLine
 10
41.97299354721276
 20
191.125
 30
0.0
 11
47.97299354721277
 21
191.125
 31
0.0
  0
LINE
  5
11F
330
1BB
100
AcDbEntity
  8
DATA
  6
Continuous
 62
     7
100
AcDbLine
 10
40.37299354721276
 20
183.725
 30
0.0
 11
40.37299354721276
 21
209.125
 31
0.0
  0
LINE
  5
120
330
1BB
100
AcDbEntity
  8
DATA
  6
Continuous
 62
     7
100
AcDbLine
 10
53.42894910858031
 20
185.125
 30
0.0
 11
56.22894910858031
 21
185.125
 31
0.0
  0
LINE
  5
121
330
1BB
100
AcDbEntity
  8
DATA
  6
Continuous
 62
     7
100
AcDbLine
 10
53.42894910858031
 20
183.725
 30
0.0
 11
53.42894910858031
 21
185.125
 31
0.0
  0
LINE
  5
122
330
1BB
100
AcDbEntity
  8
DATA
  6
Continuous
 62
     7
100
AcDbLine
 10
56.22894910858031
 20
185.125
 30
0.0
 11
56.22894910858031
 21
183.725
 31
0.0
  0
LINE
  5
123
330
1BB
100
AcDbEntity
  8
DATA
  6
Continuous
 62
     7
100
AcDbLine
 10
40.37299354721276
 20
205.9610706891244
 30
0.0
 11
41.97299354721276
 21
205.9610706891244
 31
0.0
  0
LINE
  5
124
330
1BB
100
AcDbEntity
  8
DATA
  6
Continuous
 62
     7
100
AcDbLine
 10
34.37299354721277
 20
208.625
 30
0.0
 11
34.37299354721277
 21
197.125
 31
0.0
  0
LINE
  5
125
330
1BB
100
AcDbEntity
  8
DATA
  6
Continuous
 62
     7
100
AcDbLine
 10
24.86976834962286
 20
209.125
 30
0.0
 11
40.37299354721276
 21
209.125
 31
0.0
  0
LINE
  5
126
330
1BB
100
AcDbEntity
  8
DATA
  6
Continuous
 62
     7
100
AcDbLine
 10
28.76976834962285
 20
208.625
 30
0.0
 11
40.37299354721276
 21
208.625
 31
0.0
  0
LINE
  5
127
330
1BB
100
AcDbEntity
  8
DATA
  6
Continuous
 62
     7
100
AcDbLine
 10
34.37299354721277
 20
197.125
 30
0.0
 11
40.37299354721276
 21
197.125
 31
0.0
  0
LINE
  5
128
330
1BB
100
AcDbEntity
  8
DATA
  6
Continuous
 62
     7
100
AcDbLine
 10
36.97299354721276
 20
191.9
 30
0.0
 11
36.97299354721276
 21
183.725
 31
0.0
  0
LINE
  5
129
330
1BB
100
AcDbEntity
  8
DATA
  6
Continuous
 62
     7
100
AcDbLine
 10
37.77299354721276
 20
192.6999999999999
 30
0.0
 11
38.57299354721276
 21
192.6999999999999
 31
0.0
  0
LINE
  5
12A
330
1BB
100
AcDbEntity
  8
DATA
  6
Continuous
 62
     7
100
AcDbLine
 10
37.97299354721276
 20
190.9
 30
0.0
 11
37.97299354721276
 21
183.725
 31
0.0
  0
LINE
  5
12B
330
1BB
100
AcDbEntity
  8
DATA
  6
Continuous
 62
     7
100
AcDbLine
 10
38.77299354721276
 20
191.6999999999999
 30
0.0
 11
39.57299354721276
 21
191.6999999999999
 31
0.0
  0
LINE
  5
12C
330
1BB
100
AcDbEntity
  8
DATA
  6
Continuous
 62
     7
100
AcDbLine
 10
40.37299354721276
 20
192.5
 30
0.0
 11
40.37299354721276
 21
196.72480034358
 31
0.0
  0
LINE
  5
12D
330
1BB
100
AcDbEntity
  8
DATA
  6
Continuous
 62
     7
100
AcDbLine
 10
39.37299354721276
 20
193.5
 30
0.0
 11
39.37299354721276
 21
196.5
 31
0.0
  0
LINE
  5
12E
330
1BB
100
AcDbEntity
  8
DATA
  6
Continuous
 62
     7
100
AcDbLine
 10
39.37299354721276
 20
196.5
 30
0.0
 11
40.37299354721276
 21
196.5
 31
0.0
  0
ARC
  5
12F
330
1BB
100
AcDbEntity
  8
DATA
  6
Continuous
 62
     7
100
AcDbCircle
 10
37.77299354721276
 20
191.9
 30
0.0
 40
0.7999999999999972
100
AcDbArc
 50
90.0
 51
180.0
  0
ARC
  5
130
330
1BB
100
AcDbEntity
  8
DATA
  6
Continuous
 62
     7
100
AcDbCircle
 10
38.77299354721276
 20
190.9
 30
0.0
 40
0.7999999999999972
100
AcDbArc
 50
90.0
 51
180.0
  0
ARC
  5
131
330
1BB
100
AcDbEntity
  8
DATA
  6
Continuous
 62
     7
100
AcDbCircle
 10
38.57299354721276
 20
193.5
 30
0.0
 40
0.7999999999999972
100
AcDbArc
 50
270.0
 51
0.0
  0
ARC
  5
132
330
1BB
100
AcDbEntity
  8
DATA
  6
Continuous
 62
     7
100
AcDbCircle
 10
39.57299354721276
 20
192.5
 30
0.0
 40
0.7999999999999972
100
AcDbArc
 50
270.0
 51
0.0
  0
LINE
  5
133
330
1BB
100
AcDbEntity
  8
DATA
  6
Continuous
 62
     7
100
AcDbLine
 10
36.1
 20
193.3008147457596
 30
0.0
 11
39.34780012597467
 21
193.3008147457596
 31
0.0
  0
LINE
  5
134
330
1BB
100
AcDbEntity
  8
DATA
  6
Continuous
 62
     7
100
AcDbLine
 10
36.1
 20
196.0008147457596
 30
0.0
 11
39.37299354721276
 21
196.0008147457596
 31
0.0
  0
LINE
  5
135
330
1BB
100
AcDbEntity
  8
DATA
  6
Continuous
 62
     7
100
AcDbLine
 10
36.1
 20
193.3008147457596
 30
0.0
 11
36.1
 21
196.05
 31
0.0
  0
LINE
  5
136
330
1BB
100
AcDbEntity
  8
DATA
  6
Continuous
 62
     7
100
AcDbLine
 10
43.16860094857411
 20
192.6754073728798
 30
0.0
 11
41.97299354721276
 21
192.6754073728798
 31
0.0
  0
LINE
  5
137
330
1BB
100
AcDbEntity
  8
DATA
  6
Continuous
 62
     7
100
AcDbLine
 10
44.36860094857411
 20
195.4754073728798
 30
0.0
 11
44.36860094857411
 21
193.8754073728798
 31
0.0
  0
LINE
  5
138
330
1BB
100
AcDbEntity
  8
DATA
  6
Continuous
 62
     7
100
AcDbLine
 10
41.97299354721276
 20
196.6754073728798
 30
0.0
 11
43.16860094857411
 21
196.6754073728798
 31
0.0
  0
ARC
  5
139
330
1BB
100
AcDbEntity
  8
DATA
  6
Continuous
 62
     7
100
AcDbCircle
 10
43.16860094857411
 20
195.4754073728798
 30
0.0
 40
1.200000000000002
100
AcDbArc
 50
0.0
 51
90.0
  0
ARC
  5
13A
330
1BB
100
AcDbEntity
  8
DATA
  6
Continuous
 62
     7
100
AcDbCircle
 10
43.16860094857411
 20
193.8754073728798
 30
0.0
 40
1.200000000000002
100
AcDbArc
 50
270.0
 51
0.0
  0
LINE
  5
13B
330
1BB
100
AcDbEntity
  8
DATA
  6
Continuous
 62
     7
100
AcDbLine
 10
149.75
 20
143.25
 30
0.0
 11
208.75
 21
143.25
 31
0.0
  0
LINE
  5
13C
330
1BB
100
AcDbEntity
  8
DATA
  6
Continuous
 62
     7
100
AcDbLine
 10
208.75
 20
34.25
 30
0.0
 11
149.75
 21
34.25
 31
0.0
  0
LINE
  5
13D
330
1BB
100
AcDbEntity
  8
DATA
  6
Continuous
 62
     7
100
AcDbLine
 10
146.75
 20
37.25
 30
0.0
 11
146.75
 21
140.25
 31
0.0
  0
LINE
  5
13E
330
1BB
100
AcDbEntity
  8
DATA
  6
Continuous
 62
     7
100
AcDbLine
 10
211.75
 20
140.25
 30
0.0
 11
211.75
 21
37.25
 31
0.0
  0
ARC
  5
13F
330
1BB
100
AcDbEntity
  8
DATA
  6
Continuous
 62
     7
100
AcDbCircle
 10
149.75
 20
140.25
 30
0.0
 40
3.0
100
AcDbArc
 50
90.0
 51
180.0
  0
ARC
  5
140
330
1BB
100
AcDbEntity
  8
DATA
  6
Continuous
 62
     7
100
AcDbCircle
 10
208.75
 20
140.25
 30
0.0
 40
3.0
100
AcDbArc
 50
0.0
 51
90.0
  0
ARC
  5
141
330
1BB
100
AcDbEntity
  8
DATA
  6
Continuous
 62
     7
100
AcDbCircle
 10
149.75
 20
37.25
 30
0.0
 40
3.0
100
AcDbArc
 50
180.0
 51
270.0
  0
ARC
  5
142
330
1BB
100
AcDbEntity
  8
DATA
  6
Continuous
 62
     7
100
AcDbCircle
 10
208.75
 20
37.25
 30
0.0
 40
3.0
100
AcDbArc
 50
270.0
 51
0.0
  0
CIRCLE
  5
143
330
1BB
100
AcDbEntity
  8
DATA
  6
Continuous
 62
     7
100
AcDbCircle
 10
168.0385600392241
 20
88.75
 30
0.0
 40
1.5
  0
ENDSEC
  0
SECTION
  2
OBJECTS
  0
DICTIONARY
  5
151
330
0
100
AcDbDictionary
281
     1
  3
ACAD_COLOR
350
1B2
  3
ACAD_GROUP
350
152
  3
ACAD_LAYOUT
350
1B1
  3
ACAD_MATERIAL
350
155
  3
ACAD_MLEADERSTYLE
350
1B5
  3
ACAD_MLINESTYLE
350
1AE
  3
ACAD_PLOTSETTINGS
350
1B0
  3
ACAD_PLOTSTYLENAME
350
153
  3
ACAD_SCALELIST
350
182
  3
ACAD_TABLESTYLE
350
1B3
  3
ACAD_VISUALSTYLE
350
16E
  3
ACDB_RECOMPOSE_DATA
350
1E8
  3
AcDbVariableDictionary
350
1DE
  3
DWGPROPS
350
1E9
  0
DICTIONARY
  5
1D4
330
1A4
100
AcDbDictionary
280
     1
281
     1
  3
ADSK_XREC_LAYER_RECONCILED
360
1D5
  0
DICTIONARY
  5
1D6
330
1BF
100
AcDbDictionary
280
     1
281
     1
  3
ADSK_XREC_LAYER_RECONCILED
360
1D7
  0
DICTIONARY
  5
1D8
330
1CB
100
AcDbDictionary
280
     1
281
     1
  3
ADSK_XREC_LAYER_RECONCILED
360
1D9
  0
DICTIONARY
  5
1DA
330
1CD
100
AcDbDictionary
280
     1
281
     1
  3
ADSK_XREC_LAYER_RECONCILED
360
1DB
  0
DICTIONARY
  5
1DC
330
1CE
100
AcDbDictionary
280
     1
281
     1
  3
ADSK_XREC_LAYER_RECONCILED
360
1DD
  0
DICTIONARY
  5
1B2
102
{ACAD_REACTORS
330
151
102
}
330
151
100
AcDbDictionary
281
     1
  0
DICTIONARY
  5
152
102
{ACAD_REACTORS
330
151
102
}
330
151
100
AcDbDictionary
281
     1
  0
DICTIONARY
  5
1B1
102
{ACAD_REACTORS
330
151
102
}
330
151
100
AcDbDictionary
281
     1
  3
Model
350
1BE
  3
レイアウト1
350
1BA
  0
DICTIONARY
  5
155
102
{ACAD_REACTORS
330
151
102
}
330
151
100
AcDbDictionary
281
     1
  3
ByBlock
350
15E
  3
ByLayer
350
156
  3
Global
350
166
  0
DICTIONARY
  5
1B5
102
{ACAD_REACTORS
330
151
102
}
330
151
100
AcDbDictionary
281
     1
  3
Standard
350
1B6
  0
DICTIONARY
  5
1AE
102
{ACAD_REACTORS
330
151
102
}
330
151
100
AcDbDictionary
281
     1
  3
Standard
350
1AF
  0
DICTIONARY
  5
1B0
102
{ACAD_REACTORS
330
151
102
}
330
151
100
AcDbDictionary
281
     1
  0
ACDBDICTIONARYWDFLT
  5
153
102
{ACAD_REACTORS
330
151
102
}
330
151
100
AcDbDictionary
281
     1
  3
Normal
350
154
100
AcDbDictionaryWithDefault
340
154
  0
DICTIONARY
  5
182
102
{ACAD_REACTORS
330
151
102
}
330
151
100
AcDbDictionary
281
     1
  3
A0
350
183
  3
A1
350
184
  3
A2
350
185
  3
A3
350
186
  3
A4
350
187
  3
A5
350
188
  3
A6
350
189
  3
A7
350
18A
  3
A8
350
18B
  3
A9
350
18C
  3
B0
350
18D
  3
B1
350
18E
  3
B2
350
18F
  3
B3
350
190
  3
B4
350
191
  3
B5
350
192
  3
B6
350
193
  3
B7
350
194
  3
B8
350
195
  3
B9
350
196
  3
C0
350
197
  3
C1
350
198
  3
C2
350
199
  3
C3
350
19A
  3
C4
350
19B
  3
C5
350
19C
  3
C6
350
19D
  3
C7
350
19E
  3
C8
350
19F
  3
C9
350
1A0
  3
D0
350
1A1
  3
D1
350
1A2
  3
D2
350
1A3
  0
DICTIONARY
  5
1B3
102
{ACAD_REACTORS
330
151
102
}
330
151
100
AcDbDictionary
281
     1
  3
Standard
350
1B4
  0
DICTIONARY
  5
16E
102
{ACAD_REACTORS
330
151
102
}
330
151
100
AcDbDictionary
281
     1
  3
2dWireframe
350
174
  3
3D Hidden
350
176
  3
3dWireframe
350
175
  3
Basic
350
173
  3
Brighten
350
17A
  3
ColorChange
350
17E
  3
Conceptual
350
177
  3
Dim
350
179
  3
EdgeColorOff
350
181
  3
Facepattern
350
17D
  3
Flat
350
16F
  3
FlatWithEdges
350
170
  3
Gouraud
350
171
  3
GouraudWithEdges
350
172
  3
JitterOff
350
17F
  3
Linepattern
350
17C
  3
OverhangOff
350
180
  3
Realistic
350
178
  3
Thicken
350
17B
  0
XRECORD
  5
1E8
102
{ACAD_REACTORS
330
151
102
}
330
151
100
AcDbXrecord
280
     1
 90
        1
330
1B4
  0
DICTIONARY
  5
1DE
102
{ACAD_REACTORS
330
151
102
}
330
151
100
AcDbDictionary
281
     1
  3
CANNOSCALE
350
1E1
  3
CMLEADERSTYLE
350
1E0
  3
CTABLESTYLE
350
1DF
  3
DIMASSOC
350
1E4
  3
INDEXCTL
350
1E3
  3
SORTENTS
350
1E2
  3
XCLIPFRAME
350
1E5
  0
XRECORD
  5
1E9
102
{ACAD_REACTORS
330
151
102
}
330
151
100
AcDbXrecord
280
     1
  1
DWGPROPS COOKIE
  2

  3

  4

  6

  7

  8
sasaki_n
  9

300
=
301
=
302
=
303
=
304
=
305
=
306
=
307
=
308
=
309
=
 40
0.0002531944444444
 41
2455281.429918982
 42
2455281.433152338
  1

 90
        0
  0
XRECORD
  5
1D5
102
{ACAD_REACTORS
330
1D4
102
}
330
1D4
100
AcDbXrecord
280
     1
290
     1
  0
XRECORD
  5
1D7
102
{ACAD_REACTORS
330
1D6
102
}
330
1D6
100
AcDbXrecord
280
     1
290
     1
  0
XRECORD
  5
1D9
102
{ACAD_REACTORS
330
1D8
102
}
330
1D8
100
AcDbXrecord
280
     1
290
     1
  0
XRECORD
  5
1DB
102
{ACAD_REACTORS
330
1DA
102
}
330
1DA
100
AcDbXrecord
280
     1
290
     1
  0
XRECORD
  5
1DD
102
{ACAD_REACTORS
330
1DC
102
}
330
1DC
100
AcDbXrecord
280
     1
290
     1
  0
LAYOUT
  5
1BE
102
{ACAD_XDICTIONARY
360
217
102
}
102
{ACAD_REACTORS
330
1B1
102
}
330
1B1
100
AcDbPlotSettings
  1

  2
DocuPrint 255-1
  4

  6

 40
0.0
 41
0.0
 42
0.0
 43
0.0
 44
0.0
 45
0.0
 46
0.0
 47
0.0
 48
0.0
 49
0.0
140
0.0
141
0.0
142
1.0
143
1.0
 70
  1712
 72
     0
 73
     0
 74
     0
  7

 75
     0
147
1.0
148
0.0
149
0.0
100
AcDbLayout
  1
Model
 70
     1
 71
     0
 10
0.0
 20
0.0
 11
12.0
 21
9.0
 12
0.0
 22
0.0
 32
0.0
 14
0.0
 24
0.0
 34
0.0
 15
0.0
 25
0.0
 35
0.0
146
0.0
 13
0.0
 23
0.0
 33
0.0
 16
1.0
 26
0.0
 36
0.0
 17
0.0
 27
1.0
 37
0.0
 76
     0
330
1BB
331
1C0
  0
LAYOUT
  5
1BA
102
{ACAD_XDICTIONARY
360
215
102
}
102
{ACAD_REACTORS
330
1B1
102
}
330
1B1
100
AcDbPlotSettings
  1

  2
DocuPrint 255-1
  4

  6

 40
0.0
 41
0.0
 42
0.0
 43
0.0
 44
0.0
 45
0.0
 46
0.0
 47
0.0
 48
0.0
 49
0.0
140
0.0
141
0.0
142
1.0
143
1.0
 70
   688
 72
     0
 73
     0
 74
     5
  7

 75
    16
147
1.0
148
0.0
149
0.0
100
AcDbLayout
  1
レイアウト1
 70
     0
 71
     1
 10
0.0
 20
0.0
 11
12.0
 21
9.0
 12
0.0
 22
0.0
 32
0.0
 14
1.000000000000000E+20
 24
1.000000000000000E+20
 34
1.000000000000000E+20
 15
-1.000000000000000E+20
 25
-1.000000000000000E+20
 35
-1.000000000000000E+20
146
0.0
 13
0.0
 23
0.0
 33
0.0
 16
1.0
 26
0.0
 36
0.0
 17
0.0
 27
1.0
 37
0.0
 76
     0
330
1B7
  0
MATERIAL
  5
15E
102
{ACAD_XDICTIONARY
360
15F
102
}
102
{ACAD_REACTORS
330
155
102
}
330
155
100
AcDbMaterial
  1
ByBlock
 72
     0
 43
0.0208333333333333
 43
0.0
 43
0.0
 43
0.0
 43
0.0
 43
0.0208333333333333
 43
0.0
 43
0.0
 43
0.0
 43
0.0
 43
1.0
 43
0.0
 43
0.0
 43
0.0
 43
0.0
 43
1.0
 77
     0
 47
0.0208333333333333
 47
0.0
 47
0.0
 47
0.0
 47
0.0
 47
0.0208333333333333
 47
0.0
 47
0.0
 47
0.0
 47
0.0
 47
1.0
 47
0.0
 47
0.0
 47
0.0
 47
0.0
 47
1.0
171
     0
 49
0.0208333333333333
 49
0.0
 49
0.0
 49
0.0
 49
0.0
 49
0.0208333333333333
 49
0.0
 49
0.0
 49
0.0
 49
0.0
 49
1.0
 49
0.0
 49
0.0
 49
0.0
 49
0.0
 49
1.0
175
     0
142
0.0208333333333333
142
0.0
142
0.0
142
0.0
142
0.0
142
0.0208333333333333
142
0.0
142
0.0
142
0.0
142
0.0
142
1.0
142
0.0
142
0.0
142
0.0
142
0.0
142
1.0
179
     0
144
0.0208333333333333
144
0.0
144
0.0
144
0.0
144
0.0
144
0.0208333333333333
144
0.0
144
0.0
144
0.0
144
0.0
144
1.0
144
0.0
144
0.0
144
0.0
144
0.0
144
1.0
147
0.0208333333333333
147
0.0
147
0.0
147
0.0
147
0.0
147
0.0208333333333333
147
0.0
147
0.0
147
0.0
147
0.0
147
1.0
147
0.0
147
0.0
147
0.0
147
0.0
147
1.0
  0
MATERIAL
  5
156
102
{ACAD_XDICTIONARY
360
157
102
}
102
{ACAD_REACTORS
330
155
102
}
330
155
100
AcDbMaterial
  1
ByLayer
 72
     0
 43
0.0208333333333333
 43
0.0
 43
0.0
 43
0.0
 43
0.0
 43
0.0208333333333333
 43
0.0
 43
0.0
 43
0.0
 43
0.0
 43
1.0
 43
0.0
 43
0.0
 43
0.0
 43
0.0
 43
1.0
 77
     0
 47
0.0208333333333333
 47
0.0
 47
0.0
 47
0.0
 47
0.0
 47
0.0208333333333333
 47
0.0
 47
0.0
 47
0.0
 47
0.0
 47
1.0
 47
0.0
 47
0.0
 47
0.0
 47
0.0
 47
1.0
171
     0
 49
0.0208333333333333
 49
0.0
 49
0.0
 49
0.0
 49
0.0
 49
0.0208333333333333
 49
0.0
 49
0.0
 49
0.0
 49
0.0
 49
1.0
 49
0.0
 49
0.0
 49
0.0
 49
0.0
 49
1.0
175
     0
142
0.0208333333333333
142
0.0
142
0.0
142
0.0
142
0.0
142
0.0208333333333333
142
0.0
142
0.0
142
0.0
142
0.0
142
1.0
142
0.0
142
0.0
142
0.0
142
0.0
142
1.0
179
     0
144
0.0208333333333333
144
0.0
144
0.0
144
0.0
144
0.0
144
0.0208333333333333
144
0.0
144
0.0
144
0.0
144
0.0
144
1.0
144
0.0
144
0.0
144
0.0
144
0.0
144
1.0
147
0.0208333333333333
147
0.0
147
0.0
147
0.0
147
0.0
147
0.0208333333333333
147
0.0
147
0.0
147
0.0
147
0.0
147
1.0
147
0.0
147
0.0
147
0.0
147
0.0
147
1.0
  0
MATERIAL
  5
166
102
{ACAD_XDICTIONARY
360
167
102
}
102
{ACAD_REACTORS
330
155
102
}
330
155
100
AcDbMaterial
  1
Global
 72
     0
 43
0.0208333333333333
 43
0.0
 43
0.0
 43
0.0
 43
0.0
 43
0.0208333333333333
 43
0.0
 43
0.0
 43
0.0
 43
0.0
 43
1.0
 43
0.0
 43
0.0
 43
0.0
 43
0.0
 43
1.0
 77
     0
 47
0.0208333333333333
 47
0.0
 47
0.0
 47
0.0
 47
0.0
 47
0.0208333333333333
 47
0.0
 47
0.0
 47
0.0
 47
0.0
 47
1.0
 47
0.0
 47
0.0
 47
0.0
 47
0.0
 47
1.0
171
     0
 49
0.0208333333333333
 49
0.0
 49
0.0
 49
0.0
 49
0.0
 49
0.0208333333333333
 49
0.0
 49
0.0
 49
0.0
 49
0.0
 49
1.0
 49
0.0
 49
0.0
 49
0.0
 49
0.0
 49
1.0
175
     0
142
0.0208333333333333
142
0.0
142
0.0
142
0.0
142
0.0
142
0.0208333333333333
142
0.0
142
0.0
142
0.0
142
0.0
142
1.0
142
0.0
142
0.0
142
0.0
142
0.0
142
1.0
179
     0
144
0.0208333333333333
144
0.0
144
0.0
144
0.0
144
0.0
144
0.0208333333333333
144
0.0
144
0.0
144
0.0
144
0.0
144
1.0
144
0.0
144
0.0
144
0.0
144
0.0
144
1.0
147
0.0208333333333333
147
0.0
147
0.0
147
0.0
147
0.0
147
0.0208333333333333
147
0.0
147
0.0
147
0.0
147
0.0
147
1.0
147
0.0
147
0.0
147
0.0
147
0.0
147
1.0
  0
MLEADERSTYLE
  5
1B6
102
{ACAD_REACTORS
330
1B5
102
}
330
1B5
100
AcDbMLeaderStyle
170
     2
171
     1
172
     0
 90
        2
 40
0.0
 41
0.0
173
     1
 91
-1056964608
340
1AA
 92
       -2
290
     1
 42
0.09
291
     1
 43
0.36
  3
Standard
 44
0.18
300

342
1A5
174
     1
178
     6
175
     1
176
     0
 93
-1056964608
 45
0.18
292
     0
297
     0
 46
0.18
 94
-1056964608
 47
1.0
 49
1.0
140
1.0
293
     1
141
0.0
294
     1
177
     0
142
1.0
295
     0
296
     0
143
0.125
1001
ACAD_MLEADERVER
1070
     2
  0
MLINESTYLE
  5
1AF
102
{ACAD_REACTORS
330
1AE
102
}
330
1AE
100
AcDbMlineStyle
  2
STANDARD
 70
     0
  3

 62
   256
 51
90.0
 52
90.0
 71
     2
 49
0.5
 62
   256
  6
BYLAYER
 49
-0.5
 62
   256
  6
BYLAYER
  0
ACDBPLACEHOLDER
  5
154
102
{ACAD_REACTORS
330
153
102
}
330
153
  0
SCALE
  5
183
102
{ACAD_REACTORS
330
182
102
}
330
182
100
AcDbScale
 70
     0
300
1:1
140
1.0
141
1.0
290
     1
  0
SCALE
  5
184
102
{ACAD_REACTORS
330
182
102
}
330
182
100
AcDbScale
 70
     0
300
1:2
140
1.0
141
2.0
290
     0
  0
SCALE
  5
185
102
{ACAD_REACTORS
330
182
102
}
330
182
100
AcDbScale
 70
     0
300
1:4
140
1.0
141
4.0
290
     0
  0
SCALE
  5
186
102
{ACAD_REACTORS
330
182
102
}
330
182
100
AcDbScale
 70
     0
300
1:5
140
1.0
141
5.0
290
     0
  0
SCALE
  5
187
102
{ACAD_REACTORS
330
182
102
}
330
182
100
AcDbScale
 70
     0
300
1:8
140
1.0
141
8.0
290
     0
  0
SCALE
  5
188
102
{ACAD_REACTORS
330
182
102
}
330
182
100
AcDbScale
 70
     0
300
1:10
140
1.0
141
10.0
290
     0
  0
SCALE
  5
189
102
{ACAD_REACTORS
330
182
102
}
330
182
100
AcDbScale
 70
     0
300
1:16
140
1.0
141
16.0
290
     0
  0
SCALE
  5
18A
102
{ACAD_REACTORS
330
182
102
}
330
182
100
AcDbScale
 70
     0
300
1:20
140
1.0
141
20.0
290
     0
  0
SCALE
  5
18B
102
{ACAD_REACTORS
330
182
102
}
330
182
100
AcDbScale
 70
     0
300
1:30
140
1.0
141
30.0
290
     0
  0
SCALE
  5
18C
102
{ACAD_REACTORS
330
182
102
}
330
182
100
AcDbScale
 70
     0
300
1:40
140
1.0
141
40.0
290
     0
  0
SCALE
  5
18D
102
{ACAD_REACTORS
330
182
102
}
330
182
100
AcDbScale
 70
     0
300
1:50
140
1.0
141
50.0
290
     0
  0
SCALE
  5
18E
102
{ACAD_REACTORS
330
182
102
}
330
182
100
AcDbScale
 70
     0
300
1:100
140
1.0
141
100.0
290
     0
  0
SCALE
  5
18F
102
{ACAD_REACTORS
330
182
102
}
330
182
100
AcDbScale
 70
     0
300
2:1
140
2.0
141
1.0
290
     0
  0
SCALE
  5
190
102
{ACAD_REACTORS
330
182
102
}
330
182
100
AcDbScale
 70
     0
300
4:1
140
4.0
141
1.0
290
     0
  0
SCALE
  5
191
102
{ACAD_REACTORS
330
182
102
}
330
182
100
AcDbScale
 70
     0
300
8:1
140
8.0
141
1.0
290
     0
  0
SCALE
  5
192
102
{ACAD_REACTORS
330
182
102
}
330
182
100
AcDbScale
 70
     0
300
10:1
140
10.0
141
1.0
290
     0
  0
SCALE
  5
193
102
{ACAD_REACTORS
330
182
102
}
330
182
100
AcDbScale
 70
     0
300
100:1
140
100.0
141
1.0
290
     0
  0
SCALE
  5
194
102
{ACAD_REACTORS
330
182
102
}
330
182
100
AcDbScale
 70
     0
300
1/128" = 1'-0"
140
0.0078125
141
12.0
290
     0
  0
SCALE
  5
195
102
{ACAD_REACTORS
330
182
102
}
330
182
100
AcDbScale
 70
     0
300
1/64" = 1'-0"
140
0.015625
141
12.0
290
     0
  0
SCALE
  5
196
102
{ACAD_REACTORS
330
182
102
}
330
182
100
AcDbScale
 70
     0
300
1/32" = 1'-0"
140
0.03125
141
12.0
290
     0
  0
SCALE
  5
197
102
{ACAD_REACTORS
330
182
102
}
330
182
100
AcDbScale
 70
     0
300
1/16" = 1'-0"
140
0.0625
141
12.0
290
     0
  0
SCALE
  5
198
102
{ACAD_REACTORS
330
182
102
}
330
182
100
AcDbScale
 70
     0
300
3/32" = 1'-0"
140
0.09375
141
12.0
290
     0
  0
SCALE
  5
199
102
{ACAD_REACTORS
330
182
102
}
330
182
100
AcDbScale
 70
     0
300
1/8" = 1'-0"
140
0.125
141
12.0
290
     0
  0
SCALE
  5
19A
102
{ACAD_REACTORS
330
182
102
}
330
182
100
AcDbScale
 70
     0
300
3/16" = 1'-0"
140
0.1875
141
12.0
290
     0
  0
SCALE
  5
19B
102
{ACAD_REACTORS
330
182
102
}
330
182
100
AcDbScale
 70
     0
300
1/4" = 1'-0"
140
0.25
141
12.0
290
     0
  0
SCALE
  5
19C
102
{ACAD_REACTORS
330
182
102
}
330
182
100
AcDbScale
 70
     0
300
3/8" = 1'-0"
140
0.375
141
12.0
290
     0
  0
SCALE
  5
19D
102
{ACAD_REACTORS
330
182
102
}
330
182
100
AcDbScale
 70
     0
300
1/2" = 1'-0"
140
0.5
141
12.0
290
     0
  0
SCALE
  5
19E
102
{ACAD_REACTORS
330
182
102
}
330
182
100
AcDbScale
 70
     0
300
3/4" = 1'-0"
140
0.75
141
12.0
290
     0
  0
SCALE
  5
19F
102
{ACAD_REACTORS
330
182
102
}
330
182
100
AcDbScale
 70
     0
300
1" = 1'-0"
140
1.0
141
12.0
290
     0
  0
SCALE
  5
1A0
102
{ACAD_REACTORS
330
182
102
}
330
182
100
AcDbScale
 70
     0
300
1-1/2" = 1'-0"
140
1.5
141
12.0
290
     0
  0
SCALE
  5
1A1
102
{ACAD_REACTORS
330
182
102
}
330
182
100
AcDbScale
 70
     0
300
3" = 1'-0"
140
3.0
141
12.0
290
     0
  0
SCALE
  5
1A2
102
{ACAD_REACTORS
330
182
102
}
330
182
100
AcDbScale
 70
     0
300
6" = 1'-0"
140
6.0
141
12.0
290
     0
  0
SCALE
  5
1A3
102
{ACAD_REACTORS
330
182
102
}
330
182
100
AcDbScale
 70
     0
300
1'-0" = 1'-0"
140
12.0
141
12.0
290
     0
  0
TABLESTYLE
  5
1B4
102
{ACAD_XDICTIONARY
360
1E6
102
}
102
{ACAD_REACTORS
330
1B3
102
}
330
1B3
100
AcDbTableStyle
  3
Standard
 70
     0
 71
     0
 40
0.06
 41
0.06
280
     0
281
     0
  7
STANDARD
140
0.18
170
     2
 62
     0
 63
     7
283
     0
274
    -2
284
     1
 64
     0
275
    -2
285
     1
 65
     0
276
    -2
286
     1
 66
     0
277
    -2
287
     1
 67
     0
278
    -2
288
     1
 68
     0
279
    -2
289
     1
 69
     0
  7
STANDARD
140
0.25
170
     5
 62
     0
 63
     7
283
     0
274
    -2
284
     1
 64
     0
275
    -2
285
     1
 65
     0
276
    -2
286
     1
 66
     0
277
    -2
287
     1
 67
     0
278
    -2
288
     1
 68
     0
279
    -2
289
     1
 69
     0
  7
STANDARD
140
0.18
170
     5
 62
     0
 63
     7
283
     0
274
    -2
284
     1
 64
     0
275
    -2
285
     1
 65
     0
276
    -2
286
     1
 66
     0
277
    -2
287
     1
 67
     0
278
    -2
288
     1
 68
     0
279
    -2
289
     1
 69
     0
  0
VISUALSTYLE
  5
174
102
{ACAD_XDICTIONARY
360
1F7
102
}
102
{ACAD_REACTORS
330
16E
102
}
330
16E
100
AcDbVisualStyle
  2
2dWireframe
 70
     4
 71
     0
 72
     2
 73
     0
 90
        0
 40
-0.6
 41
-30.0
 62
     5
 63
     7
 74
     1
 91
        4
 64
     7
 65
   257
 75
     1
175
     1
 42
1.0
 92
        0
 66
   257
 43
1.0
 76
     1
 77
     6
 78
     2
 67
     7
 79
     5
170
     0
171
     0
290
     0
174
     0
 93
        1
 44
0.0
173
     0
291
     0
 45
0.0
1001
ACAD
1000
AcDbSavedByObjectVersion
1070
     0
  0
VISUALSTYLE
  5
176
102
{ACAD_XDICTIONARY
360
1FB
102
}
102
{ACAD_REACTORS
330
16E
102
}
330
16E
100
AcDbVisualStyle
  2
3D Hidden
 70
     6
 71
     1
 72
     2
 73
     2
 90
        0
 40
-0.6
 41
-30.0
 62
     5
 63
     7
 74
     2
 91
        2
 64
     7
 65
   257
 75
     2
175
     1
 42
179.0
 92
        0
 66
   257
 43
1.0
 76
     1
 77
     6
 78
     2
 67
     7
 79
     3
170
     0
171
     0
290
     0
174
     0
 93
        1
 44
0.0
173
     0
291
     0
 45
0.0
1001
ACAD
1000
AcDbSavedByObjectVersion
1070
     0
  0
VISUALSTYLE
  5
175
102
{ACAD_XDICTIONARY
360
1F9
102
}
102
{ACAD_REACTORS
330
16E
102
}
330
16E
100
AcDbVisualStyle
  2
3dWireframe
 70
     5
 71
     0
 72
     2
 73
     0
 90
        0
 40
-0.6
 41
-30.0
 62
     5
 63
     7
 74
     1
 91
        4
 64
     7
 65
   257
 75
     1
175
     1
 42
1.0
 92
        0
 66
   257
 43
1.0
 76
     1
 77
     6
 78
     2
 67
     7
 79
     5
170
     0
171
     0
290
     0
174
     0
 93
        1
 44
0.0
173
     0
291
     0
 45
0.0
1001
ACAD
1000
AcDbSavedByObjectVersion
1070
     0
  0
VISUALSTYLE
  5
173
102
{ACAD_XDICTIONARY
360
1F5
102
}
102
{ACAD_REACTORS
330
16E
102
}
330
16E
100
AcDbVisualStyle
  2
Basic
 70
     7
 71
     1
 72
     0
 73
     1
 90
        0
 40
-0.6
 41
-30.0
 62
     5
 63
     7
 74
     0
 91
        4
 64
     7
 65
   257
 75
     1
175
     1
 42
1.0
 92
        8
 66
     7
 43
1.0
 76
     1
 77
     6
 78
     2
 67
     7
 79
     5
170
     0
171
     0
290
     0
174
     0
 93
        1
 44
0.0
173
     0
291
     1
 45
0.0
1001
ACAD
1000
AcDbSavedByObjectVersion
1070
     0
  0
VISUALSTYLE
  5
17A
102
{ACAD_XDICTIONARY
360
203
102
}
102
{ACAD_REACTORS
330
16E
102
}
330
16E
100
AcDbVisualStyle
  2
Brighten
 70
    12
 71
     2
 72
     2
 73
     0
 90
        0
 40
-0.6
 41
-30.0
 62
     5
 63
     7
 74
     1
 91
        4
 64
     7
 65
   257
 75
     1
175
     1
 42
1.0
 92
        8
 66
     7
 43
1.0
 76
     1
 77
     6
 78
     2
 67
     7
 79
     5
170
     0
171
     0
290
     0
174
     0
 93
        1
 44
50.0
173
     0
291
     1
 45
0.0
1001
ACAD
1000
AcDbSavedByObjectVersion
1070
     0
  0
VISUALSTYLE
  5
17E
102
{ACAD_XDICTIONARY
360
20B
102
}
102
{ACAD_REACTORS
330
16E
102
}
330
16E
100
AcDbVisualStyle
  2
ColorChange
 70
    16
 71
     2
 72
     2
 73
     3
 90
        0
 40
-0.6
 41
-30.0
 62
     5
 63
     8
 74
     1
 91
        4
 64
     7
 65
   257
 75
     1
175
     1
 42
1.0
 92
        8
 66
     8
 43
1.0
 76
     1
 77
     6
 78
     2
 67
     7
 79
     5
170
     0
171
     0
290
     0
174
     0
 93
        1
 44
0.0
173
     0
291
     1
 45
0.0
1001
ACAD
1000
AcDbSavedByObjectVersion
1070
     0
  0
VISUALSTYLE
  5
177
102
{ACAD_XDICTIONARY
360
1FD
102
}
102
{ACAD_REACTORS
330
16E
102
}
330
16E
100
AcDbVisualStyle
  2
Conceptual
 70
     9
 71
     3
 72
     2
 73
     0
 90
        0
 40
-0.6
 41
-30.0
 62
     5
 63
     7
 74
     2
 91
        2
 64
     7
 65
   257
 75
     1
175
     1
 42
179.0
 92
        8
 66
     7
 43
1.0
 76
     1
 77
     6
 78
     2
 67
     7
 79
     3
170
     0
171
     0
290
     0
174
     0
 93
        1
 44
0.0
173
     0
291
     0
 45
0.0
1001
ACAD
1000
AcDbSavedByObjectVersion
1070
     0
  0
VISUALSTYLE
  5
179
102
{ACAD_XDICTIONARY
360
201
102
}
102
{ACAD_REACTORS
330
16E
102
}
330
16E
100
AcDbVisualStyle
  2
Dim
 70
    11
 71
     2
 72
     2
 73
     0
 90
        0
 40
-0.6
 41
-30.0
 62
     5
 63
     7
 74
     1
 91
        4
 64
     7
 65
   257
 75
     1
175
     1
 42
1.0
 92
        8
 66
     7
 43
1.0
 76
     1
 77
     6
 78
     2
 67
     7
 79
     5
170
     0
171
     0
290
     0
174
     0
 93
        1
 44
-50.0
173
     0
291
     1
 45
0.0
1001
ACAD
1000
AcDbSavedByObjectVersion
1070
     0
  0
VISUALSTYLE
  5
181
102
{ACAD_XDICTIONARY
360
211
102
}
102
{ACAD_REACTORS
330
16E
102
}
330
16E
100
AcDbVisualStyle
  2
EdgeColorOff
 70
    22
 71
     2
 72
     2
 73
     0
 90
        0
 40
-0.6
 41
-30.0
 62
     5
 63
     7
 74
     1
 91
        4
 64
     7
 65
   257
 75
     1
175
     1
 42
1.0
 92
        8
 66
     7
 43
1.0
 76
     1
 77
     6
 78
     2
 67
     7
 79
     5
170
     0
171
     0
290
     0
174
     0
 93
        1
 44
0.0
173
     0
291
     1
 45
0.0
1001
ACAD
1000
AcDbSavedByObjectVersion
1070
     0
  0
VISUALSTYLE
  5
17D
102
{ACAD_XDICTIONARY
360
209
102
}
102
{ACAD_REACTORS
330
16E
102
}
330
16E
100
AcDbVisualStyle
  2
Facepattern
 70
    15
 71
     2
 72
     2
 73
     0
 90
        0
 40
-0.6
 41
-30.0
 62
     5
 63
     7
 74
     1
 91
        4
 64
     7
 65
   257
 75
     1
175
     1
 42
1.0
 92
        8
 66
     7
 43
1.0
 76
     1
 77
     6
 78
     2
 67
     7
 79
     5
170
     0
171
     0
290
     0
174
     0
 93
        1
 44
0.0
173
     0
291
     1
 45
0.0
1001
ACAD
1000
AcDbSavedByObjectVersion
1070
     0
  0
VISUALSTYLE
  5
16F
102
{ACAD_XDICTIONARY
360
1ED
102
}
102
{ACAD_REACTORS
330
16E
102
}
330
16E
100
AcDbVisualStyle
  2
Flat
 70
     0
 71
     2
 72
     1
 73
     1
 90
        2
 40
-0.6
 41
30.0
 62
     5
 63
     7
 74
     0
 91
        4
 64
     7
 65
   257
 75
     1
175
     1
 42
1.0
 92
        8
 66
     7
 43
1.0
 76
     1
 77
     6
 78
     2
 67
     7
 79
     5
170
     0
171
     0
290
     0
174
     0
 93
       13
 44
0.0
173
     0
291
     1
 45
0.0
1001
ACAD
1000
AcDbSavedByObjectVersion
1070
     0
  0
VISUALSTYLE
  5
170
102
{ACAD_XDICTIONARY
360
1EF
102
}
102
{ACAD_REACTORS
330
16E
102
}
330
16E
100
AcDbVisualStyle
  2
FlatWithEdges
 70
     1
 71
     2
 72
     1
 73
     1
 90
        2
 40
-0.6
 41
30.0
 62
     5
 63
     7
 74
     1
 91
        4
 64
     7
 65
   257
 75
     1
175
     1
 42
1.0
 92
        0
 66
   257
 43
1.0
 76
     1
 77
     6
 78
     2
 67
     7
 79
     5
170
     0
171
     0
290
     0
174
     0
 93
       13
 44
0.0
173
     0
291
     1
 45
0.0
1001
ACAD
1000
AcDbSavedByObjectVersion
1070
     0
  0
VISUALSTYLE
  5
171
102
{ACAD_XDICTIONARY
360
1F1
102
}
102
{ACAD_REACTORS
330
16E
102
}
330
16E
100
AcDbVisualStyle
  2
Gouraud
 70
     2
 71
     2
 72
     2
 73
     1
 90
        2
 40
-0.6
 41
30.0
 62
     5
 63
     7
 74
     0
 91
        4
 64
     7
 65
   257
 75
     1
175
     1
 42
1.0
 92
        0
 66
     7
 43
1.0
 76
     1
 77
     6
 78
     2
 67
     7
 79
     5
170
     0
171
     0
290
     0
174
     0
 93
       13
 44
0.0
173
     0
291
     1
 45
0.0
1001
ACAD
1000
AcDbSavedByObjectVersion
1070
     0
  0
VISUALSTYLE
  5
172
102
{ACAD_XDICTIONARY
360
1F3
102
}
102
{ACAD_REACTORS
330
16E
102
}
330
16E
100
AcDbVisualStyle
  2
GouraudWithEdges
 70
     3
 71
     2
 72
     2
 73
     1
 90
        2
 40
-0.6
 41
30.0
 62
     5
 63
     7
 74
     1
 91
        4
 64
     7
 65
   257
 75
     1
175
     1
 42
1.0
 92
        0
 66
   257
 43
1.0
 76
     1
 77
     6
 78
     2
 67
     7
 79
     5
170
     0
171
     0
290
     0
174
     0
 93
       13
 44
0.0
173
     0
291
     1
 45
0.0
1001
ACAD
1000
AcDbSavedByObjectVersion
1070
     0
  0
VISUALSTYLE
  5
17F
102
{ACAD_XDICTIONARY
360
20D
102
}
102
{ACAD_REACTORS
330
16E
102
}
330
16E
100
AcDbVisualStyle
  2
JitterOff
 70
    20
 71
     2
 72
     2
 73
     0
 90
        0
 40
-0.6
 41
-30.0
 62
     5
 63
     7
 74
     1
 91
        4
 64
     7
 65
   257
 75
     1
175
     1
 42
1.0
 92
       10
 66
     7
 43
1.0
 76
     1
 77
     6
 78
     2
 67
     7
 79
     5
170
     0
171
     0
290
     0
174
     0
 93
        1
 44
0.0
173
     0
291
     1
 45
0.0
1001
ACAD
1000
AcDbSavedByObjectVersion
1070
     0
  0
VISUALSTYLE
  5
17C
102
{ACAD_XDICTIONARY
360
207
102
}
102
{ACAD_REACTORS
330
16E
102
}
330
16E
100
AcDbVisualStyle
  2
Linepattern
 70
    14
 71
     2
 72
     2
 73
     0
 90
        0
 40
-0.6
 41
-30.0
 62
     5
 63
     7
 74
     1
 91
        4
 64
     7
 65
   257
 75
     7
175
     7
 42
1.0
 92
        8
 66
     7
 43
1.0
 76
     1
 77
     6
 78
     2
 67
     7
 79
     5
170
     0
171
     0
290
     0
174
     0
 93
        1
 44
0.0
173
     0
291
     1
 45
0.0
1001
ACAD
1000
AcDbSavedByObjectVersion
1070
     0
  0
VISUALSTYLE
  5
180
102
{ACAD_XDICTIONARY
360
20F
102
}
102
{ACAD_REACTORS
330
16E
102
}
330
16E
100
AcDbVisualStyle
  2
OverhangOff
 70
    21
 71
     2
 72
     2
 73
     0
 90
        0
 40
-0.6
 41
-30.0
 62
     5
 63
     7
 74
     1
 91
        4
 64
     7
 65
   257
 75
     1
175
     1
 42
1.0
 92
        9
 66
     7
 43
1.0
 76
     1
 77
     6
 78
     2
 67
     7
 79
     5
170
     0
171
     0
290
     0
174
     0
 93
        1
 44
0.0
173
     0
291
     1
 45
0.0
1001
ACAD
1000
AcDbSavedByObjectVersion
1070
     0
  0
VISUALSTYLE
  5
178
102
{ACAD_XDICTIONARY
360
1FF
102
}
102
{ACAD_REACTORS
330
16E
102
}
330
16E
100
AcDbVisualStyle
  2
Realistic
 70
     8
 71
     2
 72
     2
 73
     0
 90
        0
 40
-0.6
 41
-30.0
 62
     5
 63
     7
 74
     1
 91
        0
 64
     7
 65
   257
 75
     1
175
     1
 42
1.0
 92
        8
 66
     8
 43
1.0
 76
     1
 77
     6
 78
     2
 67
     7
 79
     5
170
     0
171
     0
290
     0
174
     0
 93
       13
 44
0.0
173
     0
291
     0
 45
0.0
1001
ACAD
1000
AcDbSavedByObjectVersion
1070
     0
  0
VISUALSTYLE
  5
17B
102
{ACAD_XDICTIONARY
360
205
102
}
102
{ACAD_REACTORS
330
16E
102
}
330
16E
100
AcDbVisualStyle
  2
Thicken
 70
    13
 71
     2
 72
     2
 73
     0
 90
        0
 40
-0.6
 41
-30.0
 62
     5
 63
     7
 74
     1
 91
        4
 64
     7
 65
   257
 75
     1
175
     1
 42
1.0
 92
       12
 66
     7
 43
1.0
 76
     1
 77
     6
 78
     2
 67
     7
 79
     5
170
     0
171
     0
290
     0
174
     0
 93
        1
 44
0.0
173
     0
291
     1
 45
0.0
1001
ACAD
1000
AcDbSavedByObjectVersion
1070
     0
  0
DICTIONARYVAR
  5
1E1
102
{ACAD_REACTORS
330
1DE
102
}
330
1DE
100
DictionaryVariables
280
     0
  1
1:1
  0
DICTIONARYVAR
  5
1E0
102
{ACAD_REACTORS
330
1DE
102
}
330
1DE
100
DictionaryVariables
280
     0
  1
STANDARD
  0
DICTIONARYVAR
  5
1DF
102
{ACAD_REACTORS
330
1DE
102
}
330
1DE
100
DictionaryVariables
280
     0
  1
STANDARD
  0
DICTIONARYVAR
  5
1E4
102
{ACAD_REACTORS
330
1DE
102
}
330
1DE
100
DictionaryVariables
280
     0
  1
1
  0
DICTIONARYVAR
  5
1E3
102
{ACAD_REACTORS
330
1DE
102
}
330
1DE
100
DictionaryVariables
280
     0
  1
0
  0
DICTIONARYVAR
  5
1E2
102
{ACAD_REACTORS
330
1DE
102
}
330
1DE
100
DictionaryVariables
280
     0
  1
127
  0
DICTIONARYVAR
  5
1E5
102
{ACAD_REACTORS
330
1DE
102
}
330
1DE
100
DictionaryVariables
280
     0
  1
2
  0
DICTIONARY
  5
217
330
1BE
100
AcDbDictionary
280
     1
281
     1
  3
ACAD_XREC_ROUNDTRIP
360
218
  0
DICTIONARY
  5
215
330
1BA
100
AcDbDictionary
280
     1
281
     1
  3
ACAD_XREC_ROUNDTRIP
360
216
  0
DICTIONARY
  5
15F
330
15E
100
AcDbDictionary
280
     1
281
     1
  3
ACAD_XREC_ROUNDTRIP
360
1EB
  3
BUMPTILE
360
161
  3
DIFFUSETILE
360
160
  3
OPACITYTILE
360
164
  3
REFLECTIONTILE
360
163
  3
REFRACTIONTILE
360
165
  3
SPECULARTILE
360
162
  0
DICTIONARY
  5
157
330
156
100
AcDbDictionary
280
     1
281
     1
  3
ACAD_XREC_ROUNDTRIP
360
1EA
  3
BUMPTILE
360
159
  3
DIFFUSETILE
360
158
  3
OPACITYTILE
360
15C
  3
REFLECTIONTILE
360
15B
  3
REFRACTIONTILE
360
15D
  3
SPECULARTILE
360
15A
  0
DICTIONARY
  5
167
330
166
100
AcDbDictionary
280
     1
281
     1
  3
ACAD_XREC_ROUNDTRIP
360
1EC
  3
BUMPTILE
360
169
  3
DIFFUSETILE
360
168
  3
OPACITYTILE
360
16C
  3
REFLECTIONTILE
360
16B
  3
REFRACTIONTILE
360
16D
  3
SPECULARTILE
360
16A
  0
DICTIONARY
  5
1E6
330
1B4
100
AcDbDictionary
280
     1
281
     1
  3
ACAD_ROUNDTRIP_2008_TABLESTYLE_CELLSTYLEMAP
360
1E7
  3
ACAD_XREC_ROUNDTRIP
360
213
  0
DICTIONARY
  5
1F7
330
174
100
AcDbDictionary
280
     1
281
     1
  3
ACAD_XREC_ROUNDTRIP
360
1F8
  0
DICTIONARY
  5
1FB
330
176
100
AcDbDictionary
280
     1
281
     1
  3
ACAD_XREC_ROUNDTRIP
360
1FC
  0
DICTIONARY
  5
1F9
330
175
100
AcDbDictionary
280
     1
281
     1
  3
ACAD_XREC_ROUNDTRIP
360
1FA
  0
DICTIONARY
  5
1F5
330
173
100
AcDbDictionary
280
     1
281
     1
  3
ACAD_XREC_ROUNDTRIP
360
1F6
  0
DICTIONARY
  5
203
330
17A
100
AcDbDictionary
280
     1
281
     1
  3
ACAD_XREC_ROUNDTRIP
360
204
  0
DICTIONARY
  5
20B
330
17E
100
AcDbDictionary
280
     1
281
     1
  3
ACAD_XREC_ROUNDTRIP
360
20C
  0
DICTIONARY
  5
1FD
330
177
100
AcDbDictionary
280
     1
281
     1
  3
ACAD_XREC_ROUNDTRIP
360
1FE
  0
DICTIONARY
  5
201
330
179
100
AcDbDictionary
280
     1
281
     1
  3
ACAD_XREC_ROUNDTRIP
360
202
  0
DICTIONARY
  5
211
330
181
100
AcDbDictionary
280
     1
281
     1
  3
ACAD_XREC_ROUNDTRIP
360
212
  0
DICTIONARY
  5
209
330
17D
100
AcDbDictionary
280
     1
281
     1
  3
ACAD_XREC_ROUNDTRIP
360
20A
  0
DICTIONARY
  5
1ED
330
16F
100
AcDbDictionary
280
     1
281
     1
  3
ACAD_XREC_ROUNDTRIP
360
1EE
  0
DICTIONARY
  5
1EF
330
170
100
AcDbDictionary
280
     1
281
     1
  3
ACAD_XREC_ROUNDTRIP
360
1F0
  0
DICTIONARY
  5
1F1
330
171
100
AcDbDictionary
280
     1
281
     1
  3
ACAD_XREC_ROUNDTRIP
360
1F2
  0
DICTIONARY
  5
1F3
330
172
100
AcDbDictionary
280
     1
281
     1
  3
ACAD_XREC_ROUNDTRIP
360
1F4
  0
DICTIONARY
  5
20D
330
17F
100
AcDbDictionary
280
     1
281
     1
  3
ACAD_XREC_ROUNDTRIP
360
20E
  0
DICTIONARY
  5
207
330
17C
100
AcDbDictionary
280
     1
281
     1
  3
ACAD_XREC_ROUNDTRIP
360
208
  0
DICTIONARY
  5
20F
330
180
100
AcDbDictionary
280
     1
281
     1
  3
ACAD_XREC_ROUNDTRIP
360
210
  0
DICTIONARY
  5
1FF
330
178
100
AcDbDictionary
280
     1
281
     1
  3
ACAD_XREC_ROUNDTRIP
360
200
  0
DICTIONARY
  5
205
330
17B
100
AcDbDictionary
280
     1
281
     1
  3
ACAD_XREC_ROUNDTRIP
360
206
  0
XRECORD
  5
218
102
{ACAD_REACTORS
330
217
102
}
330
217
100
AcDbXrecord
280
     1
102
SHADEPLOT
 70
     0
102
SHADEPLOTRESLEVEL
 70
     2
102
SHADEPLOTCUSTOMDPI
 70
   300
  0
XRECORD
  5
216
102
{ACAD_REACTORS
330
215
102
}
330
215
100
AcDbXrecord
280
     1
102
SHADEPLOT
 70
     0
102
SHADEPLOTRESLEVEL
 70
     2
102
SHADEPLOTCUSTOMDPI
 70
   300
  0
XRECORD
  5
1EB
102
{ACAD_REACTORS
330
15F
102
}
330
15F
100
AcDbXrecord
280
     1
102
MATERIAL
148
0.0
149
0.0
149
0.0
 93
        0
 94
      127
282
     0
 72
     0
 77
     0
171
     0
175
     0
179
     0
273
     0
  0
XRECORD
  5
161
102
{ACAD_REACTORS
330
15F
102
}
330
15F
100
AcDbXrecord
280
     1
270
     1
271
     1
  0
XRECORD
  5
160
102
{ACAD_REACTORS
330
15F
102
}
330
15F
100
AcDbXrecord
280
     1
270
     1
271
     1
  0
XRECORD
  5
164
102
{ACAD_REACTORS
330
15F
102
}
330
15F
100
AcDbXrecord
280
     1
270
     1
271
     1
  0
XRECORD
  5
163
102
{ACAD_REACTORS
330
15F
102
}
330
15F
100
AcDbXrecord
280
     1
270
     1
271
     1
  0
XRECORD
  5
165
102
{ACAD_REACTORS
330
15F
102
}
330
15F
100
AcDbXrecord
280
     1
270
     1
271
     1
  0
XRECORD
  5
162
102
{ACAD_REACTORS
330
15F
102
}
330
15F
100
AcDbXrecord
280
     1
270
     1
271
     1
  0
XRECORD
  5
1EA
102
{ACAD_REACTORS
330
157
102
}
330
157
100
AcDbXrecord
280
     1
102
MATERIAL
148
0.0
149
0.0
149
0.0
 93
        0
 94
      127
282
     0
 72
     0
 77
     0
171
     0
175
     0
179
     0
273
     0
  0
XRECORD
  5
159
102
{ACAD_REACTORS
330
157
102
}
330
157
100
AcDbXrecord
280
     1
270
     1
271
     1
  0
XRECORD
  5
158
102
{ACAD_REACTORS
330
157
102
}
330
157
100
AcDbXrecord
280
     1
270
     1
271
     1
  0
XRECORD
  5
15C
102
{ACAD_REACTORS
330
157
102
}
330
157
100
AcDbXrecord
280
     1
270
     1
271
     1
  0
XRECORD
  5
15B
102
{ACAD_REACTORS
330
157
102
}
330
157
100
AcDbXrecord
280
     1
270
     1
271
     1
  0
XRECORD
  5
15D
102
{ACAD_REACTORS
330
157
102
}
330
157
100
AcDbXrecord
280
     1
270
     1
271
     1
  0
XRECORD
  5
15A
102
{ACAD_REACTORS
330
157
102
}
330
157
100
AcDbXrecord
280
     1
270
     1
271
     1
  0
XRECORD
  5
1EC
102
{ACAD_REACTORS
330
167
102
}
330
167
100
AcDbXrecord
280
     1
102
MATERIAL
148
0.0
149
0.0
149
0.0
 93
        0
 94
      127
282
     0
 72
     0
 77
     0
171
     0
175
     0
179
     0
273
     0
  0
XRECORD
  5
169
102
{ACAD_REACTORS
330
167
102
}
330
167
100
AcDbXrecord
280
     1
270
     1
271
     1
  0
XRECORD
  5
168
102
{ACAD_REACTORS
330
167
102
}
330
167
100
AcDbXrecord
280
     1
270
     1
271
     1
  0
XRECORD
  5
16C
102
{ACAD_REACTORS
330
167
102
}
330
167
100
AcDbXrecord
280
     1
270
     1
271
     1
  0
XRECORD
  5
16B
102
{ACAD_REACTORS
330
167
102
}
330
167
100
AcDbXrecord
280
     1
270
     1
271
     1
  0
XRECORD
  5
16D
102
{ACAD_REACTORS
330
167
102
}
330
167
100
AcDbXrecord
280
     1
270
     1
271
     1
  0
XRECORD
  5
16A
102
{ACAD_REACTORS
330
167
102
}
330
167
100
AcDbXrecord
280
     1
270
     1
271
     1
  0
CELLSTYLEMAP
  5
1E7
102
{ACAD_REACTORS
330
1E6
102
}
330
1E6
100
AcDbCellStyleMap
 90
        3
300
CELLSTYLE
  1
TABLEFORMAT_BEGIN
 90
        5
170
     1
 91
        0
 92
    32768
 62
   257
 93
        1
300
CONTENTFORMAT
  1
CONTENTFORMAT_BEGIN
 90
        0
 91
        0
 92
      512
 93
        0
300

 40
0.0
140
1.0
 94
        5
 62
     0
340
1A5
144
0.25
309
CONTENTFORMAT_END
171
     0
 94
        0
309
TABLEFORMAT_END
  1
CELLSTYLE_BEGIN
 90
        1
 91
        1
300
_TITLE
309
CELLSTYLE_END
300
CELLSTYLE
  1
TABLEFORMAT_BEGIN
 90
        5
170
     1
 91
        0
 92
        0
 62
   257
 93
        1
300
CONTENTFORMAT
  1
CONTENTFORMAT_BEGIN
 90
        0
 91
        0
 92
      512
 93
        0
300

 40
0.0
140
1.0
 94
        5
 62
     0
340
1A5
144
0.18
309
CONTENTFORMAT_END
171
     0
 94
        0
309
TABLEFORMAT_END
  1
CELLSTYLE_BEGIN
 90
        2
 91
        1
300
_HEADER
309
CELLSTYLE_END
300
CELLSTYLE
  1
TABLEFORMAT_BEGIN
 90
        5
170
     1
 91
        0
 92
        0
 62
   257
 93
        1
300
CONTENTFORMAT
  1
CONTENTFORMAT_BEGIN
 90
        0
 91
        0
 92
      512
 93
        0
300

 40
0.0
140
1.0
 94
        2
 62
     0
340
1A5
144
0.18
309
CONTENTFORMAT_END
171
     0
 94
        0
309
TABLEFORMAT_END
  1
CELLSTYLE_BEGIN
 90
        3
 91
        2
300
_DATA
309
CELLSTYLE_END
  0
XRECORD
  5
213
102
{ACAD_REACTORS
330
1E6
102
}
330
1E6
100
AcDbXrecord
280
     1
102
ACAD_ROUNDTRIP_PRE2007_TABLESTYLE
 90
      512
 91
        0
  1

 92
      512
 93
        0
  2

 94
      512
 95
        0
  3

  0
XRECORD
  5
1F8
102
{ACAD_REACTORS
330
1F7
102
}
330
1F7
100
AcDbXrecord
280
     1
102
RTVSPropertyOp0
 70
     1
102
RTVSPropertyOp1
 70
     1
102
RTVSPropertyOp2
 70
     1
102
RTVSPropertyOp3
 70
     1
102
RTVSPropertyOp4
 70
     1
102
RTVSPropertyOp5
 70
     1
102
RTVSPropertyOp6
 70
     1
102
RTVSPropertyOp7
 70
     1
102
RTVSPropertyOp8
 70
     1
102
RTVSPropertyOp9
 70
     1
102
RTVSPropertyOp10
 70
     1
102
RTVSPropertyOp11
 70
     1
102
RTVSPropertyOp12
 70
     1
102
RTVSPropertyOp13
 70
     1
102
RTVSPropertyOp14
 70
     1
102
RTVSPropertyOp15
 70
     1
102
RTVSPropertyOp16
 70
     1
102
RTVSPropertyOp17
 70
     1
102
RTVSPropertyOp18
 70
     1
102
RTVSPropertyOp19
 70
     1
102
RTVSPropertyOp20
 70
     1
102
RTVSPropertyOp21
 70
     1
102
RTVSPropertyOp22
 70
     1
102
RTVSPropertyOp23
 70
     1
102
RTVSPropertyOp24
 70
     1
102
RTVSPropertyOp25
 70
     1
102
RTVSPropertyOp26
 70
     1
102
RTVSPropertyOp27
 70
     1
  0
XRECORD
  5
1FC
102
{ACAD_REACTORS
330
1FB
102
}
330
1FB
100
AcDbXrecord
280
     1
102
RTVSPropertyOp0
 70
     1
102
RTVSPropertyOp1
 70
     1
102
RTVSPropertyOp2
 70
     1
102
RTVSPropertyOp3
 70
     1
102
RTVSPropertyOp4
 70
     1
102
RTVSPropertyOp5
 70
     1
102
RTVSPropertyOp6
 70
     1
102
RTVSPropertyOp7
 70
     1
102
RTVSPropertyOp8
 70
     1
102
RTVSPropertyOp9
 70
     1
102
RTVSPropertyOp10
 70
     1
102
RTVSPropertyOp11
 70
     1
102
RTVSPropertyOp12
 70
     1
102
RTVSPropertyOp13
 70
     1
102
RTVSPropertyOp14
 70
     1
102
RTVSPropertyOp15
 70
     1
102
RTVSPropertyOp16
 70
     1
102
RTVSPropertyOp17
 70
     1
102
RTVSPropertyOp18
 70
     1
102
RTVSPropertyOp19
 70
     1
102
RTVSPropertyOp20
 70
     1
102
RTVSPropertyOp21
 70
     1
102
RTVSPropertyOp22
 70
     1
102
RTVSPropertyOp23
 70
     1
102
RTVSPropertyOp24
 70
     1
102
RTVSPropertyOp25
 70
     1
102
RTVSPropertyOp26
 70
     1
102
RTVSPropertyOp27
 70
     1
  0
XRECORD
  5
1FA
102
{ACAD_REACTORS
330
1F9
102
}
330
1F9
100
AcDbXrecord
280
     1
102
RTVSPropertyOp0
 70
     1
102
RTVSPropertyOp1
 70
     1
102
RTVSPropertyOp2
 70
     1
102
RTVSPropertyOp3
 70
     1
102
RTVSPropertyOp4
 70
     1
102
RTVSPropertyOp5
 70
     1
102
RTVSPropertyOp6
 70
     1
102
RTVSPropertyOp7
 70
     1
102
RTVSPropertyOp8
 70
     1
102
RTVSPropertyOp9
 70
     1
102
RTVSPropertyOp10
 70
     1
102
RTVSPropertyOp11
 70
     1
102
RTVSPropertyOp12
 70
     1
102
RTVSPropertyOp13
 70
     1
102
RTVSPropertyOp14
 70
     1
102
RTVSPropertyOp15
 70
     1
102
RTVSPropertyOp16
 70
     1
102
RTVSPropertyOp17
 70
     1
102
RTVSPropertyOp18
 70
     1
102
RTVSPropertyOp19
 70
     1
102
RTVSPropertyOp20
 70
     1
102
RTVSPropertyOp21
 70
     1
102
RTVSPropertyOp22
 70
     1
102
RTVSPropertyOp23
 70
     1
102
RTVSPropertyOp24
 70
     1
102
RTVSPropertyOp25
 70
     1
102
RTVSPropertyOp26
 70
     1
102
RTVSPropertyOp27
 70
     1
  0
XRECORD
  5
1F6
102
{ACAD_REACTORS
330
1F5
102
}
330
1F5
100
AcDbXrecord
280
     1
102
RTVSPropertyOp0
 70
     1
102
RTVSPropertyOp1
 70
     1
102
RTVSPropertyOp2
 70
     1
102
RTVSPropertyOp3
 70
     1
102
RTVSPropertyOp4
 70
     1
102
RTVSPropertyOp5
 70
     1
102
RTVSPropertyOp6
 70
     1
102
RTVSPropertyOp7
 70
     1
102
RTVSPropertyOp8
 70
     1
102
RTVSPropertyOp9
 70
     1
102
RTVSPropertyOp10
 70
     1
102
RTVSPropertyOp11
 70
     1
102
RTVSPropertyOp12
 70
     1
102
RTVSPropertyOp13
 70
     1
102
RTVSPropertyOp14
 70
     1
102
RTVSPropertyOp15
 70
     1
102
RTVSPropertyOp16
 70
     1
102
RTVSPropertyOp17
 70
     1
102
RTVSPropertyOp18
 70
     1
102
RTVSPropertyOp19
 70
     1
102
RTVSPropertyOp20
 70
     1
102
RTVSPropertyOp21
 70
     1
102
RTVSPropertyOp22
 70
     1
102
RTVSPropertyOp23
 70
     1
102
RTVSPropertyOp24
 70
     1
102
RTVSPropertyOp25
 70
     1
102
RTVSPropertyOp26
 70
     1
102
RTVSPropertyOp27
 70
     1
  0
XRECORD
  5
204
102
{ACAD_REACTORS
330
203
102
}
330
203
100
AcDbXrecord
280
     1
102
RTVSPropertyOp0
 70
     1
102
RTVSPropertyOp1
 70
     1
102
RTVSPropertyOp2
 70
     1
102
RTVSPropertyOp3
 70
     1
102
RTVSPropertyOp4
 70
     1
102
RTVSPropertyOp5
 70
     1
102
RTVSPropertyOp6
 70
     1
102
RTVSPropertyOp7
 70
     1
102
RTVSPropertyOp8
 70
     1
102
RTVSPropertyOp9
 70
     1
102
RTVSPropertyOp10
 70
     1
102
RTVSPropertyOp11
 70
     1
102
RTVSPropertyOp12
 70
     1
102
RTVSPropertyOp13
 70
     1
102
RTVSPropertyOp14
 70
     1
102
RTVSPropertyOp15
 70
     1
102
RTVSPropertyOp16
 70
     1
102
RTVSPropertyOp17
 70
     1
102
RTVSPropertyOp18
 70
     1
102
RTVSPropertyOp19
 70
     1
102
RTVSPropertyOp20
 70
     1
102
RTVSPropertyOp21
 70
     1
102
RTVSPropertyOp22
 70
     1
102
RTVSPropertyOp23
 70
     1
102
RTVSPropertyOp24
 70
     1
102
RTVSPropertyOp25
 70
     1
102
RTVSPropertyOp26
 70
     1
102
RTVSPropertyOp27
 70
     1
  0
XRECORD
  5
20C
102
{ACAD_REACTORS
330
20B
102
}
330
20B
100
AcDbXrecord
280
     1
102
RTVSPropertyOp0
 70
     1
102
RTVSPropertyOp1
 70
     1
102
RTVSPropertyOp2
 70
     1
102
RTVSPropertyOp3
 70
     1
102
RTVSPropertyOp4
 70
     1
102
RTVSPropertyOp5
 70
     1
102
RTVSPropertyOp6
 70
     1
102
RTVSPropertyOp7
 70
     1
102
RTVSPropertyOp8
 70
     1
102
RTVSPropertyOp9
 70
     1
102
RTVSPropertyOp10
 70
     1
102
RTVSPropertyOp11
 70
     1
102
RTVSPropertyOp12
 70
     1
102
RTVSPropertyOp13
 70
     1
102
RTVSPropertyOp14
 70
     1
102
RTVSPropertyOp15
 70
     1
102
RTVSPropertyOp16
 70
     1
102
RTVSPropertyOp17
 70
     1
102
RTVSPropertyOp18
 70
     1
102
RTVSPropertyOp19
 70
     1
102
RTVSPropertyOp20
 70
     1
102
RTVSPropertyOp21
 70
     1
102
RTVSPropertyOp22
 70
     1
102
RTVSPropertyOp23
 70
     1
102
RTVSPropertyOp24
 70
     1
102
RTVSPropertyOp25
 70
     1
102
RTVSPropertyOp26
 70
     1
102
RTVSPropertyOp27
 70
     1
  0
XRECORD
  5
1FE
102
{ACAD_REACTORS
330
1FD
102
}
330
1FD
100
AcDbXrecord
280
     1
102
RTVSPropertyOp0
 70
     1
102
RTVSPropertyOp1
 70
     1
102
RTVSPropertyOp2
 70
     1
102
RTVSPropertyOp3
 70
     1
102
RTVSPropertyOp4
 70
     1
102
RTVSPropertyOp5
 70
     1
102
RTVSPropertyOp6
 70
     1
102
RTVSPropertyOp7
 70
     1
102
RTVSPropertyOp8
 70
     1
102
RTVSPropertyOp9
 70
     1
102
RTVSPropertyOp10
 70
     1
102
RTVSPropertyOp11
 70
     1
102
RTVSPropertyOp12
 70
     1
102
RTVSPropertyOp13
 70
     1
102
RTVSPropertyOp14
 70
     1
102
RTVSPropertyOp15
 70
     1
102
RTVSPropertyOp16
 70
     1
102
RTVSPropertyOp17
 70
     1
102
RTVSPropertyOp18
 70
     1
102
RTVSPropertyOp19
 70
     1
102
RTVSPropertyOp20
 70
     1
102
RTVSPropertyOp21
 70
     1
102
RTVSPropertyOp22
 70
     1
102
RTVSPropertyOp23
 70
     1
102
RTVSPropertyOp24
 70
     1
102
RTVSPropertyOp25
 70
     1
102
RTVSPropertyOp26
 70
     1
102
RTVSPropertyOp27
 70
     1
  0
XRECORD
  5
202
102
{ACAD_REACTORS
330
201
102
}
330
201
100
AcDbXrecord
280
     1
102
RTVSPropertyOp0
 70
     1
102
RTVSPropertyOp1
 70
     1
102
RTVSPropertyOp2
 70
     1
102
RTVSPropertyOp3
 70
     1
102
RTVSPropertyOp4
 70
     1
102
RTVSPropertyOp5
 70
     1
102
RTVSPropertyOp6
 70
     1
102
RTVSPropertyOp7
 70
     1
102
RTVSPropertyOp8
 70
     1
102
RTVSPropertyOp9
 70
     1
102
RTVSPropertyOp10
 70
     1
102
RTVSPropertyOp11
 70
     1
102
RTVSPropertyOp12
 70
     1
102
RTVSPropertyOp13
 70
     1
102
RTVSPropertyOp14
 70
     1
102
RTVSPropertyOp15
 70
     1
102
RTVSPropertyOp16
 70
     1
102
RTVSPropertyOp17
 70
     1
102
RTVSPropertyOp18
 70
     1
102
RTVSPropertyOp19
 70
     1
102
RTVSPropertyOp20
 70
     1
102
RTVSPropertyOp21
 70
     1
102
RTVSPropertyOp22
 70
     1
102
RTVSPropertyOp23
 70
     1
102
RTVSPropertyOp24
 70
     1
102
RTVSPropertyOp25
 70
     1
102
RTVSPropertyOp26
 70
     1
102
RTVSPropertyOp27
 70
     1
  0
XRECORD
  5
212
102
{ACAD_REACTORS
330
211
102
}
330
211
100
AcDbXrecord
280
     1
102
RTVSPropertyOp0
 70
     0
102
RTVSPropertyOp1
 70
     0
102
RTVSPropertyOp2
 70
     0
102
RTVSPropertyOp3
 70
     0
102
RTVSPropertyOp4
 70
     0
102
RTVSPropertyOp5
 70
     0
102
RTVSPropertyOp6
 70
     0
102
RTVSPropertyOp7
 70
     0
102
RTVSPropertyOp8
 70
     0
102
RTVSPropertyOp9
 70
     0
102
RTVSPropertyOp10
 70
     0
102
RTVSPropertyOp11
 70
     0
102
RTVSPropertyOp12
 70
     0
102
RTVSPropertyOp13
 70
     0
102
RTVSPropertyOp14
 70
     2
102
RTVSPropertyOp15
 70
     0
102
RTVSPropertyOp16
 70
     0
102
RTVSPropertyOp17
 70
     0
102
RTVSPropertyOp18
 70
     0
102
RTVSPropertyOp19
 70
     0
102
RTVSPropertyOp20
 70
     0
102
RTVSPropertyOp21
 70
     0
102
RTVSPropertyOp22
 70
     0
102
RTVSPropertyOp23
 70
     0
102
RTVSPropertyOp24
 70
     0
102
RTVSPropertyOp25
 70
     0
102
RTVSPropertyOp26
 70
     0
102
RTVSPropertyOp27
 70
     0
  0
XRECORD
  5
20A
102
{ACAD_REACTORS
330
209
102
}
330
209
100
AcDbXrecord
280
     1
102
RTVSPropertyOp0
 70
     1
102
RTVSPropertyOp1
 70
     1
102
RTVSPropertyOp2
 70
     1
102
RTVSPropertyOp3
 70
     1
102
RTVSPropertyOp4
 70
     1
102
RTVSPropertyOp5
 70
     1
102
RTVSPropertyOp6
 70
     1
102
RTVSPropertyOp7
 70
     1
102
RTVSPropertyOp8
 70
     1
102
RTVSPropertyOp9
 70
     1
102
RTVSPropertyOp10
 70
     1
102
RTVSPropertyOp11
 70
     1
102
RTVSPropertyOp12
 70
     1
102
RTVSPropertyOp13
 70
     1
102
RTVSPropertyOp14
 70
     1
102
RTVSPropertyOp15
 70
     1
102
RTVSPropertyOp16
 70
     1
102
RTVSPropertyOp17
 70
     1
102
RTVSPropertyOp18
 70
     1
102
RTVSPropertyOp19
 70
     1
102
RTVSPropertyOp20
 70
     1
102
RTVSPropertyOp21
 70
     1
102
RTVSPropertyOp22
 70
     1
102
RTVSPropertyOp23
 70
     1
102
RTVSPropertyOp24
 70
     1
102
RTVSPropertyOp25
 70
     1
102
RTVSPropertyOp26
 70
     1
102
RTVSPropertyOp27
 70
     1
  0
XRECORD
  5
1EE
102
{ACAD_REACTORS
330
1ED
102
}
330
1ED
100
AcDbXrecord
280
     1
102
RTVSPropertyOp0
 70
     1
102
RTVSPropertyOp1
 70
     1
102
RTVSPropertyOp2
 70
     1
102
RTVSPropertyOp3
 70
     1
102
RTVSPropertyOp4
 70
     1
102
RTVSPropertyOp5
 70
     1
102
RTVSPropertyOp6
 70
     1
102
RTVSPropertyOp7
 70
     1
102
RTVSPropertyOp8
 70
     1
102
RTVSPropertyOp9
 70
     1
102
RTVSPropertyOp10
 70
     1
102
RTVSPropertyOp11
 70
     1
102
RTVSPropertyOp12
 70
     1
102
RTVSPropertyOp13
 70
     1
102
RTVSPropertyOp14
 70
     1
102
RTVSPropertyOp15
 70
     1
102
RTVSPropertyOp16
 70
     1
102
RTVSPropertyOp17
 70
     1
102
RTVSPropertyOp18
 70
     1
102
RTVSPropertyOp19
 70
     1
102
RTVSPropertyOp20
 70
     1
102
RTVSPropertyOp21
 70
     1
102
RTVSPropertyOp22
 70
     1
102
RTVSPropertyOp23
 70
     1
102
RTVSPropertyOp24
 70
     1
102
RTVSPropertyOp25
 70
     1
102
RTVSPropertyOp26
 70
     1
102
RTVSPropertyOp27
 70
     1
  0
XRECORD
  5
1F0
102
{ACAD_REACTORS
330
1EF
102
}
330
1EF
100
AcDbXrecord
280
     1
102
RTVSPropertyOp0
 70
     1
102
RTVSPropertyOp1
 70
     1
102
RTVSPropertyOp2
 70
     1
102
RTVSPropertyOp3
 70
     1
102
RTVSPropertyOp4
 70
     1
102
RTVSPropertyOp5
 70
     1
102
RTVSPropertyOp6
 70
     1
102
RTVSPropertyOp7
 70
     1
102
RTVSPropertyOp8
 70
     1
102
RTVSPropertyOp9
 70
     1
102
RTVSPropertyOp10
 70
     1
102
RTVSPropertyOp11
 70
     1
102
RTVSPropertyOp12
 70
     1
102
RTVSPropertyOp13
 70
     1
102
RTVSPropertyOp14
 70
     1
102
RTVSPropertyOp15
 70
     1
102
RTVSPropertyOp16
 70
     1
102
RTVSPropertyOp17
 70
     1
102
RTVSPropertyOp18
 70
     1
102
RTVSPropertyOp19
 70
     1
102
RTVSPropertyOp20
 70
     1
102
RTVSPropertyOp21
 70
     1
102
RTVSPropertyOp22
 70
     1
102
RTVSPropertyOp23
 70
     1
102
RTVSPropertyOp24
 70
     1
102
RTVSPropertyOp25
 70
     1
102
RTVSPropertyOp26
 70
     1
102
RTVSPropertyOp27
 70
     1
  0
XRECORD
  5
1F2
102
{ACAD_REACTORS
330
1F1
102
}
330
1F1
100
AcDbXrecord
280
     1
102
RTVSPropertyOp0
 70
     1
102
RTVSPropertyOp1
 70
     1
102
RTVSPropertyOp2
 70
     1
102
RTVSPropertyOp3
 70
     1
102
RTVSPropertyOp4
 70
     1
102
RTVSPropertyOp5
 70
     1
102
RTVSPropertyOp6
 70
     1
102
RTVSPropertyOp7
 70
     1
102
RTVSPropertyOp8
 70
     1
102
RTVSPropertyOp9
 70
     1
102
RTVSPropertyOp10
 70
     1
102
RTVSPropertyOp11
 70
     1
102
RTVSPropertyOp12
 70
     1
102
RTVSPropertyOp13
 70
     1
102
RTVSPropertyOp14
 70
     1
102
RTVSPropertyOp15
 70
     1
102
RTVSPropertyOp16
 70
     1
102
RTVSPropertyOp17
 70
     1
102
RTVSPropertyOp18
 70
     1
102
RTVSPropertyOp19
 70
     1
102
RTVSPropertyOp20
 70
     1
102
RTVSPropertyOp21
 70
     1
102
RTVSPropertyOp22
 70
     1
102
RTVSPropertyOp23
 70
     1
102
RTVSPropertyOp24
 70
     1
102
RTVSPropertyOp25
 70
     1
102
RTVSPropertyOp26
 70
     1
102
RTVSPropertyOp27
 70
     1
  0
XRECORD
  5
1F4
102
{ACAD_REACTORS
330
1F3
102
}
330
1F3
100
AcDbXrecord
280
     1
102
RTVSPropertyOp0
 70
     1
102
RTVSPropertyOp1
 70
     1
102
RTVSPropertyOp2
 70
     1
102
RTVSPropertyOp3
 70
     1
102
RTVSPropertyOp4
 70
     1
102
RTVSPropertyOp5
 70
     1
102
RTVSPropertyOp6
 70
     1
102
RTVSPropertyOp7
 70
     1
102
RTVSPropertyOp8
 70
     1
102
RTVSPropertyOp9
 70
     1
102
RTVSPropertyOp10
 70
     1
102
RTVSPropertyOp11
 70
     1
102
RTVSPropertyOp12
 70
     1
102
RTVSPropertyOp13
 70
     1
102
RTVSPropertyOp14
 70
     1
102
RTVSPropertyOp15
 70
     1
102
RTVSPropertyOp16
 70
     1
102
RTVSPropertyOp17
 70
     1
102
RTVSPropertyOp18
 70
     1
102
RTVSPropertyOp19
 70
     1
102
RTVSPropertyOp20
 70
     1
102
RTVSPropertyOp21
 70
     1
102
RTVSPropertyOp22
 70
     1
102
RTVSPropertyOp23
 70
     1
102
RTVSPropertyOp24
 70
     1
102
RTVSPropertyOp25
 70
     1
102
RTVSPropertyOp26
 70
     1
102
RTVSPropertyOp27
 70
     1
  0
XRECORD
  5
20E
102
{ACAD_REACTORS
330
20D
102
}
330
20D
100
AcDbXrecord
280
     1
102
RTVSPropertyOp0
 70
     0
102
RTVSPropertyOp1
 70
     0
102
RTVSPropertyOp2
 70
     0
102
RTVSPropertyOp3
 70
     0
102
RTVSPropertyOp4
 70
     0
102
RTVSPropertyOp5
 70
     0
102
RTVSPropertyOp6
 70
     0
102
RTVSPropertyOp7
 70
     0
102
RTVSPropertyOp8
 70
     0
102
RTVSPropertyOp9
 70
     0
102
RTVSPropertyOp10
 70
     0
102
RTVSPropertyOp11
 70
     0
102
RTVSPropertyOp12
 70
     0
102
RTVSPropertyOp13
 70
     0
102
RTVSPropertyOp14
 70
     2
102
RTVSPropertyOp15
 70
     0
102
RTVSPropertyOp16
 70
     0
102
RTVSPropertyOp17
 70
     0
102
RTVSPropertyOp18
 70
     0
102
RTVSPropertyOp19
 70
     0
102
RTVSPropertyOp20
 70
     0
102
RTVSPropertyOp21
 70
     0
102
RTVSPropertyOp22
 70
     0
102
RTVSPropertyOp23
 70
     0
102
RTVSPropertyOp24
 70
     0
102
RTVSPropertyOp25
 70
     0
102
RTVSPropertyOp26
 70
     0
102
RTVSPropertyOp27
 70
     0
  0
XRECORD
  5
208
102
{ACAD_REACTORS
330
207
102
}
330
207
100
AcDbXrecord
280
     1
102
RTVSPropertyOp0
 70
     1
102
RTVSPropertyOp1
 70
     1
102
RTVSPropertyOp2
 70
     1
102
RTVSPropertyOp3
 70
     1
102
RTVSPropertyOp4
 70
     1
102
RTVSPropertyOp5
 70
     1
102
RTVSPropertyOp6
 70
     1
102
RTVSPropertyOp7
 70
     1
102
RTVSPropertyOp8
 70
     1
102
RTVSPropertyOp9
 70
     1
102
RTVSPropertyOp10
 70
     1
102
RTVSPropertyOp11
 70
     1
102
RTVSPropertyOp12
 70
     1
102
RTVSPropertyOp13
 70
     1
102
RTVSPropertyOp14
 70
     1
102
RTVSPropertyOp15
 70
     1
102
RTVSPropertyOp16
 70
     1
102
RTVSPropertyOp17
 70
     1
102
RTVSPropertyOp18
 70
     1
102
RTVSPropertyOp19
 70
     1
102
RTVSPropertyOp20
 70
     1
102
RTVSPropertyOp21
 70
     1
102
RTVSPropertyOp22
 70
     1
102
RTVSPropertyOp23
 70
     1
102
RTVSPropertyOp24
 70
     1
102
RTVSPropertyOp25
 70
     1
102
RTVSPropertyOp26
 70
     1
102
RTVSPropertyOp27
 70
     1
  0
XRECORD
  5
210
102
{ACAD_REACTORS
330
20F
102
}
330
20F
100
AcDbXrecord
280
     1
102
RTVSPropertyOp0
 70
     0
102
RTVSPropertyOp1
 70
     0
102
RTVSPropertyOp2
 70
     0
102
RTVSPropertyOp3
 70
     0
102
RTVSPropertyOp4
 70
     0
102
RTVSPropertyOp5
 70
     0
102
RTVSPropertyOp6
 70
     0
102
RTVSPropertyOp7
 70
     0
102
RTVSPropertyOp8
 70
     0
102
RTVSPropertyOp9
 70
     0
102
RTVSPropertyOp10
 70
     0
102
RTVSPropertyOp11
 70
     0
102
RTVSPropertyOp12
 70
     0
102
RTVSPropertyOp13
 70
     0
102
RTVSPropertyOp14
 70
     2
102
RTVSPropertyOp15
 70
     0
102
RTVSPropertyOp16
 70
     0
102
RTVSPropertyOp17
 70
     0
102
RTVSPropertyOp18
 70
     0
102
RTVSPropertyOp19
 70
     0
102
RTVSPropertyOp20
 70
     0
102
RTVSPropertyOp21
 70
     0
102
RTVSPropertyOp22
 70
     0
102
RTVSPropertyOp23
 70
     0
102
RTVSPropertyOp24
 70
     0
102
RTVSPropertyOp25
 70
     0
102
RTVSPropertyOp26
 70
     0
102
RTVSPropertyOp27
 70
     0
  0
XRECORD
  5
200
102
{ACAD_REACTORS
330
1FF
102
}
330
1FF
100
AcDbXrecord
280
     1
102
RTVSPropertyOp0
 70
     1
102
RTVSPropertyOp1
 70
     1
102
RTVSPropertyOp2
 70
     1
102
RTVSPropertyOp3
 70
     1
102
RTVSPropertyOp4
 70
     1
102
RTVSPropertyOp5
 70
     1
102
RTVSPropertyOp6
 70
     1
102
RTVSPropertyOp7
 70
     1
102
RTVSPropertyOp8
 70
     1
102
RTVSPropertyOp9
 70
     1
102
RTVSPropertyOp10
 70
     1
102
RTVSPropertyOp11
 70
     1
102
RTVSPropertyOp12
 70
     1
102
RTVSPropertyOp13
 70
     1
102
RTVSPropertyOp14
 70
     1
102
RTVSPropertyOp15
 70
     1
102
RTVSPropertyOp16
 70
     1
102
RTVSPropertyOp17
 70
     1
102
RTVSPropertyOp18
 70
     1
102
RTVSPropertyOp19
 70
     1
102
RTVSPropertyOp20
 70
     1
102
RTVSPropertyOp21
 70
     1
102
RTVSPropertyOp22
 70
     1
102
RTVSPropertyOp23
 70
     1
102
RTVSPropertyOp24
 70
     1
102
RTVSPropertyOp25
 70
     1
102
RTVSPropertyOp26
 70
     1
102
RTVSPropertyOp27
 70
     1
  0
XRECORD
  5
206
102
{ACAD_REACTORS
330
205
102
}
330
205
100
AcDbXrecord
280
     1
102
RTVSPropertyOp0
 70
     1
102
RTVSPropertyOp1
 70
     1
102
RTVSPropertyOp2
 70
     1
102
RTVSPropertyOp3
 70
     1
102
RTVSPropertyOp4
 70
     1
102
RTVSPropertyOp5
 70
     1
102
RTVSPropertyOp6
 70
     1
102
RTVSPropertyOp7
 70
     1
102
RTVSPropertyOp8
 70
     1
102
RTVSPropertyOp9
 70
     1
102
RTVSPropertyOp10
 70
     1
102
RTVSPropertyOp11
 70
     1
102
RTVSPropertyOp12
 70
     1
102
RTVSPropertyOp13
 70
     1
102
RTVSPropertyOp14
 70
     1
102
RTVSPropertyOp15
 70
     1
102
RTVSPropertyOp16
 70
     1
102
RTVSPropertyOp17
 70
     1
102
RTVSPropertyOp18
 70
     1
102
RTVSPropertyOp19
 70
     1
102
RTVSPropertyOp20
 70
     1
102
RTVSPropertyOp21
 70
     1
102
RTVSPropertyOp22
 70
     1
102
RTVSPropertyOp23
 70
     1
102
RTVSPropertyOp24
 70
     1
102
RTVSPropertyOp25
 70
     1
102
RTVSPropertyOp26
 70
     1
102
RTVSPropertyOp27
 70
     1
  0
ENDSEC
  0
EOF
