  0
SECTION
  2
HEADER
  9
$ACADVER
  1
AC1009
  9
$INSBASE
 10
0.0
 20
0.0
 30
0.0
  9
$EXTMIN
 10
49.981691723202402
 20
11.90643626254314
 30
-0.0015258207003583
  9
$EXTMAX
 10
950.02899391114363
 20
1350.04120187373
 30
0.0000000349246037
  9
$LIMMIN
 10
0.0
 20
0.0
  9
$LIMMAX
 10
0.0
 20
0.0
  9
$ORTHOMODE
 70
     0
  9
$REGENMODE
 70
     1
  9
$FILLMODE
 70
     1
  9
$QTEXTMODE
 70
     0
  9
$MIRRTEXT
 70
     1
  9
$DRAGMODE
 70
     2
  9
$LTSCALE
 40
25.399999999999999
  9
$OSMODE
 70
   231
  9
$ATTMODE
 70
     1
  9
$TEXTSIZE
 40
0.0
  9
$TRACEWID
 40
1.0
  9
$TEXTSTYLE
  7
STANDARD
  9
$CLAYER
  8
DATA
  9
$CELTYPE
  6
BYLAYER
  9
$CECOLOR
 62
   256
  9
$DIMSCALE
 40
1.0
  9
$DIMASZ
 40
0.18
  9
$DIMEXO
 40
0.0625
  9
$DIMDLI
 40
0.38
  9
$DIMRND
 40
0.0
  9
$DIMDLE
 40
0.0
  9
$DIMEXE
 40
0.18
  9
$DIMTP
 40
0.0
  9
$DIMTM
 40
0.0
  9
$DIMTXT
 40
0.18
  9
$DIMCEN
 40
0.09
  9
$DIMTSZ
 40
0.0
  9
$DIMTOL
 70
     0
  9
$DIMLIM
 70
     0
  9
$DIMTIH
 70
     1
  9
$DIMTOH
 70
     1
  9
$DIMSE1
 70
     0
  9
$DIMSE2
 70
     0
  9
$DIMTAD
 70
     0
  9
$DIMZIN
 70
     0
  9
$DIMBLK
  1

  9
$DIMASO
 70
     1
  9
$DIMSHO
 70
     1
  9
$DIMPOST
  1

  9
$DIMAPOST
  1

  9
$DIMALT
 70
     0
  9
$DIMALTD
 70
     2
  9
$DIMALTF
 40
25.399999999999999
  9
$DIMLFAC
 40
1.0
  9
$DIMTOFL
 70
     0
  9
$DIMTVP
 40
0.0
  9
$DIMTIX
 70
     0
  9
$DIMSOXD
 70
     0
  9
$DIMSAH
 70
     0
  9
$DIMBLK1
  1

  9
$DIMBLK2
  1

  9
$DIMSTYLE
  2
STANDARD
  9
$DIMCLRD
 70
     0
  9
$DIMCLRE
 70
     0
  9
$DIMCLRT
 70
     0
  9
$DIMTFAC
 40
1.0
  9
$DIMGAP
 40
0.09
  9
$LUNITS
 70
     2
  9
$LUPREC
 70
     4
  9
$SKETCHINC
 40
0.1
  9
$FILLETRAD
 40
0.0
  9
$AUNITS
 70
     0
  9
$AUPREC
 70
     0
  9
$MENU
  1
acad
  9
$ELEVATION
 40
0.0
  9
$PELEVATION
 40
0.0
  9
$THICKNESS
 40
0.0
  9
$LIMCHECK
 70
     0
  9
$BLIPMODE
 70
     0
  9
$CHAMFERA
 40
0.0
  9
$CHAMFERB
 40
0.0
  9
$SKPOLY
 70
     0
  9
$TDCREATE
 40
2455408.6682175929
  9
$TDUPDATE
 40
2455408.6734318519
  9
$TDINDWG
 40
0.0002812616
  9
$TDUSRTIMER
 40
0.0002812616
  9
$USRTIMER
 70
     1
  9
$ANGBASE
 50
0.0
  9
$ANGDIR
 70
     0
  9
$PDMODE
 70
     1
  9
$PDSIZE
 40
-2.0
  9
$PLINEWID
 40
0.0
  9
$COORDS
 70
     0
  9
$SPLFRAME
 70
     0
  9
$SPLINETYPE
 70
     6
  9
$SPLINESEGS
 70
     8
  9
$ATTDIA
 70
     0
  9
$ATTREQ
 70
     1
  9
$HANDLING
 70
     1
  9
$HANDSEED
  5
B01
  9
$SURFTAB1
 70
     6
  9
$SURFTAB2
 70
     6
  9
$SURFTYPE
 70
     6
  9
$SURFU
 70
     6
  9
$SURFV
 70
     6
  9
$UCSNAME
  2

  9
$UCSORG
 10
0.0
 20
0.0
 30
0.0
  9
$UCSXDIR
 10
1.0
 20
0.0
 30
0.0
  9
$UCSYDIR
 10
0.0
 20
1.0
 30
0.0
  9
$PUCSNAME
  2

  9
$PUCSORG
 10
0.0
 20
0.0
 30
0.0
  9
$PUCSXDIR
 10
1.0
 20
0.0
 30
0.0
  9
$PUCSYDIR
 10
0.0
 20
1.0
 30
0.0
  9
$USERI1
 70
     0
  9
$USERI2
 70
     0
  9
$USERI3
 70
     0
  9
$USERI4
 70
     0
  9
$USERI5
 70
     0
  9
$USERR1
 40
0.0
  9
$USERR2
 40
0.0
  9
$USERR3
 40
0.0
  9
$USERR4
 40
0.0
  9
$USERR5
 40
0.0
  9
$WORLDVIEW
 70
     1
  9
$SHADEDGE
 70
     3
  9
$SHADEDIF
 70
    70
  9
$TILEMODE
 70
     1
  9
$MAXACTVP
 70
    64
  9
$PLIMCHECK
 70
     0
  9
$PEXTMIN
 10
1.0000000000000000E+020
 20
1.0000000000000000E+020
 30
1.0000000000000000E+020
  9
$PEXTMAX
 10
-1.0000000000000000E+020
 20
-1.0000000000000000E+020
 30
-1.0000000000000000E+020
  9
$PLIMMIN
 10
0.0
 20
0.0
  9
$PLIMMAX
 10
12.0
 20
9.0
  9
$UNITMODE
 70
     0
  9
$VISRETAIN
 70
     0
  9
$PLINEGEN
 70
     1
  9
$PSLTSCALE
 70
     0
  0
ENDSEC
  0
SECTION
  2
TABLES
  0
TABLE
  2
VPORT
 70
     1
  0
VPORT
  2
*ACTIVE
 70
     0
 10
0.0
 20
0.0
 11
1.0
 21
1.0
 12
500.00534281717307
 22
680.97381906813655
 13
0.0
 23
0.0
 14
1.0
 24
1.0
 15
0.0
 25
0.0
 16
0.0
 26
0.0
 36
1.0
 17
0.0
 27
0.0
 37
0.0
 40
1347.986064499122
 41
1.961916461916462
 42
50.0
 43
0.0
 44
0.0
 50
0.0
 51
0.0
 71
     0
 72
  2000
 73
     1
 74
     1
 75
     0
 76
     0
 77
     0
 78
     0
  0
ENDTAB
  0
TABLE
  2
LTYPE
 70
    11
  0
LTYPE
  2
CONTINUOUS
 70
     0
  3
Solid line
 72
    65
 73
     0
 40
0.0
  0
ENDTAB
  0
TABLE
  2
LAYER
 70
     5
  0
LAYER
  2
0
 70
     0
 62
     7
  6
CONTINUOUS
  0
LAYER
  2
DATA
 70
     0
 62
     7
  6
CONTINUOUS
  0
LAYER
  2
HIBINO-BASE
 70
     0
 62
     7
  6
CONTINUOUS
  0
LAYER
  2
SPEC
 70
     0
 62
     7
  6
CONTINUOUS
  0
LAYER
  2
DIMNSIONS
 70
     0
 62
     7
  6
CONTINUOUS
  0
ENDTAB
  0
TABLE
  2
STYLE
 70
     3
  0
STYLE
  2
STANDARD
 70
     0
 40
0.0
 41
1.0
 50
0.0
 71
     0
 42
0.0
  3
txt
  4
BIGFONT.SHX
  0
ENDTAB
  0
TABLE
  2
VIEW
 70
     0
  0
ENDTAB
  0
TABLE
  2
UCS
 70
     0
  0
ENDTAB
  0
TABLE
  2
APPID
 70
     3
  0
APPID
  2
ACAD
 70
     0
  0
APPID
  2
ACADANNOTATIVE
 70
     0
  0
APPID
  2
ACAD_MLEADERVER
 70
     0
  0
ENDTAB
  0
TABLE
  2
DIMSTYLE
 70
     2
  0
DIMSTYLE
  2
STANDARD
 70
     0
  3

  4

  5

  6

  7

 40
1.0
 41
0.18
 42
0.0625
 43
0.38
 44
0.18
 45
0.0
 46
0.0
 47
0.0
 48
0.0
140
0.18
141
0.09
142
0.0
143
25.399999999999999
144
1.0
145
0.0
146
1.0
147
0.09
 71
     0
 72
     0
 73
     1
 74
     1
 75
     0
 76
     0
 77
     0
 78
     0
170
     0
171
     2
172
     0
173
     0
174
     0
175
     0
176
     0
177
     0
178
     0
  0
ENDTAB
  0
ENDSEC
  0
SECTION
  2
BLOCKS
  0
BLOCK
  8
0
  2
$MODEL_SPACE
 70
     0
 10
0.0
 20
0.0
 30
0.0
  3
$MODEL_SPACE
  1

  0
ENDBLK
  5
703
  8
0
  0
BLOCK
 67
     1
  8
0
  2
$PAPER_SPACE
 70
     0
 10
0.0
 20
0.0
 30
0.0
  3
$PAPER_SPACE
  1

  0
ENDBLK
  5
6FF
 67
     1
  8
0
  0
ENDSEC
  0
SECTION
  2
ENTITIES
  0
LINE
  5
2C
  8
HIBINO-BASE
  6
CONTINUOUS
 62
     7
 10
50.0
 20
1350.0
 30
0.0
 11
950.0
 21
1350.0
 31
0.0
  0
LINE
  5
2D
  8
HIBINO-BASE
  6
CONTINUOUS
 62
     7
 10
950.0
 20
50.0
 30
0.0
 11
50.0
 21
50.0
 31
0.0
  0
LINE
  5
2E
  8
HIBINO-BASE
  6
CONTINUOUS
 62
     7
 10
50.0
 20
50.0
 30
0.0
 11
50.0
 21
1350.0
 31
0.0
  0
TEXT
  5
2F
  8
HIBINO-BASE
 62
     7
 10
62.82012861104743
 20
17.956611000000098
 30
0.0
 40
18.00022089843749
  1
Hibino-Intersound Corporation
 41
0.7
 11
62.82012861104743
 21
35.956831898437599
 31
0.0
 73
     3
  0
LINE
  5
30
  8
HIBINO-BASE
  6
CONTINUOUS
 62
     7
 10
950.0
 20
1350.0
 30
0.0
 11
950.0
 21
50.0
 31
0.0
  0
LINE
  5
31
  8
HIBINO-BASE
  6
CONTINUOUS
 62
     7
 10
500.0
 20
162.50000000000011
 30
0.0
 11
950.0
 21
162.50000000000011
 31
0.0
  0
LINE
  5
32
  8
HIBINO-BASE
  6
CONTINUOUS
 62
     7
 10
500.0
 20
50.0
 30
0.0
 11
500.0
 21
162.50000000000011
 31
0.0
  0
TEXT
  5
33
  8
HIBINO-BASE
 62
     7
 10
504.49999999999989
 20
149.9565333333334
 30
0.0
 40
8.1442057291666661
  1
NOTE
 41
0.7
 11
504.49999999999989
 21
158.10073906250011
 31
0.0
 73
     3
  0
LINE
  5
34
  8
HIBINO-BASE
  6
CONTINUOUS
 62
     7
 10
675.0
 20
50.0
 30
0.0
 11
675.0
 21
162.50000000000011
 31
0.0
  0
TEXT
  5
35
  8
HIBINO-BASE
 62
     7
 10
679.49999999999989
 20
149.9565333333334
 30
0.0
 40
8.1442057291666661
  1
TITLE
 41
0.7
 11
679.49999999999989
 21
158.10073906250011
 31
0.0
 73
     3
  0
TEXT
  5
36
  8
HIBINO-BASE
 62
     7
 10
595.06609521503515
 20
16.861363937191111
 30
0.0
 40
18.00022089843749
  1
ヒビノインターサウンド株式会社
 41
0.7
 11
595.06609521503515
 21
34.861584835628598
 31
0.0
 73
     3
  0
LINE
  5
37
  8
HIBINO-BASE
  6
CONTINUOUS
 62
     7
 10
500.0
 20
100.0000000000001
 30
0.0
 11
950.0
 21
100.0000000000001
 31
0.0
  0
TEXT
  5
38
  8
HIBINO-BASE
 62
     7
 10
742.0
 20
87.738133333333465
 30
0.0
 40
8.1442057291666661
  1
DRAWN
 41
0.7
 11
742.0
 21
95.882339062500137
 31
0.0
 73
     3
  0
TEXT
  5
39
  8
HIBINO-BASE
 62
     7
 10
617.0
 20
87.738133333333465
 30
0.0
 40
8.1442057291666661
  1
DATE
 41
0.7
 11
617.0
 21
95.882339062500137
 31
0.0
 73
     3
  0
TEXT
  5
3A
  8
HIBINO-BASE
 62
     7
 10
567.0
 20
87.738133333333465
 30
0.0
 40
8.1442057291666661
  1
SCALE
 41
0.7
 11
567.0
 21
95.882339062500137
 31
0.0
 73
     3
  0
TEXT
  5
3B
  8
HIBINO-BASE
 62
     7
 10
679.49999999999989
 20
87.738133333333465
 30
0.0
 40
8.1442057291666661
  1
DESIGN
 41
0.7
 11
679.49999999999989
 21
95.882339062500137
 31
0.0
 73
     3
  0
TEXT
  5
3C
  8
HIBINO-BASE
 62
     7
 10
867.0
 20
87.738133333333465
 30
0.0
 40
8.1442057291666661
  1
DRAWING NO.
 41
0.7
 11
867.0
 21
95.882339062500137
 31
0.0
 73
     3
  0
TEXT
  5
3D
  8
HIBINO-BASE
 62
     7
 10
804.49999999999989
 20
87.738133333333465
 30
0.0
 40
8.1442057291666661
  1
CHECK
 41
0.7
 11
804.49999999999989
 21
95.882339062500137
 31
0.0
 73
     3
  0
LINE
  5
3E
  8
HIBINO-BASE
  6
CONTINUOUS
 62
     7
 10
571.87499999999989
 20
56.25
 30
0.0
 11
590.625
 21
75.000000000000099
 31
0.0
  0
TEXT
  5
3F
  8
HIBINO-BASE
 62
     7
 10
568.74999999999989
 20
69.455283333333384
 30
0.0
 40
8.1442057291666661
  1
1
 41
0.7
 11
568.74999999999989
 21
77.599489062500069
 31
0.0
 73
     3
  0
LINE
  5
40
  8
HIBINO-BASE
  6
CONTINUOUS
 62
     7
 10
562.49999999999989
 20
50.0
 30
0.0
 11
562.49999999999989
 21
100.0000000000001
 31
0.0
  0
LINE
  5
41
  8
HIBINO-BASE
  6
CONTINUOUS
 62
     7
 10
612.49999999999989
 20
50.0
 30
0.0
 11
612.49999999999989
 21
100.0000000000001
 31
0.0
  0
LINE
  5
42
  8
HIBINO-BASE
  6
CONTINUOUS
 62
     7
 10
737.5
 20
100.0000000000001
 30
0.0
 11
737.5
 21
50.0
 31
0.0
  0
LINE
  5
43
  8
HIBINO-BASE
  6
CONTINUOUS
 62
     7
 10
862.5
 20
100.0000000000001
 30
0.0
 11
862.5
 21
50.0
 31
0.0
  0
LINE
  5
44
  8
HIBINO-BASE
  6
CONTINUOUS
 62
     7
 10
800.0
 20
50.0
 30
0.0
 11
800.0
 21
100.0000000000001
 31
0.0
  0
TEXT
  5
45
  8
HIBINO-BASE
 62
     7
 10
616.78269999999986
 20
64.318233333333382
 30
0.0
 40
8.1442057291666661
  1
'10.08.
 41
0.7
 11
616.78269999999986
 21
72.462439062500053
 31
0.0
 73
     3
  0
TEXT
  5
46
  8
HIBINO-BASE
 62
     7
 10
587.5
 20
60.080283333333398
 30
0.0
 40
8.1442057291666661
  1
5
 41
0.7
 11
587.5
 21
68.224489062500069
 31
0.0
 73
     3
  0
TEXT
  5
47
  8
HIBINO-BASE
 62
     7
 10
746.98306333084508
 20
64.53534591951923
 30
0.0
 40
8.1442057291666661
  1
T.Ootake
 41
0.7
 11
746.98306333084508
 21
72.679551648685901
 31
0.0
 73
     3
  0
TEXT
  5
48
  8
HIBINO-BASE
 62
     7
 10
519.41666666666674
 20
59.880000000000031
 30
0.0
 40
16.288411458333329
  1
A4
 41
0.7
 11
519.41666666666674
 21
76.168411458333352
 31
0.0
 73
     3
  0
TEXT
  5
49
  8
HIBINO-BASE
 62
     7
 10
504.79166666666652
 20
86.902725000000103
 30
0.0
 40
8.1442057291666661
  1
PAPER SIZE
 41
0.7
 11
504.79166666666652
 21
95.046930729166775
 31
0.0
 73
     3
  0
LINE
  5
4A
  8
SPEC
  6
CONTINUOUS
 62
     7
 10
87.5
 20
1300.0
 30
0.0
 11
825.0
 21
1300.0
 31
0.0
  0
LINE
  5
4B
  8
SPEC
  6
CONTINUOUS
 62
     7
 10
87.5
 20
1281.25
 30
0.0
 11
825.0
 21
1281.25
 31
0.0
  0
LINE
  5
4C
  8
SPEC
  6
CONTINUOUS
 62
     7
 10
87.5
 20
1206.25
 30
0.0
 11
825.0
 21
1206.25
 31
0.0
  0
LINE
  5
4D
  8
SPEC
  6
CONTINUOUS
 62
     7
 10
87.5
 20
1225.0
 30
0.0
 11
825.0
 21
1225.0
 31
0.0
  0
LINE
  5
4E
  8
SPEC
  6
CONTINUOUS
 62
     7
 10
87.5
 20
1243.75
 30
0.0
 11
825.0
 21
1243.75
 31
0.0
  0
LINE
  5
4F
  8
SPEC
  6
CONTINUOUS
 62
     7
 10
87.5
 20
1187.5
 30
0.0
 11
825.0
 21
1187.5
 31
0.0
  0
LINE
  5
50
  8
SPEC
  6
CONTINUOUS
 62
     7
 10
87.5
 20
1150.0
 30
0.0
 11
825.0
 21
1150.0
 31
0.0
  0
LINE
  5
51
  8
SPEC
  6
CONTINUOUS
 62
     7
 10
87.5
 20
1168.75
 30
0.0
 11
825.0
 21
1168.75
 31
0.0
  0
LINE
  5
52
  8
SPEC
  6
CONTINUOUS
 62
     7
 10
87.5
 20
1131.25
 30
0.0
 11
825.0
 21
1131.25
 31
0.0
  0
LINE
  5
53
  8
SPEC
  6
CONTINUOUS
 62
     7
 10
87.5
 20
1262.5
 30
0.0
 11
825.0
 21
1262.5
 31
0.0
  0
TEXT
  5
54
  8
SPEC
 62
     7
 10
93.75
 20
1306.9663499999999
 30
0.0
 40
12.21630859375
  1
仕様
 41
0.7
 11
93.75
 21
1319.1826585937499
 31
0.0
 73
     3
  0
LINE
  5
55
  8
SPEC
  6
CONTINUOUS
 62
     7
 10
325.0
 20
1300.0
 30
0.0
 11
325.0
 21
1131.25
 31
0.0
  0
TEXT
  5
56
  8
SPEC
 62
     7
 10
91.492663715050966
 20
1154.998175622899
 30
0.0
 40
9.5015562499999984
  1
寸法
 41
0.7
 11
91.492663715050966
 21
1164.499731872899
 31
0.0
 73
     3
  0
LINE
  5
57
  8
SPEC
  6
CONTINUOUS
 62
     7
 10
825.0
 20
1300.0
 30
0.0
 11
825.0
 21
1131.25
 31
0.0
  0
TEXT
  5
58
  8
SPEC
 62
     7
 10
91.645769209977146
 20
1136.34838482139
 30
0.0
 40
9.5015562499999984
  1
重量
 41
0.7
 11
91.645769209977146
 21
1145.84994107139
 31
0.0
 73
     3
  0
TEXT
  5
59
  8
SPEC
 62
     7
 10
329.67552073105247
 20
1191.463694478296
 30
0.0
 40
9.5015562499999984
  1
5V DC
 41
0.7
 11
329.67552073105247
 21
1200.965250728296
 31
0.0
 73
     3
  0
LINE
  5
5A
  8
SPEC
  6
CONTINUOUS
 62
     7
 10
87.5
 20
1300.0
 30
0.0
 11
87.5
 21
1131.25
 31
0.0
  0
TEXT
  5
5B
  8
SPEC
 62
     7
 10
91.664456741982065
 20
1192.9207451811569
 30
0.0
 40
9.5015562499999984
  1
電源
 41
0.7
 11
91.664456741982065
 21
1202.4223014311569
 31
0.0
 73
     3
  0
TEXT
  5
5C
  8
SPEC
 62
     7
 10
89.71962589714559
 20
1286.00791172257
 30
0.0
 40
9.5015562499999984
  1
ビデオアンプ帯域
 41
0.7
 11
89.71962589714559
 21
1295.5094679725701
 31
0.0
 73
     3
  0
TEXT
  5
5D
  8
SPEC
 62
     7
 10
328.9113471556384
 20
1285.8190903455061
 30
0.0
 40
9.5015562499999984
  1
165MHz
 41
0.7
 11
328.9113471556384
 21
1295.3206465955061
 31
0.0
 73
     3
  0
TEXT
  5
5E
  8
SPEC
 62
     7
 10
92.048951285205632
 20
1211.1867444119989
 30
0.0
 40
9.5015733506944464
  1
入出力端子
 41
0.7
 11
92.048951285205632
 21
1220.688317762693
 31
0.0
 73
     3
  0
TEXT
  5
5F
  8
SPEC
 62
     7
 10
91.728120806867636
 20
1267.651641810211
 30
0.0
 40
9.5015733506944464
  1
入力ビデオ信号
 41
0.7
 11
91.728120806867636
 21
1277.153215160906
 31
0.0
 73
     3
  0
TEXT
  5
60
  8
SPEC
 62
     7
 10
329.44535414200578
 20
1211.5217301283481
 30
0.0
 40
9.5015733506944464
  1
DVI-I 29pin female(DVI-D digital only)
 41
0.7
 11
329.44535414200578
 21
1221.0233034790419
 31
0.0
 73
     3
  0
TEXT
  5
61
  8
SPEC
 62
     7
 10
91.693209341371244
 20
1248.505731854862
 30
0.0
 40
9.5015733506944464
  1
入力DDC信号
 41
0.7
 11
91.693209341371244
 21
1258.007305205557
 31
0.0
 73
     3
  0
TEXT
  5
62
  8
SPEC
 62
     7
 10
329.5182277435527
 20
1249.1289034494689
 30
0.0
 40
9.5015733506944464
  1
5Vp-p(TTL)
 41
0.7
 11
329.5182277435527
 21
1258.630476800163
 31
0.0
 73
     3
  0
TEXT
  5
63
  8
SPEC
 62
     7
 10
91.733169292584421
 20
1173.992692517463
 30
0.0
 40
9.5015562499999984
  1
消費電力
 41
0.7
 11
91.733169292584421
 21
1183.494248767463
 31
0.0
 73
     3
  0
TEXT
  5
64
  8
SPEC
 62
     7
 10
329.52027885349878
 20
1173.2907130310159
 30
0.0
 40
9.5015562499999984
  1
5W(最大)
 41
0.7
 11
329.52027885349878
 21
1182.7922692810159
 31
0.0
 73
     3
  0
TEXT
  5
65
  8
SPEC
 62
     7
 10
329.66951848201683
 20
1154.5279481789321
 30
0.0
 40
9.5015733506944464
  1
436(W)\U+00D744(H)\U+00D7108(D)mm(突起部含まず)
 41
0.7
 11
329.66951848201683
 21
1164.029521529626
 31
0.0
 73
     3
  0
TEXT
  5
66
  8
SPEC
 62
     7
 10
329.30678153183072
 20
1136.510805090038
 30
0.0
 40
9.5015733506944464
  1
約750g
 41
0.7
 11
329.30678153183072
 21
1146.0123784407331
 31
0.0
 73
     3
  0
TEXT
  5
67
  8
SPEC
 62
     7
 10
92.011165367716259
 20
1230.1305648665609
 30
0.0
 40
9.5015733506944464
  1
最大対応解像度
 41
0.7
 11
92.011165367716259
 21
1239.6321382172559
 31
0.0
 73
     3
  0
TEXT
  5
68
  8
SPEC
 62
     7
 10
328.77422693108559
 20
1230.075743891806
 30
0.0
 40
9.5015733506944464
  1
1080p/1920\U+00D71200
 41
0.7
 11
328.77422693108559
 21
1239.5773172424999
 31
0.0
 73
     3
  0
TEXT
  5
69
  8
SPEC
 62
     7
 10
328.89261374234081
 20
1267.3522312146199
 30
0.0
 40
9.5015562499999984
  1
1.2Vp-p
 41
0.7
 11
328.89261374234081
 21
1276.8537874646199
 31
0.0
 73
     3
  0
TEXT
  5
6A
  8
DIMNSIONS
 62
     7
 10
400.0
 20
111.34744999999999
 30
0.0
 40
12.21630859375
  1
(単位：mm)
 41
0.7
 11
400.0
 21
123.5637585937499
 31
0.0
 73
     3
  0
LINE
  5
6B
  8
DIMNSIONS
  6
CONTINUOUS
 62
     7
 10
165.0
 20
362.5
 30
0.0
 11
127.5
 21
362.5
 31
0.0
  0
LINE
  5
6C
  8
DIMNSIONS
  6
CONTINUOUS
 62
     7
 10
165.0
 20
406.5
 30
0.0
 11
127.5
 21
406.5
 31
0.0
  0
LINE
  5
6D
  8
DIMNSIONS
  6
CONTINUOUS
 62
     7
 10
137.5
 20
362.5
 30
0.0
 11
137.5
 21
406.5
 31
0.0
  0
LINE
  5
6E
  8
DIMNSIONS
  6
CONTINUOUS
 62
     7
 10
137.5
 20
362.5
 30
0.0
 11
134.1498010242488
 21
375.00311279296881
 31
0.0
  0
LINE
  5
6F
  8
DIMNSIONS
  6
CONTINUOUS
 62
     7
 10
137.5
 20
362.5
 30
0.0
 11
140.8501989757512
 21
375.00311279296881
 31
0.0
  0
LINE
  5
70
  8
DIMNSIONS
  6
CONTINUOUS
 62
     7
 10
137.5
 20
406.5
 30
0.0
 11
140.8501989757512
 21
393.99688720703131
 31
0.0
  0
LINE
  5
71
  8
DIMNSIONS
  6
CONTINUOUS
 62
     7
 10
137.5
 20
406.5
 30
0.0
 11
134.1498010242488
 21
393.99688720703131
 31
0.0
  0
TEXT
  5
72
  8
DIMNSIONS
 62
     7
 10
132.53055555555551
 20
375.68055555555549
 30
0.0
 40
13.57367621527778
  1
44
 50
90.0
 41
0.7
 11
118.95687934027769
 21
375.68055555555549
 31
0.0
 73
     3
  0
LINE
  5
73
  8
DIMNSIONS
  6
CONTINUOUS
 62
     7
 10
175.0
 20
352.5
 30
0.0
 11
175.0
 21
315.0
 31
0.0
  0
LINE
  5
74
  8
DIMNSIONS
  6
CONTINUOUS
 62
     7
 10
611.0
 20
352.5
 30
0.0
 11
611.0
 21
315.0
 31
0.0
  0
LINE
  5
75
  8
DIMNSIONS
  6
CONTINUOUS
 62
     7
 10
175.0
 20
325.0
 30
0.0
 11
611.0
 21
325.0
 31
0.0
  0
LINE
  5
76
  8
DIMNSIONS
  6
CONTINUOUS
 62
     7
 10
175.0
 20
325.0
 30
0.0
 11
187.50311279296869
 21
328.3501989757512
 31
0.0
  0
LINE
  5
77
  8
DIMNSIONS
  6
CONTINUOUS
 62
     7
 10
175.0
 20
325.0
 30
0.0
 11
187.50311279296869
 21
321.6498010242488
 31
0.0
  0
LINE
  5
78
  8
DIMNSIONS
  6
CONTINUOUS
 62
     7
 10
611.0
 20
325.0
 30
0.0
 11
598.49688720703125
 21
321.6498010242488
 31
0.0
  0
LINE
  5
79
  8
DIMNSIONS
  6
CONTINUOUS
 62
     7
 10
611.0
 20
325.0
 30
0.0
 11
598.49688720703125
 21
328.3501989757512
 31
0.0
  0
TEXT
  5
7A
  8
DIMNSIONS
 62
     7
 10
379.77083333333331
 20
329.96944444444449
 30
0.0
 40
13.57367621527778
  1
436
 41
0.7
 11
379.77083333333331
 21
343.54312065972232
 31
0.0
 73
     3
  0
LINE
  5
7B
  8
DIMNSIONS
  6
CONTINUOUS
 62
     7
 10
165.0
 20
462.5
 30
0.0
 11
127.5
 21
462.5
 31
0.0
  0
LINE
  5
7C
  8
DIMNSIONS
  6
CONTINUOUS
 62
     7
 10
165.0
 20
570.5
 30
0.0
 11
127.5
 21
570.5
 31
0.0
  0
LINE
  5
7D
  8
DIMNSIONS
  6
CONTINUOUS
 62
     7
 10
137.5
 20
462.5
 30
0.0
 11
137.5
 21
570.5
 31
0.0
  0
LINE
  5
7E
  8
DIMNSIONS
  6
CONTINUOUS
 62
     7
 10
137.5
 20
462.5
 30
0.0
 11
134.1498010242488
 21
475.00311279296881
 31
0.0
  0
LINE
  5
7F
  8
DIMNSIONS
  6
CONTINUOUS
 62
     7
 10
137.5
 20
462.5
 30
0.0
 11
140.8501989757512
 21
475.00311279296881
 31
0.0
  0
LINE
  5
80
  8
DIMNSIONS
  6
CONTINUOUS
 62
     7
 10
137.5
 20
570.5
 30
0.0
 11
140.8501989757512
 21
557.99688720703125
 31
0.0
  0
LINE
  5
81
  8
DIMNSIONS
  6
CONTINUOUS
 62
     7
 10
137.5
 20
570.5
 30
0.0
 11
134.1498010242488
 21
557.99688720703125
 31
0.0
  0
TEXT
  5
82
  8
DIMNSIONS
 62
     7
 10
132.53055555555551
 20
503.2708333333332
 30
0.0
 40
13.57367621527778
  1
108
 50
90.0
 41
0.7
 11
118.95687934027769
 21
503.2708333333332
 31
0.0
 73
     3
  0
LINE
  5
83
  8
DIMNSIONS
  6
CONTINUOUS
 62
     7
 10
175.19999999999999
 20
358.50000000004172
 30
0.0
 11
127.5
 21
358.50000000004172
 31
0.0
  0
LINE
  5
84
  8
DIMNSIONS
  6
CONTINUOUS
 62
     7
 10
165.0
 20
362.5
 30
0.0
 11
127.5
 21
362.5
 31
0.0
  0
LINE
  5
85
  8
DIMNSIONS
  6
CONTINUOUS
 62
     7
 10
137.5
 20
362.5
 30
0.0
 11
137.5
 21
358.50000000004172
 31
0.0
  0
LINE
  5
86
  8
DIMNSIONS
  6
CONTINUOUS
 62
     7
 10
137.5
 20
358.50000000004172
 30
0.0
 11
137.5
 21
331.6805555555556
 31
0.0
  0
LINE
  5
87
  8
DIMNSIONS
  6
CONTINUOUS
 62
     7
 10
137.5
 20
358.50000000004172
 30
0.0
 11
140.8501989757512
 21
345.99688720707309
 31
0.0
  0
LINE
  5
88
  8
DIMNSIONS
  6
CONTINUOUS
 62
     7
 10
137.5
 20
358.50000000004172
 30
0.0
 11
134.1498010242488
 21
345.99688720707309
 31
0.0
  0
LINE
  5
89
  8
DIMNSIONS
  6
CONTINUOUS
 62
     7
 10
137.5
 20
362.5
 30
0.0
 11
137.5
 21
387.5
 31
0.0
  0
LINE
  5
8A
  8
DIMNSIONS
  6
CONTINUOUS
 62
     7
 10
137.5
 20
362.5
 30
0.0
 11
134.1498010242488
 21
375.00311279296881
 31
0.0
  0
LINE
  5
8B
  8
DIMNSIONS
  6
CONTINUOUS
 62
     7
 10
137.5
 20
362.5
 30
0.0
 11
140.8501989757512
 21
375.00311279296881
 31
0.0
  0
TEXT
  5
8C
  8
DIMNSIONS
 62
     7
 10
132.53055555555551
 20
331.6805555555556
 30
0.0
 40
13.57367621527778
  1
4
 50
90.0
 41
0.7
 11
118.95687934027769
 21
331.6805555555556
 31
0.0
 73
     3
  0
LINE
  5
8D
  8
DIMNSIONS
  6
CONTINUOUS
 62
     7
 10
165.0
 20
570.5
 30
0.0
 11
127.5
 21
570.5
 31
0.0
  0
LINE
  5
8E
  8
DIMNSIONS
  6
CONTINUOUS
 62
     7
 10
577.09999999999991
 20
576.49999999999989
 30
0.0
 11
127.4999999999999
 21
576.49999999999989
 31
0.0
  0
LINE
  5
8F
  8
DIMNSIONS
  6
CONTINUOUS
 62
     7
 10
137.49999999999989
 20
576.49999999999989
 30
0.0
 11
137.5
 21
570.5
 31
0.0
  0
LINE
  5
90
  8
DIMNSIONS
  6
CONTINUOUS
 62
     7
 10
137.5
 20
570.5
 30
0.0
 11
137.5
 21
545.5
 31
0.0
  0
LINE
  5
91
  8
DIMNSIONS
  6
CONTINUOUS
 62
     7
 10
137.5
 20
570.5
 30
0.0
 11
140.8501989757512
 21
557.99688720703125
 31
0.0
  0
LINE
  5
92
  8
DIMNSIONS
  6
CONTINUOUS
 62
     7
 10
137.5
 20
570.5
 30
0.0
 11
134.1498010242488
 21
557.99688720703125
 31
0.0
  0
LINE
  5
93
  8
DIMNSIONS
  6
CONTINUOUS
 62
     7
 10
137.49999999999989
 20
576.49999999999989
 30
0.0
 11
137.49999999999989
 21
598.31944444444434
 31
0.0
  0
LINE
  5
94
  8
DIMNSIONS
  6
CONTINUOUS
 62
     7
 10
137.49999999999989
 20
576.49999999999989
 30
0.0
 11
134.1498010242488
 21
589.00311279296875
 31
0.0
  0
LINE
  5
95
  8
DIMNSIONS
  6
CONTINUOUS
 62
     7
 10
137.49999999999989
 20
576.49999999999989
 30
0.0
 11
140.85019897575111
 21
589.00311279296875
 31
0.0
  0
TEXT
  5
96
  8
DIMNSIONS
 62
     7
 10
132.53055555555551
 20
589.50000000000011
 30
0.0
 40
13.57367621527778
  1
6
 50
90.0
 41
0.7
 11
118.95687934027769
 21
589.50000000000011
 31
0.0
 73
     3
  0
TEXT
  5
97
  8
DATA
 62
     7
 10
750.0
 20
106.0627619472923
 30
0.0
 40
12.21630859375
  1
EXT-DVI-144N
 41
0.7
 11
750.0
 21
118.2790705410423
 31
0.0
 73
     3
  0
TEXT
  5
98
  8
DATA
 62
     7
 10
741.45524542051191
 20
126.7321898582256
 30
0.0
 40
8.1442185546874981
  1
1：4 DVIスプッター
 41
0.7
 11
741.45524542051191
 21
134.87640841291309
 31
0.0
 73
     3
  0
TEXT
  5
99
  8
DATA
 62
     7
 10
100.0
 20
71.190000000000111
 30
0.0
 40
8.1442057291666661
  1
仕様および外観は予告なく変更されることがありますので、ご了承ください。
 41
0.7
 11
100.0
 21
79.334205729166783
 31
0.0
 73
     3
  0
TEXT
  5
9A
  8
DATA
 62
     7
 10
748.0
 20
144.68030417747681
 30
0.0
 40
12.21630859375
  1
Gefen
 41
0.7
 11
748.0
 21
156.89661277122681
 31
0.0
 73
     3
  0
LINE
  5
9B
  8
DATA
  6
CONTINUOUS
 62
     7
 10
175.0
 20
462.5
 30
0.0
 11
175.0
 21
570.5
 31
0.0
  0
LINE
  5
9C
  8
DATA
  6
CONTINUOUS
 62
     7
 10
175.0
 20
362.5
 30
0.0
 11
175.0
 21
406.5
 31
0.0
  0
LINE
  5
9D
  8
DATA
  6
CONTINUOUS
 62
     7
 10
611.0
 20
362.5
 30
0.0
 11
175.0
 21
362.5
 31
0.0
  0
LINE
  5
9E
  8
DATA
  6
CONTINUOUS
 62
     7
 10
611.0
 20
406.5
 30
0.0
 11
611.0
 21
362.5
 31
0.0
  0
LINE
  5
9F
  8
DATA
  6
CONTINUOUS
 62
     7
 10
175.0
 20
406.5
 30
0.0
 11
611.0
 21
406.5
 31
0.0
  0
LINE
  5
A0
  8
DATA
  6
CONTINUOUS
 62
     7
 10
175.0
 20
462.5
 30
0.0
 11
611.0
 21
462.5
 31
0.0
  0
LINE
  5
A1
  8
DATA
  6
CONTINUOUS
 62
     7
 10
175.0
 20
570.5
 30
0.0
 11
611.0
 21
570.5
 31
0.0
  0
LINE
  5
A2
  8
DATA
  6
CONTINUOUS
 62
     7
 10
611.0
 20
462.5
 30
0.0
 11
611.0
 21
570.5
 31
0.0
  0
LINE
  5
A3
  8
DATA
  6
CONTINUOUS
 62
     7
 10
675.79999999999995
 20
406.5
 30
0.0
 11
783.0
 21
406.5
 31
0.0
  0
LINE
  5
A4
  8
DATA
  6
CONTINUOUS
 62
     7
 10
675.0
 20
363.30000000000001
 30
0.0
 11
675.0
 21
405.69999999999999
 31
0.0
  0
LINE
  5
A5
  8
DATA
  6
CONTINUOUS
 62
     7
 10
783.0
 20
362.5
 30
0.0
 11
783.0
 21
406.5
 31
0.0
  0
LINE
  5
A6
  8
DATA
  6
CONTINUOUS
 62
     7
 10
783.0
 20
362.5
 30
0.0
 11
675.79999999999995
 21
362.5
 31
0.0
  0
LINE
  5
A7
  8
DATA
  6
CONTINUOUS
 62
     7
 10
175.0
 20
625.0
 30
0.0
 11
175.0
 21
669.0
 31
0.0
  0
LINE
  5
A8
  8
DATA
  6
CONTINUOUS
 62
     7
 10
611.0
 20
625.0
 30
0.0
 11
611.0
 21
669.0
 31
0.0
  0
LINE
  5
A9
  8
DATA
  6
CONTINUOUS
 62
     7
 10
175.0
 20
625.0
 30
0.0
 11
611.0
 21
625.0
 31
0.0
  0
LINE
  5
AA
  8
DATA
  6
CONTINUOUS
 62
     7
 10
175.0
 20
669.0
 30
0.0
 11
611.0
 21
669.0
 31
0.0
  0
LINE
  5
AB
  8
DATA
  6
CONTINUOUS
 62
     7
 10
175.0
 20
471.49999999999989
 30
0.0
 11
611.0
 21
471.49999999999989
 31
0.0
  0
CIRCLE
  5
AC
  8
DATA
  6
CONTINUOUS
 62
     7
 10
563.0
 20
379.5
 30
0.0
 40
1.5
  0
TEXT
  5
AD
  8
DATA
 62
     7
 10
519.06104547248765
 20
383.43375156583602
 30
0.0
 40
12.21630859375
  1
DVI
 41
0.7
 11
519.06104547248765
 21
395.65006015958602
 31
0.0
 73
     3
  0
TEXT
  5
AE
  8
DATA
 62
     7
 10
544.21563481417365
 20
383.44734124564542
 30
0.0
 40
8.1442057291666661
  1
splitter
 41
0.7
 11
544.21563481417365
 21
391.5915469748121
 31
0.0
 73
     3
  0
TEXT
  5
AF
  8
DATA
 62
     7
 10
496.45967655736541
 20
383.44734124564542
 30
0.0
 40
8.1442057291666661
  1
1:4
 41
0.7
 11
496.45967655736541
 21
391.5915469748121
 31
0.0
 73
     3
  0
TEXT
  5
B0
  8
DATA
 62
     7
 10
558.22294972086559
 20
364.69470366286822
 30
0.0
 40
3.2576822916666659
  1
Power
 41
0.7
 11
558.22294972086559
 21
367.95238595453492
 31
0.0
 73
     3
  0
ARC
  5
B1
  8
DATA
  6
CONTINUOUS
 62
     7
 10
185.1999815237595
 20
362.5
 30
0.0
 40
3.9999999999999432
 50
179.9999999999992
 51
0.0000000000007958
  0
ARC
  5
B2
  8
DATA
  6
CONTINUOUS
 62
     7
 10
600.80001847624044
 20
362.5
 30
0.0
 40
4.000000000000056
 50
179.9999999999992
 51
0.0000000000007958
  0
ARC
  5
B3
  8
DATA
  6
CONTINUOUS
 62
     7
 10
563.0
 20
462.72133575098928
 30
0.0
 40
1.500000000000002
 50
188.48538726161911
 51
351.51461273838078
  0
CIRCLE
  5
B4
  8
DATA
  6
CONTINUOUS
 62
     7
 10
238.7499999999996
 20
652.0
 30
0.0
 40
1.175000000000068
  0
POLYLINE
  5
B5
  8
DATA
  6
CONTINUOUS
 62
     7
 66
     1
 10
0.0
 20
0.0
 30
0.0
 70
     1
  0
VERTEX
  5
72F
  8
DATA
  6
CONTINUOUS
 62
     7
 10
238.7499999999996
 20
649.29999999999995
 30
0.0
  0
VERTEX
  5
730
  8
DATA
  6
CONTINUOUS
 62
     7
 10
236.41173140978171
 20
650.64999999999986
 30
0.0
  0
VERTEX
  5
731
  8
DATA
  6
CONTINUOUS
 62
     7
 10
236.41173140978171
 20
653.35000000000002
 30
0.0
  0
VERTEX
  5
732
  8
DATA
  6
CONTINUOUS
 62
     7
 10
238.7499999999996
 20
654.70000000000005
 30
0.0
  0
VERTEX
  5
733
  8
DATA
  6
CONTINUOUS
 62
     7
 10
241.08826859021761
 20
653.35000000000002
 30
0.0
  0
VERTEX
  5
734
  8
DATA
  6
CONTINUOUS
 62
     7
 10
241.08826859021761
 20
650.64999999999986
 30
0.0
  0
SEQEND
  5
735
  8
DATA
  6
CONTINUOUS
 62
     7
  0
CIRCLE
  5
BE
  8
DATA
  6
CONTINUOUS
 62
     7
 10
271.25000000000028
 20
652.0
 30
0.0
 40
1.175000000000068
  0
POLYLINE
  5
BF
  8
DATA
  6
CONTINUOUS
 62
     7
 66
     1
 10
0.0
 20
0.0
 30
0.0
 70
     1
  0
VERTEX
  5
736
  8
DATA
  6
CONTINUOUS
 62
     7
 10
271.25000000000028
 20
649.29999999999995
 30
0.0
  0
VERTEX
  5
737
  8
DATA
  6
CONTINUOUS
 62
     7
 10
268.91173140978231
 20
650.64999999999986
 30
0.0
  0
VERTEX
  5
738
  8
DATA
  6
CONTINUOUS
 62
     7
 10
268.91173140978231
 20
653.35000000000002
 30
0.0
  0
VERTEX
  5
739
  8
DATA
  6
CONTINUOUS
 62
     7
 10
271.25000000000028
 20
654.70000000000005
 30
0.0
  0
VERTEX
  5
73A
  8
DATA
  6
CONTINUOUS
 62
     7
 10
273.58826859021832
 20
653.35000000000002
 30
0.0
  0
VERTEX
  5
73B
  8
DATA
  6
CONTINUOUS
 62
     7
 10
273.58826859021832
 20
650.64999999999986
 30
0.0
  0
SEQEND
  5
73C
  8
DATA
  6
CONTINUOUS
 62
     7
  0
LINE
  5
C8
  8
DATA
  6
CONTINUOUS
 62
     7
 10
265.95580226891792
 20
648.07499999999982
 30
0.0
 11
244.0559924945336
 21
648.07499999999982
 31
0.0
  0
LINE
  5
C9
  8
DATA
  6
CONTINUOUS
 62
     7
 10
244.6149096919859
 20
655.92500000000018
 30
0.0
 11
265.39688507146559
 21
655.92500000000018
 31
0.0
  0
POLYLINE
  5
CA
  8
DATA
  6
CONTINUOUS
 62
     7
 66
     1
 10
0.0
 20
0.0
 30
0.0
 70
     1
  0
VERTEX
  5
73D
  8
DATA
  6
CONTINUOUS
 62
     7
 10
264.47596355290563
 20
652.76499999999999
 30
0.0
  0
VERTEX
  5
73E
  8
DATA
  6
CONTINUOUS
 62
     7
 10
266.00596355290548
 20
652.76499999999999
 30
0.0
  0
VERTEX
  5
73F
  8
DATA
  6
CONTINUOUS
 62
     7
 10
266.00596355290548
 20
651.23500000000001
 30
0.0
  0
VERTEX
  5
740
  8
DATA
  6
CONTINUOUS
 62
     7
 10
264.47596355290563
 20
651.23500000000001
 30
0.0
  0
SEQEND
  5
741
  8
DATA
  6
CONTINUOUS
 62
     7
  0
POLYLINE
  5
D1
  8
DATA
  6
CONTINUOUS
 62
     7
 66
     1
 10
0.0
 20
0.0
 30
0.0
 70
     1
  0
VERTEX
  5
742
  8
DATA
  6
CONTINUOUS
 62
     7
 10
262.47596355290563
 20
652.76499999999999
 30
0.0
  0
VERTEX
  5
743
  8
DATA
  6
CONTINUOUS
 62
     7
 10
264.00596355290548
 20
652.76499999999999
 30
0.0
  0
VERTEX
  5
744
  8
DATA
  6
CONTINUOUS
 62
     7
 10
264.00596355290548
 20
651.23500000000001
 30
0.0
  0
VERTEX
  5
745
  8
DATA
  6
CONTINUOUS
 62
     7
 10
262.47596355290563
 20
651.23500000000001
 30
0.0
  0
SEQEND
  5
746
  8
DATA
  6
CONTINUOUS
 62
     7
  0
POLYLINE
  5
D8
  8
DATA
  6
CONTINUOUS
 62
     7
 66
     1
 10
0.0
 20
0.0
 30
0.0
 70
     1
  0
VERTEX
  5
747
  8
DATA
  6
CONTINUOUS
 62
     7
 10
260.47596355290563
 20
652.76499999999999
 30
0.0
  0
VERTEX
  5
748
  8
DATA
  6
CONTINUOUS
 62
     7
 10
262.00596355290548
 20
652.76499999999999
 30
0.0
  0
VERTEX
  5
749
  8
DATA
  6
CONTINUOUS
 62
     7
 10
262.00596355290548
 20
651.23500000000001
 30
0.0
  0
VERTEX
  5
74A
  8
DATA
  6
CONTINUOUS
 62
     7
 10
260.47596355290563
 20
651.23500000000001
 30
0.0
  0
SEQEND
  5
74B
  8
DATA
  6
CONTINUOUS
 62
     7
  0
POLYLINE
  5
DF
  8
DATA
  6
CONTINUOUS
 62
     7
 66
     1
 10
0.0
 20
0.0
 30
0.0
 70
     1
  0
VERTEX
  5
74C
  8
DATA
  6
CONTINUOUS
 62
     7
 10
258.47596355290563
 20
652.76499999999999
 30
0.0
  0
VERTEX
  5
74D
  8
DATA
  6
CONTINUOUS
 62
     7
 10
260.00596355290548
 20
652.76499999999999
 30
0.0
  0
VERTEX
  5
74E
  8
DATA
  6
CONTINUOUS
 62
     7
 10
260.00596355290548
 20
651.23500000000001
 30
0.0
  0
VERTEX
  5
74F
  8
DATA
  6
CONTINUOUS
 62
     7
 10
258.47596355290563
 20
651.23500000000001
 30
0.0
  0
SEQEND
  5
750
  8
DATA
  6
CONTINUOUS
 62
     7
  0
POLYLINE
  5
E6
  8
DATA
  6
CONTINUOUS
 62
     7
 66
     1
 10
0.0
 20
0.0
 30
0.0
 70
     1
  0
VERTEX
  5
751
  8
DATA
  6
CONTINUOUS
 62
     7
 10
256.4759635529054
 20
652.76499999999999
 30
0.0
  0
VERTEX
  5
752
  8
DATA
  6
CONTINUOUS
 62
     7
 10
258.00596355290548
 20
652.76499999999999
 30
0.0
  0
VERTEX
  5
753
  8
DATA
  6
CONTINUOUS
 62
     7
 10
258.00596355290548
 20
651.23500000000001
 30
0.0
  0
VERTEX
  5
754
  8
DATA
  6
CONTINUOUS
 62
     7
 10
256.4759635529054
 20
651.23500000000001
 30
0.0
  0
SEQEND
  5
755
  8
DATA
  6
CONTINUOUS
 62
     7
  0
POLYLINE
  5
ED
  8
DATA
  6
CONTINUOUS
 62
     7
 66
     1
 10
0.0
 20
0.0
 30
0.0
 70
     1
  0
VERTEX
  5
756
  8
DATA
  6
CONTINUOUS
 62
     7
 10
254.47596355290531
 20
652.76499999999999
 30
0.0
  0
VERTEX
  5
757
  8
DATA
  6
CONTINUOUS
 62
     7
 10
256.00596355290531
 20
652.76499999999999
 30
0.0
  0
VERTEX
  5
758
  8
DATA
  6
CONTINUOUS
 62
     7
 10
256.00596355290531
 20
651.23500000000001
 30
0.0
  0
VERTEX
  5
759
  8
DATA
  6
CONTINUOUS
 62
     7
 10
254.47596355290531
 20
651.23500000000001
 30
0.0
  0
SEQEND
  5
75A
  8
DATA
  6
CONTINUOUS
 62
     7
  0
POLYLINE
  5
F4
  8
DATA
  6
CONTINUOUS
 62
     7
 66
     1
 10
0.0
 20
0.0
 30
0.0
 70
     1
  0
VERTEX
  5
75B
  8
DATA
  6
CONTINUOUS
 62
     7
 10
252.47596355290511
 20
652.76499999999999
 30
0.0
  0
VERTEX
  5
75C
  8
DATA
  6
CONTINUOUS
 62
     7
 10
254.0059635529052
 20
652.76499999999999
 30
0.0
  0
VERTEX
  5
75D
  8
DATA
  6
CONTINUOUS
 62
     7
 10
254.0059635529052
 20
651.23500000000001
 30
0.0
  0
VERTEX
  5
75E
  8
DATA
  6
CONTINUOUS
 62
     7
 10
252.47596355290511
 20
651.23500000000001
 30
0.0
  0
SEQEND
  5
75F
  8
DATA
  6
CONTINUOUS
 62
     7
  0
POLYLINE
  5
FB
  8
DATA
  6
CONTINUOUS
 62
     7
 66
     1
 10
0.0
 20
0.0
 30
0.0
 70
     1
  0
VERTEX
  5
760
  8
DATA
  6
CONTINUOUS
 62
     7
 10
250.475963552905
 20
652.76499999999999
 30
0.0
  0
VERTEX
  5
761
  8
DATA
  6
CONTINUOUS
 62
     7
 10
252.005963552905
 20
652.76499999999999
 30
0.0
  0
VERTEX
  5
762
  8
DATA
  6
CONTINUOUS
 62
     7
 10
252.005963552905
 20
651.23500000000001
 30
0.0
  0
VERTEX
  5
763
  8
DATA
  6
CONTINUOUS
 62
     7
 10
250.475963552905
 20
651.23500000000001
 30
0.0
  0
SEQEND
  5
764
  8
DATA
  6
CONTINUOUS
 62
     7
  0
POLYLINE
  5
102
  8
DATA
  6
CONTINUOUS
 62
     7
 66
     1
 10
0.0
 20
0.0
 30
0.0
 70
     1
  0
VERTEX
  5
765
  8
DATA
  6
CONTINUOUS
 62
     7
 10
264.47596355290563
 20
650.76499999999987
 30
0.0
  0
VERTEX
  5
766
  8
DATA
  6
CONTINUOUS
 62
     7
 10
266.00596355290548
 20
650.76499999999987
 30
0.0
  0
VERTEX
  5
767
  8
DATA
  6
CONTINUOUS
 62
     7
 10
266.00596355290548
 20
649.23500000000001
 30
0.0
  0
VERTEX
  5
768
  8
DATA
  6
CONTINUOUS
 62
     7
 10
264.47596355290563
 20
649.23500000000001
 30
0.0
  0
SEQEND
  5
769
  8
DATA
  6
CONTINUOUS
 62
     7
  0
POLYLINE
  5
109
  8
DATA
  6
CONTINUOUS
 62
     7
 66
     1
 10
0.0
 20
0.0
 30
0.0
 70
     1
  0
VERTEX
  5
76A
  8
DATA
  6
CONTINUOUS
 62
     7
 10
262.47596355290563
 20
650.76499999999987
 30
0.0
  0
VERTEX
  5
76B
  8
DATA
  6
CONTINUOUS
 62
     7
 10
264.00596355290548
 20
650.76499999999987
 30
0.0
  0
VERTEX
  5
76C
  8
DATA
  6
CONTINUOUS
 62
     7
 10
264.00596355290548
 20
649.23500000000001
 30
0.0
  0
VERTEX
  5
76D
  8
DATA
  6
CONTINUOUS
 62
     7
 10
262.47596355290563
 20
649.23500000000001
 30
0.0
  0
SEQEND
  5
76E
  8
DATA
  6
CONTINUOUS
 62
     7
  0
POLYLINE
  5
110
  8
DATA
  6
CONTINUOUS
 62
     7
 66
     1
 10
0.0
 20
0.0
 30
0.0
 70
     1
  0
VERTEX
  5
76F
  8
DATA
  6
CONTINUOUS
 62
     7
 10
260.47596355290563
 20
650.76499999999987
 30
0.0
  0
VERTEX
  5
770
  8
DATA
  6
CONTINUOUS
 62
     7
 10
262.00596355290548
 20
650.76499999999987
 30
0.0
  0
VERTEX
  5
771
  8
DATA
  6
CONTINUOUS
 62
     7
 10
262.00596355290548
 20
649.23500000000001
 30
0.0
  0
VERTEX
  5
772
  8
DATA
  6
CONTINUOUS
 62
     7
 10
260.47596355290563
 20
649.23500000000001
 30
0.0
  0
SEQEND
  5
773
  8
DATA
  6
CONTINUOUS
 62
     7
  0
POLYLINE
  5
117
  8
DATA
  6
CONTINUOUS
 62
     7
 66
     1
 10
0.0
 20
0.0
 30
0.0
 70
     1
  0
VERTEX
  5
774
  8
DATA
  6
CONTINUOUS
 62
     7
 10
258.47596355290563
 20
650.76499999999987
 30
0.0
  0
VERTEX
  5
775
  8
DATA
  6
CONTINUOUS
 62
     7
 10
260.00596355290548
 20
650.76499999999987
 30
0.0
  0
VERTEX
  5
776
  8
DATA
  6
CONTINUOUS
 62
     7
 10
260.00596355290548
 20
649.23500000000001
 30
0.0
  0
VERTEX
  5
777
  8
DATA
  6
CONTINUOUS
 62
     7
 10
258.47596355290563
 20
649.23500000000001
 30
0.0
  0
SEQEND
  5
778
  8
DATA
  6
CONTINUOUS
 62
     7
  0
POLYLINE
  5
11E
  8
DATA
  6
CONTINUOUS
 62
     7
 66
     1
 10
0.0
 20
0.0
 30
0.0
 70
     1
  0
VERTEX
  5
779
  8
DATA
  6
CONTINUOUS
 62
     7
 10
256.4759635529054
 20
650.76499999999987
 30
0.0
  0
VERTEX
  5
77A
  8
DATA
  6
CONTINUOUS
 62
     7
 10
258.00596355290548
 20
650.76499999999987
 30
0.0
  0
VERTEX
  5
77B
  8
DATA
  6
CONTINUOUS
 62
     7
 10
258.00596355290548
 20
649.23500000000001
 30
0.0
  0
VERTEX
  5
77C
  8
DATA
  6
CONTINUOUS
 62
     7
 10
256.4759635529054
 20
649.23500000000001
 30
0.0
  0
SEQEND
  5
77D
  8
DATA
  6
CONTINUOUS
 62
     7
  0
POLYLINE
  5
125
  8
DATA
  6
CONTINUOUS
 62
     7
 66
     1
 10
0.0
 20
0.0
 30
0.0
 70
     1
  0
VERTEX
  5
77E
  8
DATA
  6
CONTINUOUS
 62
     7
 10
254.47596355290531
 20
650.76499999999987
 30
0.0
  0
VERTEX
  5
77F
  8
DATA
  6
CONTINUOUS
 62
     7
 10
256.00596355290531
 20
650.76499999999987
 30
0.0
  0
VERTEX
  5
780
  8
DATA
  6
CONTINUOUS
 62
     7
 10
256.00596355290531
 20
649.23500000000001
 30
0.0
  0
VERTEX
  5
781
  8
DATA
  6
CONTINUOUS
 62
     7
 10
254.47596355290531
 20
649.23500000000001
 30
0.0
  0
SEQEND
  5
782
  8
DATA
  6
CONTINUOUS
 62
     7
  0
POLYLINE
  5
12C
  8
DATA
  6
CONTINUOUS
 62
     7
 66
     1
 10
0.0
 20
0.0
 30
0.0
 70
     1
  0
VERTEX
  5
783
  8
DATA
  6
CONTINUOUS
 62
     7
 10
252.47596355290511
 20
650.76499999999987
 30
0.0
  0
VERTEX
  5
784
  8
DATA
  6
CONTINUOUS
 62
     7
 10
254.0059635529052
 20
650.76499999999987
 30
0.0
  0
VERTEX
  5
785
  8
DATA
  6
CONTINUOUS
 62
     7
 10
254.0059635529052
 20
649.23500000000001
 30
0.0
  0
VERTEX
  5
786
  8
DATA
  6
CONTINUOUS
 62
     7
 10
252.47596355290511
 20
649.23500000000001
 30
0.0
  0
SEQEND
  5
787
  8
DATA
  6
CONTINUOUS
 62
     7
  0
POLYLINE
  5
133
  8
DATA
  6
CONTINUOUS
 62
     7
 66
     1
 10
0.0
 20
0.0
 30
0.0
 70
     1
  0
VERTEX
  5
788
  8
DATA
  6
CONTINUOUS
 62
     7
 10
250.475963552905
 20
650.76499999999987
 30
0.0
  0
VERTEX
  5
789
  8
DATA
  6
CONTINUOUS
 62
     7
 10
252.005963552905
 20
650.76499999999987
 30
0.0
  0
VERTEX
  5
78A
  8
DATA
  6
CONTINUOUS
 62
     7
 10
252.005963552905
 20
649.23500000000001
 30
0.0
  0
VERTEX
  5
78B
  8
DATA
  6
CONTINUOUS
 62
     7
 10
250.475963552905
 20
649.23500000000001
 30
0.0
  0
SEQEND
  5
78C
  8
DATA
  6
CONTINUOUS
 62
     7
  0
POLYLINE
  5
13A
  8
DATA
  6
CONTINUOUS
 62
     7
 66
     1
 10
0.0
 20
0.0
 30
0.0
 70
     1
  0
VERTEX
  5
78D
  8
DATA
  6
CONTINUOUS
 62
     7
 10
264.47596355290563
 20
654.76499999999987
 30
0.0
  0
VERTEX
  5
78E
  8
DATA
  6
CONTINUOUS
 62
     7
 10
266.00596355290548
 20
654.76499999999987
 30
0.0
  0
VERTEX
  5
78F
  8
DATA
  6
CONTINUOUS
 62
     7
 10
266.00596355290548
 20
653.23500000000001
 30
0.0
  0
VERTEX
  5
790
  8
DATA
  6
CONTINUOUS
 62
     7
 10
264.47596355290563
 20
653.23500000000001
 30
0.0
  0
SEQEND
  5
791
  8
DATA
  6
CONTINUOUS
 62
     7
  0
POLYLINE
  5
141
  8
DATA
  6
CONTINUOUS
 62
     7
 66
     1
 10
0.0
 20
0.0
 30
0.0
 70
     1
  0
VERTEX
  5
792
  8
DATA
  6
CONTINUOUS
 62
     7
 10
262.47596355290563
 20
654.76499999999987
 30
0.0
  0
VERTEX
  5
793
  8
DATA
  6
CONTINUOUS
 62
     7
 10
264.00596355290548
 20
654.76499999999987
 30
0.0
  0
VERTEX
  5
794
  8
DATA
  6
CONTINUOUS
 62
     7
 10
264.00596355290548
 20
653.23500000000001
 30
0.0
  0
VERTEX
  5
795
  8
DATA
  6
CONTINUOUS
 62
     7
 10
262.47596355290563
 20
653.23500000000001
 30
0.0
  0
SEQEND
  5
796
  8
DATA
  6
CONTINUOUS
 62
     7
  0
POLYLINE
  5
148
  8
DATA
  6
CONTINUOUS
 62
     7
 66
     1
 10
0.0
 20
0.0
 30
0.0
 70
     1
  0
VERTEX
  5
797
  8
DATA
  6
CONTINUOUS
 62
     7
 10
260.47596355290563
 20
654.76499999999987
 30
0.0
  0
VERTEX
  5
798
  8
DATA
  6
CONTINUOUS
 62
     7
 10
262.00596355290548
 20
654.76499999999987
 30
0.0
  0
VERTEX
  5
799
  8
DATA
  6
CONTINUOUS
 62
     7
 10
262.00596355290548
 20
653.23500000000001
 30
0.0
  0
VERTEX
  5
79A
  8
DATA
  6
CONTINUOUS
 62
     7
 10
260.47596355290563
 20
653.23500000000001
 30
0.0
  0
SEQEND
  5
79B
  8
DATA
  6
CONTINUOUS
 62
     7
  0
POLYLINE
  5
14F
  8
DATA
  6
CONTINUOUS
 62
     7
 66
     1
 10
0.0
 20
0.0
 30
0.0
 70
     1
  0
VERTEX
  5
79C
  8
DATA
  6
CONTINUOUS
 62
     7
 10
258.47596355290563
 20
654.76499999999987
 30
0.0
  0
VERTEX
  5
79D
  8
DATA
  6
CONTINUOUS
 62
     7
 10
260.00596355290548
 20
654.76499999999987
 30
0.0
  0
VERTEX
  5
79E
  8
DATA
  6
CONTINUOUS
 62
     7
 10
260.00596355290548
 20
653.23500000000001
 30
0.0
  0
VERTEX
  5
79F
  8
DATA
  6
CONTINUOUS
 62
     7
 10
258.47596355290563
 20
653.23500000000001
 30
0.0
  0
SEQEND
  5
7A0
  8
DATA
  6
CONTINUOUS
 62
     7
  0
POLYLINE
  5
156
  8
DATA
  6
CONTINUOUS
 62
     7
 66
     1
 10
0.0
 20
0.0
 30
0.0
 70
     1
  0
VERTEX
  5
7A1
  8
DATA
  6
CONTINUOUS
 62
     7
 10
256.4759635529054
 20
654.76499999999987
 30
0.0
  0
VERTEX
  5
7A2
  8
DATA
  6
CONTINUOUS
 62
     7
 10
258.00596355290548
 20
654.76499999999987
 30
0.0
  0
VERTEX
  5
7A3
  8
DATA
  6
CONTINUOUS
 62
     7
 10
258.00596355290548
 20
653.23500000000001
 30
0.0
  0
VERTEX
  5
7A4
  8
DATA
  6
CONTINUOUS
 62
     7
 10
256.4759635529054
 20
653.23500000000001
 30
0.0
  0
SEQEND
  5
7A5
  8
DATA
  6
CONTINUOUS
 62
     7
  0
POLYLINE
  5
15D
  8
DATA
  6
CONTINUOUS
 62
     7
 66
     1
 10
0.0
 20
0.0
 30
0.0
 70
     1
  0
VERTEX
  5
7A6
  8
DATA
  6
CONTINUOUS
 62
     7
 10
254.47596355290531
 20
654.76499999999987
 30
0.0
  0
VERTEX
  5
7A7
  8
DATA
  6
CONTINUOUS
 62
     7
 10
256.00596355290531
 20
654.76499999999987
 30
0.0
  0
VERTEX
  5
7A8
  8
DATA
  6
CONTINUOUS
 62
     7
 10
256.00596355290531
 20
653.23500000000001
 30
0.0
  0
VERTEX
  5
7A9
  8
DATA
  6
CONTINUOUS
 62
     7
 10
254.47596355290531
 20
653.23500000000001
 30
0.0
  0
SEQEND
  5
7AA
  8
DATA
  6
CONTINUOUS
 62
     7
  0
POLYLINE
  5
164
  8
DATA
  6
CONTINUOUS
 62
     7
 66
     1
 10
0.0
 20
0.0
 30
0.0
 70
     1
  0
VERTEX
  5
7AB
  8
DATA
  6
CONTINUOUS
 62
     7
 10
252.47596355290511
 20
654.76499999999987
 30
0.0
  0
VERTEX
  5
7AC
  8
DATA
  6
CONTINUOUS
 62
     7
 10
254.0059635529052
 20
654.76499999999987
 30
0.0
  0
VERTEX
  5
7AD
  8
DATA
  6
CONTINUOUS
 62
     7
 10
254.0059635529052
 20
653.23500000000001
 30
0.0
  0
VERTEX
  5
7AE
  8
DATA
  6
CONTINUOUS
 62
     7
 10
252.47596355290511
 20
653.23500000000001
 30
0.0
  0
SEQEND
  5
7AF
  8
DATA
  6
CONTINUOUS
 62
     7
  0
POLYLINE
  5
16B
  8
DATA
  6
CONTINUOUS
 62
     7
 66
     1
 10
0.0
 20
0.0
 30
0.0
 70
     1
  0
VERTEX
  5
7B0
  8
DATA
  6
CONTINUOUS
 62
     7
 10
250.475963552905
 20
654.76499999999987
 30
0.0
  0
VERTEX
  5
7B1
  8
DATA
  6
CONTINUOUS
 62
     7
 10
252.005963552905
 20
654.76499999999987
 30
0.0
  0
VERTEX
  5
7B2
  8
DATA
  6
CONTINUOUS
 62
     7
 10
252.005963552905
 20
653.23500000000001
 30
0.0
  0
VERTEX
  5
7B3
  8
DATA
  6
CONTINUOUS
 62
     7
 10
250.475963552905
 20
653.23500000000001
 30
0.0
  0
SEQEND
  5
7B4
  8
DATA
  6
CONTINUOUS
 62
     7
  0
POLYLINE
  5
172
  8
DATA
  6
CONTINUOUS
 62
     7
 66
     1
 10
0.0
 20
0.0
 30
0.0
  0
VERTEX
  5
7B5
  8
DATA
  6
CONTINUOUS
 62
     7
 10
246.45589738172521
 20
651.60000000000002
 30
0.0
  0
VERTEX
  5
7B6
  8
DATA
  6
CONTINUOUS
 62
     7
 10
244.3558973817253
 20
651.60000000000002
 30
0.0
  0
VERTEX
  5
7B7
  8
DATA
  6
CONTINUOUS
 62
     7
 10
244.3558973817253
 20
652.40000000000009
 30
0.0
  0
VERTEX
  5
7B8
  8
DATA
  6
CONTINUOUS
 62
     7
 10
246.45589738172521
 20
652.40000000000009
 30
0.0
  0
SEQEND
  5
7B9
  8
DATA
  6
CONTINUOUS
 62
     7
  0
POLYLINE
  5
179
  8
DATA
  6
CONTINUOUS
 62
     7
 66
     1
 10
0.0
 20
0.0
 30
0.0
  0
VERTEX
  5
7BA
  8
DATA
  6
CONTINUOUS
 62
     7
 10
247.25589738172519
 20
652.40000000000009
 30
0.0
  0
VERTEX
  5
7BB
  8
DATA
  6
CONTINUOUS
 62
     7
 10
249.35589738172541
 20
652.40000000000009
 30
0.0
  0
VERTEX
  5
7BC
  8
DATA
  6
CONTINUOUS
 62
     7
 10
249.35589738172541
 20
651.60000000000002
 30
0.0
  0
VERTEX
  5
7BD
  8
DATA
  6
CONTINUOUS
 62
     7
 10
247.25589738172519
 20
651.60000000000002
 30
0.0
  0
SEQEND
  5
7BE
  8
DATA
  6
CONTINUOUS
 62
     7
  0
POLYLINE
  5
180
  8
DATA
  6
CONTINUOUS
 62
     7
 66
     1
 10
0.0
 20
0.0
 30
0.0
  0
VERTEX
  5
7BF
  8
DATA
  6
CONTINUOUS
 62
     7
 10
246.45589738172521
 20
652.40000000000009
 30
0.0
  0
VERTEX
  5
7C0
  8
DATA
  6
CONTINUOUS
 62
     7
 10
246.45589738172521
 20
654.49999999999989
 30
0.0
  0
VERTEX
  5
7C1
  8
DATA
  6
CONTINUOUS
 62
     7
 10
247.25589738172519
 20
654.49999999999989
 30
0.0
  0
VERTEX
  5
7C2
  8
DATA
  6
CONTINUOUS
 62
     7
 10
247.25589738172519
 20
652.40000000000009
 30
0.0
  0
SEQEND
  5
7C3
  8
DATA
  6
CONTINUOUS
 62
     7
  0
POLYLINE
  5
187
  8
DATA
  6
CONTINUOUS
 62
     7
 66
     1
 10
0.0
 20
0.0
 30
0.0
  0
VERTEX
  5
7C4
  8
DATA
  6
CONTINUOUS
 62
     7
 10
247.25589738172519
 20
651.60000000000002
 30
0.0
  0
VERTEX
  5
7C5
  8
DATA
  6
CONTINUOUS
 62
     7
 10
247.25589738172519
 20
649.5
 30
0.0
  0
VERTEX
  5
7C6
  8
DATA
  6
CONTINUOUS
 62
     7
 10
246.45589738172521
 20
649.5
 30
0.0
  0
VERTEX
  5
7C7
  8
DATA
  6
CONTINUOUS
 62
     7
 10
246.45589738172521
 20
651.60000000000002
 30
0.0
  0
SEQEND
  5
7C8
  8
DATA
  6
CONTINUOUS
 62
     7
  0
POLYLINE
  5
18E
  8
DATA
  6
CONTINUOUS
 62
     7
 66
     1
 10
0.0
 20
0.0
 30
0.0
 70
     1
  0
VERTEX
  5
7C9
  8
DATA
  6
CONTINUOUS
 62
     7
 10
247.71618181219699
 20
651.24057218935002
 30
0.0
  0
VERTEX
  5
7CA
  8
DATA
  6
CONTINUOUS
 62
     7
 10
248.71618181219711
 20
651.24057218935002
 30
0.0
  0
VERTEX
  5
7CB
  8
DATA
  6
CONTINUOUS
 62
     7
 10
248.71618181219711
 20
650.24057218935002
 30
0.0
  0
VERTEX
  5
7CC
  8
DATA
  6
CONTINUOUS
 62
     7
 10
247.71618181219699
 20
650.24057218935002
 30
0.0
  0
SEQEND
  5
7CD
  8
DATA
  6
CONTINUOUS
 62
     7
  0
POLYLINE
  5
195
  8
DATA
  6
CONTINUOUS
 62
     7
 66
     1
 10
0.0
 20
0.0
 30
0.0
 70
     1
  0
VERTEX
  5
7CE
  8
DATA
  6
CONTINUOUS
 62
     7
 10
244.99561295125361
 20
651.24057218935002
 30
0.0
  0
VERTEX
  5
7CF
  8
DATA
  6
CONTINUOUS
 62
     7
 10
245.99561295125349
 20
651.24057218935002
 30
0.0
  0
VERTEX
  5
7D0
  8
DATA
  6
CONTINUOUS
 62
     7
 10
245.99561295125349
 20
650.24057218935002
 30
0.0
  0
VERTEX
  5
7D1
  8
DATA
  6
CONTINUOUS
 62
     7
 10
244.99561295125361
 20
650.24057218935002
 30
0.0
  0
SEQEND
  5
7D2
  8
DATA
  6
CONTINUOUS
 62
     7
  0
POLYLINE
  5
19C
  8
DATA
  6
CONTINUOUS
 62
     7
 66
     1
 10
0.0
 20
0.0
 30
0.0
 70
     1
  0
VERTEX
  5
7D3
  8
DATA
  6
CONTINUOUS
 62
     7
 10
247.71618181219699
 20
653.75942781064987
 30
0.0
  0
VERTEX
  5
7D4
  8
DATA
  6
CONTINUOUS
 62
     7
 10
248.71618181219711
 20
653.75942781064987
 30
0.0
  0
VERTEX
  5
7D5
  8
DATA
  6
CONTINUOUS
 62
     7
 10
248.71618181219711
 20
652.75942781064975
 30
0.0
  0
VERTEX
  5
7D6
  8
DATA
  6
CONTINUOUS
 62
     7
 10
247.71618181219699
 20
652.75942781064975
 30
0.0
  0
SEQEND
  5
7D7
  8
DATA
  6
CONTINUOUS
 62
     7
  0
POLYLINE
  5
1A3
  8
DATA
  6
CONTINUOUS
 62
     7
 66
     1
 10
0.0
 20
0.0
 30
0.0
 70
     1
  0
VERTEX
  5
7D8
  8
DATA
  6
CONTINUOUS
 62
     7
 10
244.99561295125361
 20
653.75942781064987
 30
0.0
  0
VERTEX
  5
7D9
  8
DATA
  6
CONTINUOUS
 62
     7
 10
245.99561295125349
 20
653.75942781064987
 30
0.0
  0
VERTEX
  5
7DA
  8
DATA
  6
CONTINUOUS
 62
     7
 10
245.99561295125349
 20
652.75942781064975
 30
0.0
  0
VERTEX
  5
7DB
  8
DATA
  6
CONTINUOUS
 62
     7
 10
244.99561295125361
 20
652.75942781064975
 30
0.0
  0
SEQEND
  5
7DC
  8
DATA
  6
CONTINUOUS
 62
     7
  0
LINE
  5
1AA
  8
DATA
  6
CONTINUOUS
 62
     7
 10
266.95126919967328
 20
649.17010830548622
 30
0.0
 11
266.392352002221
 21
655.02010830548625
 31
0.0
  0
LINE
  5
1AB
  8
DATA
  6
CONTINUOUS
 62
     7
 10
243.06052556377841
 20
649.17010830548622
 30
0.0
 11
243.61944276123049
 21
655.02010830548625
 31
0.0
  0
ARC
  5
1AC
  8
DATA
  6
CONTINUOUS
 62
     7
 10
265.95580226891792
 20
649.07499999999982
 30
0.0
 40
1.0
 50
270.0
 51
5.4575534851073844
  0
ARC
  5
1AD
  8
DATA
  6
CONTINUOUS
 62
     7
 10
244.0559924945336
 20
649.07499999999982
 30
0.0
 40
0.9999999999999191
 50
174.54244651489199
 51
270.0
  0
ARC
  5
1AE
  8
DATA
  6
CONTINUOUS
 62
     7
 10
265.39688507146559
 20
654.92500000000007
 30
0.0
 40
0.9999999999999754
 50
5.4575534851077103
 51
90.0
  0
ARC
  5
1AF
  8
DATA
  6
CONTINUOUS
 62
     7
 10
244.6149096919859
 20
654.92500000000007
 30
0.0
 40
1.0
 50
90.0
 51
174.5424465148952
  0
CIRCLE
  5
1B0
  8
DATA
  6
CONTINUOUS
 62
     7
 10
294.74999999999972
 20
652.0
 30
0.0
 40
1.175000000000068
  0
POLYLINE
  5
1B1
  8
DATA
  6
CONTINUOUS
 62
     7
 66
     1
 10
0.0
 20
0.0
 30
0.0
 70
     1
  0
VERTEX
  5
7DD
  8
DATA
  6
CONTINUOUS
 62
     7
 10
294.74999999999972
 20
649.29999999999995
 30
0.0
  0
VERTEX
  5
7DE
  8
DATA
  6
CONTINUOUS
 62
     7
 10
292.41173140978168
 20
650.64999999999986
 30
0.0
  0
VERTEX
  5
7DF
  8
DATA
  6
CONTINUOUS
 62
     7
 10
292.41173140978168
 20
653.35000000000002
 30
0.0
  0
VERTEX
  5
7E0
  8
DATA
  6
CONTINUOUS
 62
     7
 10
294.74999999999972
 20
654.70000000000005
 30
0.0
  0
VERTEX
  5
7E1
  8
DATA
  6
CONTINUOUS
 62
     7
 10
297.08826859021769
 20
653.35000000000002
 30
0.0
  0
VERTEX
  5
7E2
  8
DATA
  6
CONTINUOUS
 62
     7
 10
297.08826859021769
 20
650.64999999999986
 30
0.0
  0
SEQEND
  5
7E3
  8
DATA
  6
CONTINUOUS
 62
     7
  0
CIRCLE
  5
1BA
  8
DATA
  6
CONTINUOUS
 62
     7
 10
327.25000000000028
 20
652.0
 30
0.0
 40
1.175000000000068
  0
POLYLINE
  5
1BB
  8
DATA
  6
CONTINUOUS
 62
     7
 66
     1
 10
0.0
 20
0.0
 30
0.0
 70
     1
  0
VERTEX
  5
7E4
  8
DATA
  6
CONTINUOUS
 62
     7
 10
327.25000000000028
 20
649.29999999999995
 30
0.0
  0
VERTEX
  5
7E5
  8
DATA
  6
CONTINUOUS
 62
     7
 10
324.91173140978231
 20
650.64999999999986
 30
0.0
  0
VERTEX
  5
7E6
  8
DATA
  6
CONTINUOUS
 62
     7
 10
324.91173140978231
 20
653.35000000000002
 30
0.0
  0
VERTEX
  5
7E7
  8
DATA
  6
CONTINUOUS
 62
     7
 10
327.25000000000028
 20
654.70000000000005
 30
0.0
  0
VERTEX
  5
7E8
  8
DATA
  6
CONTINUOUS
 62
     7
 10
329.58826859021832
 20
653.35000000000002
 30
0.0
  0
VERTEX
  5
7E9
  8
DATA
  6
CONTINUOUS
 62
     7
 10
329.58826859021832
 20
650.64999999999986
 30
0.0
  0
SEQEND
  5
7EA
  8
DATA
  6
CONTINUOUS
 62
     7
  0
LINE
  5
1C4
  8
DATA
  6
CONTINUOUS
 62
     7
 10
321.95580226891792
 20
648.07499999999982
 30
0.0
 11
300.0559924945336
 21
648.07499999999982
 31
0.0
  0
LINE
  5
1C5
  8
DATA
  6
CONTINUOUS
 62
     7
 10
300.61490969198587
 20
655.92500000000018
 30
0.0
 11
321.39688507146559
 21
655.92500000000018
 31
0.0
  0
POLYLINE
  5
1C6
  8
DATA
  6
CONTINUOUS
 62
     7
 66
     1
 10
0.0
 20
0.0
 30
0.0
 70
     1
  0
VERTEX
  5
7EB
  8
DATA
  6
CONTINUOUS
 62
     7
 10
320.47596355290551
 20
652.76499999999999
 30
0.0
  0
VERTEX
  5
7EC
  8
DATA
  6
CONTINUOUS
 62
     7
 10
322.00596355290548
 20
652.76499999999999
 30
0.0
  0
VERTEX
  5
7ED
  8
DATA
  6
CONTINUOUS
 62
     7
 10
322.00596355290548
 20
651.23500000000001
 30
0.0
  0
VERTEX
  5
7EE
  8
DATA
  6
CONTINUOUS
 62
     7
 10
320.47596355290551
 20
651.23500000000001
 30
0.0
  0
SEQEND
  5
7EF
  8
DATA
  6
CONTINUOUS
 62
     7
  0
POLYLINE
  5
1CD
  8
DATA
  6
CONTINUOUS
 62
     7
 66
     1
 10
0.0
 20
0.0
 30
0.0
 70
     1
  0
VERTEX
  5
7F0
  8
DATA
  6
CONTINUOUS
 62
     7
 10
318.47596355290551
 20
652.76499999999999
 30
0.0
  0
VERTEX
  5
7F1
  8
DATA
  6
CONTINUOUS
 62
     7
 10
320.00596355290548
 20
652.76499999999999
 30
0.0
  0
VERTEX
  5
7F2
  8
DATA
  6
CONTINUOUS
 62
     7
 10
320.00596355290548
 20
651.23500000000001
 30
0.0
  0
VERTEX
  5
7F3
  8
DATA
  6
CONTINUOUS
 62
     7
 10
318.47596355290551
 20
651.23500000000001
 30
0.0
  0
SEQEND
  5
7F4
  8
DATA
  6
CONTINUOUS
 62
     7
  0
POLYLINE
  5
1D4
  8
DATA
  6
CONTINUOUS
 62
     7
 66
     1
 10
0.0
 20
0.0
 30
0.0
 70
     1
  0
VERTEX
  5
7F5
  8
DATA
  6
CONTINUOUS
 62
     7
 10
316.47596355290551
 20
652.76499999999999
 30
0.0
  0
VERTEX
  5
7F6
  8
DATA
  6
CONTINUOUS
 62
     7
 10
318.00596355290548
 20
652.76499999999999
 30
0.0
  0
VERTEX
  5
7F7
  8
DATA
  6
CONTINUOUS
 62
     7
 10
318.00596355290548
 20
651.23500000000001
 30
0.0
  0
VERTEX
  5
7F8
  8
DATA
  6
CONTINUOUS
 62
     7
 10
316.47596355290551
 20
651.23500000000001
 30
0.0
  0
SEQEND
  5
7F9
  8
DATA
  6
CONTINUOUS
 62
     7
  0
POLYLINE
  5
1DB
  8
DATA
  6
CONTINUOUS
 62
     7
 66
     1
 10
0.0
 20
0.0
 30
0.0
 70
     1
  0
VERTEX
  5
7FA
  8
DATA
  6
CONTINUOUS
 62
     7
 10
314.47596355290551
 20
652.76499999999999
 30
0.0
  0
VERTEX
  5
7FB
  8
DATA
  6
CONTINUOUS
 62
     7
 10
316.00596355290548
 20
652.76499999999999
 30
0.0
  0
VERTEX
  5
7FC
  8
DATA
  6
CONTINUOUS
 62
     7
 10
316.00596355290548
 20
651.23500000000001
 30
0.0
  0
VERTEX
  5
7FD
  8
DATA
  6
CONTINUOUS
 62
     7
 10
314.47596355290551
 20
651.23500000000001
 30
0.0
  0
SEQEND
  5
7FE
  8
DATA
  6
CONTINUOUS
 62
     7
  0
POLYLINE
  5
1E2
  8
DATA
  6
CONTINUOUS
 62
     7
 66
     1
 10
0.0
 20
0.0
 30
0.0
 70
     1
  0
VERTEX
  5
7FF
  8
DATA
  6
CONTINUOUS
 62
     7
 10
312.4759635529054
 20
652.76499999999999
 30
0.0
  0
VERTEX
  5
800
  8
DATA
  6
CONTINUOUS
 62
     7
 10
314.00596355290548
 20
652.76499999999999
 30
0.0
  0
VERTEX
  5
801
  8
DATA
  6
CONTINUOUS
 62
     7
 10
314.00596355290548
 20
651.23500000000001
 30
0.0
  0
VERTEX
  5
802
  8
DATA
  6
CONTINUOUS
 62
     7
 10
312.4759635529054
 20
651.23500000000001
 30
0.0
  0
SEQEND
  5
803
  8
DATA
  6
CONTINUOUS
 62
     7
  0
POLYLINE
  5
1E9
  8
DATA
  6
CONTINUOUS
 62
     7
 66
     1
 10
0.0
 20
0.0
 30
0.0
 70
     1
  0
VERTEX
  5
804
  8
DATA
  6
CONTINUOUS
 62
     7
 10
310.47596355290523
 20
652.76499999999999
 30
0.0
  0
VERTEX
  5
805
  8
DATA
  6
CONTINUOUS
 62
     7
 10
312.00596355290531
 20
652.76499999999999
 30
0.0
  0
VERTEX
  5
806
  8
DATA
  6
CONTINUOUS
 62
     7
 10
312.00596355290531
 20
651.23500000000001
 30
0.0
  0
VERTEX
  5
807
  8
DATA
  6
CONTINUOUS
 62
     7
 10
310.47596355290523
 20
651.23500000000001
 30
0.0
  0
SEQEND
  5
808
  8
DATA
  6
CONTINUOUS
 62
     7
  0
POLYLINE
  5
1F0
  8
DATA
  6
CONTINUOUS
 62
     7
 66
     1
 10
0.0
 20
0.0
 30
0.0
 70
     1
  0
VERTEX
  5
809
  8
DATA
  6
CONTINUOUS
 62
     7
 10
308.47596355290511
 20
652.76499999999999
 30
0.0
  0
VERTEX
  5
80A
  8
DATA
  6
CONTINUOUS
 62
     7
 10
310.0059635529052
 20
652.76499999999999
 30
0.0
  0
VERTEX
  5
80B
  8
DATA
  6
CONTINUOUS
 62
     7
 10
310.0059635529052
 20
651.23500000000001
 30
0.0
  0
VERTEX
  5
80C
  8
DATA
  6
CONTINUOUS
 62
     7
 10
308.47596355290511
 20
651.23500000000001
 30
0.0
  0
SEQEND
  5
80D
  8
DATA
  6
CONTINUOUS
 62
     7
  0
POLYLINE
  5
1F7
  8
DATA
  6
CONTINUOUS
 62
     7
 66
     1
 10
0.0
 20
0.0
 30
0.0
 70
     1
  0
VERTEX
  5
80E
  8
DATA
  6
CONTINUOUS
 62
     7
 10
306.475963552905
 20
652.76499999999999
 30
0.0
  0
VERTEX
  5
80F
  8
DATA
  6
CONTINUOUS
 62
     7
 10
308.00596355290497
 20
652.76499999999999
 30
0.0
  0
VERTEX
  5
810
  8
DATA
  6
CONTINUOUS
 62
     7
 10
308.00596355290497
 20
651.23500000000001
 30
0.0
  0
VERTEX
  5
811
  8
DATA
  6
CONTINUOUS
 62
     7
 10
306.475963552905
 20
651.23500000000001
 30
0.0
  0
SEQEND
  5
812
  8
DATA
  6
CONTINUOUS
 62
     7
  0
POLYLINE
  5
1FE
  8
DATA
  6
CONTINUOUS
 62
     7
 66
     1
 10
0.0
 20
0.0
 30
0.0
 70
     1
  0
VERTEX
  5
813
  8
DATA
  6
CONTINUOUS
 62
     7
 10
320.47596355290551
 20
650.76499999999987
 30
0.0
  0
VERTEX
  5
814
  8
DATA
  6
CONTINUOUS
 62
     7
 10
322.00596355290548
 20
650.76499999999987
 30
0.0
  0
VERTEX
  5
815
  8
DATA
  6
CONTINUOUS
 62
     7
 10
322.00596355290548
 20
649.23500000000001
 30
0.0
  0
VERTEX
  5
816
  8
DATA
  6
CONTINUOUS
 62
     7
 10
320.47596355290551
 20
649.23500000000001
 30
0.0
  0
SEQEND
  5
817
  8
DATA
  6
CONTINUOUS
 62
     7
  0
POLYLINE
  5
205
  8
DATA
  6
CONTINUOUS
 62
     7
 66
     1
 10
0.0
 20
0.0
 30
0.0
 70
     1
  0
VERTEX
  5
818
  8
DATA
  6
CONTINUOUS
 62
     7
 10
318.47596355290551
 20
650.76499999999987
 30
0.0
  0
VERTEX
  5
819
  8
DATA
  6
CONTINUOUS
 62
     7
 10
320.00596355290548
 20
650.76499999999987
 30
0.0
  0
VERTEX
  5
81A
  8
DATA
  6
CONTINUOUS
 62
     7
 10
320.00596355290548
 20
649.23500000000001
 30
0.0
  0
VERTEX
  5
81B
  8
DATA
  6
CONTINUOUS
 62
     7
 10
318.47596355290551
 20
649.23500000000001
 30
0.0
  0
SEQEND
  5
81C
  8
DATA
  6
CONTINUOUS
 62
     7
  0
POLYLINE
  5
20C
  8
DATA
  6
CONTINUOUS
 62
     7
 66
     1
 10
0.0
 20
0.0
 30
0.0
 70
     1
  0
VERTEX
  5
81D
  8
DATA
  6
CONTINUOUS
 62
     7
 10
316.47596355290551
 20
650.76499999999987
 30
0.0
  0
VERTEX
  5
81E
  8
DATA
  6
CONTINUOUS
 62
     7
 10
318.00596355290548
 20
650.76499999999987
 30
0.0
  0
VERTEX
  5
81F
  8
DATA
  6
CONTINUOUS
 62
     7
 10
318.00596355290548
 20
649.23500000000001
 30
0.0
  0
VERTEX
  5
820
  8
DATA
  6
CONTINUOUS
 62
     7
 10
316.47596355290551
 20
649.23500000000001
 30
0.0
  0
SEQEND
  5
821
  8
DATA
  6
CONTINUOUS
 62
     7
  0
POLYLINE
  5
213
  8
DATA
  6
CONTINUOUS
 62
     7
 66
     1
 10
0.0
 20
0.0
 30
0.0
 70
     1
  0
VERTEX
  5
822
  8
DATA
  6
CONTINUOUS
 62
     7
 10
314.47596355290551
 20
650.76499999999987
 30
0.0
  0
VERTEX
  5
823
  8
DATA
  6
CONTINUOUS
 62
     7
 10
316.00596355290548
 20
650.76499999999987
 30
0.0
  0
VERTEX
  5
824
  8
DATA
  6
CONTINUOUS
 62
     7
 10
316.00596355290548
 20
649.23500000000001
 30
0.0
  0
VERTEX
  5
825
  8
DATA
  6
CONTINUOUS
 62
     7
 10
314.47596355290551
 20
649.23500000000001
 30
0.0
  0
SEQEND
  5
826
  8
DATA
  6
CONTINUOUS
 62
     7
  0
POLYLINE
  5
21A
  8
DATA
  6
CONTINUOUS
 62
     7
 66
     1
 10
0.0
 20
0.0
 30
0.0
 70
     1
  0
VERTEX
  5
827
  8
DATA
  6
CONTINUOUS
 62
     7
 10
312.4759635529054
 20
650.76499999999987
 30
0.0
  0
VERTEX
  5
828
  8
DATA
  6
CONTINUOUS
 62
     7
 10
314.00596355290548
 20
650.76499999999987
 30
0.0
  0
VERTEX
  5
829
  8
DATA
  6
CONTINUOUS
 62
     7
 10
314.00596355290548
 20
649.23500000000001
 30
0.0
  0
VERTEX
  5
82A
  8
DATA
  6
CONTINUOUS
 62
     7
 10
312.4759635529054
 20
649.23500000000001
 30
0.0
  0
SEQEND
  5
82B
  8
DATA
  6
CONTINUOUS
 62
     7
  0
POLYLINE
  5
221
  8
DATA
  6
CONTINUOUS
 62
     7
 66
     1
 10
0.0
 20
0.0
 30
0.0
 70
     1
  0
VERTEX
  5
82C
  8
DATA
  6
CONTINUOUS
 62
     7
 10
310.47596355290523
 20
650.76499999999987
 30
0.0
  0
VERTEX
  5
82D
  8
DATA
  6
CONTINUOUS
 62
     7
 10
312.00596355290531
 20
650.76499999999987
 30
0.0
  0
VERTEX
  5
82E
  8
DATA
  6
CONTINUOUS
 62
     7
 10
312.00596355290531
 20
649.23500000000001
 30
0.0
  0
VERTEX
  5
82F
  8
DATA
  6
CONTINUOUS
 62
     7
 10
310.47596355290523
 20
649.23500000000001
 30
0.0
  0
SEQEND
  5
830
  8
DATA
  6
CONTINUOUS
 62
     7
  0
POLYLINE
  5
228
  8
DATA
  6
CONTINUOUS
 62
     7
 66
     1
 10
0.0
 20
0.0
 30
0.0
 70
     1
  0
VERTEX
  5
831
  8
DATA
  6
CONTINUOUS
 62
     7
 10
308.47596355290511
 20
650.76499999999987
 30
0.0
  0
VERTEX
  5
832
  8
DATA
  6
CONTINUOUS
 62
     7
 10
310.0059635529052
 20
650.76499999999987
 30
0.0
  0
VERTEX
  5
833
  8
DATA
  6
CONTINUOUS
 62
     7
 10
310.0059635529052
 20
649.23500000000001
 30
0.0
  0
VERTEX
  5
834
  8
DATA
  6
CONTINUOUS
 62
     7
 10
308.47596355290511
 20
649.23500000000001
 30
0.0
  0
SEQEND
  5
835
  8
DATA
  6
CONTINUOUS
 62
     7
  0
POLYLINE
  5
22F
  8
DATA
  6
CONTINUOUS
 62
     7
 66
     1
 10
0.0
 20
0.0
 30
0.0
 70
     1
  0
VERTEX
  5
836
  8
DATA
  6
CONTINUOUS
 62
     7
 10
306.475963552905
 20
650.76499999999987
 30
0.0
  0
VERTEX
  5
837
  8
DATA
  6
CONTINUOUS
 62
     7
 10
308.00596355290497
 20
650.76499999999987
 30
0.0
  0
VERTEX
  5
838
  8
DATA
  6
CONTINUOUS
 62
     7
 10
308.00596355290497
 20
649.23500000000001
 30
0.0
  0
VERTEX
  5
839
  8
DATA
  6
CONTINUOUS
 62
     7
 10
306.475963552905
 20
649.23500000000001
 30
0.0
  0
SEQEND
  5
83A
  8
DATA
  6
CONTINUOUS
 62
     7
  0
POLYLINE
  5
236
  8
DATA
  6
CONTINUOUS
 62
     7
 66
     1
 10
0.0
 20
0.0
 30
0.0
 70
     1
  0
VERTEX
  5
83B
  8
DATA
  6
CONTINUOUS
 62
     7
 10
320.47596355290551
 20
654.76499999999987
 30
0.0
  0
VERTEX
  5
83C
  8
DATA
  6
CONTINUOUS
 62
     7
 10
322.00596355290548
 20
654.76499999999987
 30
0.0
  0
VERTEX
  5
83D
  8
DATA
  6
CONTINUOUS
 62
     7
 10
322.00596355290548
 20
653.23500000000001
 30
0.0
  0
VERTEX
  5
83E
  8
DATA
  6
CONTINUOUS
 62
     7
 10
320.47596355290551
 20
653.23500000000001
 30
0.0
  0
SEQEND
  5
83F
  8
DATA
  6
CONTINUOUS
 62
     7
  0
POLYLINE
  5
23D
  8
DATA
  6
CONTINUOUS
 62
     7
 66
     1
 10
0.0
 20
0.0
 30
0.0
 70
     1
  0
VERTEX
  5
840
  8
DATA
  6
CONTINUOUS
 62
     7
 10
318.47596355290551
 20
654.76499999999987
 30
0.0
  0
VERTEX
  5
841
  8
DATA
  6
CONTINUOUS
 62
     7
 10
320.00596355290548
 20
654.76499999999987
 30
0.0
  0
VERTEX
  5
842
  8
DATA
  6
CONTINUOUS
 62
     7
 10
320.00596355290548
 20
653.23500000000001
 30
0.0
  0
VERTEX
  5
843
  8
DATA
  6
CONTINUOUS
 62
     7
 10
318.47596355290551
 20
653.23500000000001
 30
0.0
  0
SEQEND
  5
844
  8
DATA
  6
CONTINUOUS
 62
     7
  0
POLYLINE
  5
244
  8
DATA
  6
CONTINUOUS
 62
     7
 66
     1
 10
0.0
 20
0.0
 30
0.0
 70
     1
  0
VERTEX
  5
845
  8
DATA
  6
CONTINUOUS
 62
     7
 10
316.47596355290551
 20
654.76499999999987
 30
0.0
  0
VERTEX
  5
846
  8
DATA
  6
CONTINUOUS
 62
     7
 10
318.00596355290548
 20
654.76499999999987
 30
0.0
  0
VERTEX
  5
847
  8
DATA
  6
CONTINUOUS
 62
     7
 10
318.00596355290548
 20
653.23500000000001
 30
0.0
  0
VERTEX
  5
848
  8
DATA
  6
CONTINUOUS
 62
     7
 10
316.47596355290551
 20
653.23500000000001
 30
0.0
  0
SEQEND
  5
849
  8
DATA
  6
CONTINUOUS
 62
     7
  0
POLYLINE
  5
24B
  8
DATA
  6
CONTINUOUS
 62
     7
 66
     1
 10
0.0
 20
0.0
 30
0.0
 70
     1
  0
VERTEX
  5
84A
  8
DATA
  6
CONTINUOUS
 62
     7
 10
314.47596355290551
 20
654.76499999999987
 30
0.0
  0
VERTEX
  5
84B
  8
DATA
  6
CONTINUOUS
 62
     7
 10
316.00596355290548
 20
654.76499999999987
 30
0.0
  0
VERTEX
  5
84C
  8
DATA
  6
CONTINUOUS
 62
     7
 10
316.00596355290548
 20
653.23500000000001
 30
0.0
  0
VERTEX
  5
84D
  8
DATA
  6
CONTINUOUS
 62
     7
 10
314.47596355290551
 20
653.23500000000001
 30
0.0
  0
SEQEND
  5
84E
  8
DATA
  6
CONTINUOUS
 62
     7
  0
POLYLINE
  5
252
  8
DATA
  6
CONTINUOUS
 62
     7
 66
     1
 10
0.0
 20
0.0
 30
0.0
 70
     1
  0
VERTEX
  5
84F
  8
DATA
  6
CONTINUOUS
 62
     7
 10
312.4759635529054
 20
654.76499999999987
 30
0.0
  0
VERTEX
  5
850
  8
DATA
  6
CONTINUOUS
 62
     7
 10
314.00596355290548
 20
654.76499999999987
 30
0.0
  0
VERTEX
  5
851
  8
DATA
  6
CONTINUOUS
 62
     7
 10
314.00596355290548
 20
653.23500000000001
 30
0.0
  0
VERTEX
  5
852
  8
DATA
  6
CONTINUOUS
 62
     7
 10
312.4759635529054
 20
653.23500000000001
 30
0.0
  0
SEQEND
  5
853
  8
DATA
  6
CONTINUOUS
 62
     7
  0
POLYLINE
  5
259
  8
DATA
  6
CONTINUOUS
 62
     7
 66
     1
 10
0.0
 20
0.0
 30
0.0
 70
     1
  0
VERTEX
  5
854
  8
DATA
  6
CONTINUOUS
 62
     7
 10
310.47596355290523
 20
654.76499999999987
 30
0.0
  0
VERTEX
  5
855
  8
DATA
  6
CONTINUOUS
 62
     7
 10
312.00596355290531
 20
654.76499999999987
 30
0.0
  0
VERTEX
  5
856
  8
DATA
  6
CONTINUOUS
 62
     7
 10
312.00596355290531
 20
653.23500000000001
 30
0.0
  0
VERTEX
  5
857
  8
DATA
  6
CONTINUOUS
 62
     7
 10
310.47596355290523
 20
653.23500000000001
 30
0.0
  0
SEQEND
  5
858
  8
DATA
  6
CONTINUOUS
 62
     7
  0
POLYLINE
  5
260
  8
DATA
  6
CONTINUOUS
 62
     7
 66
     1
 10
0.0
 20
0.0
 30
0.0
 70
     1
  0
VERTEX
  5
859
  8
DATA
  6
CONTINUOUS
 62
     7
 10
308.47596355290511
 20
654.76499999999987
 30
0.0
  0
VERTEX
  5
85A
  8
DATA
  6
CONTINUOUS
 62
     7
 10
310.0059635529052
 20
654.76499999999987
 30
0.0
  0
VERTEX
  5
85B
  8
DATA
  6
CONTINUOUS
 62
     7
 10
310.0059635529052
 20
653.23500000000001
 30
0.0
  0
VERTEX
  5
85C
  8
DATA
  6
CONTINUOUS
 62
     7
 10
308.47596355290511
 20
653.23500000000001
 30
0.0
  0
SEQEND
  5
85D
  8
DATA
  6
CONTINUOUS
 62
     7
  0
POLYLINE
  5
267
  8
DATA
  6
CONTINUOUS
 62
     7
 66
     1
 10
0.0
 20
0.0
 30
0.0
 70
     1
  0
VERTEX
  5
85E
  8
DATA
  6
CONTINUOUS
 62
     7
 10
306.475963552905
 20
654.76499999999987
 30
0.0
  0
VERTEX
  5
85F
  8
DATA
  6
CONTINUOUS
 62
     7
 10
308.00596355290497
 20
654.76499999999987
 30
0.0
  0
VERTEX
  5
860
  8
DATA
  6
CONTINUOUS
 62
     7
 10
308.00596355290497
 20
653.23500000000001
 30
0.0
  0
VERTEX
  5
861
  8
DATA
  6
CONTINUOUS
 62
     7
 10
306.475963552905
 20
653.23500000000001
 30
0.0
  0
SEQEND
  5
862
  8
DATA
  6
CONTINUOUS
 62
     7
  0
POLYLINE
  5
26E
  8
DATA
  6
CONTINUOUS
 62
     7
 66
     1
 10
0.0
 20
0.0
 30
0.0
  0
VERTEX
  5
863
  8
DATA
  6
CONTINUOUS
 62
     7
 10
302.45589738172521
 20
651.60000000000002
 30
0.0
  0
VERTEX
  5
864
  8
DATA
  6
CONTINUOUS
 62
     7
 10
300.3558973817253
 20
651.60000000000002
 30
0.0
  0
VERTEX
  5
865
  8
DATA
  6
CONTINUOUS
 62
     7
 10
300.3558973817253
 20
652.40000000000009
 30
0.0
  0
VERTEX
  5
866
  8
DATA
  6
CONTINUOUS
 62
     7
 10
302.45589738172521
 20
652.40000000000009
 30
0.0
  0
SEQEND
  5
867
  8
DATA
  6
CONTINUOUS
 62
     7
  0
POLYLINE
  5
275
  8
DATA
  6
CONTINUOUS
 62
     7
 66
     1
 10
0.0
 20
0.0
 30
0.0
  0
VERTEX
  5
868
  8
DATA
  6
CONTINUOUS
 62
     7
 10
303.25589738172522
 20
652.40000000000009
 30
0.0
  0
VERTEX
  5
869
  8
DATA
  6
CONTINUOUS
 62
     7
 10
305.35589738172541
 20
652.40000000000009
 30
0.0
  0
VERTEX
  5
86A
  8
DATA
  6
CONTINUOUS
 62
     7
 10
305.35589738172541
 20
651.60000000000002
 30
0.0
  0
VERTEX
  5
86B
  8
DATA
  6
CONTINUOUS
 62
     7
 10
303.25589738172522
 20
651.60000000000002
 30
0.0
  0
SEQEND
  5
86C
  8
DATA
  6
CONTINUOUS
 62
     7
  0
POLYLINE
  5
27C
  8
DATA
  6
CONTINUOUS
 62
     7
 66
     1
 10
0.0
 20
0.0
 30
0.0
  0
VERTEX
  5
86D
  8
DATA
  6
CONTINUOUS
 62
     7
 10
302.45589738172521
 20
652.40000000000009
 30
0.0
  0
VERTEX
  5
86E
  8
DATA
  6
CONTINUOUS
 62
     7
 10
302.45589738172521
 20
654.49999999999989
 30
0.0
  0
VERTEX
  5
86F
  8
DATA
  6
CONTINUOUS
 62
     7
 10
303.25589738172522
 20
654.49999999999989
 30
0.0
  0
VERTEX
  5
870
  8
DATA
  6
CONTINUOUS
 62
     7
 10
303.25589738172522
 20
652.40000000000009
 30
0.0
  0
SEQEND
  5
871
  8
DATA
  6
CONTINUOUS
 62
     7
  0
POLYLINE
  5
283
  8
DATA
  6
CONTINUOUS
 62
     7
 66
     1
 10
0.0
 20
0.0
 30
0.0
  0
VERTEX
  5
872
  8
DATA
  6
CONTINUOUS
 62
     7
 10
303.25589738172522
 20
651.60000000000002
 30
0.0
  0
VERTEX
  5
873
  8
DATA
  6
CONTINUOUS
 62
     7
 10
303.25589738172522
 20
649.5
 30
0.0
  0
VERTEX
  5
874
  8
DATA
  6
CONTINUOUS
 62
     7
 10
302.45589738172521
 20
649.5
 30
0.0
  0
VERTEX
  5
875
  8
DATA
  6
CONTINUOUS
 62
     7
 10
302.45589738172521
 20
651.60000000000002
 30
0.0
  0
SEQEND
  5
876
  8
DATA
  6
CONTINUOUS
 62
     7
  0
POLYLINE
  5
28A
  8
DATA
  6
CONTINUOUS
 62
     7
 66
     1
 10
0.0
 20
0.0
 30
0.0
 70
     1
  0
VERTEX
  5
877
  8
DATA
  6
CONTINUOUS
 62
     7
 10
303.71618181219691
 20
651.24057218935002
 30
0.0
  0
VERTEX
  5
878
  8
DATA
  6
CONTINUOUS
 62
     7
 10
304.71618181219708
 20
651.24057218935002
 30
0.0
  0
VERTEX
  5
879
  8
DATA
  6
CONTINUOUS
 62
     7
 10
304.71618181219708
 20
650.24057218935002
 30
0.0
  0
VERTEX
  5
87A
  8
DATA
  6
CONTINUOUS
 62
     7
 10
303.71618181219691
 20
650.24057218935002
 30
0.0
  0
SEQEND
  5
87B
  8
DATA
  6
CONTINUOUS
 62
     7
  0
POLYLINE
  5
291
  8
DATA
  6
CONTINUOUS
 62
     7
 66
     1
 10
0.0
 20
0.0
 30
0.0
 70
     1
  0
VERTEX
  5
87C
  8
DATA
  6
CONTINUOUS
 62
     7
 10
300.99561295125358
 20
651.24057218935002
 30
0.0
  0
VERTEX
  5
87D
  8
DATA
  6
CONTINUOUS
 62
     7
 10
301.99561295125352
 20
651.24057218935002
 30
0.0
  0
VERTEX
  5
87E
  8
DATA
  6
CONTINUOUS
 62
     7
 10
301.99561295125352
 20
650.24057218935002
 30
0.0
  0
VERTEX
  5
87F
  8
DATA
  6
CONTINUOUS
 62
     7
 10
300.99561295125358
 20
650.24057218935002
 30
0.0
  0
SEQEND
  5
880
  8
DATA
  6
CONTINUOUS
 62
     7
  0
POLYLINE
  5
298
  8
DATA
  6
CONTINUOUS
 62
     7
 66
     1
 10
0.0
 20
0.0
 30
0.0
 70
     1
  0
VERTEX
  5
881
  8
DATA
  6
CONTINUOUS
 62
     7
 10
303.71618181219691
 20
653.75942781064987
 30
0.0
  0
VERTEX
  5
882
  8
DATA
  6
CONTINUOUS
 62
     7
 10
304.71618181219708
 20
653.75942781064987
 30
0.0
  0
VERTEX
  5
883
  8
DATA
  6
CONTINUOUS
 62
     7
 10
304.71618181219708
 20
652.75942781064975
 30
0.0
  0
VERTEX
  5
884
  8
DATA
  6
CONTINUOUS
 62
     7
 10
303.71618181219691
 20
652.75942781064975
 30
0.0
  0
SEQEND
  5
885
  8
DATA
  6
CONTINUOUS
 62
     7
  0
POLYLINE
  5
29F
  8
DATA
  6
CONTINUOUS
 62
     7
 66
     1
 10
0.0
 20
0.0
 30
0.0
 70
     1
  0
VERTEX
  5
886
  8
DATA
  6
CONTINUOUS
 62
     7
 10
300.99561295125358
 20
653.75942781064987
 30
0.0
  0
VERTEX
  5
887
  8
DATA
  6
CONTINUOUS
 62
     7
 10
301.99561295125352
 20
653.75942781064987
 30
0.0
  0
VERTEX
  5
888
  8
DATA
  6
CONTINUOUS
 62
     7
 10
301.99561295125352
 20
652.75942781064975
 30
0.0
  0
VERTEX
  5
889
  8
DATA
  6
CONTINUOUS
 62
     7
 10
300.99561295125358
 20
652.75942781064975
 30
0.0
  0
SEQEND
  5
88A
  8
DATA
  6
CONTINUOUS
 62
     7
  0
LINE
  5
2A6
  8
DATA
  6
CONTINUOUS
 62
     7
 10
322.95126919967328
 20
649.17010830548622
 30
0.0
 11
322.392352002221
 21
655.02010830548625
 31
0.0
  0
LINE
  5
2A7
  8
DATA
  6
CONTINUOUS
 62
     7
 10
299.06052556377841
 20
649.17010830548622
 30
0.0
 11
299.61944276123069
 21
655.02010830548625
 31
0.0
  0
ARC
  5
2A8
  8
DATA
  6
CONTINUOUS
 62
     7
 10
321.95580226891792
 20
649.07499999999982
 30
0.0
 40
1.0
 50
270.0
 51
5.4575534851073844
  0
ARC
  5
2A9
  8
DATA
  6
CONTINUOUS
 62
     7
 10
300.0559924945336
 20
649.07499999999982
 30
0.0
 40
0.9999999999999191
 50
174.54244651489199
 51
270.0
  0
ARC
  5
2AA
  8
DATA
  6
CONTINUOUS
 62
     7
 10
321.39688507146559
 20
654.92500000000007
 30
0.0
 40
0.9999999999999754
 50
5.4575534851077103
 51
90.0
  0
ARC
  5
2AB
  8
DATA
  6
CONTINUOUS
 62
     7
 10
300.61490969198587
 20
654.92500000000007
 30
0.0
 40
1.0
 50
90.0
 51
174.54244651489509
  0
CIRCLE
  5
2AC
  8
DATA
  6
CONTINUOUS
 62
     7
 10
350.74999999999972
 20
652.0
 30
0.0
 40
1.175000000000068
  0
POLYLINE
  5
2AD
  8
DATA
  6
CONTINUOUS
 62
     7
 66
     1
 10
0.0
 20
0.0
 30
0.0
 70
     1
  0
VERTEX
  5
88B
  8
DATA
  6
CONTINUOUS
 62
     7
 10
350.74999999999972
 20
649.29999999999995
 30
0.0
  0
VERTEX
  5
88C
  8
DATA
  6
CONTINUOUS
 62
     7
 10
348.41173140978168
 20
650.64999999999986
 30
0.0
  0
VERTEX
  5
88D
  8
DATA
  6
CONTINUOUS
 62
     7
 10
348.41173140978168
 20
653.35000000000002
 30
0.0
  0
VERTEX
  5
88E
  8
DATA
  6
CONTINUOUS
 62
     7
 10
350.74999999999972
 20
654.70000000000005
 30
0.0
  0
VERTEX
  5
88F
  8
DATA
  6
CONTINUOUS
 62
     7
 10
353.08826859021769
 20
653.35000000000002
 30
0.0
  0
VERTEX
  5
890
  8
DATA
  6
CONTINUOUS
 62
     7
 10
353.08826859021769
 20
650.64999999999986
 30
0.0
  0
SEQEND
  5
891
  8
DATA
  6
CONTINUOUS
 62
     7
  0
CIRCLE
  5
2B6
  8
DATA
  6
CONTINUOUS
 62
     7
 10
383.25000000000023
 20
652.0
 30
0.0
 40
1.175000000000068
  0
POLYLINE
  5
2B7
  8
DATA
  6
CONTINUOUS
 62
     7
 66
     1
 10
0.0
 20
0.0
 30
0.0
 70
     1
  0
VERTEX
  5
892
  8
DATA
  6
CONTINUOUS
 62
     7
 10
383.25000000000023
 20
649.29999999999995
 30
0.0
  0
VERTEX
  5
893
  8
DATA
  6
CONTINUOUS
 62
     7
 10
380.91173140978231
 20
650.64999999999986
 30
0.0
  0
VERTEX
  5
894
  8
DATA
  6
CONTINUOUS
 62
     7
 10
380.91173140978231
 20
653.35000000000002
 30
0.0
  0
VERTEX
  5
895
  8
DATA
  6
CONTINUOUS
 62
     7
 10
383.25000000000023
 20
654.70000000000005
 30
0.0
  0
VERTEX
  5
896
  8
DATA
  6
CONTINUOUS
 62
     7
 10
385.58826859021832
 20
653.35000000000002
 30
0.0
  0
VERTEX
  5
897
  8
DATA
  6
CONTINUOUS
 62
     7
 10
385.58826859021832
 20
650.64999999999986
 30
0.0
  0
SEQEND
  5
898
  8
DATA
  6
CONTINUOUS
 62
     7
  0
LINE
  5
2C0
  8
DATA
  6
CONTINUOUS
 62
     7
 10
377.95580226891792
 20
648.07499999999982
 30
0.0
 11
356.0559924945336
 21
648.07499999999982
 31
0.0
  0
LINE
  5
2C1
  8
DATA
  6
CONTINUOUS
 62
     7
 10
356.61490969198587
 20
655.92500000000018
 30
0.0
 11
377.3968850714657
 21
655.92500000000018
 31
0.0
  0
POLYLINE
  5
2C2
  8
DATA
  6
CONTINUOUS
 62
     7
 66
     1
 10
0.0
 20
0.0
 30
0.0
 70
     1
  0
VERTEX
  5
899
  8
DATA
  6
CONTINUOUS
 62
     7
 10
376.47596355290551
 20
652.76499999999999
 30
0.0
  0
VERTEX
  5
89A
  8
DATA
  6
CONTINUOUS
 62
     7
 10
378.00596355290548
 20
652.76499999999999
 30
0.0
  0
VERTEX
  5
89B
  8
DATA
  6
CONTINUOUS
 62
     7
 10
378.00596355290548
 20
651.23500000000001
 30
0.0
  0
VERTEX
  5
89C
  8
DATA
  6
CONTINUOUS
 62
     7
 10
376.47596355290551
 20
651.23500000000001
 30
0.0
  0
SEQEND
  5
89D
  8
DATA
  6
CONTINUOUS
 62
     7
  0
POLYLINE
  5
2C9
  8
DATA
  6
CONTINUOUS
 62
     7
 66
     1
 10
0.0
 20
0.0
 30
0.0
 70
     1
  0
VERTEX
  5
89E
  8
DATA
  6
CONTINUOUS
 62
     7
 10
374.47596355290551
 20
652.76499999999999
 30
0.0
  0
VERTEX
  5
89F
  8
DATA
  6
CONTINUOUS
 62
     7
 10
376.00596355290548
 20
652.76499999999999
 30
0.0
  0
VERTEX
  5
8A0
  8
DATA
  6
CONTINUOUS
 62
     7
 10
376.00596355290548
 20
651.23500000000001
 30
0.0
  0
VERTEX
  5
8A1
  8
DATA
  6
CONTINUOUS
 62
     7
 10
374.47596355290551
 20
651.23500000000001
 30
0.0
  0
SEQEND
  5
8A2
  8
DATA
  6
CONTINUOUS
 62
     7
  0
POLYLINE
  5
2D0
  8
DATA
  6
CONTINUOUS
 62
     7
 66
     1
 10
0.0
 20
0.0
 30
0.0
 70
     1
  0
VERTEX
  5
8A3
  8
DATA
  6
CONTINUOUS
 62
     7
 10
372.47596355290551
 20
652.76499999999999
 30
0.0
  0
VERTEX
  5
8A4
  8
DATA
  6
CONTINUOUS
 62
     7
 10
374.00596355290548
 20
652.76499999999999
 30
0.0
  0
VERTEX
  5
8A5
  8
DATA
  6
CONTINUOUS
 62
     7
 10
374.00596355290548
 20
651.23500000000001
 30
0.0
  0
VERTEX
  5
8A6
  8
DATA
  6
CONTINUOUS
 62
     7
 10
372.47596355290551
 20
651.23500000000001
 30
0.0
  0
SEQEND
  5
8A7
  8
DATA
  6
CONTINUOUS
 62
     7
  0
POLYLINE
  5
2D7
  8
DATA
  6
CONTINUOUS
 62
     7
 66
     1
 10
0.0
 20
0.0
 30
0.0
 70
     1
  0
VERTEX
  5
8A8
  8
DATA
  6
CONTINUOUS
 62
     7
 10
370.47596355290551
 20
652.76499999999999
 30
0.0
  0
VERTEX
  5
8A9
  8
DATA
  6
CONTINUOUS
 62
     7
 10
372.00596355290548
 20
652.76499999999999
 30
0.0
  0
VERTEX
  5
8AA
  8
DATA
  6
CONTINUOUS
 62
     7
 10
372.00596355290548
 20
651.23500000000001
 30
0.0
  0
VERTEX
  5
8AB
  8
DATA
  6
CONTINUOUS
 62
     7
 10
370.47596355290551
 20
651.23500000000001
 30
0.0
  0
SEQEND
  5
8AC
  8
DATA
  6
CONTINUOUS
 62
     7
  0
POLYLINE
  5
2DE
  8
DATA
  6
CONTINUOUS
 62
     7
 66
     1
 10
0.0
 20
0.0
 30
0.0
 70
     1
  0
VERTEX
  5
8AD
  8
DATA
  6
CONTINUOUS
 62
     7
 10
368.47596355290528
 20
652.76499999999999
 30
0.0
  0
VERTEX
  5
8AE
  8
DATA
  6
CONTINUOUS
 62
     7
 10
370.00596355290548
 20
652.76499999999999
 30
0.0
  0
VERTEX
  5
8AF
  8
DATA
  6
CONTINUOUS
 62
     7
 10
370.00596355290548
 20
651.23500000000001
 30
0.0
  0
VERTEX
  5
8B0
  8
DATA
  6
CONTINUOUS
 62
     7
 10
368.47596355290528
 20
651.23500000000001
 30
0.0
  0
SEQEND
  5
8B1
  8
DATA
  6
CONTINUOUS
 62
     7
  0
POLYLINE
  5
2E5
  8
DATA
  6
CONTINUOUS
 62
     7
 66
     1
 10
0.0
 20
0.0
 30
0.0
 70
     1
  0
VERTEX
  5
8B2
  8
DATA
  6
CONTINUOUS
 62
     7
 10
366.47596355290523
 20
652.76499999999999
 30
0.0
  0
VERTEX
  5
8B3
  8
DATA
  6
CONTINUOUS
 62
     7
 10
368.0059635529052
 20
652.76499999999999
 30
0.0
  0
VERTEX
  5
8B4
  8
DATA
  6
CONTINUOUS
 62
     7
 10
368.0059635529052
 20
651.23500000000001
 30
0.0
  0
VERTEX
  5
8B5
  8
DATA
  6
CONTINUOUS
 62
     7
 10
366.47596355290523
 20
651.23500000000001
 30
0.0
  0
SEQEND
  5
8B6
  8
DATA
  6
CONTINUOUS
 62
     7
  0
POLYLINE
  5
2EC
  8
DATA
  6
CONTINUOUS
 62
     7
 66
     1
 10
0.0
 20
0.0
 30
0.0
 70
     1
  0
VERTEX
  5
8B7
  8
DATA
  6
CONTINUOUS
 62
     7
 10
364.47596355290511
 20
652.76499999999999
 30
0.0
  0
VERTEX
  5
8B8
  8
DATA
  6
CONTINUOUS
 62
     7
 10
366.0059635529052
 20
652.76499999999999
 30
0.0
  0
VERTEX
  5
8B9
  8
DATA
  6
CONTINUOUS
 62
     7
 10
366.0059635529052
 20
651.23500000000001
 30
0.0
  0
VERTEX
  5
8BA
  8
DATA
  6
CONTINUOUS
 62
     7
 10
364.47596355290511
 20
651.23500000000001
 30
0.0
  0
SEQEND
  5
8BB
  8
DATA
  6
CONTINUOUS
 62
     7
  0
POLYLINE
  5
2F3
  8
DATA
  6
CONTINUOUS
 62
     7
 66
     1
 10
0.0
 20
0.0
 30
0.0
 70
     1
  0
VERTEX
  5
8BC
  8
DATA
  6
CONTINUOUS
 62
     7
 10
362.47596355290489
 20
652.76499999999999
 30
0.0
  0
VERTEX
  5
8BD
  8
DATA
  6
CONTINUOUS
 62
     7
 10
364.00596355290497
 20
652.76499999999999
 30
0.0
  0
VERTEX
  5
8BE
  8
DATA
  6
CONTINUOUS
 62
     7
 10
364.00596355290497
 20
651.23500000000001
 30
0.0
  0
VERTEX
  5
8BF
  8
DATA
  6
CONTINUOUS
 62
     7
 10
362.47596355290489
 20
651.23500000000001
 30
0.0
  0
SEQEND
  5
8C0
  8
DATA
  6
CONTINUOUS
 62
     7
  0
POLYLINE
  5
2FA
  8
DATA
  6
CONTINUOUS
 62
     7
 66
     1
 10
0.0
 20
0.0
 30
0.0
 70
     1
  0
VERTEX
  5
8C1
  8
DATA
  6
CONTINUOUS
 62
     7
 10
376.47596355290551
 20
650.76499999999987
 30
0.0
  0
VERTEX
  5
8C2
  8
DATA
  6
CONTINUOUS
 62
     7
 10
378.00596355290548
 20
650.76499999999987
 30
0.0
  0
VERTEX
  5
8C3
  8
DATA
  6
CONTINUOUS
 62
     7
 10
378.00596355290548
 20
649.23500000000001
 30
0.0
  0
VERTEX
  5
8C4
  8
DATA
  6
CONTINUOUS
 62
     7
 10
376.47596355290551
 20
649.23500000000001
 30
0.0
  0
SEQEND
  5
8C5
  8
DATA
  6
CONTINUOUS
 62
     7
  0
POLYLINE
  5
301
  8
DATA
  6
CONTINUOUS
 62
     7
 66
     1
 10
0.0
 20
0.0
 30
0.0
 70
     1
  0
VERTEX
  5
8C6
  8
DATA
  6
CONTINUOUS
 62
     7
 10
374.47596355290551
 20
650.76499999999987
 30
0.0
  0
VERTEX
  5
8C7
  8
DATA
  6
CONTINUOUS
 62
     7
 10
376.00596355290548
 20
650.76499999999987
 30
0.0
  0
VERTEX
  5
8C8
  8
DATA
  6
CONTINUOUS
 62
     7
 10
376.00596355290548
 20
649.23500000000001
 30
0.0
  0
VERTEX
  5
8C9
  8
DATA
  6
CONTINUOUS
 62
     7
 10
374.47596355290551
 20
649.23500000000001
 30
0.0
  0
SEQEND
  5
8CA
  8
DATA
  6
CONTINUOUS
 62
     7
  0
POLYLINE
  5
308
  8
DATA
  6
CONTINUOUS
 62
     7
 66
     1
 10
0.0
 20
0.0
 30
0.0
 70
     1
  0
VERTEX
  5
8CB
  8
DATA
  6
CONTINUOUS
 62
     7
 10
372.47596355290551
 20
650.76499999999987
 30
0.0
  0
VERTEX
  5
8CC
  8
DATA
  6
CONTINUOUS
 62
     7
 10
374.00596355290548
 20
650.76499999999987
 30
0.0
  0
VERTEX
  5
8CD
  8
DATA
  6
CONTINUOUS
 62
     7
 10
374.00596355290548
 20
649.23500000000001
 30
0.0
  0
VERTEX
  5
8CE
  8
DATA
  6
CONTINUOUS
 62
     7
 10
372.47596355290551
 20
649.23500000000001
 30
0.0
  0
SEQEND
  5
8CF
  8
DATA
  6
CONTINUOUS
 62
     7
  0
POLYLINE
  5
30F
  8
DATA
  6
CONTINUOUS
 62
     7
 66
     1
 10
0.0
 20
0.0
 30
0.0
 70
     1
  0
VERTEX
  5
8D0
  8
DATA
  6
CONTINUOUS
 62
     7
 10
370.47596355290551
 20
650.76499999999987
 30
0.0
  0
VERTEX
  5
8D1
  8
DATA
  6
CONTINUOUS
 62
     7
 10
372.00596355290548
 20
650.76499999999987
 30
0.0
  0
VERTEX
  5
8D2
  8
DATA
  6
CONTINUOUS
 62
     7
 10
372.00596355290548
 20
649.23500000000001
 30
0.0
  0
VERTEX
  5
8D3
  8
DATA
  6
CONTINUOUS
 62
     7
 10
370.47596355290551
 20
649.23500000000001
 30
0.0
  0
SEQEND
  5
8D4
  8
DATA
  6
CONTINUOUS
 62
     7
  0
POLYLINE
  5
316
  8
DATA
  6
CONTINUOUS
 62
     7
 66
     1
 10
0.0
 20
0.0
 30
0.0
 70
     1
  0
VERTEX
  5
8D5
  8
DATA
  6
CONTINUOUS
 62
     7
 10
368.47596355290528
 20
650.76499999999987
 30
0.0
  0
VERTEX
  5
8D6
  8
DATA
  6
CONTINUOUS
 62
     7
 10
370.00596355290548
 20
650.76499999999987
 30
0.0
  0
VERTEX
  5
8D7
  8
DATA
  6
CONTINUOUS
 62
     7
 10
370.00596355290548
 20
649.23500000000001
 30
0.0
  0
VERTEX
  5
8D8
  8
DATA
  6
CONTINUOUS
 62
     7
 10
368.47596355290528
 20
649.23500000000001
 30
0.0
  0
SEQEND
  5
8D9
  8
DATA
  6
CONTINUOUS
 62
     7
  0
POLYLINE
  5
31D
  8
DATA
  6
CONTINUOUS
 62
     7
 66
     1
 10
0.0
 20
0.0
 30
0.0
 70
     1
  0
VERTEX
  5
8DA
  8
DATA
  6
CONTINUOUS
 62
     7
 10
366.47596355290523
 20
650.76499999999987
 30
0.0
  0
VERTEX
  5
8DB
  8
DATA
  6
CONTINUOUS
 62
     7
 10
368.0059635529052
 20
650.76499999999987
 30
0.0
  0
VERTEX
  5
8DC
  8
DATA
  6
CONTINUOUS
 62
     7
 10
368.0059635529052
 20
649.23500000000001
 30
0.0
  0
VERTEX
  5
8DD
  8
DATA
  6
CONTINUOUS
 62
     7
 10
366.47596355290523
 20
649.23500000000001
 30
0.0
  0
SEQEND
  5
8DE
  8
DATA
  6
CONTINUOUS
 62
     7
  0
POLYLINE
  5
324
  8
DATA
  6
CONTINUOUS
 62
     7
 66
     1
 10
0.0
 20
0.0
 30
0.0
 70
     1
  0
VERTEX
  5
8DF
  8
DATA
  6
CONTINUOUS
 62
     7
 10
364.47596355290511
 20
650.76499999999987
 30
0.0
  0
VERTEX
  5
8E0
  8
DATA
  6
CONTINUOUS
 62
     7
 10
366.0059635529052
 20
650.76499999999987
 30
0.0
  0
VERTEX
  5
8E1
  8
DATA
  6
CONTINUOUS
 62
     7
 10
366.0059635529052
 20
649.23500000000001
 30
0.0
  0
VERTEX
  5
8E2
  8
DATA
  6
CONTINUOUS
 62
     7
 10
364.47596355290511
 20
649.23500000000001
 30
0.0
  0
SEQEND
  5
8E3
  8
DATA
  6
CONTINUOUS
 62
     7
  0
POLYLINE
  5
32B
  8
DATA
  6
CONTINUOUS
 62
     7
 66
     1
 10
0.0
 20
0.0
 30
0.0
 70
     1
  0
VERTEX
  5
8E4
  8
DATA
  6
CONTINUOUS
 62
     7
 10
362.47596355290489
 20
650.76499999999987
 30
0.0
  0
VERTEX
  5
8E5
  8
DATA
  6
CONTINUOUS
 62
     7
 10
364.00596355290497
 20
650.76499999999987
 30
0.0
  0
VERTEX
  5
8E6
  8
DATA
  6
CONTINUOUS
 62
     7
 10
364.00596355290497
 20
649.23500000000001
 30
0.0
  0
VERTEX
  5
8E7
  8
DATA
  6
CONTINUOUS
 62
     7
 10
362.47596355290489
 20
649.23500000000001
 30
0.0
  0
SEQEND
  5
8E8
  8
DATA
  6
CONTINUOUS
 62
     7
  0
POLYLINE
  5
332
  8
DATA
  6
CONTINUOUS
 62
     7
 66
     1
 10
0.0
 20
0.0
 30
0.0
 70
     1
  0
VERTEX
  5
8E9
  8
DATA
  6
CONTINUOUS
 62
     7
 10
376.47596355290551
 20
654.76499999999987
 30
0.0
  0
VERTEX
  5
8EA
  8
DATA
  6
CONTINUOUS
 62
     7
 10
378.00596355290548
 20
654.76499999999987
 30
0.0
  0
VERTEX
  5
8EB
  8
DATA
  6
CONTINUOUS
 62
     7
 10
378.00596355290548
 20
653.23500000000001
 30
0.0
  0
VERTEX
  5
8EC
  8
DATA
  6
CONTINUOUS
 62
     7
 10
376.47596355290551
 20
653.23500000000001
 30
0.0
  0
SEQEND
  5
8ED
  8
DATA
  6
CONTINUOUS
 62
     7
  0
POLYLINE
  5
339
  8
DATA
  6
CONTINUOUS
 62
     7
 66
     1
 10
0.0
 20
0.0
 30
0.0
 70
     1
  0
VERTEX
  5
8EE
  8
DATA
  6
CONTINUOUS
 62
     7
 10
374.47596355290551
 20
654.76499999999987
 30
0.0
  0
VERTEX
  5
8EF
  8
DATA
  6
CONTINUOUS
 62
     7
 10
376.00596355290548
 20
654.76499999999987
 30
0.0
  0
VERTEX
  5
8F0
  8
DATA
  6
CONTINUOUS
 62
     7
 10
376.00596355290548
 20
653.23500000000001
 30
0.0
  0
VERTEX
  5
8F1
  8
DATA
  6
CONTINUOUS
 62
     7
 10
374.47596355290551
 20
653.23500000000001
 30
0.0
  0
SEQEND
  5
8F2
  8
DATA
  6
CONTINUOUS
 62
     7
  0
POLYLINE
  5
340
  8
DATA
  6
CONTINUOUS
 62
     7
 66
     1
 10
0.0
 20
0.0
 30
0.0
 70
     1
  0
VERTEX
  5
8F3
  8
DATA
  6
CONTINUOUS
 62
     7
 10
372.47596355290551
 20
654.76499999999987
 30
0.0
  0
VERTEX
  5
8F4
  8
DATA
  6
CONTINUOUS
 62
     7
 10
374.00596355290548
 20
654.76499999999987
 30
0.0
  0
VERTEX
  5
8F5
  8
DATA
  6
CONTINUOUS
 62
     7
 10
374.00596355290548
 20
653.23500000000001
 30
0.0
  0
VERTEX
  5
8F6
  8
DATA
  6
CONTINUOUS
 62
     7
 10
372.47596355290551
 20
653.23500000000001
 30
0.0
  0
SEQEND
  5
8F7
  8
DATA
  6
CONTINUOUS
 62
     7
  0
POLYLINE
  5
347
  8
DATA
  6
CONTINUOUS
 62
     7
 66
     1
 10
0.0
 20
0.0
 30
0.0
 70
     1
  0
VERTEX
  5
8F8
  8
DATA
  6
CONTINUOUS
 62
     7
 10
370.47596355290551
 20
654.76499999999987
 30
0.0
  0
VERTEX
  5
8F9
  8
DATA
  6
CONTINUOUS
 62
     7
 10
372.00596355290548
 20
654.76499999999987
 30
0.0
  0
VERTEX
  5
8FA
  8
DATA
  6
CONTINUOUS
 62
     7
 10
372.00596355290548
 20
653.23500000000001
 30
0.0
  0
VERTEX
  5
8FB
  8
DATA
  6
CONTINUOUS
 62
     7
 10
370.47596355290551
 20
653.23500000000001
 30
0.0
  0
SEQEND
  5
8FC
  8
DATA
  6
CONTINUOUS
 62
     7
  0
POLYLINE
  5
34E
  8
DATA
  6
CONTINUOUS
 62
     7
 66
     1
 10
0.0
 20
0.0
 30
0.0
 70
     1
  0
VERTEX
  5
8FD
  8
DATA
  6
CONTINUOUS
 62
     7
 10
368.47596355290528
 20
654.76499999999987
 30
0.0
  0
VERTEX
  5
8FE
  8
DATA
  6
CONTINUOUS
 62
     7
 10
370.00596355290548
 20
654.76499999999987
 30
0.0
  0
VERTEX
  5
8FF
  8
DATA
  6
CONTINUOUS
 62
     7
 10
370.00596355290548
 20
653.23500000000001
 30
0.0
  0
VERTEX
  5
900
  8
DATA
  6
CONTINUOUS
 62
     7
 10
368.47596355290528
 20
653.23500000000001
 30
0.0
  0
SEQEND
  5
901
  8
DATA
  6
CONTINUOUS
 62
     7
  0
POLYLINE
  5
355
  8
DATA
  6
CONTINUOUS
 62
     7
 66
     1
 10
0.0
 20
0.0
 30
0.0
 70
     1
  0
VERTEX
  5
902
  8
DATA
  6
CONTINUOUS
 62
     7
 10
366.47596355290523
 20
654.76499999999987
 30
0.0
  0
VERTEX
  5
903
  8
DATA
  6
CONTINUOUS
 62
     7
 10
368.0059635529052
 20
654.76499999999987
 30
0.0
  0
VERTEX
  5
904
  8
DATA
  6
CONTINUOUS
 62
     7
 10
368.0059635529052
 20
653.23500000000001
 30
0.0
  0
VERTEX
  5
905
  8
DATA
  6
CONTINUOUS
 62
     7
 10
366.47596355290523
 20
653.23500000000001
 30
0.0
  0
SEQEND
  5
906
  8
DATA
  6
CONTINUOUS
 62
     7
  0
POLYLINE
  5
35C
  8
DATA
  6
CONTINUOUS
 62
     7
 66
     1
 10
0.0
 20
0.0
 30
0.0
 70
     1
  0
VERTEX
  5
907
  8
DATA
  6
CONTINUOUS
 62
     7
 10
364.47596355290511
 20
654.76499999999987
 30
0.0
  0
VERTEX
  5
908
  8
DATA
  6
CONTINUOUS
 62
     7
 10
366.0059635529052
 20
654.76499999999987
 30
0.0
  0
VERTEX
  5
909
  8
DATA
  6
CONTINUOUS
 62
     7
 10
366.0059635529052
 20
653.23500000000001
 30
0.0
  0
VERTEX
  5
90A
  8
DATA
  6
CONTINUOUS
 62
     7
 10
364.47596355290511
 20
653.23500000000001
 30
0.0
  0
SEQEND
  5
90B
  8
DATA
  6
CONTINUOUS
 62
     7
  0
POLYLINE
  5
363
  8
DATA
  6
CONTINUOUS
 62
     7
 66
     1
 10
0.0
 20
0.0
 30
0.0
 70
     1
  0
VERTEX
  5
90C
  8
DATA
  6
CONTINUOUS
 62
     7
 10
362.47596355290489
 20
654.76499999999987
 30
0.0
  0
VERTEX
  5
90D
  8
DATA
  6
CONTINUOUS
 62
     7
 10
364.00596355290497
 20
654.76499999999987
 30
0.0
  0
VERTEX
  5
90E
  8
DATA
  6
CONTINUOUS
 62
     7
 10
364.00596355290497
 20
653.23500000000001
 30
0.0
  0
VERTEX
  5
90F
  8
DATA
  6
CONTINUOUS
 62
     7
 10
362.47596355290489
 20
653.23500000000001
 30
0.0
  0
SEQEND
  5
910
  8
DATA
  6
CONTINUOUS
 62
     7
  0
POLYLINE
  5
36A
  8
DATA
  6
CONTINUOUS
 62
     7
 66
     1
 10
0.0
 20
0.0
 30
0.0
  0
VERTEX
  5
911
  8
DATA
  6
CONTINUOUS
 62
     7
 10
358.45589738172521
 20
651.60000000000002
 30
0.0
  0
VERTEX
  5
912
  8
DATA
  6
CONTINUOUS
 62
     7
 10
356.3558973817253
 20
651.60000000000002
 30
0.0
  0
VERTEX
  5
913
  8
DATA
  6
CONTINUOUS
 62
     7
 10
356.3558973817253
 20
652.40000000000009
 30
0.0
  0
VERTEX
  5
914
  8
DATA
  6
CONTINUOUS
 62
     7
 10
358.45589738172521
 20
652.40000000000009
 30
0.0
  0
SEQEND
  5
915
  8
DATA
  6
CONTINUOUS
 62
     7
  0
POLYLINE
  5
371
  8
DATA
  6
CONTINUOUS
 62
     7
 66
     1
 10
0.0
 20
0.0
 30
0.0
  0
VERTEX
  5
916
  8
DATA
  6
CONTINUOUS
 62
     7
 10
359.25589738172522
 20
652.40000000000009
 30
0.0
  0
VERTEX
  5
917
  8
DATA
  6
CONTINUOUS
 62
     7
 10
361.35589738172553
 20
652.40000000000009
 30
0.0
  0
VERTEX
  5
918
  8
DATA
  6
CONTINUOUS
 62
     7
 10
361.35589738172553
 20
651.60000000000002
 30
0.0
  0
VERTEX
  5
919
  8
DATA
  6
CONTINUOUS
 62
     7
 10
359.25589738172522
 20
651.60000000000002
 30
0.0
  0
SEQEND
  5
91A
  8
DATA
  6
CONTINUOUS
 62
     7
  0
POLYLINE
  5
378
  8
DATA
  6
CONTINUOUS
 62
     7
 66
     1
 10
0.0
 20
0.0
 30
0.0
  0
VERTEX
  5
91B
  8
DATA
  6
CONTINUOUS
 62
     7
 10
358.45589738172521
 20
652.40000000000009
 30
0.0
  0
VERTEX
  5
91C
  8
DATA
  6
CONTINUOUS
 62
     7
 10
358.45589738172521
 20
654.49999999999989
 30
0.0
  0
VERTEX
  5
91D
  8
DATA
  6
CONTINUOUS
 62
     7
 10
359.25589738172522
 20
654.49999999999989
 30
0.0
  0
VERTEX
  5
91E
  8
DATA
  6
CONTINUOUS
 62
     7
 10
359.25589738172522
 20
652.40000000000009
 30
0.0
  0
SEQEND
  5
91F
  8
DATA
  6
CONTINUOUS
 62
     7
  0
POLYLINE
  5
37F
  8
DATA
  6
CONTINUOUS
 62
     7
 66
     1
 10
0.0
 20
0.0
 30
0.0
  0
VERTEX
  5
920
  8
DATA
  6
CONTINUOUS
 62
     7
 10
359.25589738172522
 20
651.60000000000002
 30
0.0
  0
VERTEX
  5
921
  8
DATA
  6
CONTINUOUS
 62
     7
 10
359.25589738172522
 20
649.5
 30
0.0
  0
VERTEX
  5
922
  8
DATA
  6
CONTINUOUS
 62
     7
 10
358.45589738172521
 20
649.5
 30
0.0
  0
VERTEX
  5
923
  8
DATA
  6
CONTINUOUS
 62
     7
 10
358.45589738172521
 20
651.60000000000002
 30
0.0
  0
SEQEND
  5
924
  8
DATA
  6
CONTINUOUS
 62
     7
  0
POLYLINE
  5
386
  8
DATA
  6
CONTINUOUS
 62
     7
 66
     1
 10
0.0
 20
0.0
 30
0.0
 70
     1
  0
VERTEX
  5
925
  8
DATA
  6
CONTINUOUS
 62
     7
 10
359.71618181219702
 20
651.24057218935002
 30
0.0
  0
VERTEX
  5
926
  8
DATA
  6
CONTINUOUS
 62
     7
 10
360.71618181219702
 20
651.24057218935002
 30
0.0
  0
VERTEX
  5
927
  8
DATA
  6
CONTINUOUS
 62
     7
 10
360.71618181219702
 20
650.24057218935002
 30
0.0
  0
VERTEX
  5
928
  8
DATA
  6
CONTINUOUS
 62
     7
 10
359.71618181219702
 20
650.24057218935002
 30
0.0
  0
SEQEND
  5
929
  8
DATA
  6
CONTINUOUS
 62
     7
  0
POLYLINE
  5
38D
  8
DATA
  6
CONTINUOUS
 62
     7
 66
     1
 10
0.0
 20
0.0
 30
0.0
 70
     1
  0
VERTEX
  5
92A
  8
DATA
  6
CONTINUOUS
 62
     7
 10
356.99561295125369
 20
651.24057218935002
 30
0.0
  0
VERTEX
  5
92B
  8
DATA
  6
CONTINUOUS
 62
     7
 10
357.99561295125352
 20
651.24057218935002
 30
0.0
  0
VERTEX
  5
92C
  8
DATA
  6
CONTINUOUS
 62
     7
 10
357.99561295125352
 20
650.24057218935002
 30
0.0
  0
VERTEX
  5
92D
  8
DATA
  6
CONTINUOUS
 62
     7
 10
356.99561295125369
 20
650.24057218935002
 30
0.0
  0
SEQEND
  5
92E
  8
DATA
  6
CONTINUOUS
 62
     7
  0
POLYLINE
  5
394
  8
DATA
  6
CONTINUOUS
 62
     7
 66
     1
 10
0.0
 20
0.0
 30
0.0
 70
     1
  0
VERTEX
  5
92F
  8
DATA
  6
CONTINUOUS
 62
     7
 10
359.71618181219702
 20
653.75942781064987
 30
0.0
  0
VERTEX
  5
930
  8
DATA
  6
CONTINUOUS
 62
     7
 10
360.71618181219702
 20
653.75942781064987
 30
0.0
  0
VERTEX
  5
931
  8
DATA
  6
CONTINUOUS
 62
     7
 10
360.71618181219702
 20
652.75942781064975
 30
0.0
  0
VERTEX
  5
932
  8
DATA
  6
CONTINUOUS
 62
     7
 10
359.71618181219702
 20
652.75942781064975
 30
0.0
  0
SEQEND
  5
933
  8
DATA
  6
CONTINUOUS
 62
     7
  0
POLYLINE
  5
39B
  8
DATA
  6
CONTINUOUS
 62
     7
 66
     1
 10
0.0
 20
0.0
 30
0.0
 70
     1
  0
VERTEX
  5
934
  8
DATA
  6
CONTINUOUS
 62
     7
 10
356.99561295125369
 20
653.75942781064987
 30
0.0
  0
VERTEX
  5
935
  8
DATA
  6
CONTINUOUS
 62
     7
 10
357.99561295125352
 20
653.75942781064987
 30
0.0
  0
VERTEX
  5
936
  8
DATA
  6
CONTINUOUS
 62
     7
 10
357.99561295125352
 20
652.75942781064975
 30
0.0
  0
VERTEX
  5
937
  8
DATA
  6
CONTINUOUS
 62
     7
 10
356.99561295125369
 20
652.75942781064975
 30
0.0
  0
SEQEND
  5
938
  8
DATA
  6
CONTINUOUS
 62
     7
  0
LINE
  5
3A2
  8
DATA
  6
CONTINUOUS
 62
     7
 10
378.95126919967322
 20
649.17010830548622
 30
0.0
 11
378.392352002221
 21
655.02010830548625
 31
0.0
  0
LINE
  5
3A3
  8
DATA
  6
CONTINUOUS
 62
     7
 10
355.06052556377841
 20
649.17010830548622
 30
0.0
 11
355.61944276123057
 21
655.02010830548625
 31
0.0
  0
ARC
  5
3A4
  8
DATA
  6
CONTINUOUS
 62
     7
 10
377.95580226891792
 20
649.07499999999982
 30
0.0
 40
1.0
 50
270.0
 51
5.4575534851074963
  0
ARC
  5
3A5
  8
DATA
  6
CONTINUOUS
 62
     7
 10
356.0559924945336
 20
649.07499999999982
 30
0.0
 40
0.9999999999999191
 50
174.54244651489199
 51
270.0
  0
ARC
  5
3A6
  8
DATA
  6
CONTINUOUS
 62
     7
 10
377.3968850714657
 20
654.92500000000007
 30
0.0
 40
1.0000000000000031
 50
5.457553485107554
 51
89.999999999999986
  0
ARC
  5
3A7
  8
DATA
  6
CONTINUOUS
 62
     7
 10
356.61490969198587
 20
654.92500000000007
 30
0.0
 40
1.0
 50
90.0
 51
174.54244651489509
  0
CIRCLE
  5
3A8
  8
DATA
  6
CONTINUOUS
 62
     7
 10
406.74999999999972
 20
652.0
 30
0.0
 40
1.175000000000068
  0
POLYLINE
  5
3A9
  8
DATA
  6
CONTINUOUS
 62
     7
 66
     1
 10
0.0
 20
0.0
 30
0.0
 70
     1
  0
VERTEX
  5
939
  8
DATA
  6
CONTINUOUS
 62
     7
 10
406.74999999999972
 20
649.29999999999995
 30
0.0
  0
VERTEX
  5
93A
  8
DATA
  6
CONTINUOUS
 62
     7
 10
404.41173140978168
 20
650.64999999999986
 30
0.0
  0
VERTEX
  5
93B
  8
DATA
  6
CONTINUOUS
 62
     7
 10
404.41173140978168
 20
653.35000000000002
 30
0.0
  0
VERTEX
  5
93C
  8
DATA
  6
CONTINUOUS
 62
     7
 10
406.74999999999972
 20
654.70000000000005
 30
0.0
  0
VERTEX
  5
93D
  8
DATA
  6
CONTINUOUS
 62
     7
 10
409.08826859021769
 20
653.35000000000002
 30
0.0
  0
VERTEX
  5
93E
  8
DATA
  6
CONTINUOUS
 62
     7
 10
409.08826859021769
 20
650.64999999999986
 30
0.0
  0
SEQEND
  5
93F
  8
DATA
  6
CONTINUOUS
 62
     7
  0
CIRCLE
  5
3B2
  8
DATA
  6
CONTINUOUS
 62
     7
 10
439.25000000000011
 20
652.0
 30
0.0
 40
1.175000000000068
  0
POLYLINE
  5
3B3
  8
DATA
  6
CONTINUOUS
 62
     7
 66
     1
 10
0.0
 20
0.0
 30
0.0
 70
     1
  0
VERTEX
  5
940
  8
DATA
  6
CONTINUOUS
 62
     7
 10
439.25000000000011
 20
649.29999999999995
 30
0.0
  0
VERTEX
  5
941
  8
DATA
  6
CONTINUOUS
 62
     7
 10
436.91173140978231
 20
650.64999999999986
 30
0.0
  0
VERTEX
  5
942
  8
DATA
  6
CONTINUOUS
 62
     7
 10
436.91173140978231
 20
653.35000000000002
 30
0.0
  0
VERTEX
  5
943
  8
DATA
  6
CONTINUOUS
 62
     7
 10
439.25000000000011
 20
654.70000000000005
 30
0.0
  0
VERTEX
  5
944
  8
DATA
  6
CONTINUOUS
 62
     7
 10
441.58826859021821
 20
653.35000000000002
 30
0.0
  0
VERTEX
  5
945
  8
DATA
  6
CONTINUOUS
 62
     7
 10
441.58826859021821
 20
650.64999999999986
 30
0.0
  0
SEQEND
  5
946
  8
DATA
  6
CONTINUOUS
 62
     7
  0
LINE
  5
3BC
  8
DATA
  6
CONTINUOUS
 62
     7
 10
433.95580226891792
 20
648.07499999999982
 30
0.0
 11
412.05599249453371
 21
648.07499999999982
 31
0.0
  0
LINE
  5
3BD
  8
DATA
  6
CONTINUOUS
 62
     7
 10
412.6149096919857
 20
655.92500000000018
 30
0.0
 11
433.3968850714657
 21
655.92500000000018
 31
0.0
  0
POLYLINE
  5
3BE
  8
DATA
  6
CONTINUOUS
 62
     7
 66
     1
 10
0.0
 20
0.0
 30
0.0
 70
     1
  0
VERTEX
  5
947
  8
DATA
  6
CONTINUOUS
 62
     7
 10
432.47596355290551
 20
652.76499999999999
 30
0.0
  0
VERTEX
  5
948
  8
DATA
  6
CONTINUOUS
 62
     7
 10
434.00596355290548
 20
652.76499999999999
 30
0.0
  0
VERTEX
  5
949
  8
DATA
  6
CONTINUOUS
 62
     7
 10
434.00596355290548
 20
651.23500000000001
 30
0.0
  0
VERTEX
  5
94A
  8
DATA
  6
CONTINUOUS
 62
     7
 10
432.47596355290551
 20
651.23500000000001
 30
0.0
  0
SEQEND
  5
94B
  8
DATA
  6
CONTINUOUS
 62
     7
  0
POLYLINE
  5
3C5
  8
DATA
  6
CONTINUOUS
 62
     7
 66
     1
 10
0.0
 20
0.0
 30
0.0
 70
     1
  0
VERTEX
  5
94C
  8
DATA
  6
CONTINUOUS
 62
     7
 10
430.4759635529054
 20
652.76499999999999
 30
0.0
  0
VERTEX
  5
94D
  8
DATA
  6
CONTINUOUS
 62
     7
 10
432.00596355290543
 20
652.76499999999999
 30
0.0
  0
VERTEX
  5
94E
  8
DATA
  6
CONTINUOUS
 62
     7
 10
432.00596355290543
 20
651.23500000000001
 30
0.0
  0
VERTEX
  5
94F
  8
DATA
  6
CONTINUOUS
 62
     7
 10
430.4759635529054
 20
651.23500000000001
 30
0.0
  0
SEQEND
  5
950
  8
DATA
  6
CONTINUOUS
 62
     7
  0
POLYLINE
  5
3CC
  8
DATA
  6
CONTINUOUS
 62
     7
 66
     1
 10
0.0
 20
0.0
 30
0.0
 70
     1
  0
VERTEX
  5
951
  8
DATA
  6
CONTINUOUS
 62
     7
 10
428.47596355290551
 20
652.76499999999999
 30
0.0
  0
VERTEX
  5
952
  8
DATA
  6
CONTINUOUS
 62
     7
 10
430.00596355290548
 20
652.76499999999999
 30
0.0
  0
VERTEX
  5
953
  8
DATA
  6
CONTINUOUS
 62
     7
 10
430.00596355290548
 20
651.23500000000001
 30
0.0
  0
VERTEX
  5
954
  8
DATA
  6
CONTINUOUS
 62
     7
 10
428.47596355290551
 20
651.23500000000001
 30
0.0
  0
SEQEND
  5
955
  8
DATA
  6
CONTINUOUS
 62
     7
  0
POLYLINE
  5
3D3
  8
DATA
  6
CONTINUOUS
 62
     7
 66
     1
 10
0.0
 20
0.0
 30
0.0
 70
     1
  0
VERTEX
  5
956
  8
DATA
  6
CONTINUOUS
 62
     7
 10
426.4759635529054
 20
652.76499999999999
 30
0.0
  0
VERTEX
  5
957
  8
DATA
  6
CONTINUOUS
 62
     7
 10
428.00596355290543
 20
652.76499999999999
 30
0.0
  0
VERTEX
  5
958
  8
DATA
  6
CONTINUOUS
 62
     7
 10
428.00596355290543
 20
651.23500000000001
 30
0.0
  0
VERTEX
  5
959
  8
DATA
  6
CONTINUOUS
 62
     7
 10
426.4759635529054
 20
651.23500000000001
 30
0.0
  0
SEQEND
  5
95A
  8
DATA
  6
CONTINUOUS
 62
     7
  0
POLYLINE
  5
3DA
  8
DATA
  6
CONTINUOUS
 62
     7
 66
     1
 10
0.0
 20
0.0
 30
0.0
 70
     1
  0
VERTEX
  5
95B
  8
DATA
  6
CONTINUOUS
 62
     7
 10
424.47596355290528
 20
652.76499999999999
 30
0.0
  0
VERTEX
  5
95C
  8
DATA
  6
CONTINUOUS
 62
     7
 10
426.00596355290548
 20
652.76499999999999
 30
0.0
  0
VERTEX
  5
95D
  8
DATA
  6
CONTINUOUS
 62
     7
 10
426.00596355290548
 20
651.23500000000001
 30
0.0
  0
VERTEX
  5
95E
  8
DATA
  6
CONTINUOUS
 62
     7
 10
424.47596355290528
 20
651.23500000000001
 30
0.0
  0
SEQEND
  5
95F
  8
DATA
  6
CONTINUOUS
 62
     7
  0
POLYLINE
  5
3E1
  8
DATA
  6
CONTINUOUS
 62
     7
 66
     1
 10
0.0
 20
0.0
 30
0.0
 70
     1
  0
VERTEX
  5
960
  8
DATA
  6
CONTINUOUS
 62
     7
 10
422.47596355290523
 20
652.76499999999999
 30
0.0
  0
VERTEX
  5
961
  8
DATA
  6
CONTINUOUS
 62
     7
 10
424.0059635529052
 20
652.76499999999999
 30
0.0
  0
VERTEX
  5
962
  8
DATA
  6
CONTINUOUS
 62
     7
 10
424.0059635529052
 20
651.23500000000001
 30
0.0
  0
VERTEX
  5
963
  8
DATA
  6
CONTINUOUS
 62
     7
 10
422.47596355290523
 20
651.23500000000001
 30
0.0
  0
SEQEND
  5
964
  8
DATA
  6
CONTINUOUS
 62
     7
  0
POLYLINE
  5
3E8
  8
DATA
  6
CONTINUOUS
 62
     7
 66
     1
 10
0.0
 20
0.0
 30
0.0
 70
     1
  0
VERTEX
  5
965
  8
DATA
  6
CONTINUOUS
 62
     7
 10
420.475963552905
 20
652.76499999999999
 30
0.0
  0
VERTEX
  5
966
  8
DATA
  6
CONTINUOUS
 62
     7
 10
422.0059635529052
 20
652.76499999999999
 30
0.0
  0
VERTEX
  5
967
  8
DATA
  6
CONTINUOUS
 62
     7
 10
422.0059635529052
 20
651.23500000000001
 30
0.0
  0
VERTEX
  5
968
  8
DATA
  6
CONTINUOUS
 62
     7
 10
420.475963552905
 20
651.23500000000001
 30
0.0
  0
SEQEND
  5
969
  8
DATA
  6
CONTINUOUS
 62
     7
  0
POLYLINE
  5
3EF
  8
DATA
  6
CONTINUOUS
 62
     7
 66
     1
 10
0.0
 20
0.0
 30
0.0
 70
     1
  0
VERTEX
  5
96A
  8
DATA
  6
CONTINUOUS
 62
     7
 10
418.47596355290489
 20
652.76499999999999
 30
0.0
  0
VERTEX
  5
96B
  8
DATA
  6
CONTINUOUS
 62
     7
 10
420.00596355290497
 20
652.76499999999999
 30
0.0
  0
VERTEX
  5
96C
  8
DATA
  6
CONTINUOUS
 62
     7
 10
420.00596355290497
 20
651.23500000000001
 30
0.0
  0
VERTEX
  5
96D
  8
DATA
  6
CONTINUOUS
 62
     7
 10
418.47596355290489
 20
651.23500000000001
 30
0.0
  0
SEQEND
  5
96E
  8
DATA
  6
CONTINUOUS
 62
     7
  0
POLYLINE
  5
3F6
  8
DATA
  6
CONTINUOUS
 62
     7
 66
     1
 10
0.0
 20
0.0
 30
0.0
 70
     1
  0
VERTEX
  5
96F
  8
DATA
  6
CONTINUOUS
 62
     7
 10
432.47596355290551
 20
650.76499999999987
 30
0.0
  0
VERTEX
  5
970
  8
DATA
  6
CONTINUOUS
 62
     7
 10
434.00596355290548
 20
650.76499999999987
 30
0.0
  0
VERTEX
  5
971
  8
DATA
  6
CONTINUOUS
 62
     7
 10
434.00596355290548
 20
649.23500000000001
 30
0.0
  0
VERTEX
  5
972
  8
DATA
  6
CONTINUOUS
 62
     7
 10
432.47596355290551
 20
649.23500000000001
 30
0.0
  0
SEQEND
  5
973
  8
DATA
  6
CONTINUOUS
 62
     7
  0
POLYLINE
  5
3FD
  8
DATA
  6
CONTINUOUS
 62
     7
 66
     1
 10
0.0
 20
0.0
 30
0.0
 70
     1
  0
VERTEX
  5
974
  8
DATA
  6
CONTINUOUS
 62
     7
 10
430.4759635529054
 20
650.76499999999987
 30
0.0
  0
VERTEX
  5
975
  8
DATA
  6
CONTINUOUS
 62
     7
 10
432.00596355290543
 20
650.76499999999987
 30
0.0
  0
VERTEX
  5
976
  8
DATA
  6
CONTINUOUS
 62
     7
 10
432.00596355290543
 20
649.23500000000001
 30
0.0
  0
VERTEX
  5
977
  8
DATA
  6
CONTINUOUS
 62
     7
 10
430.4759635529054
 20
649.23500000000001
 30
0.0
  0
SEQEND
  5
978
  8
DATA
  6
CONTINUOUS
 62
     7
  0
POLYLINE
  5
404
  8
DATA
  6
CONTINUOUS
 62
     7
 66
     1
 10
0.0
 20
0.0
 30
0.0
 70
     1
  0
VERTEX
  5
979
  8
DATA
  6
CONTINUOUS
 62
     7
 10
428.47596355290551
 20
650.76499999999987
 30
0.0
  0
VERTEX
  5
97A
  8
DATA
  6
CONTINUOUS
 62
     7
 10
430.00596355290548
 20
650.76499999999987
 30
0.0
  0
VERTEX
  5
97B
  8
DATA
  6
CONTINUOUS
 62
     7
 10
430.00596355290548
 20
649.23500000000001
 30
0.0
  0
VERTEX
  5
97C
  8
DATA
  6
CONTINUOUS
 62
     7
 10
428.47596355290551
 20
649.23500000000001
 30
0.0
  0
SEQEND
  5
97D
  8
DATA
  6
CONTINUOUS
 62
     7
  0
POLYLINE
  5
40B
  8
DATA
  6
CONTINUOUS
 62
     7
 66
     1
 10
0.0
 20
0.0
 30
0.0
 70
     1
  0
VERTEX
  5
97E
  8
DATA
  6
CONTINUOUS
 62
     7
 10
426.4759635529054
 20
650.76499999999987
 30
0.0
  0
VERTEX
  5
97F
  8
DATA
  6
CONTINUOUS
 62
     7
 10
428.00596355290543
 20
650.76499999999987
 30
0.0
  0
VERTEX
  5
980
  8
DATA
  6
CONTINUOUS
 62
     7
 10
428.00596355290543
 20
649.23500000000001
 30
0.0
  0
VERTEX
  5
981
  8
DATA
  6
CONTINUOUS
 62
     7
 10
426.4759635529054
 20
649.23500000000001
 30
0.0
  0
SEQEND
  5
982
  8
DATA
  6
CONTINUOUS
 62
     7
  0
POLYLINE
  5
412
  8
DATA
  6
CONTINUOUS
 62
     7
 66
     1
 10
0.0
 20
0.0
 30
0.0
 70
     1
  0
VERTEX
  5
983
  8
DATA
  6
CONTINUOUS
 62
     7
 10
424.47596355290528
 20
650.76499999999987
 30
0.0
  0
VERTEX
  5
984
  8
DATA
  6
CONTINUOUS
 62
     7
 10
426.00596355290548
 20
650.76499999999987
 30
0.0
  0
VERTEX
  5
985
  8
DATA
  6
CONTINUOUS
 62
     7
 10
426.00596355290548
 20
649.23500000000001
 30
0.0
  0
VERTEX
  5
986
  8
DATA
  6
CONTINUOUS
 62
     7
 10
424.47596355290528
 20
649.23500000000001
 30
0.0
  0
SEQEND
  5
987
  8
DATA
  6
CONTINUOUS
 62
     7
  0
POLYLINE
  5
419
  8
DATA
  6
CONTINUOUS
 62
     7
 66
     1
 10
0.0
 20
0.0
 30
0.0
 70
     1
  0
VERTEX
  5
988
  8
DATA
  6
CONTINUOUS
 62
     7
 10
422.47596355290523
 20
650.76499999999987
 30
0.0
  0
VERTEX
  5
989
  8
DATA
  6
CONTINUOUS
 62
     7
 10
424.0059635529052
 20
650.76499999999987
 30
0.0
  0
VERTEX
  5
98A
  8
DATA
  6
CONTINUOUS
 62
     7
 10
424.0059635529052
 20
649.23500000000001
 30
0.0
  0
VERTEX
  5
98B
  8
DATA
  6
CONTINUOUS
 62
     7
 10
422.47596355290523
 20
649.23500000000001
 30
0.0
  0
SEQEND
  5
98C
  8
DATA
  6
CONTINUOUS
 62
     7
  0
POLYLINE
  5
420
  8
DATA
  6
CONTINUOUS
 62
     7
 66
     1
 10
0.0
 20
0.0
 30
0.0
 70
     1
  0
VERTEX
  5
98D
  8
DATA
  6
CONTINUOUS
 62
     7
 10
420.475963552905
 20
650.76499999999987
 30
0.0
  0
VERTEX
  5
98E
  8
DATA
  6
CONTINUOUS
 62
     7
 10
422.0059635529052
 20
650.76499999999987
 30
0.0
  0
VERTEX
  5
98F
  8
DATA
  6
CONTINUOUS
 62
     7
 10
422.0059635529052
 20
649.23500000000001
 30
0.0
  0
VERTEX
  5
990
  8
DATA
  6
CONTINUOUS
 62
     7
 10
420.475963552905
 20
649.23500000000001
 30
0.0
  0
SEQEND
  5
991
  8
DATA
  6
CONTINUOUS
 62
     7
  0
POLYLINE
  5
427
  8
DATA
  6
CONTINUOUS
 62
     7
 66
     1
 10
0.0
 20
0.0
 30
0.0
 70
     1
  0
VERTEX
  5
992
  8
DATA
  6
CONTINUOUS
 62
     7
 10
418.47596355290489
 20
650.76499999999987
 30
0.0
  0
VERTEX
  5
993
  8
DATA
  6
CONTINUOUS
 62
     7
 10
420.00596355290497
 20
650.76499999999987
 30
0.0
  0
VERTEX
  5
994
  8
DATA
  6
CONTINUOUS
 62
     7
 10
420.00596355290497
 20
649.23500000000001
 30
0.0
  0
VERTEX
  5
995
  8
DATA
  6
CONTINUOUS
 62
     7
 10
418.47596355290489
 20
649.23500000000001
 30
0.0
  0
SEQEND
  5
996
  8
DATA
  6
CONTINUOUS
 62
     7
  0
POLYLINE
  5
42E
  8
DATA
  6
CONTINUOUS
 62
     7
 66
     1
 10
0.0
 20
0.0
 30
0.0
 70
     1
  0
VERTEX
  5
997
  8
DATA
  6
CONTINUOUS
 62
     7
 10
432.47596355290551
 20
654.76499999999987
 30
0.0
  0
VERTEX
  5
998
  8
DATA
  6
CONTINUOUS
 62
     7
 10
434.00596355290548
 20
654.76499999999987
 30
0.0
  0
VERTEX
  5
999
  8
DATA
  6
CONTINUOUS
 62
     7
 10
434.00596355290548
 20
653.23500000000001
 30
0.0
  0
VERTEX
  5
99A
  8
DATA
  6
CONTINUOUS
 62
     7
 10
432.47596355290551
 20
653.23500000000001
 30
0.0
  0
SEQEND
  5
99B
  8
DATA
  6
CONTINUOUS
 62
     7
  0
POLYLINE
  5
435
  8
DATA
  6
CONTINUOUS
 62
     7
 66
     1
 10
0.0
 20
0.0
 30
0.0
 70
     1
  0
VERTEX
  5
99C
  8
DATA
  6
CONTINUOUS
 62
     7
 10
430.4759635529054
 20
654.76499999999987
 30
0.0
  0
VERTEX
  5
99D
  8
DATA
  6
CONTINUOUS
 62
     7
 10
432.00596355290543
 20
654.76499999999987
 30
0.0
  0
VERTEX
  5
99E
  8
DATA
  6
CONTINUOUS
 62
     7
 10
432.00596355290543
 20
653.23500000000001
 30
0.0
  0
VERTEX
  5
99F
  8
DATA
  6
CONTINUOUS
 62
     7
 10
430.4759635529054
 20
653.23500000000001
 30
0.0
  0
SEQEND
  5
9A0
  8
DATA
  6
CONTINUOUS
 62
     7
  0
POLYLINE
  5
43C
  8
DATA
  6
CONTINUOUS
 62
     7
 66
     1
 10
0.0
 20
0.0
 30
0.0
 70
     1
  0
VERTEX
  5
9A1
  8
DATA
  6
CONTINUOUS
 62
     7
 10
428.47596355290551
 20
654.76499999999987
 30
0.0
  0
VERTEX
  5
9A2
  8
DATA
  6
CONTINUOUS
 62
     7
 10
430.00596355290548
 20
654.76499999999987
 30
0.0
  0
VERTEX
  5
9A3
  8
DATA
  6
CONTINUOUS
 62
     7
 10
430.00596355290548
 20
653.23500000000001
 30
0.0
  0
VERTEX
  5
9A4
  8
DATA
  6
CONTINUOUS
 62
     7
 10
428.47596355290551
 20
653.23500000000001
 30
0.0
  0
SEQEND
  5
9A5
  8
DATA
  6
CONTINUOUS
 62
     7
  0
POLYLINE
  5
443
  8
DATA
  6
CONTINUOUS
 62
     7
 66
     1
 10
0.0
 20
0.0
 30
0.0
 70
     1
  0
VERTEX
  5
9A6
  8
DATA
  6
CONTINUOUS
 62
     7
 10
426.4759635529054
 20
654.76499999999987
 30
0.0
  0
VERTEX
  5
9A7
  8
DATA
  6
CONTINUOUS
 62
     7
 10
428.00596355290543
 20
654.76499999999987
 30
0.0
  0
VERTEX
  5
9A8
  8
DATA
  6
CONTINUOUS
 62
     7
 10
428.00596355290543
 20
653.23500000000001
 30
0.0
  0
VERTEX
  5
9A9
  8
DATA
  6
CONTINUOUS
 62
     7
 10
426.4759635529054
 20
653.23500000000001
 30
0.0
  0
SEQEND
  5
9AA
  8
DATA
  6
CONTINUOUS
 62
     7
  0
POLYLINE
  5
44A
  8
DATA
  6
CONTINUOUS
 62
     7
 66
     1
 10
0.0
 20
0.0
 30
0.0
 70
     1
  0
VERTEX
  5
9AB
  8
DATA
  6
CONTINUOUS
 62
     7
 10
424.47596355290528
 20
654.76499999999987
 30
0.0
  0
VERTEX
  5
9AC
  8
DATA
  6
CONTINUOUS
 62
     7
 10
426.00596355290548
 20
654.76499999999987
 30
0.0
  0
VERTEX
  5
9AD
  8
DATA
  6
CONTINUOUS
 62
     7
 10
426.00596355290548
 20
653.23500000000001
 30
0.0
  0
VERTEX
  5
9AE
  8
DATA
  6
CONTINUOUS
 62
     7
 10
424.47596355290528
 20
653.23500000000001
 30
0.0
  0
SEQEND
  5
9AF
  8
DATA
  6
CONTINUOUS
 62
     7
  0
POLYLINE
  5
451
  8
DATA
  6
CONTINUOUS
 62
     7
 66
     1
 10
0.0
 20
0.0
 30
0.0
 70
     1
  0
VERTEX
  5
9B0
  8
DATA
  6
CONTINUOUS
 62
     7
 10
422.47596355290523
 20
654.76499999999987
 30
0.0
  0
VERTEX
  5
9B1
  8
DATA
  6
CONTINUOUS
 62
     7
 10
424.0059635529052
 20
654.76499999999987
 30
0.0
  0
VERTEX
  5
9B2
  8
DATA
  6
CONTINUOUS
 62
     7
 10
424.0059635529052
 20
653.23500000000001
 30
0.0
  0
VERTEX
  5
9B3
  8
DATA
  6
CONTINUOUS
 62
     7
 10
422.47596355290523
 20
653.23500000000001
 30
0.0
  0
SEQEND
  5
9B4
  8
DATA
  6
CONTINUOUS
 62
     7
  0
POLYLINE
  5
458
  8
DATA
  6
CONTINUOUS
 62
     7
 66
     1
 10
0.0
 20
0.0
 30
0.0
 70
     1
  0
VERTEX
  5
9B5
  8
DATA
  6
CONTINUOUS
 62
     7
 10
420.475963552905
 20
654.76499999999987
 30
0.0
  0
VERTEX
  5
9B6
  8
DATA
  6
CONTINUOUS
 62
     7
 10
422.0059635529052
 20
654.76499999999987
 30
0.0
  0
VERTEX
  5
9B7
  8
DATA
  6
CONTINUOUS
 62
     7
 10
422.0059635529052
 20
653.23500000000001
 30
0.0
  0
VERTEX
  5
9B8
  8
DATA
  6
CONTINUOUS
 62
     7
 10
420.475963552905
 20
653.23500000000001
 30
0.0
  0
SEQEND
  5
9B9
  8
DATA
  6
CONTINUOUS
 62
     7
  0
POLYLINE
  5
45F
  8
DATA
  6
CONTINUOUS
 62
     7
 66
     1
 10
0.0
 20
0.0
 30
0.0
 70
     1
  0
VERTEX
  5
9BA
  8
DATA
  6
CONTINUOUS
 62
     7
 10
418.47596355290489
 20
654.76499999999987
 30
0.0
  0
VERTEX
  5
9BB
  8
DATA
  6
CONTINUOUS
 62
     7
 10
420.00596355290497
 20
654.76499999999987
 30
0.0
  0
VERTEX
  5
9BC
  8
DATA
  6
CONTINUOUS
 62
     7
 10
420.00596355290497
 20
653.23500000000001
 30
0.0
  0
VERTEX
  5
9BD
  8
DATA
  6
CONTINUOUS
 62
     7
 10
418.47596355290489
 20
653.23500000000001
 30
0.0
  0
SEQEND
  5
9BE
  8
DATA
  6
CONTINUOUS
 62
     7
  0
POLYLINE
  5
466
  8
DATA
  6
CONTINUOUS
 62
     7
 66
     1
 10
0.0
 20
0.0
 30
0.0
  0
VERTEX
  5
9BF
  8
DATA
  6
CONTINUOUS
 62
     7
 10
414.45589738172509
 20
651.60000000000002
 30
0.0
  0
VERTEX
  5
9C0
  8
DATA
  6
CONTINUOUS
 62
     7
 10
412.35589738172519
 20
651.60000000000002
 30
0.0
  0
VERTEX
  5
9C1
  8
DATA
  6
CONTINUOUS
 62
     7
 10
412.35589738172519
 20
652.40000000000009
 30
0.0
  0
VERTEX
  5
9C2
  8
DATA
  6
CONTINUOUS
 62
     7
 10
414.45589738172509
 20
652.40000000000009
 30
0.0
  0
SEQEND
  5
9C3
  8
DATA
  6
CONTINUOUS
 62
     7
  0
POLYLINE
  5
46D
  8
DATA
  6
CONTINUOUS
 62
     7
 66
     1
 10
0.0
 20
0.0
 30
0.0
  0
VERTEX
  5
9C4
  8
DATA
  6
CONTINUOUS
 62
     7
 10
415.25589738172511
 20
652.40000000000009
 30
0.0
  0
VERTEX
  5
9C5
  8
DATA
  6
CONTINUOUS
 62
     7
 10
417.35589738172553
 20
652.40000000000009
 30
0.0
  0
VERTEX
  5
9C6
  8
DATA
  6
CONTINUOUS
 62
     7
 10
417.35589738172553
 20
651.60000000000002
 30
0.0
  0
VERTEX
  5
9C7
  8
DATA
  6
CONTINUOUS
 62
     7
 10
415.25589738172511
 20
651.60000000000002
 30
0.0
  0
SEQEND
  5
9C8
  8
DATA
  6
CONTINUOUS
 62
     7
  0
POLYLINE
  5
474
  8
DATA
  6
CONTINUOUS
 62
     7
 66
     1
 10
0.0
 20
0.0
 30
0.0
  0
VERTEX
  5
9C9
  8
DATA
  6
CONTINUOUS
 62
     7
 10
414.45589738172509
 20
652.40000000000009
 30
0.0
  0
VERTEX
  5
9CA
  8
DATA
  6
CONTINUOUS
 62
     7
 10
414.45589738172509
 20
654.49999999999989
 30
0.0
  0
VERTEX
  5
9CB
  8
DATA
  6
CONTINUOUS
 62
     7
 10
415.25589738172511
 20
654.49999999999989
 30
0.0
  0
VERTEX
  5
9CC
  8
DATA
  6
CONTINUOUS
 62
     7
 10
415.25589738172511
 20
652.40000000000009
 30
0.0
  0
SEQEND
  5
9CD
  8
DATA
  6
CONTINUOUS
 62
     7
  0
POLYLINE
  5
47B
  8
DATA
  6
CONTINUOUS
 62
     7
 66
     1
 10
0.0
 20
0.0
 30
0.0
  0
VERTEX
  5
9CE
  8
DATA
  6
CONTINUOUS
 62
     7
 10
415.25589738172511
 20
651.60000000000002
 30
0.0
  0
VERTEX
  5
9CF
  8
DATA
  6
CONTINUOUS
 62
     7
 10
415.25589738172511
 20
649.5
 30
0.0
  0
VERTEX
  5
9D0
  8
DATA
  6
CONTINUOUS
 62
     7
 10
414.45589738172509
 20
649.5
 30
0.0
  0
VERTEX
  5
9D1
  8
DATA
  6
CONTINUOUS
 62
     7
 10
414.45589738172509
 20
651.60000000000002
 30
0.0
  0
SEQEND
  5
9D2
  8
DATA
  6
CONTINUOUS
 62
     7
  0
POLYLINE
  5
482
  8
DATA
  6
CONTINUOUS
 62
     7
 66
     1
 10
0.0
 20
0.0
 30
0.0
 70
     1
  0
VERTEX
  5
9D3
  8
DATA
  6
CONTINUOUS
 62
     7
 10
415.71618181219691
 20
651.24057218935002
 30
0.0
  0
VERTEX
  5
9D4
  8
DATA
  6
CONTINUOUS
 62
     7
 10
416.71618181219702
 20
651.24057218935002
 30
0.0
  0
VERTEX
  5
9D5
  8
DATA
  6
CONTINUOUS
 62
     7
 10
416.71618181219702
 20
650.24057218935002
 30
0.0
  0
VERTEX
  5
9D6
  8
DATA
  6
CONTINUOUS
 62
     7
 10
415.71618181219691
 20
650.24057218935002
 30
0.0
  0
SEQEND
  5
9D7
  8
DATA
  6
CONTINUOUS
 62
     7
  0
POLYLINE
  5
489
  8
DATA
  6
CONTINUOUS
 62
     7
 66
     1
 10
0.0
 20
0.0
 30
0.0
 70
     1
  0
VERTEX
  5
9D8
  8
DATA
  6
CONTINUOUS
 62
     7
 10
412.99561295125358
 20
651.24057218935002
 30
0.0
  0
VERTEX
  5
9D9
  8
DATA
  6
CONTINUOUS
 62
     7
 10
413.99561295125352
 20
651.24057218935002
 30
0.0
  0
VERTEX
  5
9DA
  8
DATA
  6
CONTINUOUS
 62
     7
 10
413.99561295125352
 20
650.24057218935002
 30
0.0
  0
VERTEX
  5
9DB
  8
DATA
  6
CONTINUOUS
 62
     7
 10
412.99561295125358
 20
650.24057218935002
 30
0.0
  0
SEQEND
  5
9DC
  8
DATA
  6
CONTINUOUS
 62
     7
  0
POLYLINE
  5
490
  8
DATA
  6
CONTINUOUS
 62
     7
 66
     1
 10
0.0
 20
0.0
 30
0.0
 70
     1
  0
VERTEX
  5
9DD
  8
DATA
  6
CONTINUOUS
 62
     7
 10
415.71618181219691
 20
653.75942781064987
 30
0.0
  0
VERTEX
  5
9DE
  8
DATA
  6
CONTINUOUS
 62
     7
 10
416.71618181219702
 20
653.75942781064987
 30
0.0
  0
VERTEX
  5
9DF
  8
DATA
  6
CONTINUOUS
 62
     7
 10
416.71618181219702
 20
652.75942781064975
 30
0.0
  0
VERTEX
  5
9E0
  8
DATA
  6
CONTINUOUS
 62
     7
 10
415.71618181219691
 20
652.75942781064975
 30
0.0
  0
SEQEND
  5
9E1
  8
DATA
  6
CONTINUOUS
 62
     7
  0
POLYLINE
  5
497
  8
DATA
  6
CONTINUOUS
 62
     7
 66
     1
 10
0.0
 20
0.0
 30
0.0
 70
     1
  0
VERTEX
  5
9E2
  8
DATA
  6
CONTINUOUS
 62
     7
 10
412.99561295125358
 20
653.75942781064987
 30
0.0
  0
VERTEX
  5
9E3
  8
DATA
  6
CONTINUOUS
 62
     7
 10
413.99561295125352
 20
653.75942781064987
 30
0.0
  0
VERTEX
  5
9E4
  8
DATA
  6
CONTINUOUS
 62
     7
 10
413.99561295125352
 20
652.75942781064975
 30
0.0
  0
VERTEX
  5
9E5
  8
DATA
  6
CONTINUOUS
 62
     7
 10
412.99561295125358
 20
652.75942781064975
 30
0.0
  0
SEQEND
  5
9E6
  8
DATA
  6
CONTINUOUS
 62
     7
  0
LINE
  5
49E
  8
DATA
  6
CONTINUOUS
 62
     7
 10
434.95126919967322
 20
649.17010830548622
 30
0.0
 11
434.392352002221
 21
655.02010830548625
 31
0.0
  0
LINE
  5
49F
  8
DATA
  6
CONTINUOUS
 62
     7
 10
411.0605255637783
 20
649.17010830548622
 30
0.0
 11
411.61944276123052
 21
655.02010830548625
 31
0.0
  0
ARC
  5
4A0
  8
DATA
  6
CONTINUOUS
 62
     7
 10
433.95580226891792
 20
649.07499999999982
 30
0.0
 40
1.0
 50
270.0
 51
5.4575534851074963
  0
ARC
  5
4A1
  8
DATA
  6
CONTINUOUS
 62
     7
 10
412.05599249453371
 20
649.07499999999982
 30
0.0
 40
0.9999999999999051
 50
174.54244651489191
 51
270.0
  0
ARC
  5
4A2
  8
DATA
  6
CONTINUOUS
 62
     7
 10
433.3968850714657
 20
654.92500000000007
 30
0.0
 40
1.0000000000000031
 50
5.457553485107554
 51
89.999999999999986
  0
ARC
  5
4A3
  8
DATA
  6
CONTINUOUS
 62
     7
 10
412.6149096919857
 20
654.92500000000007
 30
0.0
 40
1.0
 50
90.0
 51
174.54244651489509
  0
CIRCLE
  5
4A4
  8
DATA
  6
CONTINUOUS
 62
     7
 10
531.74999999999955
 20
652.0
 30
0.0
 40
1.175000000000068
  0
POLYLINE
  5
4A5
  8
DATA
  6
CONTINUOUS
 62
     7
 66
     1
 10
0.0
 20
0.0
 30
0.0
 70
     1
  0
VERTEX
  5
9E7
  8
DATA
  6
CONTINUOUS
 62
     7
 10
531.74999999999955
 20
649.29999999999995
 30
0.0
  0
VERTEX
  5
9E8
  8
DATA
  6
CONTINUOUS
 62
     7
 10
529.41173140978174
 20
650.64999999999986
 30
0.0
  0
VERTEX
  5
9E9
  8
DATA
  6
CONTINUOUS
 62
     7
 10
529.41173140978174
 20
653.35000000000002
 30
0.0
  0
VERTEX
  5
9EA
  8
DATA
  6
CONTINUOUS
 62
     7
 10
531.74999999999955
 20
654.70000000000005
 30
0.0
  0
VERTEX
  5
9EB
  8
DATA
  6
CONTINUOUS
 62
     7
 10
534.08826859021769
 20
653.35000000000002
 30
0.0
  0
VERTEX
  5
9EC
  8
DATA
  6
CONTINUOUS
 62
     7
 10
534.08826859021769
 20
650.64999999999986
 30
0.0
  0
SEQEND
  5
9ED
  8
DATA
  6
CONTINUOUS
 62
     7
  0
CIRCLE
  5
4AE
  8
DATA
  6
CONTINUOUS
 62
     7
 10
564.25
 20
652.0
 30
0.0
 40
1.175000000000068
  0
POLYLINE
  5
4AF
  8
DATA
  6
CONTINUOUS
 62
     7
 66
     1
 10
0.0
 20
0.0
 30
0.0
 70
     1
  0
VERTEX
  5
9EE
  8
DATA
  6
CONTINUOUS
 62
     7
 10
564.25
 20
649.29999999999995
 30
0.0
  0
VERTEX
  5
9EF
  8
DATA
  6
CONTINUOUS
 62
     7
 10
561.91173140978231
 20
650.64999999999986
 30
0.0
  0
VERTEX
  5
9F0
  8
DATA
  6
CONTINUOUS
 62
     7
 10
561.91173140978231
 20
653.35000000000002
 30
0.0
  0
VERTEX
  5
9F1
  8
DATA
  6
CONTINUOUS
 62
     7
 10
564.25
 20
654.70000000000005
 30
0.0
  0
VERTEX
  5
9F2
  8
DATA
  6
CONTINUOUS
 62
     7
 10
566.58826859021826
 20
653.35000000000002
 30
0.0
  0
VERTEX
  5
9F3
  8
DATA
  6
CONTINUOUS
 62
     7
 10
566.58826859021826
 20
650.64999999999986
 30
0.0
  0
SEQEND
  5
9F4
  8
DATA
  6
CONTINUOUS
 62
     7
  0
LINE
  5
4B8
  8
DATA
  6
CONTINUOUS
 62
     7
 10
558.95580226891786
 20
648.07499999999982
 30
0.0
 11
537.05599249453371
 21
648.07499999999982
 31
0.0
  0
LINE
  5
4B9
  8
DATA
  6
CONTINUOUS
 62
     7
 10
537.61490969198564
 20
655.92500000000018
 30
0.0
 11
558.39688507146548
 21
655.92500000000018
 31
0.0
  0
POLYLINE
  5
4BA
  8
DATA
  6
CONTINUOUS
 62
     7
 66
     1
 10
0.0
 20
0.0
 30
0.0
 70
     1
  0
VERTEX
  5
9F5
  8
DATA
  6
CONTINUOUS
 62
     7
 10
557.47596355290568
 20
652.76499999999999
 30
0.0
  0
VERTEX
  5
9F6
  8
DATA
  6
CONTINUOUS
 62
     7
 10
559.00596355290565
 20
652.76499999999999
 30
0.0
  0
VERTEX
  5
9F7
  8
DATA
  6
CONTINUOUS
 62
     7
 10
559.00596355290565
 20
651.23500000000001
 30
0.0
  0
VERTEX
  5
9F8
  8
DATA
  6
CONTINUOUS
 62
     7
 10
557.47596355290568
 20
651.23500000000001
 30
0.0
  0
SEQEND
  5
9F9
  8
DATA
  6
CONTINUOUS
 62
     7
  0
POLYLINE
  5
4C1
  8
DATA
  6
CONTINUOUS
 62
     7
 66
     1
 10
0.0
 20
0.0
 30
0.0
 70
     1
  0
VERTEX
  5
9FA
  8
DATA
  6
CONTINUOUS
 62
     7
 10
555.47596355290545
 20
652.76499999999999
 30
0.0
  0
VERTEX
  5
9FB
  8
DATA
  6
CONTINUOUS
 62
     7
 10
557.00596355290543
 20
652.76499999999999
 30
0.0
  0
VERTEX
  5
9FC
  8
DATA
  6
CONTINUOUS
 62
     7
 10
557.00596355290543
 20
651.23500000000001
 30
0.0
  0
VERTEX
  5
9FD
  8
DATA
  6
CONTINUOUS
 62
     7
 10
555.47596355290545
 20
651.23500000000001
 30
0.0
  0
SEQEND
  5
9FE
  8
DATA
  6
CONTINUOUS
 62
     7
  0
POLYLINE
  5
4C8
  8
DATA
  6
CONTINUOUS
 62
     7
 66
     1
 10
0.0
 20
0.0
 30
0.0
 70
     1
  0
VERTEX
  5
9FF
  8
DATA
  6
CONTINUOUS
 62
     7
 10
553.47596355290545
 20
652.76499999999999
 30
0.0
  0
VERTEX
  5
A00
  8
DATA
  6
CONTINUOUS
 62
     7
 10
555.00596355290543
 20
652.76499999999999
 30
0.0
  0
VERTEX
  5
A01
  8
DATA
  6
CONTINUOUS
 62
     7
 10
555.00596355290543
 20
651.23500000000001
 30
0.0
  0
VERTEX
  5
A02
  8
DATA
  6
CONTINUOUS
 62
     7
 10
553.47596355290545
 20
651.23500000000001
 30
0.0
  0
SEQEND
  5
A03
  8
DATA
  6
CONTINUOUS
 62
     7
  0
POLYLINE
  5
4CF
  8
DATA
  6
CONTINUOUS
 62
     7
 66
     1
 10
0.0
 20
0.0
 30
0.0
 70
     1
  0
VERTEX
  5
A04
  8
DATA
  6
CONTINUOUS
 62
     7
 10
551.47596355290557
 20
652.76499999999999
 30
0.0
  0
VERTEX
  5
A05
  8
DATA
  6
CONTINUOUS
 62
     7
 10
553.00596355290565
 20
652.76499999999999
 30
0.0
  0
VERTEX
  5
A06
  8
DATA
  6
CONTINUOUS
 62
     7
 10
553.00596355290565
 20
651.23500000000001
 30
0.0
  0
VERTEX
  5
A07
  8
DATA
  6
CONTINUOUS
 62
     7
 10
551.47596355290557
 20
651.23500000000001
 30
0.0
  0
SEQEND
  5
A08
  8
DATA
  6
CONTINUOUS
 62
     7
  0
POLYLINE
  5
4D6
  8
DATA
  6
CONTINUOUS
 62
     7
 66
     1
 10
0.0
 20
0.0
 30
0.0
 70
     1
  0
VERTEX
  5
A09
  8
DATA
  6
CONTINUOUS
 62
     7
 10
549.47596355290523
 20
652.76499999999999
 30
0.0
  0
VERTEX
  5
A0A
  8
DATA
  6
CONTINUOUS
 62
     7
 10
551.00596355290565
 20
652.76499999999999
 30
0.0
  0
VERTEX
  5
A0B
  8
DATA
  6
CONTINUOUS
 62
     7
 10
551.00596355290565
 20
651.23500000000001
 30
0.0
  0
VERTEX
  5
A0C
  8
DATA
  6
CONTINUOUS
 62
     7
 10
549.47596355290523
 20
651.23500000000001
 30
0.0
  0
SEQEND
  5
A0D
  8
DATA
  6
CONTINUOUS
 62
     7
  0
POLYLINE
  5
4DD
  8
DATA
  6
CONTINUOUS
 62
     7
 66
     1
 10
0.0
 20
0.0
 30
0.0
 70
     1
  0
VERTEX
  5
A0E
  8
DATA
  6
CONTINUOUS
 62
     7
 10
547.47596355290523
 20
652.76499999999999
 30
0.0
  0
VERTEX
  5
A0F
  8
DATA
  6
CONTINUOUS
 62
     7
 10
549.0059635529052
 20
652.76499999999999
 30
0.0
  0
VERTEX
  5
A10
  8
DATA
  6
CONTINUOUS
 62
     7
 10
549.0059635529052
 20
651.23500000000001
 30
0.0
  0
VERTEX
  5
A11
  8
DATA
  6
CONTINUOUS
 62
     7
 10
547.47596355290523
 20
651.23500000000001
 30
0.0
  0
SEQEND
  5
A12
  8
DATA
  6
CONTINUOUS
 62
     7
  0
POLYLINE
  5
4E4
  8
DATA
  6
CONTINUOUS
 62
     7
 66
     1
 10
0.0
 20
0.0
 30
0.0
 70
     1
  0
VERTEX
  5
A13
  8
DATA
  6
CONTINUOUS
 62
     7
 10
545.475963552905
 20
652.76499999999999
 30
0.0
  0
VERTEX
  5
A14
  8
DATA
  6
CONTINUOUS
 62
     7
 10
547.0059635529052
 20
652.76499999999999
 30
0.0
  0
VERTEX
  5
A15
  8
DATA
  6
CONTINUOUS
 62
     7
 10
547.0059635529052
 20
651.23500000000001
 30
0.0
  0
VERTEX
  5
A16
  8
DATA
  6
CONTINUOUS
 62
     7
 10
545.475963552905
 20
651.23500000000001
 30
0.0
  0
SEQEND
  5
A17
  8
DATA
  6
CONTINUOUS
 62
     7
  0
POLYLINE
  5
4EB
  8
DATA
  6
CONTINUOUS
 62
     7
 66
     1
 10
0.0
 20
0.0
 30
0.0
 70
     1
  0
VERTEX
  5
A18
  8
DATA
  6
CONTINUOUS
 62
     7
 10
543.475963552905
 20
652.76499999999999
 30
0.0
  0
VERTEX
  5
A19
  8
DATA
  6
CONTINUOUS
 62
     7
 10
545.00596355290509
 20
652.76499999999999
 30
0.0
  0
VERTEX
  5
A1A
  8
DATA
  6
CONTINUOUS
 62
     7
 10
545.00596355290509
 20
651.23500000000001
 30
0.0
  0
VERTEX
  5
A1B
  8
DATA
  6
CONTINUOUS
 62
     7
 10
543.475963552905
 20
651.23500000000001
 30
0.0
  0
SEQEND
  5
A1C
  8
DATA
  6
CONTINUOUS
 62
     7
  0
POLYLINE
  5
4F2
  8
DATA
  6
CONTINUOUS
 62
     7
 66
     1
 10
0.0
 20
0.0
 30
0.0
 70
     1
  0
VERTEX
  5
A1D
  8
DATA
  6
CONTINUOUS
 62
     7
 10
557.47596355290568
 20
650.76499999999987
 30
0.0
  0
VERTEX
  5
A1E
  8
DATA
  6
CONTINUOUS
 62
     7
 10
559.00596355290565
 20
650.76499999999987
 30
0.0
  0
VERTEX
  5
A1F
  8
DATA
  6
CONTINUOUS
 62
     7
 10
559.00596355290565
 20
649.23500000000001
 30
0.0
  0
VERTEX
  5
A20
  8
DATA
  6
CONTINUOUS
 62
     7
 10
557.47596355290568
 20
649.23500000000001
 30
0.0
  0
SEQEND
  5
A21
  8
DATA
  6
CONTINUOUS
 62
     7
  0
POLYLINE
  5
4F9
  8
DATA
  6
CONTINUOUS
 62
     7
 66
     1
 10
0.0
 20
0.0
 30
0.0
 70
     1
  0
VERTEX
  5
A22
  8
DATA
  6
CONTINUOUS
 62
     7
 10
555.47596355290545
 20
650.76499999999987
 30
0.0
  0
VERTEX
  5
A23
  8
DATA
  6
CONTINUOUS
 62
     7
 10
557.00596355290543
 20
650.76499999999987
 30
0.0
  0
VERTEX
  5
A24
  8
DATA
  6
CONTINUOUS
 62
     7
 10
557.00596355290543
 20
649.23500000000001
 30
0.0
  0
VERTEX
  5
A25
  8
DATA
  6
CONTINUOUS
 62
     7
 10
555.47596355290545
 20
649.23500000000001
 30
0.0
  0
SEQEND
  5
A26
  8
DATA
  6
CONTINUOUS
 62
     7
  0
POLYLINE
  5
500
  8
DATA
  6
CONTINUOUS
 62
     7
 66
     1
 10
0.0
 20
0.0
 30
0.0
 70
     1
  0
VERTEX
  5
A27
  8
DATA
  6
CONTINUOUS
 62
     7
 10
553.47596355290545
 20
650.76499999999987
 30
0.0
  0
VERTEX
  5
A28
  8
DATA
  6
CONTINUOUS
 62
     7
 10
555.00596355290543
 20
650.76499999999987
 30
0.0
  0
VERTEX
  5
A29
  8
DATA
  6
CONTINUOUS
 62
     7
 10
555.00596355290543
 20
649.23500000000001
 30
0.0
  0
VERTEX
  5
A2A
  8
DATA
  6
CONTINUOUS
 62
     7
 10
553.47596355290545
 20
649.23500000000001
 30
0.0
  0
SEQEND
  5
A2B
  8
DATA
  6
CONTINUOUS
 62
     7
  0
POLYLINE
  5
507
  8
DATA
  6
CONTINUOUS
 62
     7
 66
     1
 10
0.0
 20
0.0
 30
0.0
 70
     1
  0
VERTEX
  5
A2C
  8
DATA
  6
CONTINUOUS
 62
     7
 10
551.47596355290557
 20
650.76499999999987
 30
0.0
  0
VERTEX
  5
A2D
  8
DATA
  6
CONTINUOUS
 62
     7
 10
553.00596355290565
 20
650.76499999999987
 30
0.0
  0
VERTEX
  5
A2E
  8
DATA
  6
CONTINUOUS
 62
     7
 10
553.00596355290565
 20
649.23500000000001
 30
0.0
  0
VERTEX
  5
A2F
  8
DATA
  6
CONTINUOUS
 62
     7
 10
551.47596355290557
 20
649.23500000000001
 30
0.0
  0
SEQEND
  5
A30
  8
DATA
  6
CONTINUOUS
 62
     7
  0
POLYLINE
  5
50E
  8
DATA
  6
CONTINUOUS
 62
     7
 66
     1
 10
0.0
 20
0.0
 30
0.0
 70
     1
  0
VERTEX
  5
A31
  8
DATA
  6
CONTINUOUS
 62
     7
 10
549.47596355290523
 20
650.76499999999987
 30
0.0
  0
VERTEX
  5
A32
  8
DATA
  6
CONTINUOUS
 62
     7
 10
551.00596355290565
 20
650.76499999999987
 30
0.0
  0
VERTEX
  5
A33
  8
DATA
  6
CONTINUOUS
 62
     7
 10
551.00596355290565
 20
649.23500000000001
 30
0.0
  0
VERTEX
  5
A34
  8
DATA
  6
CONTINUOUS
 62
     7
 10
549.47596355290523
 20
649.23500000000001
 30
0.0
  0
SEQEND
  5
A35
  8
DATA
  6
CONTINUOUS
 62
     7
  0
POLYLINE
  5
515
  8
DATA
  6
CONTINUOUS
 62
     7
 66
     1
 10
0.0
 20
0.0
 30
0.0
 70
     1
  0
VERTEX
  5
A36
  8
DATA
  6
CONTINUOUS
 62
     7
 10
547.47596355290523
 20
650.76499999999987
 30
0.0
  0
VERTEX
  5
A37
  8
DATA
  6
CONTINUOUS
 62
     7
 10
549.0059635529052
 20
650.76499999999987
 30
0.0
  0
VERTEX
  5
A38
  8
DATA
  6
CONTINUOUS
 62
     7
 10
549.0059635529052
 20
649.23500000000001
 30
0.0
  0
VERTEX
  5
A39
  8
DATA
  6
CONTINUOUS
 62
     7
 10
547.47596355290523
 20
649.23500000000001
 30
0.0
  0
SEQEND
  5
A3A
  8
DATA
  6
CONTINUOUS
 62
     7
  0
POLYLINE
  5
51C
  8
DATA
  6
CONTINUOUS
 62
     7
 66
     1
 10
0.0
 20
0.0
 30
0.0
 70
     1
  0
VERTEX
  5
A3B
  8
DATA
  6
CONTINUOUS
 62
     7
 10
545.475963552905
 20
650.76499999999987
 30
0.0
  0
VERTEX
  5
A3C
  8
DATA
  6
CONTINUOUS
 62
     7
 10
547.0059635529052
 20
650.76499999999987
 30
0.0
  0
VERTEX
  5
A3D
  8
DATA
  6
CONTINUOUS
 62
     7
 10
547.0059635529052
 20
649.23500000000001
 30
0.0
  0
VERTEX
  5
A3E
  8
DATA
  6
CONTINUOUS
 62
     7
 10
545.475963552905
 20
649.23500000000001
 30
0.0
  0
SEQEND
  5
A3F
  8
DATA
  6
CONTINUOUS
 62
     7
  0
POLYLINE
  5
523
  8
DATA
  6
CONTINUOUS
 62
     7
 66
     1
 10
0.0
 20
0.0
 30
0.0
 70
     1
  0
VERTEX
  5
A40
  8
DATA
  6
CONTINUOUS
 62
     7
 10
543.475963552905
 20
650.76499999999987
 30
0.0
  0
VERTEX
  5
A41
  8
DATA
  6
CONTINUOUS
 62
     7
 10
545.00596355290509
 20
650.76499999999987
 30
0.0
  0
VERTEX
  5
A42
  8
DATA
  6
CONTINUOUS
 62
     7
 10
545.00596355290509
 20
649.23500000000001
 30
0.0
  0
VERTEX
  5
A43
  8
DATA
  6
CONTINUOUS
 62
     7
 10
543.475963552905
 20
649.23500000000001
 30
0.0
  0
SEQEND
  5
A44
  8
DATA
  6
CONTINUOUS
 62
     7
  0
POLYLINE
  5
52A
  8
DATA
  6
CONTINUOUS
 62
     7
 66
     1
 10
0.0
 20
0.0
 30
0.0
 70
     1
  0
VERTEX
  5
A45
  8
DATA
  6
CONTINUOUS
 62
     7
 10
557.47596355290568
 20
654.76499999999987
 30
0.0
  0
VERTEX
  5
A46
  8
DATA
  6
CONTINUOUS
 62
     7
 10
559.00596355290565
 20
654.76499999999987
 30
0.0
  0
VERTEX
  5
A47
  8
DATA
  6
CONTINUOUS
 62
     7
 10
559.00596355290565
 20
653.23500000000001
 30
0.0
  0
VERTEX
  5
A48
  8
DATA
  6
CONTINUOUS
 62
     7
 10
557.47596355290568
 20
653.23500000000001
 30
0.0
  0
SEQEND
  5
A49
  8
DATA
  6
CONTINUOUS
 62
     7
  0
POLYLINE
  5
531
  8
DATA
  6
CONTINUOUS
 62
     7
 66
     1
 10
0.0
 20
0.0
 30
0.0
 70
     1
  0
VERTEX
  5
A4A
  8
DATA
  6
CONTINUOUS
 62
     7
 10
555.47596355290545
 20
654.76499999999987
 30
0.0
  0
VERTEX
  5
A4B
  8
DATA
  6
CONTINUOUS
 62
     7
 10
557.00596355290543
 20
654.76499999999987
 30
0.0
  0
VERTEX
  5
A4C
  8
DATA
  6
CONTINUOUS
 62
     7
 10
557.00596355290543
 20
653.23500000000001
 30
0.0
  0
VERTEX
  5
A4D
  8
DATA
  6
CONTINUOUS
 62
     7
 10
555.47596355290545
 20
653.23500000000001
 30
0.0
  0
SEQEND
  5
A4E
  8
DATA
  6
CONTINUOUS
 62
     7
  0
POLYLINE
  5
538
  8
DATA
  6
CONTINUOUS
 62
     7
 66
     1
 10
0.0
 20
0.0
 30
0.0
 70
     1
  0
VERTEX
  5
A4F
  8
DATA
  6
CONTINUOUS
 62
     7
 10
553.47596355290545
 20
654.76499999999987
 30
0.0
  0
VERTEX
  5
A50
  8
DATA
  6
CONTINUOUS
 62
     7
 10
555.00596355290543
 20
654.76499999999987
 30
0.0
  0
VERTEX
  5
A51
  8
DATA
  6
CONTINUOUS
 62
     7
 10
555.00596355290543
 20
653.23500000000001
 30
0.0
  0
VERTEX
  5
A52
  8
DATA
  6
CONTINUOUS
 62
     7
 10
553.47596355290545
 20
653.23500000000001
 30
0.0
  0
SEQEND
  5
A53
  8
DATA
  6
CONTINUOUS
 62
     7
  0
POLYLINE
  5
53F
  8
DATA
  6
CONTINUOUS
 62
     7
 66
     1
 10
0.0
 20
0.0
 30
0.0
 70
     1
  0
VERTEX
  5
A54
  8
DATA
  6
CONTINUOUS
 62
     7
 10
551.47596355290557
 20
654.76499999999987
 30
0.0
  0
VERTEX
  5
A55
  8
DATA
  6
CONTINUOUS
 62
     7
 10
553.00596355290565
 20
654.76499999999987
 30
0.0
  0
VERTEX
  5
A56
  8
DATA
  6
CONTINUOUS
 62
     7
 10
553.00596355290565
 20
653.23500000000001
 30
0.0
  0
VERTEX
  5
A57
  8
DATA
  6
CONTINUOUS
 62
     7
 10
551.47596355290557
 20
653.23500000000001
 30
0.0
  0
SEQEND
  5
A58
  8
DATA
  6
CONTINUOUS
 62
     7
  0
POLYLINE
  5
546
  8
DATA
  6
CONTINUOUS
 62
     7
 66
     1
 10
0.0
 20
0.0
 30
0.0
 70
     1
  0
VERTEX
  5
A59
  8
DATA
  6
CONTINUOUS
 62
     7
 10
549.47596355290523
 20
654.76499999999987
 30
0.0
  0
VERTEX
  5
A5A
  8
DATA
  6
CONTINUOUS
 62
     7
 10
551.00596355290565
 20
654.76499999999987
 30
0.0
  0
VERTEX
  5
A5B
  8
DATA
  6
CONTINUOUS
 62
     7
 10
551.00596355290565
 20
653.23500000000001
 30
0.0
  0
VERTEX
  5
A5C
  8
DATA
  6
CONTINUOUS
 62
     7
 10
549.47596355290523
 20
653.23500000000001
 30
0.0
  0
SEQEND
  5
A5D
  8
DATA
  6
CONTINUOUS
 62
     7
  0
POLYLINE
  5
54D
  8
DATA
  6
CONTINUOUS
 62
     7
 66
     1
 10
0.0
 20
0.0
 30
0.0
 70
     1
  0
VERTEX
  5
A5E
  8
DATA
  6
CONTINUOUS
 62
     7
 10
547.47596355290523
 20
654.76499999999987
 30
0.0
  0
VERTEX
  5
A5F
  8
DATA
  6
CONTINUOUS
 62
     7
 10
549.0059635529052
 20
654.76499999999987
 30
0.0
  0
VERTEX
  5
A60
  8
DATA
  6
CONTINUOUS
 62
     7
 10
549.0059635529052
 20
653.23500000000001
 30
0.0
  0
VERTEX
  5
A61
  8
DATA
  6
CONTINUOUS
 62
     7
 10
547.47596355290523
 20
653.23500000000001
 30
0.0
  0
SEQEND
  5
A62
  8
DATA
  6
CONTINUOUS
 62
     7
  0
POLYLINE
  5
554
  8
DATA
  6
CONTINUOUS
 62
     7
 66
     1
 10
0.0
 20
0.0
 30
0.0
 70
     1
  0
VERTEX
  5
A63
  8
DATA
  6
CONTINUOUS
 62
     7
 10
545.475963552905
 20
654.76499999999987
 30
0.0
  0
VERTEX
  5
A64
  8
DATA
  6
CONTINUOUS
 62
     7
 10
547.0059635529052
 20
654.76499999999987
 30
0.0
  0
VERTEX
  5
A65
  8
DATA
  6
CONTINUOUS
 62
     7
 10
547.0059635529052
 20
653.23500000000001
 30
0.0
  0
VERTEX
  5
A66
  8
DATA
  6
CONTINUOUS
 62
     7
 10
545.475963552905
 20
653.23500000000001
 30
0.0
  0
SEQEND
  5
A67
  8
DATA
  6
CONTINUOUS
 62
     7
  0
POLYLINE
  5
55B
  8
DATA
  6
CONTINUOUS
 62
     7
 66
     1
 10
0.0
 20
0.0
 30
0.0
 70
     1
  0
VERTEX
  5
A68
  8
DATA
  6
CONTINUOUS
 62
     7
 10
543.475963552905
 20
654.76499999999987
 30
0.0
  0
VERTEX
  5
A69
  8
DATA
  6
CONTINUOUS
 62
     7
 10
545.00596355290509
 20
654.76499999999987
 30
0.0
  0
VERTEX
  5
A6A
  8
DATA
  6
CONTINUOUS
 62
     7
 10
545.00596355290509
 20
653.23500000000001
 30
0.0
  0
VERTEX
  5
A6B
  8
DATA
  6
CONTINUOUS
 62
     7
 10
543.475963552905
 20
653.23500000000001
 30
0.0
  0
SEQEND
  5
A6C
  8
DATA
  6
CONTINUOUS
 62
     7
  0
POLYLINE
  5
562
  8
DATA
  6
CONTINUOUS
 62
     7
 66
     1
 10
0.0
 20
0.0
 30
0.0
  0
VERTEX
  5
A6D
  8
DATA
  6
CONTINUOUS
 62
     7
 10
539.45589738172521
 20
651.60000000000002
 30
0.0
  0
VERTEX
  5
A6E
  8
DATA
  6
CONTINUOUS
 62
     7
 10
537.35589738172519
 20
651.60000000000002
 30
0.0
  0
VERTEX
  5
A6F
  8
DATA
  6
CONTINUOUS
 62
     7
 10
537.35589738172519
 20
652.40000000000009
 30
0.0
  0
VERTEX
  5
A70
  8
DATA
  6
CONTINUOUS
 62
     7
 10
539.45589738172521
 20
652.40000000000009
 30
0.0
  0
SEQEND
  5
A71
  8
DATA
  6
CONTINUOUS
 62
     7
  0
POLYLINE
  5
569
  8
DATA
  6
CONTINUOUS
 62
     7
 66
     1
 10
0.0
 20
0.0
 30
0.0
  0
VERTEX
  5
A72
  8
DATA
  6
CONTINUOUS
 62
     7
 10
540.25589738172505
 20
652.40000000000009
 30
0.0
  0
VERTEX
  5
A73
  8
DATA
  6
CONTINUOUS
 62
     7
 10
542.35589738172541
 20
652.40000000000009
 30
0.0
  0
VERTEX
  5
A74
  8
DATA
  6
CONTINUOUS
 62
     7
 10
542.35589738172541
 20
651.60000000000002
 30
0.0
  0
VERTEX
  5
A75
  8
DATA
  6
CONTINUOUS
 62
     7
 10
540.25589738172505
 20
651.60000000000002
 30
0.0
  0
SEQEND
  5
A76
  8
DATA
  6
CONTINUOUS
 62
     7
  0
POLYLINE
  5
570
  8
DATA
  6
CONTINUOUS
 62
     7
 66
     1
 10
0.0
 20
0.0
 30
0.0
  0
VERTEX
  5
A77
  8
DATA
  6
CONTINUOUS
 62
     7
 10
539.45589738172521
 20
652.40000000000009
 30
0.0
  0
VERTEX
  5
A78
  8
DATA
  6
CONTINUOUS
 62
     7
 10
539.45589738172521
 20
654.49999999999989
 30
0.0
  0
VERTEX
  5
A79
  8
DATA
  6
CONTINUOUS
 62
     7
 10
540.25589738172505
 20
654.49999999999989
 30
0.0
  0
VERTEX
  5
A7A
  8
DATA
  6
CONTINUOUS
 62
     7
 10
540.25589738172505
 20
652.40000000000009
 30
0.0
  0
SEQEND
  5
A7B
  8
DATA
  6
CONTINUOUS
 62
     7
  0
POLYLINE
  5
577
  8
DATA
  6
CONTINUOUS
 62
     7
 66
     1
 10
0.0
 20
0.0
 30
0.0
  0
VERTEX
  5
A7C
  8
DATA
  6
CONTINUOUS
 62
     7
 10
540.25589738172505
 20
651.60000000000002
 30
0.0
  0
VERTEX
  5
A7D
  8
DATA
  6
CONTINUOUS
 62
     7
 10
540.25589738172505
 20
649.5
 30
0.0
  0
VERTEX
  5
A7E
  8
DATA
  6
CONTINUOUS
 62
     7
 10
539.45589738172521
 20
649.5
 30
0.0
  0
VERTEX
  5
A7F
  8
DATA
  6
CONTINUOUS
 62
     7
 10
539.45589738172521
 20
651.60000000000002
 30
0.0
  0
SEQEND
  5
A80
  8
DATA
  6
CONTINUOUS
 62
     7
  0
POLYLINE
  5
57E
  8
DATA
  6
CONTINUOUS
 62
     7
 66
     1
 10
0.0
 20
0.0
 30
0.0
 70
     1
  0
VERTEX
  5
A81
  8
DATA
  6
CONTINUOUS
 62
     7
 10
540.71618181219685
 20
651.24057218935002
 30
0.0
  0
VERTEX
  5
A82
  8
DATA
  6
CONTINUOUS
 62
     7
 10
541.71618181219708
 20
651.24057218935002
 30
0.0
  0
VERTEX
  5
A83
  8
DATA
  6
CONTINUOUS
 62
     7
 10
541.71618181219708
 20
650.24057218935002
 30
0.0
  0
VERTEX
  5
A84
  8
DATA
  6
CONTINUOUS
 62
     7
 10
540.71618181219685
 20
650.24057218935002
 30
0.0
  0
SEQEND
  5
A85
  8
DATA
  6
CONTINUOUS
 62
     7
  0
POLYLINE
  5
585
  8
DATA
  6
CONTINUOUS
 62
     7
 66
     1
 10
0.0
 20
0.0
 30
0.0
 70
     1
  0
VERTEX
  5
A86
  8
DATA
  6
CONTINUOUS
 62
     7
 10
537.99561295125341
 20
651.24057218935002
 30
0.0
  0
VERTEX
  5
A87
  8
DATA
  6
CONTINUOUS
 62
     7
 10
538.99561295125352
 20
651.24057218935002
 30
0.0
  0
VERTEX
  5
A88
  8
DATA
  6
CONTINUOUS
 62
     7
 10
538.99561295125352
 20
650.24057218935002
 30
0.0
  0
VERTEX
  5
A89
  8
DATA
  6
CONTINUOUS
 62
     7
 10
537.99561295125341
 20
650.24057218935002
 30
0.0
  0
SEQEND
  5
A8A
  8
DATA
  6
CONTINUOUS
 62
     7
  0
POLYLINE
  5
58C
  8
DATA
  6
CONTINUOUS
 62
     7
 66
     1
 10
0.0
 20
0.0
 30
0.0
 70
     1
  0
VERTEX
  5
A8B
  8
DATA
  6
CONTINUOUS
 62
     7
 10
540.71618181219685
 20
653.75942781064987
 30
0.0
  0
VERTEX
  5
A8C
  8
DATA
  6
CONTINUOUS
 62
     7
 10
541.71618181219708
 20
653.75942781064987
 30
0.0
  0
VERTEX
  5
A8D
  8
DATA
  6
CONTINUOUS
 62
     7
 10
541.71618181219708
 20
652.75942781064975
 30
0.0
  0
VERTEX
  5
A8E
  8
DATA
  6
CONTINUOUS
 62
     7
 10
540.71618181219685
 20
652.75942781064975
 30
0.0
  0
SEQEND
  5
A8F
  8
DATA
  6
CONTINUOUS
 62
     7
  0
POLYLINE
  5
593
  8
DATA
  6
CONTINUOUS
 62
     7
 66
     1
 10
0.0
 20
0.0
 30
0.0
 70
     1
  0
VERTEX
  5
A90
  8
DATA
  6
CONTINUOUS
 62
     7
 10
537.99561295125341
 20
653.75942781064987
 30
0.0
  0
VERTEX
  5
A91
  8
DATA
  6
CONTINUOUS
 62
     7
 10
538.99561295125352
 20
653.75942781064987
 30
0.0
  0
VERTEX
  5
A92
  8
DATA
  6
CONTINUOUS
 62
     7
 10
538.99561295125352
 20
652.75942781064975
 30
0.0
  0
VERTEX
  5
A93
  8
DATA
  6
CONTINUOUS
 62
     7
 10
537.99561295125341
 20
652.75942781064975
 30
0.0
  0
SEQEND
  5
A94
  8
DATA
  6
CONTINUOUS
 62
     7
  0
LINE
  5
59A
  8
DATA
  6
CONTINUOUS
 62
     7
 10
559.95126919967322
 20
649.17010830548622
 30
0.0
 11
559.39235200222095
 21
655.02010830548625
 31
0.0
  0
LINE
  5
59B
  8
DATA
  6
CONTINUOUS
 62
     7
 10
536.06052556377836
 20
649.17010830548622
 30
0.0
 11
536.61944276123052
 21
655.02010830548625
 31
0.0
  0
ARC
  5
59C
  8
DATA
  6
CONTINUOUS
 62
     7
 10
558.95580226891786
 20
649.07499999999982
 30
0.0
 40
1.0
 50
270.0
 51
5.4575534851074963
  0
ARC
  5
59D
  8
DATA
  6
CONTINUOUS
 62
     7
 10
537.05599249453371
 20
649.07499999999982
 30
0.0
 40
0.9999999999999051
 50
174.54244651489191
 51
270.0
  0
ARC
  5
59E
  8
DATA
  6
CONTINUOUS
 62
     7
 10
558.39688507146548
 20
654.92500000000007
 30
0.0
 40
1.0000000000000031
 50
5.457553485107554
 51
89.999999999999986
  0
ARC
  5
59F
  8
DATA
  6
CONTINUOUS
 62
     7
 10
537.61490969198564
 20
654.92500000000007
 30
0.0
 40
1.0
 50
90.0
 51
174.54244651489509
  0
CIRCLE
  5
5A0
  8
DATA
  6
CONTINUOUS
 62
     7
 10
591.0
 20
649.0
 30
0.0
 40
3.9000000000000048
  0
POLYLINE
  5
5A1
  8
DATA
  6
CONTINUOUS
 62
     7
 66
     1
 10
0.0
 20
0.0
 30
0.0
 70
     1
  0
VERTEX
  5
A95
  8
DATA
  6
CONTINUOUS
 62
     7
 10
588.11324865405186
 20
654.0
 30
0.0
  0
VERTEX
  5
A96
  8
DATA
  6
CONTINUOUS
 62
     7
 10
585.2264973081036
 20
649.0
 30
0.0
  0
VERTEX
  5
A97
  8
DATA
  6
CONTINUOUS
 62
     7
 10
588.11324865405186
 20
644.0
 30
0.0
  0
VERTEX
  5
A98
  8
DATA
  6
CONTINUOUS
 62
     7
 10
593.88675134594814
 20
644.0
 30
0.0
  0
VERTEX
  5
A99
  8
DATA
  6
CONTINUOUS
 62
     7
 10
596.77350269189628
 20
649.0
 30
0.0
  0
VERTEX
  5
A9A
  8
DATA
  6
CONTINUOUS
 62
     7
 10
593.88675134594814
 20
654.0
 30
0.0
  0
SEQEND
  5
A9B
  8
DATA
  6
CONTINUOUS
 62
     7
  0
CIRCLE
  5
5AA
  8
DATA
  6
CONTINUOUS
 62
     7
 10
591.0
 20
649.0
 30
0.0
 40
2.9000000000000048
  0
CIRCLE
  5
5AB
  8
DATA
  6
CONTINUOUS
 62
     7
 10
591.0
 20
649.0
 30
0.0
 40
0.75
  0
TEXT
  5
5AC
  8
DATA
 62
     7
 10
594.90166666666676
 20
665.73533781680476
 30
0.0
 40
2.3455312500000001
  1
5V DC
 50
180.0
 41
0.7
 11
594.90166666666676
 21
663.38980656680485
 31
0.0
 73
     3
  0
TEXT
  5
5AD
  8
DATA
 62
     7
 10
550.76821221504974
 20
665.73533781680476
 30
0.0
 40
2.3455312500000001
  1
In
 50
180.0
 41
0.7
 11
550.76821221504974
 21
663.38980656680485
 31
0.0
 73
     3
  0
TEXT
  5
5AE
  8
DATA
 62
     7
 10
427.32783518013912
 20
665.73533781680476
 30
0.0
 40
2.3455312500000001
  1
Out 1
 50
180.0
 41
0.7
 11
427.32783518013912
 21
663.38980656680485
 31
0.0
 73
     3
  0
TEXT
  5
5AF
  8
DATA
 62
     7
 10
370.71985173705121
 20
665.73533781680476
 30
0.0
 40
2.3455312500000001
  1
Out 2
 50
180.0
 41
0.7
 11
370.71985173705121
 21
663.38980656680485
 31
0.0
 73
     3
  0
TEXT
  5
5B0
  8
DATA
 62
     7
 10
314.98522375708819
 20
665.73533781680476
 30
0.0
 40
2.3455312500000001
  1
Out 3
 50
180.0
 41
0.7
 11
314.98522375708819
 21
663.38980656680485
 31
0.0
 73
     3
  0
TEXT
  5
5B1
  8
DATA
 62
     7
 10
258.86788796754843
 20
665.73533781680476
 30
0.0
 40
2.3455312500000001
  1
Out 4
 50
180.0
 41
0.7
 11
258.86788796754843
 21
663.38980656680485
 31
0.0
 73
     3
  0
LINE
  5
5B2
  8
DATA
  6
CONTINUOUS
 62
     7
 10
236.41173140978171
 20
575.0
 30
0.0
 11
241.08826859021761
 21
575.0
 31
0.0
  0
LINE
  5
5B3
  8
DATA
  6
CONTINUOUS
 62
     7
 10
243.1071541438144
 20
575.0
 30
0.0
 11
266.90464061963729
 21
575.0
 31
0.0
  0
LINE
  5
5B4
  8
DATA
  6
CONTINUOUS
 62
     7
 10
268.91173140978231
 20
575.0
 30
0.0
 11
273.58826859021832
 21
575.0
 31
0.0
  0
LINE
  5
5B5
  8
DATA
  6
CONTINUOUS
 62
     7
 10
236.41173140978171
 20
575.0
 30
0.0
 11
236.41173140978171
 21
570.5
 31
0.0
  0
LINE
  5
5B6
  8
DATA
  6
CONTINUOUS
 62
     7
 10
241.08826859021761
 20
575.0
 30
0.0
 11
241.08826859021761
 21
570.5
 31
0.0
  0
LINE
  5
5B7
  8
DATA
  6
CONTINUOUS
 62
     7
 10
268.91173140978231
 20
575.0
 30
0.0
 11
268.91173140978231
 21
570.5
 31
0.0
  0
LINE
  5
5B8
  8
DATA
  6
CONTINUOUS
 62
     7
 10
273.58826859021832
 20
575.0
 30
0.0
 11
273.58826859021832
 21
570.5
 31
0.0
  0
LINE
  5
5B9
  8
DATA
  6
CONTINUOUS
 62
     7
 10
243.1071541438144
 20
575.0
 30
0.0
 11
243.1071541438144
 21
570.5
 31
0.0
  0
LINE
  5
5BA
  8
DATA
  6
CONTINUOUS
 62
     7
 10
266.90464061963729
 20
575.0
 30
0.0
 11
266.90464061963729
 21
570.5
 31
0.0
  0
LINE
  5
5BB
  8
DATA
  6
CONTINUOUS
 62
     7
 10
292.41173140978168
 20
575.0
 30
0.0
 11
297.08826859021758
 21
575.0
 31
0.0
  0
LINE
  5
5BC
  8
DATA
  6
CONTINUOUS
 62
     7
 10
299.1071541438144
 20
575.0
 30
0.0
 11
322.90464061963729
 21
575.0
 31
0.0
  0
LINE
  5
5BD
  8
DATA
  6
CONTINUOUS
 62
     7
 10
324.91173140978231
 20
575.0
 30
0.0
 11
329.58826859021832
 21
575.0
 31
0.0
  0
LINE
  5
5BE
  8
DATA
  6
CONTINUOUS
 62
     7
 10
292.41173140978168
 20
575.0
 30
0.0
 11
292.41173140978168
 21
570.5
 31
0.0
  0
LINE
  5
5BF
  8
DATA
  6
CONTINUOUS
 62
     7
 10
297.08826859021758
 20
575.0
 30
0.0
 11
297.08826859021758
 21
570.5
 31
0.0
  0
LINE
  5
5C0
  8
DATA
  6
CONTINUOUS
 62
     7
 10
324.91173140978231
 20
575.0
 30
0.0
 11
324.91173140978231
 21
570.5
 31
0.0
  0
LINE
  5
5C1
  8
DATA
  6
CONTINUOUS
 62
     7
 10
329.58826859021832
 20
575.0
 30
0.0
 11
329.58826859021832
 21
570.5
 31
0.0
  0
LINE
  5
5C2
  8
DATA
  6
CONTINUOUS
 62
     7
 10
299.1071541438144
 20
575.0
 30
0.0
 11
299.1071541438144
 21
570.5
 31
0.0
  0
LINE
  5
5C3
  8
DATA
  6
CONTINUOUS
 62
     7
 10
322.90464061963729
 20
575.0
 30
0.0
 11
322.90464061963729
 21
570.5
 31
0.0
  0
LINE
  5
5C4
  8
DATA
  6
CONTINUOUS
 62
     7
 10
348.41173140978168
 20
575.0
 30
0.0
 11
353.08826859021758
 21
575.0
 31
0.0
  0
LINE
  5
5C5
  8
DATA
  6
CONTINUOUS
 62
     7
 10
355.1071541438144
 20
575.0
 30
0.0
 11
378.90464061963729
 21
575.0
 31
0.0
  0
LINE
  5
5C6
  8
DATA
  6
CONTINUOUS
 62
     7
 10
380.91173140978231
 20
575.0
 30
0.0
 11
385.58826859021832
 21
575.0
 31
0.0
  0
LINE
  5
5C7
  8
DATA
  6
CONTINUOUS
 62
     7
 10
348.41173140978168
 20
575.0
 30
0.0
 11
348.41173140978168
 21
570.5
 31
0.0
  0
LINE
  5
5C8
  8
DATA
  6
CONTINUOUS
 62
     7
 10
353.08826859021758
 20
575.0
 30
0.0
 11
353.08826859021758
 21
570.5
 31
0.0
  0
LINE
  5
5C9
  8
DATA
  6
CONTINUOUS
 62
     7
 10
380.91173140978231
 20
575.0
 30
0.0
 11
380.91173140978231
 21
570.5
 31
0.0
  0
LINE
  5
5CA
  8
DATA
  6
CONTINUOUS
 62
     7
 10
385.58826859021832
 20
575.0
 30
0.0
 11
385.58826859021832
 21
570.5
 31
0.0
  0
LINE
  5
5CB
  8
DATA
  6
CONTINUOUS
 62
     7
 10
355.1071541438144
 20
575.0
 30
0.0
 11
355.1071541438144
 21
570.5
 31
0.0
  0
LINE
  5
5CC
  8
DATA
  6
CONTINUOUS
 62
     7
 10
378.90464061963729
 20
575.0
 30
0.0
 11
378.90464061963729
 21
570.5
 31
0.0
  0
LINE
  5
5CD
  8
DATA
  6
CONTINUOUS
 62
     7
 10
404.41173140978168
 20
575.0
 30
0.0
 11
409.08826859021752
 21
575.0
 31
0.0
  0
LINE
  5
5CE
  8
DATA
  6
CONTINUOUS
 62
     7
 10
411.1071541438144
 20
575.0
 30
0.0
 11
434.90464061963729
 21
575.0
 31
0.0
  0
LINE
  5
5CF
  8
DATA
  6
CONTINUOUS
 62
     7
 10
436.91173140978231
 20
575.0
 30
0.0
 11
441.58826859021821
 21
575.0
 31
0.0
  0
LINE
  5
5D0
  8
DATA
  6
CONTINUOUS
 62
     7
 10
404.41173140978168
 20
575.0
 30
0.0
 11
404.41173140978168
 21
570.5
 31
0.0
  0
LINE
  5
5D1
  8
DATA
  6
CONTINUOUS
 62
     7
 10
409.08826859021752
 20
575.0
 30
0.0
 11
409.08826859021752
 21
570.5
 31
0.0
  0
LINE
  5
5D2
  8
DATA
  6
CONTINUOUS
 62
     7
 10
436.91173140978231
 20
575.0
 30
0.0
 11
436.91173140978231
 21
570.5
 31
0.0
  0
LINE
  5
5D3
  8
DATA
  6
CONTINUOUS
 62
     7
 10
441.58826859021821
 20
575.0
 30
0.0
 11
441.58826859021821
 21
570.5
 31
0.0
  0
LINE
  5
5D4
  8
DATA
  6
CONTINUOUS
 62
     7
 10
411.1071541438144
 20
575.0
 30
0.0
 11
411.1071541438144
 21
570.5
 31
0.0
  0
LINE
  5
5D5
  8
DATA
  6
CONTINUOUS
 62
     7
 10
434.90464061963729
 20
575.0
 30
0.0
 11
434.90464061963729
 21
570.5
 31
0.0
  0
LINE
  5
5D6
  8
DATA
  6
CONTINUOUS
 62
     7
 10
529.41173140978162
 20
575.0
 30
0.0
 11
534.08826859021769
 21
575.0
 31
0.0
  0
LINE
  5
5D7
  8
DATA
  6
CONTINUOUS
 62
     7
 10
536.10715414381434
 20
575.0
 30
0.0
 11
559.90464061963735
 21
575.0
 31
0.0
  0
LINE
  5
5D8
  8
DATA
  6
CONTINUOUS
 62
     7
 10
561.91173140978231
 20
575.0
 30
0.0
 11
566.58826859021826
 21
575.0
 31
0.0
  0
LINE
  5
5D9
  8
DATA
  6
CONTINUOUS
 62
     7
 10
529.41173140978162
 20
575.0
 30
0.0
 11
529.41173140978162
 21
570.5
 31
0.0
  0
LINE
  5
5DA
  8
DATA
  6
CONTINUOUS
 62
     7
 10
534.08826859021769
 20
575.0
 30
0.0
 11
534.08826859021769
 21
570.5
 31
0.0
  0
LINE
  5
5DB
  8
DATA
  6
CONTINUOUS
 62
     7
 10
561.91173140978231
 20
575.0
 30
0.0
 11
561.91173140978231
 21
570.5
 31
0.0
  0
LINE
  5
5DC
  8
DATA
  6
CONTINUOUS
 62
     7
 10
566.58826859021826
 20
575.0
 30
0.0
 11
566.58826859021826
 21
570.5
 31
0.0
  0
LINE
  5
5DD
  8
DATA
  6
CONTINUOUS
 62
     7
 10
536.10715414381434
 20
575.0
 30
0.0
 11
536.10715414381434
 21
570.5
 31
0.0
  0
LINE
  5
5DE
  8
DATA
  6
CONTINUOUS
 62
     7
 10
559.90464061963735
 20
575.0
 30
0.0
 11
559.90464061963735
 21
570.5
 31
0.0
  0
LINE
  5
5DF
  8
DATA
  6
CONTINUOUS
 62
     7
 10
594.89999999999986
 20
576.49999999999989
 30
0.0
 11
587.10000000000002
 21
576.49999999999989
 31
0.0
  0
LINE
  5
5E0
  8
DATA
  6
CONTINUOUS
 62
     7
 10
585.2264973081036
 20
572.0
 30
0.0
 11
585.2264973081036
 21
570.5
 31
0.0
  0
LINE
  5
5E1
  8
DATA
  6
CONTINUOUS
 62
     7
 10
596.77350269189628
 20
572.0
 30
0.0
 11
596.77350269189628
 21
570.5
 31
0.0
  0
LINE
  5
5E2
  8
DATA
  6
CONTINUOUS
 62
     7
 10
585.2264973081036
 20
572.0
 30
0.0
 11
596.77350269189628
 21
572.0
 31
0.0
  0
LINE
  5
5E3
  8
DATA
  6
CONTINUOUS
 62
     7
 10
587.10000000000002
 20
576.49999999999989
 30
0.0
 11
587.10000000000002
 21
572.0
 31
0.0
  0
LINE
  5
5E4
  8
DATA
  6
CONTINUOUS
 62
     7
 10
594.89999999999986
 20
576.49999999999989
 30
0.0
 11
594.89999999999986
 21
572.0
 31
0.0
  0
LINE
  5
5E5
  8
DATA
  6
CONTINUOUS
 62
     7
 10
175.0
 20
870.5
 30
0.0
 11
175.0
 21
762.5
 31
0.0
  0
LINE
  5
5E6
  8
DATA
  6
CONTINUOUS
 62
     7
 10
175.0
 20
870.5
 30
0.0
 11
611.0
 21
870.5
 31
0.0
  0
LINE
  5
5E7
  8
DATA
  6
CONTINUOUS
 62
     7
 10
175.0
 20
762.5
 30
0.0
 11
611.0
 21
762.5
 31
0.0
  0
LINE
  5
5E8
  8
DATA
  6
CONTINUOUS
 62
     7
 10
611.0
 20
870.5
 30
0.0
 11
611.0
 21
762.5
 31
0.0
  0
ARC
  5
5E9
  8
DATA
  6
CONTINUOUS
 62
     7
 10
563.0
 20
870.27866424901072
 30
0.0
 40
1.500000000000002
 50
8.4853872616191222
 51
171.51461273838081
  0
LINE
  5
5EA
  8
DATA
  6
CONTINUOUS
 62
     7
 10
236.41173140978171
 20
758.0
 30
0.0
 11
241.08826859021761
 21
758.0
 31
0.0
  0
LINE
  5
5EB
  8
DATA
  6
CONTINUOUS
 62
     7
 10
243.1071541438144
 20
758.0
 30
0.0
 11
266.90464061963729
 21
758.0
 31
0.0
  0
LINE
  5
5EC
  8
DATA
  6
CONTINUOUS
 62
     7
 10
268.91173140978231
 20
758.0
 30
0.0
 11
273.58826859021832
 21
758.0
 31
0.0
  0
LINE
  5
5ED
  8
DATA
  6
CONTINUOUS
 62
     7
 10
236.41173140978171
 20
758.0
 30
0.0
 11
236.41173140978171
 21
762.5
 31
0.0
  0
LINE
  5
5EE
  8
DATA
  6
CONTINUOUS
 62
     7
 10
241.08826859021761
 20
758.0
 30
0.0
 11
241.08826859021761
 21
762.5
 31
0.0
  0
LINE
  5
5EF
  8
DATA
  6
CONTINUOUS
 62
     7
 10
268.91173140978231
 20
758.0
 30
0.0
 11
268.91173140978231
 21
762.5
 31
0.0
  0
LINE
  5
5F0
  8
DATA
  6
CONTINUOUS
 62
     7
 10
273.58826859021832
 20
758.0
 30
0.0
 11
273.58826859021832
 21
762.5
 31
0.0
  0
LINE
  5
5F1
  8
DATA
  6
CONTINUOUS
 62
     7
 10
243.1071541438144
 20
758.0
 30
0.0
 11
243.1071541438144
 21
762.5
 31
0.0
  0
LINE
  5
5F2
  8
DATA
  6
CONTINUOUS
 62
     7
 10
266.90464061963729
 20
758.0
 30
0.0
 11
266.90464061963729
 21
762.5
 31
0.0
  0
LINE
  5
5F3
  8
DATA
  6
CONTINUOUS
 62
     7
 10
292.41173140978168
 20
758.0
 30
0.0
 11
297.08826859021758
 21
758.0
 31
0.0
  0
LINE
  5
5F4
  8
DATA
  6
CONTINUOUS
 62
     7
 10
299.1071541438144
 20
758.0
 30
0.0
 11
322.90464061963729
 21
758.0
 31
0.0
  0
LINE
  5
5F5
  8
DATA
  6
CONTINUOUS
 62
     7
 10
324.91173140978231
 20
758.0
 30
0.0
 11
329.58826859021832
 21
758.0
 31
0.0
  0
LINE
  5
5F6
  8
DATA
  6
CONTINUOUS
 62
     7
 10
292.41173140978168
 20
758.0
 30
0.0
 11
292.41173140978168
 21
762.5
 31
0.0
  0
LINE
  5
5F7
  8
DATA
  6
CONTINUOUS
 62
     7
 10
297.08826859021758
 20
758.0
 30
0.0
 11
297.08826859021758
 21
762.5
 31
0.0
  0
LINE
  5
5F8
  8
DATA
  6
CONTINUOUS
 62
     7
 10
324.91173140978231
 20
758.0
 30
0.0
 11
324.91173140978231
 21
762.5
 31
0.0
  0
LINE
  5
5F9
  8
DATA
  6
CONTINUOUS
 62
     7
 10
329.58826859021832
 20
758.0
 30
0.0
 11
329.58826859021832
 21
762.5
 31
0.0
  0
LINE
  5
5FA
  8
DATA
  6
CONTINUOUS
 62
     7
 10
299.1071541438144
 20
758.0
 30
0.0
 11
299.1071541438144
 21
762.5
 31
0.0
  0
LINE
  5
5FB
  8
DATA
  6
CONTINUOUS
 62
     7
 10
322.90464061963729
 20
758.0
 30
0.0
 11
322.90464061963729
 21
762.5
 31
0.0
  0
LINE
  5
5FC
  8
DATA
  6
CONTINUOUS
 62
     7
 10
348.41173140978168
 20
758.0
 30
0.0
 11
353.08826859021758
 21
758.0
 31
0.0
  0
LINE
  5
5FD
  8
DATA
  6
CONTINUOUS
 62
     7
 10
355.1071541438144
 20
758.0
 30
0.0
 11
378.90464061963729
 21
758.0
 31
0.0
  0
LINE
  5
5FE
  8
DATA
  6
CONTINUOUS
 62
     7
 10
380.91173140978231
 20
758.0
 30
0.0
 11
385.58826859021832
 21
758.0
 31
0.0
  0
LINE
  5
5FF
  8
DATA
  6
CONTINUOUS
 62
     7
 10
348.41173140978168
 20
758.0
 30
0.0
 11
348.41173140978168
 21
762.5
 31
0.0
  0
LINE
  5
600
  8
DATA
  6
CONTINUOUS
 62
     7
 10
353.08826859021758
 20
758.0
 30
0.0
 11
353.08826859021758
 21
762.5
 31
0.0
  0
LINE
  5
601
  8
DATA
  6
CONTINUOUS
 62
     7
 10
380.91173140978231
 20
758.0
 30
0.0
 11
380.91173140978231
 21
762.5
 31
0.0
  0
LINE
  5
602
  8
DATA
  6
CONTINUOUS
 62
     7
 10
385.58826859021832
 20
758.0
 30
0.0
 11
385.58826859021832
 21
762.5
 31
0.0
  0
LINE
  5
603
  8
DATA
  6
CONTINUOUS
 62
     7
 10
355.1071541438144
 20
758.0
 30
0.0
 11
355.1071541438144
 21
762.5
 31
0.0
  0
LINE
  5
604
  8
DATA
  6
CONTINUOUS
 62
     7
 10
378.90464061963729
 20
758.0
 30
0.0
 11
378.90464061963729
 21
762.5
 31
0.0
  0
LINE
  5
605
  8
DATA
  6
CONTINUOUS
 62
     7
 10
404.41173140978168
 20
758.0
 30
0.0
 11
409.08826859021752
 21
758.0
 31
0.0
  0
LINE
  5
606
  8
DATA
  6
CONTINUOUS
 62
     7
 10
411.1071541438144
 20
758.0
 30
0.0
 11
434.90464061963729
 21
758.0
 31
0.0
  0
LINE
  5
607
  8
DATA
  6
CONTINUOUS
 62
     7
 10
436.91173140978231
 20
758.0
 30
0.0
 11
441.58826859021821
 21
758.0
 31
0.0
  0
LINE
  5
608
  8
DATA
  6
CONTINUOUS
 62
     7
 10
404.41173140978168
 20
758.0
 30
0.0
 11
404.41173140978168
 21
762.5
 31
0.0
  0
LINE
  5
609
  8
DATA
  6
CONTINUOUS
 62
     7
 10
409.08826859021752
 20
758.0
 30
0.0
 11
409.08826859021752
 21
762.5
 31
0.0
  0
LINE
  5
60A
  8
DATA
  6
CONTINUOUS
 62
     7
 10
436.91173140978231
 20
758.0
 30
0.0
 11
436.91173140978231
 21
762.5
 31
0.0
  0
LINE
  5
60B
  8
DATA
  6
CONTINUOUS
 62
     7
 10
441.58826859021821
 20
758.0
 30
0.0
 11
441.58826859021821
 21
762.5
 31
0.0
  0
LINE
  5
60C
  8
DATA
  6
CONTINUOUS
 62
     7
 10
411.1071541438144
 20
758.0
 30
0.0
 11
411.1071541438144
 21
762.5
 31
0.0
  0
LINE
  5
60D
  8
DATA
  6
CONTINUOUS
 62
     7
 10
434.90464061963729
 20
758.0
 30
0.0
 11
434.90464061963729
 21
762.5
 31
0.0
  0
LINE
  5
60E
  8
DATA
  6
CONTINUOUS
 62
     7
 10
529.41173140978162
 20
758.0
 30
0.0
 11
534.08826859021769
 21
758.0
 31
0.0
  0
LINE
  5
60F
  8
DATA
  6
CONTINUOUS
 62
     7
 10
536.10715414381434
 20
758.0
 30
0.0
 11
559.90464061963735
 21
758.0
 31
0.0
  0
LINE
  5
610
  8
DATA
  6
CONTINUOUS
 62
     7
 10
561.91173140978231
 20
758.0
 30
0.0
 11
566.58826859021826
 21
758.0
 31
0.0
  0
LINE
  5
611
  8
DATA
  6
CONTINUOUS
 62
     7
 10
529.41173140978162
 20
758.0
 30
0.0
 11
529.41173140978162
 21
762.5
 31
0.0
  0
LINE
  5
612
  8
DATA
  6
CONTINUOUS
 62
     7
 10
534.08826859021769
 20
758.0
 30
0.0
 11
534.08826859021769
 21
762.5
 31
0.0
  0
LINE
  5
613
  8
DATA
  6
CONTINUOUS
 62
     7
 10
561.91173140978231
 20
758.0
 30
0.0
 11
561.91173140978231
 21
762.5
 31
0.0
  0
LINE
  5
614
  8
DATA
  6
CONTINUOUS
 62
     7
 10
566.58826859021826
 20
758.0
 30
0.0
 11
566.58826859021826
 21
762.5
 31
0.0
  0
LINE
  5
615
  8
DATA
  6
CONTINUOUS
 62
     7
 10
536.10715414381434
 20
758.0
 30
0.0
 11
536.10715414381434
 21
762.5
 31
0.0
  0
LINE
  5
616
  8
DATA
  6
CONTINUOUS
 62
     7
 10
559.90464061963735
 20
758.0
 30
0.0
 11
559.90464061963735
 21
762.5
 31
0.0
  0
LINE
  5
617
  8
DATA
  6
CONTINUOUS
 62
     7
 10
594.89999999999986
 20
756.5
 30
0.0
 11
587.10000000000002
 21
756.5
 31
0.0
  0
LINE
  5
618
  8
DATA
  6
CONTINUOUS
 62
     7
 10
585.2264973081036
 20
761.0
 30
0.0
 11
585.2264973081036
 21
762.5
 31
0.0
  0
LINE
  5
619
  8
DATA
  6
CONTINUOUS
 62
     7
 10
596.77350269189628
 20
761.0
 30
0.0
 11
596.77350269189628
 21
762.5
 31
0.0
  0
LINE
  5
61A
  8
DATA
  6
CONTINUOUS
 62
     7
 10
585.2264973081036
 20
761.0
 30
0.0
 11
596.77350269189628
 21
761.0
 31
0.0
  0
LINE
  5
61B
  8
DATA
  6
CONTINUOUS
 62
     7
 10
587.10000000000002
 20
756.5
 30
0.0
 11
587.10000000000002
 21
761.0
 31
0.0
  0
LINE
  5
61C
  8
DATA
  6
CONTINUOUS
 62
     7
 10
594.89999999999986
 20
756.5
 30
0.0
 11
594.89999999999986
 21
761.0
 31
0.0
  0
LINE
  5
61D
  8
DATA
  6
CONTINUOUS
 62
     7
 10
175.0
 20
774.5
 30
0.0
 11
611.0
 21
774.5
 31
0.0
  0
LINE
  5
61E
  8
DATA
  6
CONTINUOUS
 62
     7
 10
544.0
 20
824.5
 30
0.0
 11
544.0
 21
813.49999999999989
 31
0.0
  0
LINE
  5
61F
  8
DATA
  6
CONTINUOUS
 62
     7
 10
536.5
 20
824.5
 30
0.0
 11
536.5
 21
813.49999999999989
 31
0.0
  0
LINE
  5
620
  8
DATA
  6
CONTINUOUS
 62
     7
 10
544.0
 20
813.49999999999989
 30
0.0
 11
536.5
 21
813.49999999999989
 31
0.0
  0
LINE
  5
621
  8
DATA
  6
CONTINUOUS
 62
     7
 10
544.0
 20
824.5
 30
0.0
 11
536.5
 21
824.5
 31
0.0
  0
POLYLINE
  5
622
  8
DATA
  6
CONTINUOUS
 62
     7
 66
     1
 10
0.0
 20
0.0
 30
0.0
 70
     1
  0
VERTEX
  5
A9C
  8
DATA
  6
CONTINUOUS
 62
     7
 10
539.0
 20
816.45000000000005
 30
0.0
  0
VERTEX
  5
A9D
  8
DATA
  6
CONTINUOUS
 62
     7
 10
541.5
 20
816.45000000000005
 30
0.0
  0
VERTEX
  5
A9E
  8
DATA
  6
CONTINUOUS
 62
     7
 10
541.5
 20
814.94999999999993
 30
0.0
  0
VERTEX
  5
A9F
  8
DATA
  6
CONTINUOUS
 62
     7
 10
539.0
 20
814.94999999999993
 30
0.0
  0
SEQEND
  5
AA0
  8
DATA
  6
CONTINUOUS
 62
     7
  0
POLYLINE
  5
629
  8
DATA
  6
CONTINUOUS
 62
     7
 66
     1
 10
0.0
 20
0.0
 30
0.0
 70
     1
  0
VERTEX
  5
AA1
  8
DATA
  6
CONTINUOUS
 62
     7
 10
539.0
 20
818.6500000000002
 30
0.0
  0
VERTEX
  5
AA2
  8
DATA
  6
CONTINUOUS
 62
     7
 10
541.5
 20
818.6500000000002
 30
0.0
  0
VERTEX
  5
AA3
  8
DATA
  6
CONTINUOUS
 62
     7
 10
541.5
 20
817.15000000000009
 30
0.0
  0
VERTEX
  5
AA4
  8
DATA
  6
CONTINUOUS
 62
     7
 10
539.0
 20
817.15000000000009
 30
0.0
  0
SEQEND
  5
AA5
  8
DATA
  6
CONTINUOUS
 62
     7
  0
POLYLINE
  5
630
  8
DATA
  6
CONTINUOUS
 62
     7
 66
     1
 10
0.0
 20
0.0
 30
0.0
 70
     1
  0
VERTEX
  5
AA6
  8
DATA
  6
CONTINUOUS
 62
     7
 10
539.0
 20
820.85000000000002
 30
0.0
  0
VERTEX
  5
AA7
  8
DATA
  6
CONTINUOUS
 62
     7
 10
541.5
 20
820.85000000000002
 30
0.0
  0
VERTEX
  5
AA8
  8
DATA
  6
CONTINUOUS
 62
     7
 10
541.5
 20
819.35000000000002
 30
0.0
  0
VERTEX
  5
AA9
  8
DATA
  6
CONTINUOUS
 62
     7
 10
539.0
 20
819.35000000000002
 30
0.0
  0
SEQEND
  5
AAA
  8
DATA
  6
CONTINUOUS
 62
     7
  0
POLYLINE
  5
637
  8
DATA
  6
CONTINUOUS
 62
     7
 66
     1
 10
0.0
 20
0.0
 30
0.0
 70
     1
  0
VERTEX
  5
AAB
  8
DATA
  6
CONTINUOUS
 62
     7
 10
539.0
 20
823.04999999999995
 30
0.0
  0
VERTEX
  5
AAC
  8
DATA
  6
CONTINUOUS
 62
     7
 10
541.5
 20
823.04999999999995
 30
0.0
  0
VERTEX
  5
AAD
  8
DATA
  6
CONTINUOUS
 62
     7
 10
541.5
 20
821.54999999999995
 30
0.0
  0
VERTEX
  5
AAE
  8
DATA
  6
CONTINUOUS
 62
     7
 10
539.0
 20
821.54999999999995
 30
0.0
  0
SEQEND
  5
AAF
  8
DATA
  6
CONTINUOUS
 62
     7
  0
TEXT
  5
63E
  8
DATA
 62
     7
 10
543.42534603195509
 20
815.19802762557697
 30
0.0
 40
1.357367621527777
  1
1
 50
90.0
 41
0.7
 11
542.06797841042714
 21
815.19802762557697
 31
0.0
 73
     3
  0
TEXT
  5
63F
  8
DATA
 62
     7
 10
543.42534603195509
 20
817.39802762557724
 30
0.0
 40
1.357367621527777
  1
2
 50
90.0
 41
0.7
 11
542.06797841042714
 21
817.39802762557724
 31
0.0
 73
     3
  0
TEXT
  5
640
  8
DATA
 62
     7
 10
543.42534603195509
 20
819.59802762557683
 30
0.0
 40
1.357367621527777
  1
3
 50
90.0
 41
0.7
 11
542.06797841042714
 21
819.59802762557683
 31
0.0
 73
     3
  0
TEXT
  5
641
  8
DATA
 62
     7
 10
543.42534603195509
 20
821.79802762557699
 30
0.0
 40
1.357367621527777
  1
4
 50
90.0
 41
0.7
 11
542.06797841042714
 21
821.79802762557699
 31
0.0
 73
     3
  0
TEXT
  5
642
  8
DATA
 62
     7
 10
538.38600433676856
 20
814.87430749338591
 30
0.0
 40
1.357367621527777
  1
ON
 50
90.0
 41
0.7
 11
537.02863671524085
 21
814.87430749338591
 31
0.0
 73
     3
  0
TEXT
  5
643
  8
DATA
 62
     7
 10
649.73856647062723
 20
881.87321438064498
 30
0.0
 40
13.57367621527778
  1
DIPスイッチ拡大図
 41
0.7
 11
649.73856647062723
 21
895.4468905959227
 31
0.0
 73
     3
  0
LINE
  5
644
  8
DATA
  6
CONTINUOUS
 62
     7
 10
755.47790176435478
 20
857.95853176501771
 30
0.0
 11
755.47790176435478
 21
768.85853176501769
 31
0.0
  0
LINE
  5
645
  8
DATA
  6
CONTINUOUS
 62
     7
 10
694.72790176435478
 20
857.95853176501771
 30
0.0
 11
694.72790176435478
 21
768.85853176501769
 31
0.0
  0
LINE
  5
646
  8
DATA
  6
CONTINUOUS
 62
     7
 10
755.47790176435478
 20
768.85853176501769
 30
0.0
 11
694.72790176435478
 21
768.85853176501769
 31
0.0
  0
LINE
  5
647
  8
DATA
  6
CONTINUOUS
 62
     7
 10
755.47790176435478
 20
857.95853176501771
 30
0.0
 11
694.72790176435478
 21
857.95853176501771
 31
0.0
  0
POLYLINE
  5
648
  8
DATA
  6
CONTINUOUS
 62
     7
 66
     1
 10
0.0
 20
0.0
 30
0.0
 70
     1
  0
VERTEX
  5
AB0
  8
DATA
  6
CONTINUOUS
 62
     7
 10
714.9779017643549
 20
792.75353176501778
 30
0.0
  0
VERTEX
  5
AB1
  8
DATA
  6
CONTINUOUS
 62
     7
 10
735.2279017643549
 20
792.75353176501778
 30
0.0
  0
VERTEX
  5
AB2
  8
DATA
  6
CONTINUOUS
 62
     7
 10
735.2279017643549
 20
780.60353176501781
 30
0.0
  0
VERTEX
  5
AB3
  8
DATA
  6
CONTINUOUS
 62
     7
 10
714.9779017643549
 20
780.60353176501781
 30
0.0
  0
SEQEND
  5
AB4
  8
DATA
  6
CONTINUOUS
 62
     7
  0
POLYLINE
  5
64F
  8
DATA
  6
CONTINUOUS
 62
     7
 66
     1
 10
0.0
 20
0.0
 30
0.0
 70
     1
  0
VERTEX
  5
AB5
  8
DATA
  6
CONTINUOUS
 62
     7
 10
714.9779017643549
 20
810.57353176501795
 30
0.0
  0
VERTEX
  5
AB6
  8
DATA
  6
CONTINUOUS
 62
     7
 10
735.2279017643549
 20
810.57353176501795
 30
0.0
  0
VERTEX
  5
AB7
  8
DATA
  6
CONTINUOUS
 62
     7
 10
735.2279017643549
 20
798.42353176501786
 30
0.0
  0
VERTEX
  5
AB8
  8
DATA
  6
CONTINUOUS
 62
     7
 10
714.9779017643549
 20
798.42353176501786
 30
0.0
  0
SEQEND
  5
AB9
  8
DATA
  6
CONTINUOUS
 62
     7
  0
POLYLINE
  5
656
  8
DATA
  6
CONTINUOUS
 62
     7
 66
     1
 10
0.0
 20
0.0
 30
0.0
 70
     1
  0
VERTEX
  5
ABA
  8
DATA
  6
CONTINUOUS
 62
     7
 10
714.9779017643549
 20
828.39353176501788
 30
0.0
  0
VERTEX
  5
ABB
  8
DATA
  6
CONTINUOUS
 62
     7
 10
735.2279017643549
 20
828.39353176501788
 30
0.0
  0
VERTEX
  5
ABC
  8
DATA
  6
CONTINUOUS
 62
     7
 10
735.2279017643549
 20
816.24353176501779
 30
0.0
  0
VERTEX
  5
ABD
  8
DATA
  6
CONTINUOUS
 62
     7
 10
714.9779017643549
 20
816.24353176501779
 30
0.0
  0
SEQEND
  5
ABE
  8
DATA
  6
CONTINUOUS
 62
     7
  0
POLYLINE
  5
65D
  8
DATA
  6
CONTINUOUS
 62
     7
 66
     1
 10
0.0
 20
0.0
 30
0.0
 70
     1
  0
VERTEX
  5
ABF
  8
DATA
  6
CONTINUOUS
 62
     7
 10
714.9779017643549
 20
846.21353176501782
 30
0.0
  0
VERTEX
  5
AC0
  8
DATA
  6
CONTINUOUS
 62
     7
 10
735.2279017643549
 20
846.21353176501782
 30
0.0
  0
VERTEX
  5
AC1
  8
DATA
  6
CONTINUOUS
 62
     7
 10
735.2279017643549
 20
834.06353176501784
 30
0.0
  0
VERTEX
  5
AC2
  8
DATA
  6
CONTINUOUS
 62
     7
 10
714.9779017643549
 20
834.06353176501784
 30
0.0
  0
SEQEND
  5
AC3
  8
DATA
  6
CONTINUOUS
 62
     7
  0
TEXT
  5
664
  8
DATA
 62
     7
 10
750.82320462319035
 20
782.61255553219189
 30
0.0
 40
10.994677734374999
  1
1
 50
90.0
 41
0.7
 11
739.8285268888153
 21
782.61255553219189
 31
0.0
 73
     3
  0
TEXT
  5
665
  8
DATA
 62
     7
 10
750.82320462319035
 20
800.43255553219194
 30
0.0
 40
10.994677734374999
  1
2
 50
90.0
 41
0.7
 11
739.8285268888153
 21
800.43255553219194
 31
0.0
 73
     3
  0
TEXT
  5
666
  8
DATA
 62
     7
 10
750.82320462319035
 20
818.25255553219176
 30
0.0
 40
10.994677734374999
  1
3
 50
90.0
 41
0.7
 11
739.8285268888153
 21
818.25255553219176
 31
0.0
 73
     3
  0
TEXT
  5
667
  8
DATA
 62
     7
 10
750.82320462319035
 20
836.07255553219181
 30
0.0
 40
10.994677734374999
  1
4
 50
90.0
 41
0.7
 11
739.8285268888153
 21
836.07255553219181
 31
0.0
 73
     3
  0
TEXT
  5
668
  8
DATA
 62
     7
 10
710.00453689218079
 20
779.99042246144518
 30
0.0
 40
10.994677734374999
  1
ON
 50
90.0
 41
0.7
 11
699.00985915780575
 21
779.99042246144518
 31
0.0
 73
     3
  0
LINE
  5
669
  8
DATA
  6
CONTINUOUS
 62
     7
 10
650.0
 20
875.0
 30
0.0
 11
800.0
 21
875.0
 31
0.0
  0
ARC
  5
66A
  8
DATA
  6
CONTINUOUS
 62
     7
 10
185.1999815237595
 20
669.0
 30
0.0
 40
4.000000000000056
 50
359.9999999999992
 51
180.0000000000008
  0
ARC
  5
66B
  8
DATA
  6
CONTINUOUS
 62
     7
 10
600.80001847624044
 20
669.0
 30
0.0
 40
3.9999999999999432
 50
359.9999999999992
 51
180.0000000000008
  0
CIRCLE
  5
66C
  8
DATA
  6
CONTINUOUS
 62
     7
 10
185.1999815237595
 20
859.00971938064049
 30
0.0
 40
4.0
  0
CIRCLE
  5
66D
  8
DATA
  6
CONTINUOUS
 62
     7
 10
600.75
 20
859.00971938064049
 30
0.0
 40
4.0
  0
CIRCLE
  5
66E
  8
DATA
  6
CONTINUOUS
 62
     7
 10
185.1999815237595
 20
783.16199744349183
 30
0.0
 40
4.0
  0
CIRCLE
  5
66F
  8
DATA
  6
CONTINUOUS
 62
     7
 10
600.75
 20
783.16199744349183
 30
0.0
 40
4.0
  0
CIRCLE
  5
670
  8
DATA
  6
CONTINUOUS
 62
     7
 10
393.0
 20
768.5
 30
0.0
 40
2.5
  0
LINE
  5
671
  8
DATA
  6
CONTINUOUS
 62
     7
 10
391.90775460632688
 20
767.4077546063271
 30
0.0
 11
394.09224539367301
 21
769.59224539367312
 31
0.0
  0
LINE
  5
672
  8
DATA
  6
CONTINUOUS
 62
     7
 10
394.09224539367301
 20
767.4077546063271
 30
0.0
 11
391.90775460632688
 21
769.59224539367312
 31
0.0
  0
CIRCLE
  5
673
  8
DATA
  6
CONTINUOUS
 62
     7
 10
293.0
 20
768.5
 30
0.0
 40
2.5
  0
LINE
  5
674
  8
DATA
  6
CONTINUOUS
 62
     7
 10
291.90775460632688
 20
767.4077546063271
 30
0.0
 11
294.09224539367301
 21
769.59224539367312
 31
0.0
  0
LINE
  5
675
  8
DATA
  6
CONTINUOUS
 62
     7
 10
294.09224539367301
 20
767.4077546063271
 30
0.0
 11
291.90775460632688
 21
769.59224539367312
 31
0.0
  0
CIRCLE
  5
676
  8
DATA
  6
CONTINUOUS
 62
     7
 10
193.0
 20
768.5
 30
0.0
 40
2.5
  0
LINE
  5
677
  8
DATA
  6
CONTINUOUS
 62
     7
 10
191.90775460632699
 20
767.4077546063271
 30
0.0
 11
194.0922453936731
 21
769.59224539367312
 31
0.0
  0
LINE
  5
678
  8
DATA
  6
CONTINUOUS
 62
     7
 10
194.09224539367301
 20
767.4077546063271
 30
0.0
 11
191.90775460632699
 21
769.59224539367312
 31
0.0
  0
CIRCLE
  5
679
  8
DATA
  6
CONTINUOUS
 62
     7
 10
493.0
 20
768.5
 30
0.0
 40
2.5
  0
LINE
  5
67A
  8
DATA
  6
CONTINUOUS
 62
     7
 10
491.90775460632688
 20
767.4077546063271
 30
0.0
 11
494.0922453936729
 21
769.59224539367312
 31
0.0
  0
LINE
  5
67B
  8
DATA
  6
CONTINUOUS
 62
     7
 10
494.0922453936729
 20
767.4077546063271
 30
0.0
 11
491.90775460632688
 21
769.59224539367312
 31
0.0
  0
CIRCLE
  5
67C
  8
DATA
  6
CONTINUOUS
 62
     7
 10
593.0
 20
768.5
 30
0.0
 40
2.5
  0
LINE
  5
67D
  8
DATA
  6
CONTINUOUS
 62
     7
 10
591.90775460632688
 20
767.4077546063271
 30
0.0
 11
594.09224539367301
 21
769.59224539367312
 31
0.0
  0
LINE
  5
67E
  8
DATA
  6
CONTINUOUS
 62
     7
 10
594.09224539367301
 20
767.4077546063271
 30
0.0
 11
591.90775460632688
 21
769.59224539367312
 31
0.0
  0
ARC
  5
67F
  8
DATA
  6
CONTINUOUS
 62
     7
 10
695.86692283392949
 20
362.5
 30
0.0
 40
4.000000000000056
 50
179.9999999999992
 51
0.0000000000007958
  0
ARC
  5
680
  8
DATA
  6
CONTINUOUS
 62
     7
 10
771.86692283392915
 20
362.5
 30
0.0
 40
4.0
 50
179.9999999999992
 51
0.0000000000007958
  0
CIRCLE
  5
681
  8
DATA
  6
CONTINUOUS
 62
     7
 10
689.0
 20
369.0
 30
0.0
 40
2.5
  0
LINE
  5
682
  8
DATA
  6
CONTINUOUS
 62
     7
 10
687.9077546063271
 20
367.90775460632688
 30
0.0
 11
690.0922453936729
 21
370.09224539367301
 31
0.0
  0
LINE
  5
683
  8
DATA
  6
CONTINUOUS
 62
     7
 10
690.0922453936729
 20
367.90775460632688
 30
0.0
 11
687.9077546063271
 21
370.09224539367301
 31
0.0
  0
CIRCLE
  5
684
  8
DATA
  6
CONTINUOUS
 62
     7
 10
689.0
 20
399.0
 30
0.0
 40
2.5
  0
LINE
  5
685
  8
DATA
  6
CONTINUOUS
 62
     7
 10
687.9077546063271
 20
397.90775460632688
 30
0.0
 11
690.0922453936729
 21
400.0922453936729
 31
0.0
  0
LINE
  5
686
  8
DATA
  6
CONTINUOUS
 62
     7
 10
690.0922453936729
 20
397.90775460632688
 30
0.0
 11
687.9077546063271
 21
400.0922453936729
 31
0.0
  0
CIRCLE
  5
687
  8
DATA
  6
CONTINUOUS
 62
     7
 10
764.0
 20
369.0
 30
0.0
 40
2.5
  0
LINE
  5
688
  8
DATA
  6
CONTINUOUS
 62
     7
 10
762.9077546063271
 20
367.90775460632688
 30
0.0
 11
765.0922453936729
 21
370.09224539367301
 31
0.0
  0
LINE
  5
689
  8
DATA
  6
CONTINUOUS
 62
     7
 10
765.0922453936729
 20
367.90775460632688
 30
0.0
 11
762.9077546063271
 21
370.09224539367301
 31
0.0
  0
ARC
  5
68A
  8
DATA
  6
CONTINUOUS
 62
     7
 10
675.23740376624266
 20
379.5
 30
0.0
 40
1.500000000000024
 50
99.106447352849955
 51
260.8935526471501
  0
LINE
  5
68B
  8
DATA
  6
CONTINUOUS
 62
     7
 10
788.9999999998962
 20
378.72587573699002
 30
0.0
 11
788.9999999998962
 21
386.52587573698997
 31
0.0
  0
LINE
  5
68C
  8
DATA
  6
CONTINUOUS
 62
     7
 10
784.4999999998962
 20
388.39937842888628
 30
0.0
 11
782.99999999989609
 21
388.39937842888628
 31
0.0
  0
LINE
  5
68D
  8
DATA
  6
CONTINUOUS
 62
     7
 10
784.4999999998962
 20
376.85237304509371
 30
0.0
 11
782.99999999989609
 21
376.85237304509371
 31
0.0
  0
LINE
  5
68E
  8
DATA
  6
CONTINUOUS
 62
     7
 10
784.4999999998962
 20
388.39937842888628
 30
0.0
 11
784.4999999998962
 21
376.85237304509371
 31
0.0
  0
LINE
  5
68F
  8
DATA
  6
CONTINUOUS
 62
     7
 10
788.9999999998962
 20
386.52587573698997
 30
0.0
 11
784.4999999998962
 21
386.52587573698997
 31
0.0
  0
LINE
  5
690
  8
DATA
  6
CONTINUOUS
 62
     7
 10
788.9999999998962
 20
378.72587573699002
 30
0.0
 11
784.4999999998962
 21
378.72587573699002
 31
0.0
  0
LINE
  5
691
  8
DATA
  6
CONTINUOUS
 62
     7
 10
787.5
 20
375.5
 30
0.0
 11
783.0
 21
375.5
 31
0.0
  0
LINE
  5
692
  8
DATA
  6
CONTINUOUS
 62
     7
 10
787.5
 20
378.72587573699002
 30
0.0
 11
787.5
 21
375.5
 31
0.0
  0
ARC
  5
693
  8
DATA
  6
CONTINUOUS
 62
     7
 10
675.79999999999995
 20
405.7000000000001
 30
0.0
 40
0.7999999999999546
 50
90.0
 51
180.00000000000401
  0
ARC
  5
694
  8
DATA
  6
CONTINUOUS
 62
     7
 10
675.79999999999995
 20
363.30000000000001
 30
0.0
 40
0.8000000000000113
 50
180.0
 51
270.0
  0
ENDSEC
  0
EOF
