  0
SECTION
  2
HEADER
  9
$ACADVER
  1
AC1009
  9
$INSBASE
 10
0.0
 20
0.0
 30
0.0
  9
$EXTMIN
 10
-180.01097548933731
 20
-272.4102912116511
 30
-0.0015258207003583
  9
$EXTMAX
 10
182.8004987499998
 20
263.54814428772011
 30
0.0000000349246037
  9
$LIMMIN
 10
0.0
 20
0.0
  9
$LIMMAX
 10
0.0
 20
0.0
  9
$ORTHOMODE
 70
     0
  9
$REGENMODE
 70
     1
  9
$FILLMODE
 70
     1
  9
$QTEXTMODE
 70
     0
  9
$MIRRTEXT
 70
     1
  9
$DRAGMODE
 70
     2
  9
$LTSCALE
 40
10.16
  9
$OSMODE
 70
   231
  9
$ATTMODE
 70
     1
  9
$TEXTSIZE
 40
0.0
  9
$TRACEWID
 40
1.0
  9
$TEXTSTYLE
  7
STANDARD
  9
$CLAYER
  8
DATA
  9
$CELTYPE
  6
BYLAYER
  9
$CECOLOR
 62
   256
  9
$DIMSCALE
 40
1.0
  9
$DIMASZ
 40
0.18
  9
$DIMEXO
 40
0.0625
  9
$DIMDLI
 40
0.38
  9
$DIMRND
 40
0.0
  9
$DIMDLE
 40
0.0
  9
$DIMEXE
 40
0.18
  9
$DIMTP
 40
0.0
  9
$DIMTM
 40
0.0
  9
$DIMTXT
 40
0.18
  9
$DIMCEN
 40
0.09
  9
$DIMTSZ
 40
0.0
  9
$DIMTOL
 70
     0
  9
$DIMLIM
 70
     0
  9
$DIMTIH
 70
     1
  9
$DIMTOH
 70
     1
  9
$DIMSE1
 70
     0
  9
$DIMSE2
 70
     0
  9
$DIMTAD
 70
     0
  9
$DIMZIN
 70
     0
  9
$DIMBLK
  1

  9
$DIMASO
 70
     1
  9
$DIMSHO
 70
     1
  9
$DIMPOST
  1

  9
$DIMAPOST
  1

  9
$DIMALT
 70
     0
  9
$DIMALTD
 70
     2
  9
$DIMALTF
 40
25.399999999999999
  9
$DIMLFAC
 40
1.0
  9
$DIMTOFL
 70
     0
  9
$DIMTVP
 40
0.0
  9
$DIMTIX
 70
     0
  9
$DIMSOXD
 70
     0
  9
$DIMSAH
 70
     0
  9
$DIMBLK1
  1

  9
$DIMBLK2
  1

  9
$DIMSTYLE
  2
STANDARD
  9
$DIMCLRD
 70
     0
  9
$DIMCLRE
 70
     0
  9
$DIMCLRT
 70
     0
  9
$DIMTFAC
 40
1.0
  9
$DIMGAP
 40
0.09
  9
$LUNITS
 70
     2
  9
$LUPREC
 70
     4
  9
$SKETCHINC
 40
0.1
  9
$FILLETRAD
 40
0.0
  9
$AUNITS
 70
     0
  9
$AUPREC
 70
     0
  9
$MENU
  1
acad
  9
$ELEVATION
 40
0.0
  9
$PELEVATION
 40
0.0
  9
$THICKNESS
 40
0.0
  9
$LIMCHECK
 70
     0
  9
$BLIPMODE
 70
     0
  9
$CHAMFERA
 40
0.0
  9
$CHAMFERB
 40
0.0
  9
$SKPOLY
 70
     0
  9
$TDCREATE
 40
2456206.5663657412
  9
$TDUPDATE
 40
2456206.5726895141
  9
$TDINDWG
 40
0.0004494444
  9
$TDUSRTIMER
 40
0.0004490856
  9
$USRTIMER
 70
     1
  9
$ANGBASE
 50
0.0
  9
$ANGDIR
 70
     0
  9
$PDMODE
 70
     1
  9
$PDSIZE
 40
-2.0
  9
$PLINEWID
 40
0.0
  9
$COORDS
 70
     2
  9
$SPLFRAME
 70
     0
  9
$SPLINETYPE
 70
     6
  9
$SPLINESEGS
 70
     8
  9
$ATTDIA
 70
     0
  9
$ATTREQ
 70
     1
  9
$HANDLING
 70
     1
  9
$HANDSEED
  5
24F
  9
$SURFTAB1
 70
     6
  9
$SURFTAB2
 70
     6
  9
$SURFTYPE
 70
     6
  9
$SURFU
 70
     6
  9
$SURFV
 70
     6
  9
$UCSNAME
  2

  9
$UCSORG
 10
0.0
 20
0.0
 30
0.0
  9
$UCSXDIR
 10
1.0
 20
0.0
 30
0.0
  9
$UCSYDIR
 10
0.0
 20
1.0
 30
0.0
  9
$PUCSNAME
  2

  9
$PUCSORG
 10
0.0
 20
0.0
 30
0.0
  9
$PUCSXDIR
 10
1.0
 20
0.0
 30
0.0
  9
$PUCSYDIR
 10
0.0
 20
1.0
 30
0.0
  9
$USERI1
 70
     0
  9
$USERI2
 70
     0
  9
$USERI3
 70
     0
  9
$USERI4
 70
     0
  9
$USERI5
 70
     0
  9
$USERR1
 40
0.0
  9
$USERR2
 40
0.0
  9
$USERR3
 40
0.0
  9
$USERR4
 40
0.0
  9
$USERR5
 40
0.0
  9
$WORLDVIEW
 70
     1
  9
$SHADEDGE
 70
     3
  9
$SHADEDIF
 70
    70
  9
$TILEMODE
 70
     1
  9
$MAXACTVP
 70
    64
  9
$PLIMCHECK
 70
     0
  9
$PEXTMIN
 10
1.0000000000000000E+020
 20
1.0000000000000000E+020
 30
1.0000000000000000E+020
  9
$PEXTMAX
 10
-1.0000000000000000E+020
 20
-1.0000000000000000E+020
 30
-1.0000000000000000E+020
  9
$PLIMMIN
 10
0.0
 20
0.0
  9
$PLIMMAX
 10
12.0
 20
9.0
  9
$UNITMODE
 70
     0
  9
$VISRETAIN
 70
     0
  9
$PLINEGEN
 70
     1
  9
$PSLTSCALE
 70
     0
  0
ENDSEC
  0
SECTION
  2
TABLES
  0
TABLE
  2
VPORT
 70
     1
  0
VPORT
  2
*ACTIVE
 70
     0
 10
0.0
 20
0.0
 11
1.0
 21
1.0
 12
0.0000008381902035
 22
-3.9049046440410389
 13
0.0
 23
0.0
 14
1.0
 24
1.0
 15
0.0
 25
0.0
 16
0.0
 26
0.0
 36
1.0
 17
0.0
 27
0.0
 37
0.0
 40
539.17964857880997
 41
2.2333333333333329
 42
50.0
 43
0.0
 44
0.0
 50
0.0
 51
0.0
 71
     0
 72
  2000
 73
     1
 74
     1
 75
     0
 76
     0
 77
     0
 78
     0
  0
ENDTAB
  0
TABLE
  2
LTYPE
 70
    12
  0
LTYPE
  2
CONTINUOUS
 70
     0
  3
Solid line
 72
    65
 73
     0
 40
0.0
  0
LTYPE
  2
PHANTOM2
 70
     0
  3
___ _ _ ___ _ _ ___ _ _ ___ _ _
 72
    65
 73
     6
 40
1.25
 49
0.625
 49
-0.125
 49
0.125
 49
-0.125
 49
0.125
 49
-0.125
  0
ENDTAB
  0
TABLE
  2
LAYER
 70
     6
  0
LAYER
  2
0
 70
     0
 62
     7
  6
CONTINUOUS
  0
LAYER
  2
DATA
 70
     0
 62
     7
  6
CONTINUOUS
  0
LAYER
  2
HIBINO-BASE
 70
     0
 62
     7
  6
CONTINUOUS
  0
LAYER
  2
PATTFRN_FILL
 70
     0
 62
     7
  6
CONTINUOUS
  0
LAYER
  2
SPEC
 70
     0
 62
     7
  6
CONTINUOUS
  0
LAYER
  2
DIMNSIONS
 70
     0
 62
     7
  6
CONTINUOUS
  0
ENDTAB
  0
TABLE
  2
STYLE
 70
     3
  0
STYLE
  2
STANDARD
 70
     0
 40
0.0
 41
1.0
 50
0.0
 71
     0
 42
0.0
  3
txt
  4
BIGFONT.SHX
  0
ENDTAB
  0
TABLE
  2
VIEW
 70
     0
  0
ENDTAB
  0
TABLE
  2
UCS
 70
     0
  0
ENDTAB
  0
TABLE
  2
APPID
 70
     4
  0
APPID
  2
ACAD
 70
     0
  0
APPID
  2
ACADANNOTATIVE
 70
     0
  0
APPID
  2
ACAD_NAV_VCDISPLAY
 70
     0
  0
APPID
  2
ACAD_MLEADERVER
 70
     0
  0
ENDTAB
  0
TABLE
  2
DIMSTYLE
 70
     2
  0
DIMSTYLE
  2
STANDARD
 70
     0
  3

  4

  5

  6

  7

 40
1.0
 41
0.18
 42
0.0625
 43
0.38
 44
0.18
 45
0.0
 46
0.0
 47
0.0
 48
0.0
140
0.18
141
0.09
142
0.0
143
25.399999999999999
144
1.0
145
0.0
146
1.0
147
0.09
 71
     0
 72
     0
 73
     1
 74
     1
 75
     0
 76
     0
 77
     0
 78
     0
170
     0
171
     2
172
     0
173
     0
174
     0
175
     0
176
     0
177
     0
178
     0
  0
ENDTAB
  0
ENDSEC
  0
SECTION
  2
BLOCKS
  0
BLOCK
  8
0
  2
$MODEL_SPACE
 70
     0
 10
0.0
 20
0.0
 30
0.0
  3
$MODEL_SPACE
  1

  0
ENDBLK
  5
1D8
  8
0
  0
BLOCK
 67
     1
  8
0
  2
$PAPER_SPACE
 70
     0
 10
0.0
 20
0.0
 30
0.0
  3
$PAPER_SPACE
  1

  0
ENDBLK
  5
1D4
 67
     1
  8
0
  0
ENDSEC
  0
SECTION
  2
ENTITIES
  0
LINE
  5
2D
  8
HIBINO-BASE
  6
CONTINUOUS
 62
     7
 10
-179.99999
 20
263.53181999999998
 30
0.0
 11
179.99999
 21
263.53181999999998
 31
0.0
  0
LINE
  5
2E
  8
HIBINO-BASE
  6
CONTINUOUS
 62
     7
 10
179.99999
 20
-256.46816999999999
 30
0.0
 11
-179.99999
 21
-256.46816999999999
 31
0.0
  0
LINE
  5
2F
  8
HIBINO-BASE
  6
CONTINUOUS
 62
     7
 10
-179.99999
 20
-256.46816999999999
 30
0.0
 11
-179.99999
 21
263.53181999999998
 31
0.0
  0
LINE
  5
30
  8
HIBINO-BASE
  6
CONTINUOUS
 62
     7
 10
179.99999
 20
263.53181999999998
 30
0.0
 11
179.99999
 21
-256.46816999999999
 31
0.0
  0
LINE
  5
31
  8
HIBINO-BASE
  6
CONTINUOUS
 62
     7
 10
0.0
 20
-211.46817999999999
 30
0.0
 11
179.99999
 21
-211.46817999999999
 31
0.0
  0
LINE
  5
32
  8
HIBINO-BASE
  6
CONTINUOUS
 62
     7
 10
0.0
 20
-256.46816999999999
 30
0.0
 11
0.0
 21
-211.46817999999999
 31
0.0
  0
TEXT
  5
33
  8
HIBINO-BASE
 62
     7
 10
1.799979999999999
 20
-216.86818640000001
 30
0.0
 40
3.6000518750000001
  1
NOTE
 41
0.7
 11
1.799979999999999
 21
-213.26813452499999
 31
0.0
 73
     3
  0
LINE
  5
34
  8
HIBINO-BASE
  6
CONTINUOUS
 62
     7
 10
70.0
 20
-256.46816999999999
 30
0.0
 11
70.0
 21
-211.46817999999999
 31
0.0
  0
TEXT
  5
35
  8
HIBINO-BASE
 62
     7
 10
71.799999999999983
 20
-216.86818640000001
 30
0.0
 40
3.6000518750000001
  1
TITLE
 41
0.7
 11
71.799999999999983
 21
-213.26813452499999
 31
0.0
 73
     3
  0
LINE
  5
36
  8
HIBINO-BASE
  6
CONTINUOUS
 62
     7
 10
0.0
 20
-236.46817999999999
 30
0.0
 11
179.99999
 21
-236.46817999999999
 31
0.0
  0
TEXT
  5
37
  8
HIBINO-BASE
 62
     7
 10
96.799999999999983
 20
-241.75552640000001
 30
0.0
 40
3.6000518750000001
  1
DRAWN
 41
0.7
 11
96.799999999999983
 21
-238.15547452499999
 31
0.0
 73
     3
  0
TEXT
  5
38
  8
HIBINO-BASE
 62
     7
 10
46.79999999999999
 20
-241.75552640000001
 30
0.0
 40
3.6000518750000001
  1
DATE
 41
0.7
 11
46.79999999999999
 21
-238.15547452499999
 31
0.0
 73
     3
  0
TEXT
  5
39
  8
HIBINO-BASE
 62
     7
 10
2.19998
 20
-241.70706519999999
 30
0.0
 40
3.2576720312499998
  1
図面サイズ
 41
0.7
 11
2.19998
 21
-238.44939316874999
 31
0.0
 73
     3
  0
TEXT
  5
3A
  8
HIBINO-BASE
 62
     7
 10
26.799980000000001
 20
-241.75552640000001
 30
0.0
 40
3.6000518750000001
  1
SCALE
 41
0.7
 11
26.799980000000001
 21
-238.15547452499999
 31
0.0
 73
     3
  0
TEXT
  5
3B
  8
HIBINO-BASE
 62
     7
 10
71.799999999999983
 20
-241.75552640000001
 30
0.0
 40
3.6000518750000001
  1
DESIGN
 41
0.7
 11
71.799999999999983
 21
-238.15547452499999
 31
0.0
 73
     3
  0
TEXT
  5
3C
  8
HIBINO-BASE
 62
     7
 10
146.79997999999989
 20
-241.75552640000001
 30
0.0
 40
3.6000518750000001
  1
DRAWING NO.
 41
0.7
 11
146.79997999999989
 21
-238.15547452499999
 31
0.0
 73
     3
  0
TEXT
  5
3D
  8
HIBINO-BASE
 62
     7
 10
121.79998999999999
 20
-241.75552640000001
 30
0.0
 40
3.6000518750000001
  1
CHECK
 41
0.7
 11
121.79998999999999
 21
-238.15547452499999
 31
0.0
 73
     3
  0
LINE
  5
3E
  8
HIBINO-BASE
  6
CONTINUOUS
 62
     7
 10
28.749980000000001
 20
-253.96817999999999
 30
0.0
 11
36.25
 21
-246.46817999999999
 31
0.0
  0
TEXT
  5
3F
  8
HIBINO-BASE
 62
     7
 10
27.499980000000001
 20
-249.8995984
 30
0.0
 40
4.3435729687500002
  1
1
 41
0.7
 11
27.499980000000001
 21
-245.55602543124999
 31
0.0
 73
     3
  0
LINE
  5
40
  8
HIBINO-BASE
  6
CONTINUOUS
 62
     7
 10
24.999980000000001
 20
-256.46816999999999
 30
0.0
 11
24.999980000000001
 21
-236.46817999999999
 31
0.0
  0
LINE
  5
41
  8
HIBINO-BASE
  6
CONTINUOUS
 62
     7
 10
44.99998999999999
 20
-256.46816999999999
 30
0.0
 11
44.99998999999999
 21
-236.46817999999999
 31
0.0
  0
LINE
  5
42
  8
HIBINO-BASE
  6
CONTINUOUS
 62
     7
 10
94.999989999999997
 20
-236.46817999999999
 30
0.0
 11
94.999989999999997
 21
-256.46816999999999
 31
0.0
  0
LINE
  5
43
  8
HIBINO-BASE
  6
CONTINUOUS
 62
     7
 10
145.0
 20
-236.46817999999999
 30
0.0
 11
145.0
 21
-256.46816999999999
 31
0.0
  0
LINE
  5
44
  8
HIBINO-BASE
  6
CONTINUOUS
 62
     7
 10
119.99997999999999
 20
-256.46816999999999
 30
0.0
 11
119.99997999999999
 21
-236.46817999999999
 31
0.0
  0
TEXT
  5
45
  8
HIBINO-BASE
 62
     7
 10
7.8217799999999977
 20
-251.47123899999991
 30
0.0
 40
6.5153517578124989
  1
A4
 41
0.7
 11
7.8217799999999977
 21
-244.9558872421874
 31
0.0
 73
     3
  0
TEXT
  5
46
  8
HIBINO-BASE
 62
     7
 10
46.713079999999991
 20
-251.12348639999999
 30
0.0
 40
3.6000518750000001
  1
'12.10.
 41
0.7
 11
46.713079999999991
 21
-247.523434525
 31
0.0
 73
     3
  0
TEXT
  5
47
  8
HIBINO-BASE
 62
     7
 10
35.0
 20
-253.6495984
 30
0.0
 40
4.3435729687500002
  1
2
 41
0.7
 11
35.0
 21
-249.30602543124999
 31
0.0
 73
     3
  0
TEXT
  5
48
  8
HIBINO-BASE
 62
     7
 10
99.12784600574669
 20
-250.5755159698497
 30
0.0
 40
3.6000518750000001
  1
Ootake
 41
0.7
 11
99.12784600574669
 21
-246.97546409484971
 31
0.0
 73
     3
  0
TEXT
  5
49
  8
HIBINO-BASE
 62
     7
 10
-165.22839011758779
 20
-270.05752066766962
 30
0.0
 40
7.0583116319444441
  1
Hibino-Intersound Corporation
 41
0.7
 11
-165.22839011758779
 21
-262.99920903572519
 31
0.0
 73
     3
  0
TEXT
  5
4A
  8
HIBINO-BASE
 62
     7
 10
29.243477238239471
 20
-269.24979691487817
 30
0.0
 40
7.0583116319444441
  1
ヒビノインターサウンド株式会社
 41
0.7
 11
29.243477238239471
 21
-262.1914852829338
 31
0.0
 73
     3
  0
LINE
  5
4B
  8
PATTFRN_FILL
  6
CONTINUOUS
 62
     7
 10
-46.031728634086932
 20
36.890121566667581
 30
0.0
 11
-32.416058775710383
 21
29.029110908736762
 31
0.0
  0
LINE
  5
4C
  8
PATTFRN_FILL
  6
CONTINUOUS
 62
     7
 10
-51.222043663274732
 20
36.999999999999993
 30
0.0
 11
-30.65278727191583
 21
25.124334285418438
 31
0.0
  0
LINE
  5
4D
  8
PATTFRN_FILL
  6
CONTINUOUS
 62
     7
 10
-55.611895612674942
 20
36.647730858740672
 30
0.0
 11
-30.032744908874111
 21
21.87960131425919
 31
0.0
  0
LINE
  5
4E
  8
PATTFRN_FILL
  6
CONTINUOUS
 62
     7
 10
-58.96929556512962
 20
35.699375279119501
 30
0.0
 11
-29.554855011301349
 21
18.71694010730441
 31
0.0
  0
LINE
  5
4F
  8
PATTFRN_FILL
  6
CONTINUOUS
 62
     7
 10
-61.727138788102131
 20
34.404865460337319
 30
0.0
 11
-29.07696511372858
 21
15.55427890034963
 31
0.0
  0
LINE
  5
50
  8
PATTFRN_FILL
  6
CONTINUOUS
 62
     7
 10
-64.065121525282251
 20
32.867949077060828
 30
0.0
 11
-28.599075216155811
 21
12.39161769339484
 31
0.0
  0
LINE
  5
51
  8
PATTFRN_FILL
  6
CONTINUOUS
 62
     7
 10
-65.997485394704384
 20
31.096848531295858
 30
0.0
 11
-27.96834234173458
 21
9.1407125526128521
 31
0.0
  0
LINE
  5
52
  8
PATTFRN_FILL
  6
CONTINUOUS
 62
     7
 10
-67.53857590731873
 20
29.099846207651201
 30
0.0
 11
-27.64329542101029
 21
6.0662952794852947
 31
0.0
  0
LINE
  5
53
  8
PATTFRN_FILL
  6
CONTINUOUS
 62
     7
 10
-68.714906052139753
 20
26.892249387471342
 30
0.0
 11
-27.16540552343757
 21
2.9036340725305361
 31
0.0
  0
LINE
  5
54
  8
PATTFRN_FILL
  6
CONTINUOUS
 62
     7
 10
-69.520005444992975
 20
24.470322392711431
 30
0.0
 11
-26.687515625864808
 21
-0.2590271344242439
 31
0.0
  0
LINE
  5
55
  8
PATTFRN_FILL
  6
CONTINUOUS
 62
     7
 10
-69.972509973504344
 20
21.844824658108841
 30
0.0
 11
-29.538087571873302
 21
-1.4999999999999709
 31
0.0
  0
LINE
  5
56
  8
PATTFRN_FILL
  6
CONTINUOUS
 62
     7
 10
-70.373708400922951
 20
19.189705332229291
 30
0.0
 11
-34.538087571873312
 21
-1.4999999999999709
 31
0.0
  0
LINE
  5
57
  8
PATTFRN_FILL
  6
CONTINUOUS
 62
     7
 10
-70.774906828341557
 20
16.534586006349748
 30
0.0
 11
-39.538087571873263
 21
-1.4999999999999849
 31
0.0
  0
LINE
  5
58
  8
PATTFRN_FILL
  6
CONTINUOUS
 62
     7
 10
-30.877833534028891
 20
-6.5000000000000142
 30
0.0
 11
-26.936664042212129
 21
-8.7754352670223774
 31
0.0
  0
LINE
  5
59
  8
PATTFRN_FILL
  6
CONTINUOUS
 62
     7
 10
-71.176105255760149
 20
13.879466680470159
 30
0.0
 11
-44.538087571873263
 21
-1.5
 31
0.0
  0
LINE
  5
5A
  8
PATTFRN_FILL
  6
CONTINUOUS
 62
     7
 10
-35.877833534028902
 20
-6.5000000000000142
 30
0.0
 11
-27.471683278543932
 21
-11.353293112852709
 31
0.0
  0
LINE
  5
5B
  8
PATTFRN_FILL
  6
CONTINUOUS
 62
     7
 10
-71.577303683178698
 20
11.2243473545906
 30
0.0
 11
-49.538087571873248
 21
-1.5
 31
0.0
  0
LINE
  5
5C
  8
PATTFRN_FILL
  6
CONTINUOUS
 62
     7
 10
-40.877833534028902
 20
-6.5000000000000142
 30
0.0
 11
-28.04482561676485
 21
-13.90914057554504
 31
0.0
  0
LINE
  5
5D
  8
PATTFRN_FILL
  6
CONTINUOUS
 62
     7
 10
-71.978502110597319
 20
8.5692280287110361
 30
0.0
 11
-54.53808757187322
 21
-1.500000000000028
 31
0.0
  0
LINE
  5
5E
  8
PATTFRN_FILL
  6
CONTINUOUS
 62
     7
 10
-45.877833534028881
 20
-6.5000000000000284
 30
0.0
 11
-28.65552595001958
 21
-16.443303919694369
 31
0.0
  0
LINE
  5
5F
  8
PATTFRN_FILL
  6
CONTINUOUS
 62
     7
 10
-72.379700538015896
 20
5.9141087028314621
 30
0.0
 11
-59.53808757187322
 21
-1.500000000000028
 31
0.0
  0
LINE
  5
60
  8
PATTFRN_FILL
  6
CONTINUOUS
 62
     7
 10
-50.877833534028902
 20
-6.5
 30
0.0
 11
-29.303260742249542
 21
-18.95608540898505
 31
0.0
  0
LINE
  5
61
  8
PATTFRN_FILL
  6
CONTINUOUS
 62
     7
 10
-72.78089896543446
 20
3.2589893769518952
 30
0.0
 11
-64.538087571873277
 21
-1.5
 31
0.0
  0
LINE
  5
62
  8
PATTFRN_FILL
  6
CONTINUOUS
 62
     7
 10
-55.877833534028923
 20
-6.4999999999999956
 30
0.0
 11
-29.987545652233159
 21
-21.447764677951749
 31
0.0
  0
LINE
  5
63
  8
PATTFRN_FILL
  6
CONTINUOUS
 62
     7
 10
-73.182097392853066
 20
0.6038700510723345
 30
0.0
 11
-69.538087571873291
 21
-1.4999999999999709
 31
0.0
  0
LINE
  5
64
  8
PATTFRN_FILL
  6
CONTINUOUS
 62
     7
 10
-60.877833534028902
 20
-6.5
 30
0.0
 11
-30.70793339690287
 21
-23.918599965593931
 31
0.0
  0
LINE
  5
65
  8
PATTFRN_FILL
  6
CONTINUOUS
 62
     7
 10
-65.877833534028895
 20
-6.5
 30
0.0
 11
-31.464011830155979
 21
-26.36882922457491
 31
0.0
  0
LINE
  5
66
  8
PATTFRN_FILL
  6
CONTINUOUS
 62
     7
 10
-70.877833534028923
 20
-6.4999999999999956
 30
0.0
 11
-35.370791978867068
 21
-27.000000000000011
 31
0.0
  0
LINE
  5
67
  8
PATTFRN_FILL
  6
CONTINUOUS
 62
     7
 10
-73.207803627439191
 20
-8.0415424853139417
 30
0.0
 11
-40.370791978867047
 21
-27.000000000000011
 31
0.0
  0
LINE
  5
68
  8
PATTFRN_FILL
  6
CONTINUOUS
 62
     7
 10
-72.536376264226121
 20
-11.315942600154409
 30
0.0
 11
-45.370791978867089
 21
-27.0
 31
0.0
  0
LINE
  5
69
  8
PATTFRN_FILL
  6
CONTINUOUS
 62
     7
 10
-71.784110774330344
 20
-14.63701462919594
 30
0.0
 11
-50.370791978867061
 21
-27.0
 31
0.0
  0
LINE
  5
6A
  8
PATTFRN_FILL
  6
CONTINUOUS
 62
     7
 10
-70.946224569261801
 20
-18.007519801190689
 30
0.0
 11
-55.370791978867061
 21
-27.000000000000011
 31
0.0
  0
LINE
  5
6B
  8
PATTFRN_FILL
  6
CONTINUOUS
 62
     7
 10
-70.017319670756265
 20
-21.43057464034257
 30
0.0
 11
-60.370791978867139
 21
-26.999999999999972
 31
0.0
  0
LINE
  5
6C
  8
PATTFRN_FILL
  6
CONTINUOUS
 62
     7
 10
-68.991267247226432
 20
-24.909717629218349
 30
0.0
 11
-65.370791978867146
 21
-26.999999999999972
 31
0.0
  0
LINE
  5
6D
  8
PATTFRN_FILL
  6
CONTINUOUS
 62
     7
 10
-69.736441142002676
 20
23.398783673435648
 30
0.0
 11
-64.441915369996593
 21
32.569171312533008
 31
0.0
  0
LINE
  5
6E
  8
PATTFRN_FILL
  6
CONTINUOUS
 62
     7
 10
-71.510639706761069
 20
11.66552757871397
 30
0.0
 11
-57.319994437500448
 21
36.244446177260301
 31
0.0
  0
LINE
  5
6F
  8
PATTFRN_FILL
  6
CONTINUOUS
 62
     7
 10
-73.283131831444763
 20
-0.0647728750982992
 30
0.0
 11
-51.883776425068532
 21
36.999997937969091
 31
0.0
  0
LINE
  5
70
  8
PATTFRN_FILL
  6
CONTINUOUS
 62
     7
 10
-73.126939893766504
 20
-8.4544945411512824
 30
0.0
 11
-71.998511944303161
 21
-6.5000000000000071
 31
0.0
  0
LINE
  5
71
  8
PATTFRN_FILL
  6
CONTINUOUS
 62
     7
 10
-69.111760598355019
 20
-1.5
 30
0.0
 11
-46.905279381414047
 21
36.962753725065731
 31
0.0
  0
LINE
  5
72
  8
PATTFRN_FILL
  6
CONTINUOUS
 62
     7
 10
-71.758531159430717
 20
-14.74459512560507
 30
0.0
 11
-66.998511944303146
 21
-6.4999999999999849
 31
0.0
  0
LINE
  5
73
  8
PATTFRN_FILL
  6
CONTINUOUS
 62
     7
 10
-64.111760598355033
 20
-1.5
 30
0.0
 11
-42.37187683484521
 21
36.154583229040732
 31
0.0
  0
LINE
  5
74
  8
PATTFRN_FILL
  6
CONTINUOUS
 62
     7
 10
-70.213993778500694
 20
-20.729631945489331
 30
0.0
 11
-61.998511944303161
 21
-6.5000000000000071
 31
0.0
  0
LINE
  5
75
  8
PATTFRN_FILL
  6
CONTINUOUS
 62
     7
 10
-59.111760598355033
 20
-1.50000000000001
 30
0.0
 11
-38.355286703836413
 21
34.451267371283308
 31
0.0
  0
LINE
  5
76
  8
PATTFRN_FILL
  6
CONTINUOUS
 62
     7
 10
-68.512504378093723
 20
-26.442819893288881
 30
0.0
 11
-56.998511944303161
 21
-6.5
 31
0.0
  0
LINE
  5
77
  8
PATTFRN_FILL
  6
CONTINUOUS
 62
     7
 10
-54.111760598355033
 20
-1.5
 30
0.0
 11
-34.81677432118174
 21
31.919896563408429
 31
0.0
  0
LINE
  5
78
  8
PATTFRN_FILL
  6
CONTINUOUS
 62
     7
 10
-63.834192462690467
 20
-27.000000000000011
 30
0.0
 11
-51.998511944303161
 21
-6.5
 31
0.0
  0
LINE
  5
79
  8
PATTFRN_FILL
  6
CONTINUOUS
 62
     7
 10
-49.111760598355033
 20
-1.5
 30
0.0
 11
-31.943942476519911
 21
28.235533242120141
 31
0.0
  0
LINE
  5
7A
  8
PATTFRN_FILL
  6
CONTINUOUS
 62
     7
 10
-58.834192462690467
 20
-27.0
 30
0.0
 11
-46.998511944303161
 21
-6.5
 31
0.0
  0
LINE
  5
7B
  8
PATTFRN_FILL
  6
CONTINUOUS
 62
     7
 10
-44.111760598355033
 20
-1.5
 30
0.0
 11
-30.15321995353121
 21
22.676901596350099
 31
0.0
  0
LINE
  5
7C
  8
PATTFRN_FILL
  6
CONTINUOUS
 62
     7
 10
-53.834192462690488
 20
-27.0
 30
0.0
 11
-41.998511944303146
 21
-6.5
 31
0.0
  0
LINE
  5
7D
  8
PATTFRN_FILL
  6
CONTINUOUS
 62
     7
 10
-39.111760598355033
 20
-1.5
 30
0.0
 11
-29.11606641821901
 21
15.81305017691613
 31
0.0
  0
LINE
  5
7E
  8
PATTFRN_FILL
  6
CONTINUOUS
 62
     7
 10
-48.834192462690488
 20
-27.000000000000011
 30
0.0
 11
-36.998511944303161
 21
-6.5
 31
0.0
  0
LINE
  5
7F
  8
PATTFRN_FILL
  6
CONTINUOUS
 62
     7
 10
-34.111760598355033
 20
-1.5
 30
0.0
 11
-27.96834234173458
 21
9.1407125526128521
 31
0.0
  0
LINE
  5
80
  8
PATTFRN_FILL
  6
CONTINUOUS
 62
     7
 10
-43.834192462690467
 20
-27.0
 30
0.0
 11
-31.998511944303161
 21
-6.5000000000000071
 31
0.0
  0
LINE
  5
81
  8
PATTFRN_FILL
  6
CONTINUOUS
 62
     7
 10
-29.11176059835503
 20
-1.5
 30
0.0
 11
-27.041759347594589
 21
2.0853473380482161
 31
0.0
  0
LINE
  5
82
  8
PATTFRN_FILL
  6
CONTINUOUS
 62
     7
 10
-38.834192462690481
 20
-27.0
 30
0.0
 11
-26.998511944303161
 21
-6.5000000000000071
 31
0.0
  0
LINE
  5
83
  8
PATTFRN_FILL
  6
CONTINUOUS
 62
     7
 10
-33.834192462690481
 20
-27.0
 30
0.0
 11
-29.400964281044871
 21
-19.321423547843601
 31
0.0
  0
LINE
  5
84
  8
PATTFRN_FILL
  6
CONTINUOUS
 62
     7
 10
-71.704353194138534
 20
99.009497900776068
 30
0.0
 11
-68.654630654483967
 21
104.2917722884457
 31
0.0
  0
LINE
  5
85
  8
PATTFRN_FILL
  6
CONTINUOUS
 62
     7
 10
-73.36393002000419
 20
87.474772481468506
 30
0.0
 11
-59.495053828618317
 21
111.49637068883121
 31
0.0
  0
LINE
  5
86
  8
PATTFRN_FILL
  6
CONTINUOUS
 62
     7
 10
-71.870392941827149
 20
81.401400546014685
 30
0.0
 11
-53.488590906795302
 21
113.2396156053628
 31
0.0
  0
LINE
  5
87
  8
PATTFRN_FILL
  6
CONTINUOUS
 62
     7
 10
-69.488085169841327
 20
76.867424608516004
 30
0.0
 11
-48.370898678781138
 21
113.4434645239393
 31
0.0
  0
LINE
  5
88
  8
PATTFRN_FILL
  6
CONTINUOUS
 62
     7
 10
-66.542595423590456
 20
73.308908464351262
 30
0.0
 11
-43.816388425032017
 21
112.6718536491818
 31
0.0
  0
LINE
  5
89
  8
PATTFRN_FILL
  6
CONTINUOUS
 62
     7
 10
-63.150471019340337
 20
70.523986240262374
 30
0.0
 11
-39.7085128292821
 21
111.1266488543486
 31
0.0
  0
LINE
  5
8A
  8
PATTFRN_FILL
  6
CONTINUOUS
 62
     7
 10
-59.352862506833112
 20
68.441383093336569
 30
0.0
 11
-36.006121341789338
 21
108.8791249823522
 31
0.0
  0
LINE
  5
8B
  8
PATTFRN_FILL
  6
CONTINUOUS
 62
     7
 10
-55.14460719646361
 20
67.070041064273681
 30
0.0
 11
-32.714376652158862
 21
105.9203399924928
 31
0.0
  0
LINE
  5
8C
  8
PATTFRN_FILL
  6
CONTINUOUS
 62
     7
 10
-50.4709952342482
 20
66.504720399848082
 30
0.0
 11
-29.887988614374251
 21
102.1555336379963
 31
0.0
  0
LINE
  5
8D
  8
PATTFRN_FILL
  6
CONTINUOUS
 62
     7
 10
-45.185990664631042
 20
66.998362794814355
 30
0.0
 11
-27.672993183991469
 21
97.3317642241078
 31
0.0
  0
LINE
  5
8E
  8
PATTFRN_FILL
  6
CONTINUOUS
 62
     7
 10
-38.848973263937772
 20
69.314144863418704
 30
0.0
 11
-26.5100105846847
 21
90.685855136581253
 31
0.0
  0
LINE
  5
8F
  8
PATTFRN_FILL
  6
CONTINUOUS
 62
     7
 10
-26.518461779343252
 20
90.931323140395676
 30
0.0
 11
-37.452681390956784
 21
109.86994704882621
 31
0.0
  0
LINE
  5
90
  8
PATTFRN_FILL
  6
CONTINUOUS
 62
     7
 10
-27.354768481277841
 20
83.719594801012349
 30
0.0
 11
-44.11637468902218
 21
112.75154836928731
 31
0.0
  0
LINE
  5
91
  8
PATTFRN_FILL
  6
CONTINUOUS
 62
     7
 10
-29.425182343028251
 20
78.645402764414612
 30
0.0
 11
-49.545960827271699
 21
113.4956133869628
 31
0.0
  0
LINE
  5
92
  8
PATTFRN_FILL
  6
CONTINUOUS
 62
     7
 10
-32.1536041271521
 20
74.710913881150461
 30
0.0
 11
-54.31753904314786
 21
113.0999752513048
 31
0.0
  0
LINE
  5
93
  8
PATTFRN_FILL
  6
CONTINUOUS
 62
     7
 10
-35.365176851009089
 20
71.613266973228804
 30
0.0
 11
-58.60596631929085
 21
111.8674951403043
 31
0.0
  0
LINE
  5
94
  8
PATTFRN_FILL
  6
CONTINUOUS
 62
     7
 10
-38.993248781957469
 20
69.237017853301523
 30
0.0
 11
-62.477894388342463
 21
109.9136172413093
 31
0.0
  0
LINE
  5
95
  8
PATTFRN_FILL
  6
CONTINUOUS
 62
     7
 10
-43.024519458425317
 20
67.559129446162004
 30
0.0
 11
-65.946623711874594
 21
107.2613786295266
 31
0.0
  0
LINE
  5
96
  8
PATTFRN_FILL
  6
CONTINUOUS
 62
     7
 10
-47.490605931941722
 20
66.634364091444155
 30
0.0
 11
-68.980537238358167
 21
103.8560169653223
 31
0.0
  0
LINE
  5
97
  8
PATTFRN_FILL
  6
CONTINUOUS
 62
     7
 10
-52.489369295510713
 20
66.63222217431516
 30
0.0
 11
-71.481773874789184
 21
99.528031863529122
 31
0.0
  0
LINE
  5
98
  8
PATTFRN_FILL
  6
CONTINUOUS
 62
     7
 10
-58.283965787546677
 20
68.008503670037442
 30
0.0
 11
-73.187177382753177
 21
93.821623348884614
 31
0.0
  0
LINE
  5
99
  8
PATTFRN_FILL
  6
CONTINUOUS
 62
     7
 10
53.968271365913068
 20
36.890121566667581
 30
0.0
 11
67.583941224289632
 21
29.029110908736762
 31
0.0
  0
LINE
  5
9A
  8
PATTFRN_FILL
  6
CONTINUOUS
 62
     7
 10
48.777956336725268
 20
36.999999999999993
 30
0.0
 11
69.347212728084173
 21
25.124334285418438
 31
0.0
  0
LINE
  5
9B
  8
PATTFRN_FILL
  6
CONTINUOUS
 62
     7
 10
44.38810438732505
 20
36.647730858740672
 30
0.0
 11
69.967255091125892
 21
21.87960131425919
 31
0.0
  0
LINE
  5
9C
  8
PATTFRN_FILL
  6
CONTINUOUS
 62
     7
 10
41.030704434870373
 20
35.699375279119501
 30
0.0
 11
70.445144988698644
 21
18.71694010730441
 31
0.0
  0
LINE
  5
9D
  8
PATTFRN_FILL
  6
CONTINUOUS
 62
     7
 10
38.272861211897869
 20
34.404865460337319
 30
0.0
 11
70.923034886271424
 21
15.55427890034963
 31
0.0
  0
LINE
  5
9E
  8
PATTFRN_FILL
  6
CONTINUOUS
 62
     7
 10
35.934878474717749
 20
32.867949077060828
 30
0.0
 11
71.400924783844189
 21
12.39161769339484
 31
0.0
  0
LINE
  5
9F
  8
PATTFRN_FILL
  6
CONTINUOUS
 62
     7
 10
34.002514605295602
 20
31.096848531295858
 30
0.0
 11
72.031657658265445
 21
9.1407125526128521
 31
0.0
  0
LINE
  5
A0
  8
PATTFRN_FILL
  6
CONTINUOUS
 62
     7
 10
32.46142409268127
 20
29.099846207651201
 30
0.0
 11
72.356704578989707
 21
6.0662952794852947
 31
0.0
  0
LINE
  5
A1
  8
PATTFRN_FILL
  6
CONTINUOUS
 62
     7
 10
31.285093947860251
 20
26.892249387471342
 30
0.0
 11
72.83459447656243
 21
2.9036340725305361
 31
0.0
  0
LINE
  5
A2
  8
PATTFRN_FILL
  6
CONTINUOUS
 62
     7
 10
30.479994555007011
 20
24.470322392711431
 30
0.0
 11
73.312484374135195
 21
-0.2590271344242439
 31
0.0
  0
LINE
  5
A3
  8
PATTFRN_FILL
  6
CONTINUOUS
 62
     7
 10
30.027490026495659
 20
21.844824658108841
 30
0.0
 11
70.461912428126709
 21
-1.4999999999999709
 31
0.0
  0
LINE
  5
A4
  8
PATTFRN_FILL
  6
CONTINUOUS
 62
     7
 10
29.62629159907706
 20
19.189705332229291
 30
0.0
 11
65.461912428126709
 21
-1.4999999999999709
 31
0.0
  0
LINE
  5
A5
  8
PATTFRN_FILL
  6
CONTINUOUS
 62
     7
 10
29.225093171658429
 20
16.534586006349748
 30
0.0
 11
60.461912428126752
 21
-1.4999999999999849
 31
0.0
  0
LINE
  5
A6
  8
PATTFRN_FILL
  6
CONTINUOUS
 62
     7
 10
69.122166465971105
 20
-6.5000000000000142
 30
0.0
 11
73.063335957787871
 21
-8.7754352670223774
 31
0.0
  0
LINE
  5
A7
  8
PATTFRN_FILL
  6
CONTINUOUS
 62
     7
 10
28.823894744239869
 20
13.879466680470159
 30
0.0
 11
55.461912428126752
 21
-1.5
 31
0.0
  0
LINE
  5
A8
  8
PATTFRN_FILL
  6
CONTINUOUS
 62
     7
 10
64.122166465971105
 20
-6.5000000000000142
 30
0.0
 11
72.528316721456065
 21
-11.353293112852709
 31
0.0
  0
LINE
  5
A9
  8
PATTFRN_FILL
  6
CONTINUOUS
 62
     7
 10
28.422696316821291
 20
11.2243473545906
 30
0.0
 11
50.461912428126752
 21
-1.5
 31
0.0
  0
LINE
  5
AA
  8
PATTFRN_FILL
  6
CONTINUOUS
 62
     7
 10
59.122166465971098
 20
-6.5000000000000142
 30
0.0
 11
71.955174383235146
 21
-13.90914057554504
 31
0.0
  0
LINE
  5
AB
  8
PATTFRN_FILL
  6
CONTINUOUS
 62
     7
 10
28.021497889402681
 20
8.5692280287110361
 30
0.0
 11
45.461912428126773
 21
-1.500000000000028
 31
0.0
  0
LINE
  5
AC
  8
PATTFRN_FILL
  6
CONTINUOUS
 62
     7
 10
54.122166465971119
 20
-6.5000000000000284
 30
0.0
 11
71.344474049980406
 21
-16.443303919694369
 31
0.0
  0
LINE
  5
AD
  8
PATTFRN_FILL
  6
CONTINUOUS
 62
     7
 10
27.6202994619841
 20
5.9141087028314621
 30
0.0
 11
40.461912428126773
 21
-1.500000000000028
 31
0.0
  0
LINE
  5
AE
  8
PATTFRN_FILL
  6
CONTINUOUS
 62
     7
 10
49.122166465971091
 20
-6.5
 30
0.0
 11
70.69673925775048
 21
-18.95608540898505
 31
0.0
  0
LINE
  5
AF
  8
PATTFRN_FILL
  6
CONTINUOUS
 62
     7
 10
27.219101034565529
 20
3.2589893769518952
 30
0.0
 11
35.461912428126723
 21
-1.5
 31
0.0
  0
LINE
  5
B0
  8
PATTFRN_FILL
  6
CONTINUOUS
 62
     7
 10
44.122166465971077
 20
-6.4999999999999956
 30
0.0
 11
70.012454347766834
 21
-21.447764677951749
 31
0.0
  0
LINE
  5
B1
  8
PATTFRN_FILL
  6
CONTINUOUS
 62
     7
 10
26.817902607146952
 20
0.6038700510723345
 30
0.0
 11
30.461912428126691
 21
-1.4999999999999709
 31
0.0
  0
LINE
  5
B2
  8
PATTFRN_FILL
  6
CONTINUOUS
 62
     7
 10
39.122166465971091
 20
-6.5
 30
0.0
 11
69.29206660309714
 21
-23.918599965593931
 31
0.0
  0
LINE
  5
B3
  8
PATTFRN_FILL
  6
CONTINUOUS
 62
     7
 10
34.122166465971091
 20
-6.5
 30
0.0
 11
68.535988169844032
 21
-26.36882922457491
 31
0.0
  0
LINE
  5
B4
  8
PATTFRN_FILL
  6
CONTINUOUS
 62
     7
 10
29.12216646597108
 20
-6.4999999999999956
 30
0.0
 11
64.629208021132939
 21
-27.000000000000011
 31
0.0
  0
LINE
  5
B5
  8
PATTFRN_FILL
  6
CONTINUOUS
 62
     7
 10
26.792196372560809
 20
-8.0415424853139417
 30
0.0
 11
59.629208021132939
 21
-27.000000000000011
 31
0.0
  0
LINE
  5
B6
  8
PATTFRN_FILL
  6
CONTINUOUS
 62
     7
 10
27.463623735773869
 20
-11.315942600154409
 30
0.0
 11
54.629208021132911
 21
-27.0
 31
0.0
  0
LINE
  5
B7
  8
PATTFRN_FILL
  6
CONTINUOUS
 62
     7
 10
28.21588922566966
 20
-14.63701462919594
 30
0.0
 11
49.629208021132939
 21
-27.0
 31
0.0
  0
LINE
  5
B8
  8
PATTFRN_FILL
  6
CONTINUOUS
 62
     7
 10
29.053775430738199
 20
-18.007519801190689
 30
0.0
 11
44.629208021132939
 21
-27.000000000000011
 31
0.0
  0
LINE
  5
B9
  8
PATTFRN_FILL
  6
CONTINUOUS
 62
     7
 10
29.982680329243721
 20
-21.43057464034257
 30
0.0
 11
39.629208021132861
 21
-26.999999999999972
 31
0.0
  0
LINE
  5
BA
  8
PATTFRN_FILL
  6
CONTINUOUS
 62
     7
 10
31.008732752773572
 20
-24.909717629218349
 30
0.0
 11
34.629208021132861
 21
-26.999999999999972
 31
0.0
  0
LINE
  5
BB
  8
PATTFRN_FILL
  6
CONTINUOUS
 62
     7
 10
30.26355885799731
 20
23.398783673435648
 30
0.0
 11
35.558084630003378
 21
32.569171312533008
 31
0.0
  0
LINE
  5
BC
  8
PATTFRN_FILL
  6
CONTINUOUS
 62
     7
 10
28.489360293238931
 20
11.66552757871397
 30
0.0
 11
42.680005562499538
 21
36.244446177260301
 31
0.0
  0
LINE
  5
BD
  8
PATTFRN_FILL
  6
CONTINUOUS
 62
     7
 10
26.71686816855523
 20
-0.0647728750982992
 30
0.0
 11
48.11622357493146
 21
36.999997937969091
 31
0.0
  0
LINE
  5
BE
  8
PATTFRN_FILL
  6
CONTINUOUS
 62
     7
 10
26.873060106233499
 20
-8.4544945411512824
 30
0.0
 11
28.001488055696839
 21
-6.5000000000000071
 31
0.0
  0
LINE
  5
BF
  8
PATTFRN_FILL
  6
CONTINUOUS
 62
     7
 10
30.888239401644981
 20
-1.5
 30
0.0
 11
53.094720618585939
 21
36.962753725065731
 31
0.0
  0
LINE
  5
C0
  8
PATTFRN_FILL
  6
CONTINUOUS
 62
     7
 10
28.24146884056929
 20
-14.74459512560507
 30
0.0
 11
33.001488055696854
 21
-6.4999999999999849
 31
0.0
  0
LINE
  5
C1
  8
PATTFRN_FILL
  6
CONTINUOUS
 62
     7
 10
35.888239401644967
 20
-1.5
 30
0.0
 11
57.628123165154783
 21
36.154583229040732
 31
0.0
  0
LINE
  5
C2
  8
PATTFRN_FILL
  6
CONTINUOUS
 62
     7
 10
29.786006221499289
 20
-20.729631945489331
 30
0.0
 11
38.001488055696854
 21
-6.5000000000000071
 31
0.0
  0
LINE
  5
C3
  8
PATTFRN_FILL
  6
CONTINUOUS
 62
     7
 10
40.888239401644967
 20
-1.50000000000001
 30
0.0
 11
61.644713296163587
 21
34.451267371283308
 31
0.0
  0
LINE
  5
C4
  8
PATTFRN_FILL
  6
CONTINUOUS
 62
     7
 10
31.48749562190628
 20
-26.442819893288881
 30
0.0
 11
43.001488055696832
 21
-6.5
 31
0.0
  0
LINE
  5
C5
  8
PATTFRN_FILL
  6
CONTINUOUS
 62
     7
 10
45.888239401644967
 20
-1.5
 30
0.0
 11
65.183225678818289
 21
31.919896563408429
 31
0.0
  0
LINE
  5
C6
  8
PATTFRN_FILL
  6
CONTINUOUS
 62
     7
 10
36.165807537309533
 20
-27.000000000000011
 30
0.0
 11
48.001488055696832
 21
-6.5
 31
0.0
  0
LINE
  5
C7
  8
PATTFRN_FILL
  6
CONTINUOUS
 62
     7
 10
50.888239401644967
 20
-1.5
 30
0.0
 11
68.056057523480092
 21
28.235533242120141
 31
0.0
  0
LINE
  5
C8
  8
PATTFRN_FILL
  6
CONTINUOUS
 62
     7
 10
41.165807537309533
 20
-27.0
 30
0.0
 11
53.001488055696832
 21
-6.5
 31
0.0
  0
LINE
  5
C9
  8
PATTFRN_FILL
  6
CONTINUOUS
 62
     7
 10
55.888239401644967
 20
-1.5
 30
0.0
 11
69.84678004646878
 21
22.676901596350099
 31
0.0
  0
LINE
  5
CA
  8
PATTFRN_FILL
  6
CONTINUOUS
 62
     7
 10
46.165807537309497
 20
-27.0
 30
0.0
 11
58.001488055696832
 21
-6.5
 31
0.0
  0
LINE
  5
CB
  8
PATTFRN_FILL
  6
CONTINUOUS
 62
     7
 10
60.888239401644967
 20
-1.5
 30
0.0
 11
70.88393358178098
 21
15.81305017691613
 31
0.0
  0
LINE
  5
CC
  8
PATTFRN_FILL
  6
CONTINUOUS
 62
     7
 10
51.165807537309497
 20
-27.000000000000011
 30
0.0
 11
63.001488055696832
 21
-6.5
 31
0.0
  0
LINE
  5
CD
  8
PATTFRN_FILL
  6
CONTINUOUS
 62
     7
 10
65.888239401644967
 20
-1.5
 30
0.0
 11
72.031657658265445
 21
9.1407125526128521
 31
0.0
  0
LINE
  5
CE
  8
PATTFRN_FILL
  6
CONTINUOUS
 62
     7
 10
56.165807537309533
 20
-27.0
 30
0.0
 11
68.001488055696825
 21
-6.5000000000000071
 31
0.0
  0
LINE
  5
CF
  8
PATTFRN_FILL
  6
CONTINUOUS
 62
     7
 10
70.888239401644967
 20
-1.5
 30
0.0
 11
72.958240652405408
 21
2.0853473380482161
 31
0.0
  0
LINE
  5
D0
  8
PATTFRN_FILL
  6
CONTINUOUS
 62
     7
 10
61.165807537309533
 20
-27.0
 30
0.0
 11
73.001488055696825
 21
-6.5000000000000071
 31
0.0
  0
LINE
  5
D1
  8
PATTFRN_FILL
  6
CONTINUOUS
 62
     7
 10
66.165807537309519
 20
-27.0
 30
0.0
 11
70.599035718955122
 21
-19.321423547843601
 31
0.0
  0
LINE
  5
D2
  8
SPEC
  6
CONTINUOUS
 62
     7
 10
-164.99999
 20
243.53182000000001
 30
0.0
 11
130.0
 21
243.53182000000001
 31
0.0
  0
LINE
  5
D3
  8
SPEC
  6
CONTINUOUS
 62
     7
 10
-164.99999
 20
243.53182000000001
 30
0.0
 11
-164.99999
 21
161.0318199999999
 31
0.0
  0
LINE
  5
D4
  8
SPEC
  6
CONTINUOUS
 62
     7
 10
-99.999989999999997
 20
243.53182000000001
 30
0.0
 11
-99.999989999999997
 21
161.0318199999999
 31
0.0
  0
LINE
  5
D5
  8
SPEC
  6
CONTINUOUS
 62
     7
 10
130.0
 20
243.53182000000001
 30
0.0
 11
130.0
 21
161.0318199999999
 31
0.0
  0
TEXT
  5
D6
  8
SPEC
 62
     7
 10
-163.27652562404131
 20
222.93486285174021
 30
0.0
 40
3.8006293402777769
  1
指向特性
 41
0.7
 11
-163.27652562404131
 21
226.735492192018
 31
0.0
 73
     3
  0
TEXT
  5
D7
  8
SPEC
 62
     7
 10
-98.366868355306053
 20
223.1905747105823
 30
0.0
 40
3.8006293402777769
  1
スーパーカーディオイド
 41
0.7
 11
-98.366868355306053
 21
226.99120405086009
 31
0.0
 73
     3
  0
LINE
  5
D8
  8
SPEC
  6
CONTINUOUS
 62
     7
 10
-164.99999
 20
236.03182000000001
 30
0.0
 11
130.0
 21
236.03182000000001
 31
0.0
  0
TEXT
  5
D9
  8
SPEC
 62
     7
 10
-163.3586490852972
 20
237.9267822971818
 30
0.0
 40
3.8006293402777769
  1
形式
 41
0.7
 11
-163.3586490852972
 21
241.7274116374596
 31
0.0
 73
     3
  0
TEXT
  5
DA
  8
SPEC
 62
     7
 10
-98.751067741629996
 20
237.91416753219659
 30
0.0
 40
3.8006293402777769
  1
プリポラライズド・コンデンサー型 
 41
0.7
 11
-98.751067741629996
 21
241.7147968724743
 31
0.0
 73
     3
  0
LINE
  5
DB
  8
SPEC
  6
CONTINUOUS
 62
     7
 10
-164.99999
 20
228.53182000000001
 30
0.0
 11
130.0
 21
228.53182000000001
 31
0.0
  0
TEXT
  5
DC
  8
SPEC
 62
     7
 10
-163.22624106844069
 20
230.40671752283319
 30
0.0
 40
3.8006293402777769
  1
周波数特性
 41
0.7
 11
-163.22624106844069
 21
234.2073468631109
 31
0.0
 73
     3
  0
TEXT
  5
DD
  8
SPEC
 62
     7
 10
-98.22712173872965
 20
230.3724901948402
 30
0.0
 40
3.8006293402777769
  1
20Hz～20kHz
 41
0.7
 11
-98.22712173872965
 21
234.17311953511799
 31
0.0
 73
     3
  0
LINE
  5
DE
  8
SPEC
  6
CONTINUOUS
 62
     7
 10
-164.99999
 20
213.53182000000001
 30
0.0
 11
130.0
 21
213.53182000000001
 31
0.0
  0
LINE
  5
DF
  8
SPEC
  6
CONTINUOUS
 62
     7
 10
-164.99999
 20
206.03182000000001
 30
0.0
 11
130.0
 21
206.03182000000001
 31
0.0
  0
TEXT
  5
E0
  8
SPEC
 62
     7
 10
-163.50916671427689
 20
185.69407550234951
 30
0.0
 40
3.8006293402777769
  1
出力コネクター
 41
0.7
 11
-163.50916671427689
 21
189.4947048426273
 31
0.0
 73
     3
  0
TEXT
  5
E1
  8
SPEC
 62
     7
 10
-98.080102734763614
 20
185.52385765956871
 30
0.0
 40
3.8006293402777769
  1
XLR3ピン(オス)
 41
0.7
 11
-98.080102734763614
 21
189.3244869998465
 31
0.0
 73
     3
  0
LINE
  5
E2
  8
SPEC
  6
CONTINUOUS
 62
     7
 10
-164.99999
 20
198.53182000000001
 30
0.0
 11
130.0
 21
198.53182000000001
 31
0.0
  0
LINE
  5
E3
  8
SPEC
  6
CONTINUOUS
 62
     7
 10
-164.99999
 20
183.53182000000001
 30
0.0
 11
130.0
 21
183.53182000000001
 31
0.0
  0
TEXT
  5
E4
  8
SPEC
 62
     7
 10
-162.49999
 20
246.31834000000001
 30
0.0
 40
4.8865234375000002
  1
仕様
 41
0.7
 11
-162.49999
 21
251.20486343749999
 31
0.0
 73
     3
  0
TEXT
  5
E5
  8
SPEC
 62
     7
 10
-163.39722233131261
 20
170.63395093420371
 30
0.0
 40
3.8006293402777769
  1
寸法
 41
0.7
 11
-163.39722233131261
 21
174.4345802744815
 31
0.0
 73
     3
  0
TEXT
  5
E6
  8
SPEC
 62
     7
 10
-98.980895476963539
 20
170.58635643454619
 30
0.0
 40
3.8006293402777769
  1
\U+03C650\U+00D7全長197
 41
0.7
 11
-98.980895476963539
 21
174.38698577482401
 31
0.0
 73
     3
  0
TEXT
  5
E7
  8
SPEC
 62
     7
 10
-163.3597434818349
 20
163.20568325717539
 30
0.0
 40
3.8006293402777769
  1
質量
 41
0.7
 11
-163.3597434818349
 21
167.00631259745319
 31
0.0
 73
     3
  0
TEXT
  5
E8
  8
SPEC
 62
     7
 10
-98.216677774578883
 20
163.2995365934288
 30
0.0
 40
3.8006293402777769
  1
245g
 41
0.7
 11
-98.216677774578883
 21
167.10016593370659
 31
0.0
 73
     3
  0
LINE
  5
E9
  8
SPEC
  6
CONTINUOUS
 62
     7
 10
-164.99999
 20
221.03182000000001
 30
0.0
 11
130.0
 21
221.03182000000001
 31
0.0
  0
LINE
  5
EA
  8
SPEC
  6
CONTINUOUS
 62
     7
 10
-164.99999
 20
191.03182000000001
 30
0.0
 11
130.0
 21
191.03182000000001
 31
0.0
  0
LINE
  5
EB
  8
SPEC
  6
CONTINUOUS
 62
     7
 10
-164.99999
 20
176.0318199999999
 30
0.0
 11
130.0
 21
176.0318199999999
 31
0.0
  0
LINE
  5
EC
  8
SPEC
  6
CONTINUOUS
 62
     7
 10
-164.99999
 20
168.5318199999999
 30
0.0
 11
130.0
 21
168.5318199999999
 31
0.0
  0
LINE
  5
ED
  8
SPEC
  6
CONTINUOUS
 62
     7
 10
-164.99999
 20
161.0318199999999
 30
0.0
 11
130.0
 21
161.0318199999999
 31
0.0
  0
TEXT
  5
EE
  8
SPEC
 62
     7
 10
-163.27670439874839
 20
215.4847708085837
 30
0.0
 40
3.8006293402777769
  1
感度
 41
0.7
 11
-163.27670439874839
 21
219.2854001488615
 31
0.0
 73
     3
  0
TEXT
  5
EF
  8
SPEC
 62
     7
 10
-98.173923426229294
 20
215.46143099609631
 30
0.0
 40
3.8006293402777769
  1
5mV/Pa、-46dB re、1V/Pa(\U+00B12dB@1kHz)
 41
0.7
 11
-98.173923426229294
 21
219.26206033637399
 31
0.0
 73
     3
  0
TEXT
  5
F0
  8
SPEC
 62
     7
 10
-163.46301125730031
 20
208.0591866072462
 30
0.0
 40
3.8006293402777769
  1
インピーダンス
 41
0.7
 11
-163.46301125730031
 21
211.859815947524
 31
0.0
 73
     3
  0
TEXT
  5
F1
  8
SPEC
 62
     7
 10
-98.486580648132417
 20
207.9133962619124
 30
0.0
 40
3.8006293402777769
  1
100\U+03A9以下
 41
0.7
 11
-98.486580648132417
 21
211.71402560219011
 31
0.0
 73
     3
  0
TEXT
  5
F2
  8
SPEC
 62
     7
 10
-163.27714946995059
 20
200.43527874901309
 30
0.0
 40
3.8006293402777769
  1
等価雑音レベル
 41
0.7
 11
-163.27714946995059
 21
204.23590808929089
 31
0.0
 73
     3
  0
TEXT
  5
F3
  8
SPEC
 62
     7
 10
-98.437713632066007
 20
200.40176057433681
 30
0.0
 40
3.8006293402777769
  1
19dB SPL
 41
0.7
 11
-98.437713632066007
 21
204.2023899146146
 31
0.0
 73
     3
  0
TEXT
  5
F4
  8
SPEC
 62
     7
 10
-163.22839477507799
 20
193.1569607065037
 30
0.0
 40
3.8006293402777769
  1
最大音圧レベル
 41
0.7
 11
-163.22839477507799
 21
196.95759004678141
 31
0.0
 73
     3
  0
TEXT
  5
F5
  8
SPEC
 62
     7
 10
-98.461101498544181
 20
192.93787229807299
 30
0.0
 40
3.8006293402777769
  1
157dB
 41
0.7
 11
-98.461101498544181
 21
196.7385016383507
 31
0.0
 73
     3
  0
TEXT
  5
F6
  8
SPEC
 62
     7
 10
-163.38546065931851
 20
178.0102467878236
 30
0.0
 40
3.8006293402777769
  1
電源
 41
0.7
 11
-163.38546065931851
 21
181.8108761281014
 31
0.0
 73
     3
  0
TEXT
  5
F7
  8
SPEC
 62
     7
 10
-98.687220161283804
 20
177.91991643600079
 30
0.0
 40
3.8006293402777769
  1
ファンタム DC48V/5mA
 41
0.7
 11
-98.687220161283804
 21
181.72054577627861
 31
0.0
 73
     3
  0
TEXT
  5
F8
  8
DIMNSIONS
 62
     7
 10
-40.0
 20
-231.92919000000001
 30
0.0
 40
4.8865234375000002
  1
(単位：mm)
 41
0.7
 11
-40.0
 21
-227.04266656249999
 31
0.0
 73
     3
  0
LINE
  5
F9
  8
DIMNSIONS
  6
CONTINUOUS
 62
     7
 10
-65.999999985098853
 20
-160.0
 30
0.0
 11
-103.9999999850988
 21
-160.0
 31
0.0
  0
LINE
  5
FA
  8
DIMNSIONS
  6
CONTINUOUS
 62
     7
 10
-53.999999985098817
 20
37.0
 30
0.0
 11
-103.9999999850988
 21
37.0
 31
0.0
  0
LINE
  5
FB
  8
DIMNSIONS
  6
CONTINUOUS
 62
     7
 10
-100.0
 20
-160.0
 30
0.0
 11
-100.0
 21
37.0
 31
0.0
  0
LINE
  5
FC
  8
DIMNSIONS
  6
CONTINUOUS
 62
     7
 10
-100.0
 20
-160.0
 30
0.0
 11
-101.7014773719376
 21
-153.65000000000001
 31
0.0
  0
LINE
  5
FD
  8
DIMNSIONS
  6
CONTINUOUS
 62
     7
 10
-100.0
 20
-160.0
 30
0.0
 11
-98.298522628062358
 21
-153.65000000000001
 31
0.0
  0
LINE
  5
FE
  8
DIMNSIONS
  6
CONTINUOUS
 62
     7
 10
-100.0
 20
37.0
 30
0.0
 11
-98.298522628062358
 21
30.649999999999999
 31
0.0
  0
LINE
  5
FF
  8
DIMNSIONS
  6
CONTINUOUS
 62
     7
 10
-100.0
 20
37.0
 30
0.0
 11
-101.7014773719376
 21
30.649999999999999
 31
0.0
  0
TEXT
  5
100
  8
DIMNSIONS
 62
     7
 10
-102.9877777703272
 20
-66.791666666666657
 30
0.0
 40
5.4294704861111107
  1
197
 50
90.0
 41
0.7
 11
-108.4172482564383
 21
-66.791666666666657
 31
0.0
 73
     3
  0
LINE
  5
101
  8
DIMNSIONS
  6
CONTINUOUS
 62
     7
 10
-41.514718625761418
 20
-181.51471862576139
 30
0.0
 11
-30.000000000000011
 21
-170.0
 31
0.0
  0
LINE
  5
102
  8
DIMNSIONS
  6
CONTINUOUS
 62
     7
 10
-41.514718625761418
 20
-181.51471862576139
 30
0.0
 11
-38.12885639217405
 21
-175.8796975803364
 31
0.0
  0
LINE
  5
103
  8
DIMNSIONS
  6
CONTINUOUS
 62
     7
 10
-41.514718625761418
 20
-181.51471862576139
 30
0.0
 11
-35.764965395047952
 21
-178.3275783663571
 31
0.0
  0
LINE
  5
104
  8
DIMNSIONS
  6
CONTINUOUS
 62
     7
 10
-30.000000000000011
 20
-170.0
 30
0.0
 11
-3.888888886281193
 21
-170.0
 31
0.0
  0
TEXT
  5
105
  8
DIMNSIONS
 62
     7
 10
-17.999999997392301
 20
-167.0122222296728
 30
0.0
 40
5.4294704861111107
  1
\U+03C624
 41
0.7
 11
-17.999999997392301
 21
-161.58275174356169
 31
0.0
 73
     3
  0
LINE
  5
106
  8
DIMNSIONS
  6
CONTINUOUS
 62
     7
 10
-32.322330470336311
 20
107.6776695296637
 30
0.0
 11
-20.0
 21
120.0
 31
0.0
  0
LINE
  5
107
  8
DIMNSIONS
  6
CONTINUOUS
 62
     7
 10
-32.322330470336311
 20
107.6776695296637
 30
0.0
 11
-29.035328597534299
 21
113.3709237779308
 31
0.0
  0
LINE
  5
108
  8
DIMNSIONS
  6
CONTINUOUS
 62
     7
 10
-32.322330470336311
 20
107.6776695296637
 30
0.0
 11
-26.62907622206918
 21
110.9646714024657
 31
0.0
  0
LINE
  5
109
  8
DIMNSIONS
  6
CONTINUOUS
 62
     7
 10
-20.0
 20
120.0
 30
0.0
 11
6.1111111137188132
 21
120.0
 31
0.0
  0
TEXT
  5
10A
  8
DIMNSIONS
 62
     7
 10
-7.9999999973922966
 20
122.98777778504621
 30
0.0
 40
5.4294705670165291
  1
\U+03C650
 41
0.7
 11
-7.9999999973922966
 21
128.41724835206281
 31
0.0
 73
     3
  0
TEXT
  5
10B
  8
DATA
 62
     7
 10
94.245657692508544
 20
-234.19297017860561
 30
0.0
 40
4.8865234375000002
  1
FA4018V11B
 41
0.7
 11
94.245657692508544
 21
-229.30644674110559
 31
0.0
 73
     3
  0
TEXT
  5
10C
  8
DATA
 62
     7
 10
94.274724553315565
 20
-218.77929134089271
 30
0.0
 40
4.8865234375000002
  1
DPA
 41
0.7
 11
94.274724553315565
 21
-213.89276790339269
 31
0.0
 73
     3
  0
TEXT
  5
10D
  8
DATA
 62
     7
 10
91.226872335295667
 20
-225.8683577733708
 30
0.0
 40
3.2576822916666659
  1
d:factoボーカルマイクロホン
 41
0.7
 11
91.226872335295667
 21
-222.61067548170411
 31
0.0
 73
     3
  0
LINE
  5
10E
  8
DATA
  6
CONTINUOUS
 62
     7
 10
-66.539999999999992
 20
-37.0
 30
0.0
 11
-33.460000000000001
 21
-37.0
 31
0.0
  0
LINE
  5
10F
  8
DATA
  6
CONTINUOUS
 62
     7
 10
-68.5
 20
-27.0
 30
0.0
 11
-31.5
 21
-27.0
 31
0.0
  0
LINE
  5
110
  8
DATA
  6
CONTINUOUS
 62
     7
 10
-62.010669746144799
 20
-159.70836027204211
 30
0.0
 11
-66.5
 21
-37.0
 31
0.0
  0
LINE
  5
111
  8
DATA
  6
CONTINUOUS
 62
     7
 10
-33.5
 20
-37.0
 30
0.0
 11
-37.989330253855208
 21
-159.7083602720422
 31
0.0
  0
LINE
  5
112
  8
DATA
  6
CONTINUOUS
 62
     7
 10
-61.719030018186913
 20
-160.0
 30
0.0
 11
-38.280969981813072
 21
-160.0
 31
0.0
  0
LINE
  5
113
  8
DATA
  6
CONTINUOUS
 62
     7
 10
-66.481707317073173
 20
-37.5
 30
0.0
 11
-33.518292682926827
 21
-37.5
 31
0.0
  0
ARC
  5
114
  8
DATA
  6
CONTINUOUS
 62
     7
 10
-84.674377880184451
 20
-35.362258064516141
 30
0.0
 40
18.20818112136865
 50
354.83953462619729
 51
27.339256445346731
  0
ARC
  5
115
  8
DATA
  6
CONTINUOUS
 62
     7
 10
-15.325622119815529
 20
-35.362258064516141
 30
0.0
 40
18.20818112136865
 50
152.66074355465329
 51
185.16046537380279
  0
LINE
  5
116
  8
DATA
  6
CONTINUOUS
 62
     7
 10
-61.719030018186913
 20
-160.0
 30
0.0
 11
-38.280969981813072
 21
-160.0
 31
0.0
  0
LINE
  5
117
  8
DATA
  6
CONTINUOUS
 62
     7
 10
-74.786315069884125
 20
-6.5
 30
0.0
 11
-25.213684930115821
 21
-6.5
 31
0.0
  0
LINE
  5
118
  8
DATA
  6
CONTINUOUS
 62
     7
 10
-74.786315069884125
 20
-1.5
 30
0.0
 11
-25.213684930115821
 21
-1.5
 31
0.0
  0
ARC
  5
119
  8
DATA
  6
CONTINUOUS
 62
     7
 10
88.3157511101181
 20
23.373396263300471
 30
0.0
 40
164.5501659422921
 50
190.459812921995
 51
197.82603376323411
  0
ARC
  5
11A
  8
DATA
  6
CONTINUOUS
 62
     7
 10
-188.3157511101181
 20
23.373396263300471
 30
0.0
 40
164.5501659422921
 50
342.17396623676592
 51
349.54018707800492
  0
LINE
  5
11B
  8
DATA
  6
CONTINUOUS
 62
     7
 10
-51.874694507236697
 20
37.0
 30
0.0
 11
-48.125305492763282
 21
37.0
 31
0.0
  0
LINE
  5
11C
  8
DATA
  6
CONTINUOUS
 62
     7
 10
-73.5
 20
-1.5
 30
0.0
 11
-69.766555014294823
 21
23.20782848635519
 31
0.0
  0
ARC
  5
11D
  8
DATA
  6
CONTINUOUS
 62
     7
 10
-47.193707776401432
 20
9.8191510381638718
 30
0.0
 40
28.571827610665029
 50
123.0991611123962
 51
124.7773095122524
  0
ARC
  5
11E
  8
DATA
  6
CONTINUOUS
 62
     7
 10
-54.934919840234393
 20
20.96671312484197
 30
0.0
 40
15.000000000001251
 50
124.7773095122559
 51
171.4073970579073
  0
ARC
  5
11F
  8
DATA
  6
CONTINUOUS
 62
     7
 10
-51.874694507236697
 20
16.999999999999812
 30
0.0
 40
20.000000000000188
 50
90.0
 51
123.099161112396
  0
LINE
  5
120
  8
DATA
  6
CONTINUOUS
 62
     7
 10
-26.499999999999972
 20
-1.5
 30
0.0
 11
-30.23344498570513
 21
23.20782848635519
 31
0.0
  0
ARC
  5
121
  8
DATA
  6
CONTINUOUS
 62
     7
 10
-52.806292223598518
 20
9.8191510381638718
 30
0.0
 40
28.571827610665039
 50
55.22269048774757
 51
56.900838887603697
  0
ARC
  5
122
  8
DATA
  6
CONTINUOUS
 62
     7
 10
-45.065080159765593
 20
20.96671312484197
 30
0.0
 40
15.000000000001251
 50
8.5926029420926522
 51
55.222690487744082
  0
ARC
  5
123
  8
DATA
  6
CONTINUOUS
 62
     7
 10
-48.12530549276326
 20
16.999999999999812
 30
0.0
 40
20.000000000000181
 50
56.900838887604017
 51
90.0
  0
ARC
  5
124
  8
DATA
  6
CONTINUOUS
 62
     7
 10
-60.26882254648114
 20
-4.0
 30
0.0
 40
14.73117745351885
 50
170.229152724964
 51
189.77084727503589
  0
ARC
  5
125
  8
DATA
  6
CONTINUOUS
 62
     7
 10
-39.731177453518832
 20
-4.0
 30
0.0
 40
14.73117745351885
 50
350.22915272496391
 51
9.7708472750359778
  0
LINE
  5
126
  8
DATA
  6
CONTINUOUS
 62
     7
 10
-61.719030018186913
 20
-160.0
 30
0.0
 11
-62.010669746144799
 21
-159.70836027204211
 31
0.0
  0
LINE
  5
127
  8
DATA
  6
CONTINUOUS
 62
     7
 10
-38.280969981813072
 20
-160.0
 30
0.0
 11
-37.989330253855186
 21
-159.70836027204211
 31
0.0
  0
TEXT
  5
128
  8
DATA
 62
     7
 10
-54.162679416833541
 20
-156.74657057372659
 30
0.0
 40
4.3435763888888888
  1
DPA
 41
0.7
 11
-54.162679416833541
 21
-154.57478237928211
 31
0.0
 73
     2
  0
TEXT
  5
129
  8
DATA
 62
     7
 10
-54.23333333333332
 20
-34.171788194444453
 30
0.0
 40
4.3435763888888888
  1
DPA
 41
0.7
 11
-54.23333333333332
 21
-32.0
 31
0.0
 73
     2
  0
TEXT
  5
12A
  8
DATA
 62
     7
 10
-51.796347891359453
 20
-50.306275883496617
 30
0.0
 40
4.3435763888888879
  1
d:facto
 50
270.0
 41
0.7
 11
-49.624559696915
 21
-50.306275883496617
 31
0.0
 73
     2
  0
CIRCLE
  5
12B
  8
DATA
  6
CONTINUOUS
 62
     7
 10
-50.0
 20
-190.0
 30
0.0
 40
12.0
  0
CIRCLE
  5
12C
  8
DATA
  6
CONTINUOUS
 62
     7
 10
-54.199999999999989
 20
-190.0
 30
0.0
 40
1.2500013901192091
  0
CIRCLE
  5
12D
  8
DATA
  6
CONTINUOUS
 62
     7
 10
-50.0
 20
-185.80000000000001
 30
0.0
 40
1.2500013901192639
  0
CIRCLE
  5
12E
  8
DATA
  6
CONTINUOUS
 62
     7
 10
-45.799999999999997
 20
-190.0
 30
0.0
 40
1.2500013901192091
  0
LINE
  5
12F
  8
DATA
  6
CONTINUOUS
 62
     7
 10
-56.633069999999989
 20
-194.56174999999999
 30
0.0
 11
-56.986619999999981
 21
-194.9153
 31
0.0
  0
LINE
  5
130
  8
DATA
  6
CONTINUOUS
 62
     7
 10
-54.511749999999999
 20
-196.68306999999999
 30
0.0
 11
-54.865299999999991
 21
-197.03662
 31
0.0
  0
LINE
  5
131
  8
DATA
  6
CONTINUOUS
 62
     7
 10
-55.572399999999988
 20
-197.03662
 30
0.0
 11
-56.986619999999981
 21
-195.6224
 31
0.0
  0
ARC
  5
132
  8
DATA
  6
CONTINUOUS
 62
     7
 10
-55.21885000000001
 20
-196.68306000000001
 30
0.0
 40
0.5000022760947794
 50
225.00081028099399
 51
314.99918971900831
  0
ARC
  5
133
  8
DATA
  6
CONTINUOUS
 62
     7
 10
-56.63306
 20
-195.26884999999999
 30
0.0
 40
0.5000022760947994
 50
135.00081028099629
 51
224.99918971900371
  0
ARC
  5
134
  8
DATA
  6
CONTINUOUS
 62
     7
 10
-50.0
 20
-190.0
 30
0.0
 40
7.9999993479999638
 50
235.97669650640219
 51
214.51740146030261
  0
CIRCLE
  5
135
  8
DATA
  6
CONTINUOUS
 62
     7
 10
-50.0
 20
90.0
 30
0.0
 40
25.0
  0
CIRCLE
  5
136
  8
DATA
  6
CONTINUOUS
 62
     7
 10
-50.0
 20
90.0
 30
0.0
 40
23.5
  0
LINE
  5
137
  8
DATA
  6
CONTINUOUS
 62
     7
 10
33.460000000000008
 20
-37.0
 30
0.0
 11
66.539999999999992
 21
-37.0
 31
0.0
  0
LINE
  5
138
  8
DATA
  6
CONTINUOUS
 62
     7
 10
31.5
 20
-27.0
 30
0.0
 11
68.5
 21
-27.0
 31
0.0
  0
LINE
  5
139
  8
DATA
  6
CONTINUOUS
 62
     7
 10
37.989330253855208
 20
-159.70836027204211
 30
0.0
 11
33.5
 21
-37.0
 31
0.0
  0
LINE
  5
13A
  8
DATA
  6
CONTINUOUS
 62
     7
 10
66.5
 20
-37.0
 30
0.0
 11
62.010669746144799
 21
-159.7083602720422
 31
0.0
  0
LINE
  5
13B
  8
DATA
  6
CONTINUOUS
 62
     7
 10
38.280969981813101
 20
-160.0
 30
0.0
 11
61.719030018186942
 21
-160.0
 31
0.0
  0
LINE
  5
13C
  8
DATA
  6
CONTINUOUS
 62
     7
 10
33.518292682926827
 20
-37.5
 30
0.0
 11
66.481707317073173
 21
-37.5
 31
0.0
  0
ARC
  5
13D
  8
DATA
  6
CONTINUOUS
 62
     7
 10
15.325622119815529
 20
-35.362258064516141
 30
0.0
 40
18.20818112136865
 50
354.83953462619729
 51
27.339256445346731
  0
ARC
  5
13E
  8
DATA
  6
CONTINUOUS
 62
     7
 10
84.674377880184451
 20
-35.362258064516141
 30
0.0
 40
18.20818112136865
 50
152.66074355465329
 51
185.16046537380279
  0
LINE
  5
13F
  8
DATA
  6
CONTINUOUS
 62
     7
 10
38.280969981813101
 20
-160.0
 30
0.0
 11
61.719030018186942
 21
-160.0
 31
0.0
  0
LINE
  5
140
  8
DATA
  6
CONTINUOUS
 62
     7
 10
25.213684930115861
 20
-6.5
 30
0.0
 11
74.786315069884182
 21
-6.5
 31
0.0
  0
LINE
  5
141
  8
DATA
  6
CONTINUOUS
 62
     7
 10
25.213684930115861
 20
-1.5
 30
0.0
 11
74.786315069884182
 21
-1.5
 31
0.0
  0
ARC
  5
142
  8
DATA
  6
CONTINUOUS
 62
     7
 10
188.3157511101181
 20
23.373396263300471
 30
0.0
 40
164.5501659422921
 50
190.459812921995
 51
197.82603376323411
  0
ARC
  5
143
  8
DATA
  6
CONTINUOUS
 62
     7
 10
-88.3157511101181
 20
23.373396263300471
 30
0.0
 40
164.5501659422921
 50
342.17396623676592
 51
349.54018707800492
  0
LINE
  5
144
  8
DATA
  6
CONTINUOUS
 62
     7
 10
48.125305492763303
 20
37.0
 30
0.0
 11
51.874694507236718
 21
37.0
 31
0.0
  0
LINE
  5
145
  8
DATA
  6
CONTINUOUS
 62
     7
 10
26.5
 20
-1.5
 30
0.0
 11
30.233444985705159
 21
23.20782848635519
 31
0.0
  0
ARC
  5
146
  8
DATA
  6
CONTINUOUS
 62
     7
 10
52.806292223598561
 20
9.8191510381638718
 30
0.0
 40
28.571827610665029
 50
123.0991611123962
 51
124.7773095122524
  0
ARC
  5
147
  8
DATA
  6
CONTINUOUS
 62
     7
 10
45.065080159765607
 20
20.96671312484197
 30
0.0
 40
15.000000000001251
 50
124.7773095122559
 51
171.4073970579073
  0
ARC
  5
148
  8
DATA
  6
CONTINUOUS
 62
     7
 10
48.125305492763303
 20
16.999999999999812
 30
0.0
 40
20.000000000000188
 50
90.0
 51
123.099161112396
  0
LINE
  5
149
  8
DATA
  6
CONTINUOUS
 62
     7
 10
73.500000000000028
 20
-1.5
 30
0.0
 11
69.766555014294866
 21
23.20782848635519
 31
0.0
  0
ARC
  5
14A
  8
DATA
  6
CONTINUOUS
 62
     7
 10
47.19370777640146
 20
9.8191510381638718
 30
0.0
 40
28.571827610665039
 50
55.22269048774757
 51
56.900838887603697
  0
ARC
  5
14B
  8
DATA
  6
CONTINUOUS
 62
     7
 10
54.934919840234421
 20
20.96671312484197
 30
0.0
 40
15.000000000001251
 50
8.5926029420926522
 51
55.222690487744082
  0
ARC
  5
14C
  8
DATA
  6
CONTINUOUS
 62
     7
 10
51.87469450723674
 20
16.999999999999812
 30
0.0
 40
20.000000000000181
 50
56.900838887604017
 51
90.0
  0
ARC
  5
14D
  8
DATA
  6
CONTINUOUS
 62
     7
 10
39.731177453518853
 20
-4.0
 30
0.0
 40
14.73117745351885
 50
170.229152724964
 51
189.77084727503589
  0
ARC
  5
14E
  8
DATA
  6
CONTINUOUS
 62
     7
 10
60.268822546481182
 20
-4.0
 30
0.0
 40
14.73117745351885
 50
350.22915272496391
 51
9.7708472750359778
  0
LINE
  5
14F
  8
DATA
  6
CONTINUOUS
 62
     7
 10
38.280969981813101
 20
-160.0
 30
0.0
 11
37.989330253855208
 21
-159.70836027204211
 31
0.0
  0
LINE
  5
150
  8
DATA
  6
CONTINUOUS
 62
     7
 10
61.719030018186942
 20
-160.0
 30
0.0
 11
62.010669746144821
 21
-159.70836027204211
 31
0.0
  0
ARC
  5
151
  8
DATA
  6
CONTINUOUS
 62
     7
 10
50.0
 20
-30.373668443750311
 30
0.0
 40
2.5124164966304101
 50
17.20440423747937
 51
162.79559576252061
  0
ARC
  5
152
  8
DATA
  6
CONTINUOUS
 62
     7
 10
48.59675831485589
 20
-29.989944851776201
 30
0.0
 40
1.098734337249045
 50
206.32848060308621
 51
347.63363421057329
  0
ARC
  5
153
  8
DATA
  6
CONTINUOUS
 62
     7
 10
49.065968924634447
 20
-30.033205641158141
 30
0.0
 40
1.5202640414220741
 50
164.6411183391624
 51
196.9828225859533
  0
ARC
  5
154
  8
DATA
  6
CONTINUOUS
 62
     7
 10
51.403241685144131
 20
-29.989944851776201
 30
0.0
 40
1.098734337249039
 50
192.3663657894266
 51
333.67151939691371
  0
ARC
  5
155
  8
DATA
  6
CONTINUOUS
 62
     7
 10
50.934031075365553
 20
-30.033205641158141
 30
0.0
 40
1.520264041422078
 50
343.01717741404673
 51
15.358881660837531
  0
ARC
  5
156
  8
DATA
  6
CONTINUOUS
 62
     7
 10
50.0
 20
-30.267511516975091
 30
0.0
 40
0.3326948620648434
 50
7.297539299800035
 51
172.70246070019991
  0
ARC
  5
157
  8
DATA
  6
CONTINUOUS
 62
     7
 10
50.0
 20
-31.861872433726131
 30
0.0
 40
0.5685392748999476
 50
180.00000000002251
 51
359.99999999994799
  0
ARC
  5
158
  8
DATA
  6
CONTINUOUS
 62
     7
 10
54.274765734106651
 20
-31.739569374362841
 30
0.0
 40
4.844848960349343
 50
163.60282015828091
 51
181.44652468029491
  0
ARC
  5
159
  8
DATA
  6
CONTINUOUS
 62
     7
 10
45.725234265893349
 20
-31.739569374362841
 30
0.0
 40
4.8448489603493421
 50
358.55347531970529
 51
16.397179841719151
  0
TEXT
  5
15A
  8
DATA
 62
     7
 10
44.200000000000003
 20
-35.285894097222233
 30
0.0
 40
2.1717881944444439
  1
Condenser
 41
0.7
 11
44.200000000000003
 21
-34.200000000000003
 31
0.0
 73
     2
  0
CIRCLE
  5
15B
  8
DATA
  6
CONTINUOUS
 62
     7
 10
50.0
 20
-144.0
 30
0.0
 40
2.25
  0
POLYLINE
  5
15C
  8
DATA
  6
CONTINUOUS
 62
     7
 66
     1
 10
0.0
 20
0.0
 30
0.0
 70
     1
  0
VERTEX
  5
20B
  8
DATA
  6
CONTINUOUS
 62
     7
 10
50.113452196839297
 20
-143.803495030844
 30
0.0
  0
VERTEX
  5
20C
  8
DATA
  6
CONTINUOUS
 62
     7
 10
49.886547803160703
 20
-143.803495030844
 30
0.0
  0
VERTEX
  5
20D
  8
DATA
  6
CONTINUOUS
 62
     7
 10
49.773095606321391
 20
-144.0
 30
0.0
  0
VERTEX
  5
20E
  8
DATA
  6
CONTINUOUS
 62
     7
 10
49.886547803160703
 20
-144.19650496915591
 30
0.0
  0
VERTEX
  5
20F
  8
DATA
  6
CONTINUOUS
 62
     7
 10
50.113452196839297
 20
-144.19650496915591
 30
0.0
  0
VERTEX
  5
210
  8
DATA
  6
CONTINUOUS
 62
     7
 10
50.226904393678602
 20
-144.0
 30
0.0
  0
SEQEND
  5
211
  8
DATA
  6
CONTINUOUS
 62
     7
  0
ENDSEC
  0
EOF
