  0
SECTION
  2
HEADER
  9
$ACADVER
  1
AC1009
  9
$INSBASE
 10
0.0
 20
0.0
 30
0.0
  9
$EXTMIN
 10
-180.01097548933731
 20
-272.39489586002571
 30
-0.0015258207003583
  9
$EXTMAX
 10
212.33664076542499
 20
263.54814381785508
 30
0.0000000349246037
  9
$LIMMIN
 10
0.0
 20
0.0
  9
$LIMMAX
 10
0.0
 20
0.0
  9
$ORTHOMODE
 70
     0
  9
$REGENMODE
 70
     1
  9
$FILLMODE
 70
     1
  9
$QTEXTMODE
 70
     0
  9
$MIRRTEXT
 70
     1
  9
$DRAGMODE
 70
     2
  9
$LTSCALE
 40
10.16
  9
$OSMODE
 70
   231
  9
$ATTMODE
 70
     1
  9
$TEXTSIZE
 40
0.0
  9
$TRACEWID
 40
1.0
  9
$TEXTSTYLE
  7
STANDARD
  9
$CLAYER
  8
DATA
  9
$CELTYPE
  6
BYLAYER
  9
$CECOLOR
 62
   256
  9
$DIMSCALE
 40
1.0
  9
$DIMASZ
 40
0.18
  9
$DIMEXO
 40
0.0625
  9
$DIMDLI
 40
0.38
  9
$DIMRND
 40
0.0
  9
$DIMDLE
 40
0.0
  9
$DIMEXE
 40
0.18
  9
$DIMTP
 40
0.0
  9
$DIMTM
 40
0.0
  9
$DIMTXT
 40
0.18
  9
$DIMCEN
 40
0.09
  9
$DIMTSZ
 40
0.0
  9
$DIMTOL
 70
     0
  9
$DIMLIM
 70
     0
  9
$DIMTIH
 70
     1
  9
$DIMTOH
 70
     1
  9
$DIMSE1
 70
     0
  9
$DIMSE2
 70
     0
  9
$DIMTAD
 70
     0
  9
$DIMZIN
 70
     0
  9
$DIMBLK
  1

  9
$DIMASO
 70
     1
  9
$DIMSHO
 70
     1
  9
$DIMPOST
  1

  9
$DIMAPOST
  1

  9
$DIMALT
 70
     0
  9
$DIMALTD
 70
     2
  9
$DIMALTF
 40
25.399999999999999
  9
$DIMLFAC
 40
1.0
  9
$DIMTOFL
 70
     0
  9
$DIMTVP
 40
0.0
  9
$DIMTIX
 70
     0
  9
$DIMSOXD
 70
     0
  9
$DIMSAH
 70
     0
  9
$DIMBLK1
  1

  9
$DIMBLK2
  1

  9
$DIMSTYLE
  2
STANDARD
  9
$DIMCLRD
 70
     0
  9
$DIMCLRE
 70
     0
  9
$DIMCLRT
 70
     0
  9
$DIMTFAC
 40
1.0
  9
$DIMGAP
 40
0.09
  9
$LUNITS
 70
     2
  9
$LUPREC
 70
     4
  9
$SKETCHINC
 40
0.1
  9
$FILLETRAD
 40
0.0
  9
$AUNITS
 70
     0
  9
$AUPREC
 70
     0
  9
$MENU
  1
acad
  9
$ELEVATION
 40
0.0
  9
$PELEVATION
 40
0.0
  9
$THICKNESS
 40
0.0
  9
$LIMCHECK
 70
     0
  9
$BLIPMODE
 70
     0
  9
$CHAMFERA
 40
0.0
  9
$CHAMFERB
 40
0.0
  9
$SKPOLY
 70
     0
  9
$TDCREATE
 40
2456206.5695717591
  9
$TDUPDATE
 40
2456206.5751998611
  9
$TDINDWG
 40
0.0003070833
  9
$TDUSRTIMER
 40
0.0003070833
  9
$USRTIMER
 70
     1
  9
$ANGBASE
 50
0.0
  9
$ANGDIR
 70
     0
  9
$PDMODE
 70
     1
  9
$PDSIZE
 40
-2.0
  9
$PLINEWID
 40
0.0
  9
$COORDS
 70
     2
  9
$SPLFRAME
 70
     0
  9
$SPLINETYPE
 70
     6
  9
$SPLINESEGS
 70
     8
  9
$ATTDIA
 70
     0
  9
$ATTREQ
 70
     1
  9
$HANDLING
 70
     1
  9
$HANDSEED
  5
6C6
  9
$SURFTAB1
 70
     6
  9
$SURFTAB2
 70
     6
  9
$SURFTYPE
 70
     6
  9
$SURFU
 70
     6
  9
$SURFV
 70
     6
  9
$UCSNAME
  2

  9
$UCSORG
 10
0.0
 20
0.0
 30
0.0
  9
$UCSXDIR
 10
1.0
 20
0.0
 30
0.0
  9
$UCSYDIR
 10
0.0
 20
1.0
 30
0.0
  9
$PUCSNAME
  2

  9
$PUCSORG
 10
0.0
 20
0.0
 30
0.0
  9
$PUCSXDIR
 10
1.0
 20
0.0
 30
0.0
  9
$PUCSYDIR
 10
0.0
 20
1.0
 30
0.0
  9
$USERI1
 70
     0
  9
$USERI2
 70
     0
  9
$USERI3
 70
     0
  9
$USERI4
 70
     0
  9
$USERI5
 70
     0
  9
$USERR1
 40
0.0
  9
$USERR2
 40
0.0
  9
$USERR3
 40
0.0
  9
$USERR4
 40
0.0
  9
$USERR5
 40
0.0
  9
$WORLDVIEW
 70
     1
  9
$SHADEDGE
 70
     3
  9
$SHADEDIF
 70
    70
  9
$TILEMODE
 70
     1
  9
$MAXACTVP
 70
    64
  9
$PLIMCHECK
 70
     0
  9
$PEXTMIN
 10
1.0000000000000000E+020
 20
1.0000000000000000E+020
 30
1.0000000000000000E+020
  9
$PEXTMAX
 10
-1.0000000000000000E+020
 20
-1.0000000000000000E+020
 30
-1.0000000000000000E+020
  9
$PLIMMIN
 10
0.0
 20
0.0
  9
$PLIMMAX
 10
12.0
 20
9.0
  9
$UNITMODE
 70
     0
  9
$VISRETAIN
 70
     0
  9
$PLINEGEN
 70
     1
  9
$PSLTSCALE
 70
     0
  0
ENDSEC
  0
SECTION
  2
TABLES
  0
TABLE
  2
VPORT
 70
     1
  0
VPORT
  2
*ACTIVE
 70
     0
 10
0.0
 20
0.0
 11
1.0
 21
1.0
 12
0.0000008381902035
 22
-3.8972069682644128
 13
0.0
 23
0.0
 14
1.0
 24
1.0
 15
0.0
 25
0.0
 16
0.0
 26
0.0
 36
1.0
 17
0.0
 27
0.0
 37
0.0
 40
539.16412928120496
 41
2.2333333333333329
 42
50.0
 43
0.0
 44
0.0
 50
0.0
 51
0.0
 71
     0
 72
  2000
 73
     1
 74
     1
 75
     0
 76
     0
 77
     0
 78
     0
  0
ENDTAB
  0
TABLE
  2
LTYPE
 70
    12
  0
LTYPE
  2
CONTINUOUS
 70
     0
  3
Solid line
 72
    65
 73
     0
 40
0.0
  0
LTYPE
  2
PHANTOM2
 70
     0
  3
___ _ _ ___ _ _ ___ _ _ ___ _ _
 72
    65
 73
     6
 40
1.25
 49
0.625
 49
-0.125
 49
0.125
 49
-0.125
 49
0.125
 49
-0.125
  0
LTYPE
  2
STYLE_05
 70
     0
  3

 72
    65
 73
     2
 40
0.208282470703125
 49
0.069427490234375
 49
-0.13885498046875
  0
ENDTAB
  0
TABLE
  2
LAYER
 70
     6
  0
LAYER
  2
0
 70
     0
 62
     7
  6
CONTINUOUS
  0
LAYER
  2
DATA
 70
     0
 62
     7
  6
CONTINUOUS
  0
LAYER
  2
HIBINO-BASE
 70
     0
 62
     7
  6
CONTINUOUS
  0
LAYER
  2
PATTFRN_FILL
 70
     0
 62
     7
  6
CONTINUOUS
  0
LAYER
  2
SPEC
 70
     0
 62
     7
  6
CONTINUOUS
  0
LAYER
  2
DIMNSIONS
 70
     0
 62
     7
  6
CONTINUOUS
  0
ENDTAB
  0
TABLE
  2
STYLE
 70
     3
  0
STYLE
  2
STANDARD
 70
     0
 40
0.0
 41
1.0
 50
0.0
 71
     0
 42
0.0
  3
txt
  4
BIGFONT.SHX
  0
ENDTAB
  0
TABLE
  2
VIEW
 70
     0
  0
ENDTAB
  0
TABLE
  2
UCS
 70
     0
  0
ENDTAB
  0
TABLE
  2
APPID
 70
     4
  0
APPID
  2
ACAD
 70
     0
  0
APPID
  2
ACADANNOTATIVE
 70
     0
  0
APPID
  2
ACAD_NAV_VCDISPLAY
 70
     0
  0
APPID
  2
ACAD_MLEADERVER
 70
     0
  0
ENDTAB
  0
TABLE
  2
DIMSTYLE
 70
     2
  0
DIMSTYLE
  2
STANDARD
 70
     0
  3

  4

  5

  6

  7

 40
1.0
 41
0.18
 42
0.0625
 43
0.38
 44
0.18
 45
0.0
 46
0.0
 47
0.0
 48
0.0
140
0.18
141
0.09
142
0.0
143
25.399999999999999
144
1.0
145
0.0
146
1.0
147
0.09
 71
     0
 72
     0
 73
     1
 74
     1
 75
     0
 76
     0
 77
     0
 78
     0
170
     0
171
     2
172
     0
173
     0
174
     0
175
     0
176
     0
177
     0
178
     0
  0
ENDTAB
  0
ENDSEC
  0
SECTION
  2
BLOCKS
  0
BLOCK
  8
0
  2
$MODEL_SPACE
 70
     0
 10
0.0
 20
0.0
 30
0.0
  3
$MODEL_SPACE
  1

  0
ENDBLK
  5
656
  8
0
  0
BLOCK
 67
     1
  8
0
  2
$PAPER_SPACE
 70
     0
 10
0.0
 20
0.0
 30
0.0
  3
$PAPER_SPACE
  1

  0
ENDBLK
  5
652
 67
     1
  8
0
  0
ENDSEC
  0
SECTION
  2
ENTITIES
  0
LINE
  5
2D
  8
HIBINO-BASE
  6
CONTINUOUS
 62
     7
 10
-179.99999
 20
263.53181999999998
 30
0.0
 11
179.99999
 21
263.53181999999998
 31
0.0
  0
LINE
  5
2E
  8
HIBINO-BASE
  6
CONTINUOUS
 62
     7
 10
179.99999
 20
-256.46816999999999
 30
0.0
 11
-179.99999
 21
-256.46816999999999
 31
0.0
  0
LINE
  5
2F
  8
HIBINO-BASE
  6
CONTINUOUS
 62
     7
 10
-179.99999
 20
-256.46816999999999
 30
0.0
 11
-179.99999
 21
263.53181999999998
 31
0.0
  0
LINE
  5
30
  8
HIBINO-BASE
  6
CONTINUOUS
 62
     7
 10
179.99999
 20
263.53181999999998
 30
0.0
 11
179.99999
 21
-256.46816999999999
 31
0.0
  0
LINE
  5
31
  8
HIBINO-BASE
  6
CONTINUOUS
 62
     7
 10
0.0
 20
-211.46817999999999
 30
0.0
 11
179.99999
 21
-211.46817999999999
 31
0.0
  0
LINE
  5
32
  8
HIBINO-BASE
  6
CONTINUOUS
 62
     7
 10
0.0
 20
-256.46816999999999
 30
0.0
 11
0.0
 21
-211.46817999999999
 31
0.0
  0
TEXT
  5
33
  8
HIBINO-BASE
 62
     7
 10
1.799979999999999
 20
-216.86818640000001
 30
0.0
 40
3.6000518750000001
  1
NOTE
 41
0.7
 11
1.799979999999999
 21
-213.26813452499999
 31
0.0
 73
     3
  0
LINE
  5
34
  8
HIBINO-BASE
  6
CONTINUOUS
 62
     7
 10
70.0
 20
-256.46816999999999
 30
0.0
 11
70.0
 21
-211.46817999999999
 31
0.0
  0
TEXT
  5
35
  8
HIBINO-BASE
 62
     7
 10
71.799999999999983
 20
-216.86818640000001
 30
0.0
 40
3.6000518750000001
  1
TITLE
 41
0.7
 11
71.799999999999983
 21
-213.26813452499999
 31
0.0
 73
     3
  0
LINE
  5
36
  8
HIBINO-BASE
  6
CONTINUOUS
 62
     7
 10
0.0
 20
-236.46817999999999
 30
0.0
 11
179.99999
 21
-236.46817999999999
 31
0.0
  0
TEXT
  5
37
  8
HIBINO-BASE
 62
     7
 10
96.799999999999983
 20
-241.75552640000001
 30
0.0
 40
3.6000518750000001
  1
DRAWN
 41
0.7
 11
96.799999999999983
 21
-238.15547452499999
 31
0.0
 73
     3
  0
TEXT
  5
38
  8
HIBINO-BASE
 62
     7
 10
46.79999999999999
 20
-241.75552640000001
 30
0.0
 40
3.6000518750000001
  1
DATE
 41
0.7
 11
46.79999999999999
 21
-238.15547452499999
 31
0.0
 73
     3
  0
TEXT
  5
39
  8
HIBINO-BASE
 62
     7
 10
2.19998
 20
-241.70706519999999
 30
0.0
 40
3.2576720312499998
  1
図面サイズ
 41
0.7
 11
2.19998
 21
-238.44939316874999
 31
0.0
 73
     3
  0
TEXT
  5
3A
  8
HIBINO-BASE
 62
     7
 10
26.799980000000001
 20
-241.75552640000001
 30
0.0
 40
3.6000518750000001
  1
SCALE
 41
0.7
 11
26.799980000000001
 21
-238.15547452499999
 31
0.0
 73
     3
  0
TEXT
  5
3B
  8
HIBINO-BASE
 62
     7
 10
71.799999999999983
 20
-241.75552640000001
 30
0.0
 40
3.6000518750000001
  1
DESIGN
 41
0.7
 11
71.799999999999983
 21
-238.15547452499999
 31
0.0
 73
     3
  0
TEXT
  5
3C
  8
HIBINO-BASE
 62
     7
 10
146.79997999999989
 20
-241.75552640000001
 30
0.0
 40
3.6000518750000001
  1
DRAWING NO.
 41
0.7
 11
146.79997999999989
 21
-238.15547452499999
 31
0.0
 73
     3
  0
TEXT
  5
3D
  8
HIBINO-BASE
 62
     7
 10
121.79998999999999
 20
-241.75552640000001
 30
0.0
 40
3.6000518750000001
  1
CHECK
 41
0.7
 11
121.79998999999999
 21
-238.15547452499999
 31
0.0
 73
     3
  0
LINE
  5
3E
  8
HIBINO-BASE
  6
CONTINUOUS
 62
     7
 10
28.749980000000001
 20
-253.96817999999999
 30
0.0
 11
36.25
 21
-246.46817999999999
 31
0.0
  0
TEXT
  5
3F
  8
HIBINO-BASE
 62
     7
 10
27.499980000000001
 20
-249.8995984
 30
0.0
 40
4.3435729687500002
  1
1
 41
0.7
 11
27.499980000000001
 21
-245.55602543124999
 31
0.0
 73
     3
  0
LINE
  5
40
  8
HIBINO-BASE
  6
CONTINUOUS
 62
     7
 10
24.999980000000001
 20
-256.46816999999999
 30
0.0
 11
24.999980000000001
 21
-236.46817999999999
 31
0.0
  0
LINE
  5
41
  8
HIBINO-BASE
  6
CONTINUOUS
 62
     7
 10
44.99998999999999
 20
-256.46816999999999
 30
0.0
 11
44.99998999999999
 21
-236.46817999999999
 31
0.0
  0
LINE
  5
42
  8
HIBINO-BASE
  6
CONTINUOUS
 62
     7
 10
94.999989999999997
 20
-236.46817999999999
 30
0.0
 11
94.999989999999997
 21
-256.46816999999999
 31
0.0
  0
LINE
  5
43
  8
HIBINO-BASE
  6
CONTINUOUS
 62
     7
 10
145.0
 20
-236.46817999999999
 30
0.0
 11
145.0
 21
-256.46816999999999
 31
0.0
  0
LINE
  5
44
  8
HIBINO-BASE
  6
CONTINUOUS
 62
     7
 10
119.99997999999999
 20
-256.46816999999999
 30
0.0
 11
119.99997999999999
 21
-236.46817999999999
 31
0.0
  0
TEXT
  5
45
  8
HIBINO-BASE
 62
     7
 10
7.8217799999999977
 20
-251.47123899999991
 30
0.0
 40
6.5153517578124989
  1
A4
 41
0.7
 11
7.8217799999999977
 21
-244.9558872421874
 31
0.0
 73
     3
  0
TEXT
  5
46
  8
HIBINO-BASE
 62
     7
 10
46.713079999999991
 20
-251.12348639999999
 30
0.0
 40
3.6000518750000001
  1
'12.10.
 41
0.7
 11
46.713079999999991
 21
-247.523434525
 31
0.0
 73
     3
  0
TEXT
  5
47
  8
HIBINO-BASE
 62
     7
 10
35.0
 20
-253.6495984
 30
0.0
 40
4.3435729687500002
  1
2
 41
0.7
 11
35.0
 21
-249.30602543124999
 31
0.0
 73
     3
  0
TEXT
  5
48
  8
HIBINO-BASE
 62
     7
 10
99.12784600574669
 20
-250.5755159698497
 30
0.0
 40
3.6000518750000001
  1
Ootake
 41
0.7
 11
99.12784600574669
 21
-246.97546409484971
 31
0.0
 73
     3
  0
TEXT
  5
49
  8
HIBINO-BASE
 62
     7
 10
-178.12871537073019
 20
-270.04212531604418
 30
0.0
 40
7.0583116319444441
  1
Hibino-Intersound Corporation
 41
0.7
 11
-178.12871537073019
 21
-262.9838136840998
 31
0.0
 73
     3
  0
TEXT
  5
4A
  8
HIBINO-BASE
 62
     7
 10
37.926902513890568
 20
-269.59243331596917
 30
0.0
 40
7.0583116319444441
  1
ヒビノインターサウンド株式会社
 41
0.7
 11
37.926902513890568
 21
-262.5341216840248
 31
0.0
 73
     3
  0
LINE
  5
4B
  8
PATTFRN_FILL
  6
CONTINUOUS
 62
     7
 10
-76.301153436794706
 20
8.8988465632055362
 30
0.0
 11
-73.048846563205544
 21
12.15115343679471
 31
0.0
  0
LINE
  5
4C
  8
PATTFRN_FILL
  6
CONTINUOUS
 62
     7
 10
-76.769869736078306
 20
7.6301302639219521
 30
0.0
 11
-71.780130263921905
 21
12.61986973607833
 31
0.0
  0
LINE
  5
4D
  8
PATTFRN_FILL
  6
CONTINUOUS
 62
     7
 10
-76.954671248688683
 20
6.6453287513115873
 30
0.0
 11
-70.795328751311544
 21
12.80467124868869
 31
0.0
  0
LINE
  5
4E
  8
PATTFRN_FILL
  6
CONTINUOUS
 62
     7
 10
-76.999822690576053
 20
5.8001773094242193
 30
0.0
 11
-69.95017730942412
 21
12.84982269057609
 31
0.0
  0
LINE
  5
4F
  8
PATTFRN_FILL
  6
CONTINUOUS
 62
     7
 10
-76.953707903413232
 20
5.0462920965870657
 30
0.0
 11
-69.196292096587001
 21
12.80370790341321
 31
0.0
  0
LINE
  5
50
  8
PATTFRN_FILL
  6
CONTINUOUS
 62
     7
 10
-76.839657849091623
 20
4.3603421509086964
 30
0.0
 11
-68.510342150908613
 21
12.689657849091599
 31
0.0
  0
LINE
  5
51
  8
PATTFRN_FILL
  6
CONTINUOUS
 62
     7
 10
-76.670949840478244
 20
3.729050159522072
 30
0.0
 11
-67.879050159521995
 21
12.520949840478229
 31
0.0
  0
LINE
  5
52
  8
PATTFRN_FILL
  6
CONTINUOUS
 62
     7
 10
-76.455870550452261
 20
3.1441294495480459
 30
0.0
 11
-67.294129449547995
 21
12.305870550452219
 31
0.0
  0
LINE
  5
53
  8
PATTFRN_FILL
  6
CONTINUOUS
 62
     7
 10
-76.199867723016268
 20
2.600132276984028
 30
0.0
 11
-66.75013227698399
 21
12.049867723016231
 31
0.0
  0
LINE
  5
54
  8
PATTFRN_FILL
  6
CONTINUOUS
 62
     7
 10
-75.906601701299564
 20
2.093398298700734
 30
0.0
 11
-66.243398298700654
 21
11.756601701299561
 31
0.0
  0
LINE
  5
55
  8
PATTFRN_FILL
  6
CONTINUOUS
 62
     7
 10
-75.578506398486795
 20
1.6214936015135031
 30
0.0
 11
-65.77149360151347
 21
11.428506398486769
 31
0.0
  0
LINE
  5
56
  8
PATTFRN_FILL
  6
CONTINUOUS
 62
     7
 10
-75.217102285465302
 20
1.182897714535019
 30
0.0
 11
-65.332897714534965
 21
11.067102285465261
 31
0.0
  0
LINE
  5
57
  8
PATTFRN_FILL
  6
CONTINUOUS
 62
     7
 10
-74.823168853222555
 20
0.7768311467777939
 30
0.0
 11
-64.926831146777744
 21
10.67316885322248
 31
0.0
  0
LINE
  5
58
  8
PATTFRN_FILL
  6
CONTINUOUS
 62
     7
 10
-74.396826388649004
 20
0.4031736113513253
 30
0.0
 11
-64.553173611351269
 21
10.246826388648969
 31
0.0
  0
LINE
  5
59
  8
PATTFRN_FILL
  6
CONTINUOUS
 62
     7
 10
-73.937548200275444
 20
0.0624517997248945
 30
0.0
 11
-64.212451799724889
 21
9.7875482002753742
 31
0.0
  0
LINE
  5
5A
  8
PATTFRN_FILL
  6
CONTINUOUS
 62
     7
 10
-73.444106310411016
 20
-0.2441063104106485
 30
0.0
 11
-63.905893689589327
 21
9.2941063104109247
 31
0.0
  0
LINE
  5
5B
  8
PATTFRN_FILL
  6
CONTINUOUS
 62
     7
 10
-72.914436927042189
 20
-0.5144369270418211
 30
0.0
 11
-63.635563072958192
 21
8.7644369270420626
 31
0.0
  0
LINE
  5
5C
  8
PATTFRN_FILL
  6
CONTINUOUS
 62
     7
 10
-72.345388685562142
 20
-0.7453886855618263
 30
0.0
 11
-63.404611314438149
 21
8.1953886855621096
 31
0.0
  0
LINE
  5
5D
  8
PATTFRN_FILL
  6
CONTINUOUS
 62
     7
 10
-71.732273188321642
 20
-0.9322731883212893
 30
0.0
 11
-63.217726811678681
 21
7.5822731883215821
 31
0.0
  0
LINE
  5
5E
  8
PATTFRN_FILL
  6
CONTINUOUS
 62
     7
 10
-71.068040821229189
 20
-1.0680408212288159
 30
0.0
 11
-63.081959178771172
 21
6.9180408212291171
 31
0.0
  0
LINE
  5
5F
  8
PATTFRN_FILL
  6
CONTINUOUS
 62
     7
 10
-70.341657196957797
 20
-1.141657196957454
 30
0.0
 11
-63.008342803042538
 21
6.1916571969577276
 31
0.0
  0
LINE
  5
60
  8
PATTFRN_FILL
  6
CONTINUOUS
 62
     7
 10
-69.53450533056818
 20
-1.1345053305678421
 30
0.0
 11
-63.015494669432137
 21
5.3845053305681381
 31
0.0
  0
LINE
  5
61
  8
PATTFRN_FILL
  6
CONTINUOUS
 62
     7
 10
-68.610758578530366
 20
-1.0107585785300111
 30
0.0
 11
-63.139241421469997
 21
4.4607585785302941
 31
0.0
  0
LINE
  5
62
  8
PATTFRN_FILL
  6
CONTINUOUS
 62
     7
 10
-67.481084494731533
 20
-0.6810844947311902
 30
0.0
 11
-63.468915505268853
 21
3.3310844947314409
 31
0.0
  0
LINE
  5
63
  8
PATTFRN_FILL
  6
CONTINUOUS
 62
     7
 10
-65.56934299833398
 20
0.4306570016663473
 30
0.0
 11
-64.580657001666424
 21
1.419342998333895
 31
0.0
  0
LINE
  5
64
  8
PATTFRN_FILL
  6
CONTINUOUS
 62
     7
 10
-63.698846496271798
 20
8.8988464248718042
 30
0.0
 11
-66.951153575128231
 21
12.15115350372823
 31
0.0
  0
LINE
  5
65
  8
PATTFRN_FILL
  6
CONTINUOUS
 62
     7
 10
-63.230130234203621
 20
7.6301301509036064
 30
0.0
 11
-68.219869849096384
 21
12.619869765796381
 31
0.0
  0
LINE
  5
66
  8
PATTFRN_FILL
  6
CONTINUOUS
 62
     7
 10
-63.04532873901853
 20
6.6453286438185071
 30
0.0
 11
-69.204671356181478
 21
12.80467126098147
 31
0.0
  0
LINE
  5
67
  8
PATTFRN_FILL
  6
CONTINUOUS
 62
     7
 10
-63.000177310180852
 20
5.8001772030808461
 30
0.0
 11
-70.049822796919145
 21
12.84982268981916
 31
0.0
  0
LINE
  5
68
  8
PATTFRN_FILL
  6
CONTINUOUS
 62
     7
 10
-63.046292108915821
 20
5.0462919899158099
 30
0.0
 11
-70.803708010084165
 21
12.80370789108415
 31
0.0
  0
LINE
  5
69
  8
PATTFRN_FILL
  6
CONTINUOUS
 62
     7
 10
-63.160342174319247
 20
4.3603420434192559
 30
0.0
 11
-71.489657956580714
 21
12.689657825680721
 31
0.0
  0
LINE
  5
6A
  8
PATTFRN_FILL
  6
CONTINUOUS
 62
     7
 10
-63.329050193970772
 20
3.7290500511707658
 30
0.0
 11
-72.120949948829221
 21
12.520949806029209
 31
0.0
  0
LINE
  5
6B
  8
PATTFRN_FILL
  6
CONTINUOUS
 62
     7
 10
-63.544129495237662
 20
3.144129340537654
 30
0.0
 11
-72.705870659462349
 21
12.305870504762339
 31
0.0
  0
LINE
  5
6C
  8
PATTFRN_FILL
  6
CONTINUOUS
 62
     7
 10
-63.800132334279397
 20
2.6001321676793818
 30
0.0
 11
-73.249867832320618
 21
12.049867665720591
 31
0.0
  0
LINE
  5
6D
  8
PATTFRN_FILL
  6
CONTINUOUS
 62
     7
 10
-64.093398368093006
 20
2.0933981895929961
 30
0.0
 11
-73.75660181040702
 21
11.756601631907021
 31
0.0
  0
LINE
  5
6E
  8
PATTFRN_FILL
  6
CONTINUOUS
 62
     7
 10
-64.421493683608389
 20
1.6214934932083831
 30
0.0
 11
-74.228506506791575
 21
11.4285063163916
 31
0.0
  0
LINE
  5
6F
  8
PATTFRN_FILL
  6
CONTINUOUS
 62
     7
 10
-64.782897810056411
 20
1.1828976077564111
 30
0.0
 11
-74.667102392243592
 21
11.06710218994359
 31
0.0
  0
LINE
  5
70
  8
PATTFRN_FILL
  6
CONTINUOUS
 62
     7
 10
-65.176831256583171
 20
0.7768310423831697
 30
0.0
 11
-75.073168957616815
 21
10.673168743416831
 31
0.0
  0
LINE
  5
71
  8
PATTFRN_FILL
  6
CONTINUOUS
 62
     7
 10
-65.603173736459951
 20
0.4031735103599499
 30
0.0
 11
-75.446826489640031
 21
10.246826263540029
 31
0.0
  0
LINE
  5
72
  8
PATTFRN_FILL
  6
CONTINUOUS
 62
     7
 10
-66.06245194136207
 20
0.0624517033620738
 30
0.0
 11
-75.787548296637937
 21
9.7875480586379595
 31
0.0
  0
LINE
  5
73
  8
PATTFRN_FILL
  6
CONTINUOUS
 62
     7
 10
-66.555893849254048
 20
-0.244106400645939
 30
0.0
 11
-76.094106400645913
 21
9.2941061507459501
 31
0.0
  0
LINE
  5
74
  8
PATTFRN_FILL
  6
CONTINUOUS
 62
     7
 10
-67.085563252528345
 20
-0.5144370092716613
 30
0.0
 11
-76.364437009271654
 21
8.7644367474716471
 31
0.0
  0
LINE
  5
75
  8
PATTFRN_FILL
  6
CONTINUOUS
 62
     7
 10
-67.654611516339742
 20
-0.7453887573602652
 30
0.0
 11
-76.595388757360269
 21
8.1953884836602544
 31
0.0
  0
LINE
  5
76
  8
PATTFRN_FILL
  6
CONTINUOUS
 62
     7
 10
-68.267727039173693
 20
-0.9322732464263097
 30
0.0
 11
-76.782273246426342
 21
7.5822729608263044
 31
0.0
  0
LINE
  5
77
  8
PATTFRN_FILL
  6
CONTINUOUS
 62
     7
 10
-68.931959436484178
 20
-1.0680408610158341
 30
0.0
 11
-76.918040861015825
 21
6.9180405635158131
 31
0.0
  0
LINE
  5
78
  8
PATTFRN_FILL
  6
CONTINUOUS
 62
     7
 10
-69.658343098027643
 20
-1.1416572113723371
 30
0.0
 11
-76.991657211372313
 21
6.1916569019723289
 31
0.0
  0
LINE
  5
79
  8
PATTFRN_FILL
  6
CONTINUOUS
 62
     7
 10
-71.389241839271008
 20
-1.0107584939289891
 30
0.0
 11
-76.860758493929012
 21
4.4607581607290099
 31
0.0
  0
LINE
  5
7A
  8
PATTFRN_FILL
  6
CONTINUOUS
 62
     7
 10
-72.518916067029394
 20
-0.6810842780706164
 30
0.0
 11
-76.531084278070665
 21
3.331083932970643
 31
0.0
  0
LINE
  5
7B
  8
PATTFRN_FILL
  6
CONTINUOUS
 62
     7
 10
-74.43065895851629
 20
0.4306586015163024
 30
0.0
 11
-75.419341398483652
 21
1.419341041483664
 31
0.0
  0
LINE
  5
7C
  8
PATTFRN_FILL
  6
CONTINUOUS
 62
     7
 10
-70.465495026447002
 20
-1.1345053067739119
 30
0.0
 11
-76.984505306773926
 21
5.3845049735530086
 31
0.0
  0
LINE
  5
7D
  8
PATTFRN_FILL
  6
CONTINUOUS
 62
     7
 10
-76.505462949333548
 20
75.316724088089074
 30
0.0
 11
-73.822187037422665
 21
77.999999999999972
 31
0.0
  0
LINE
  5
7E
  8
PATTFRN_FILL
  6
CONTINUOUS
 62
     7
 10
-76.936005639992288
 20
74.086181373588545
 30
0.0
 11
-73.022187013580762
 21
78.0
 31
0.0
  0
LINE
  5
7F
  8
PATTFRN_FILL
  6
CONTINUOUS
 62
     7
 10
-77.11109403186947
 20
73.111092957869474
 30
0.0
 11
-72.222186989738944
 21
78.000000000000014
 31
0.0
  0
LINE
  5
80
  8
PATTFRN_FILL
  6
CONTINUOUS
 62
     7
 10
-77.150000000000006
 20
72.272186965897092
 30
0.0
 11
-71.422186965897069
 21
78.0
 31
0.0
  0
LINE
  5
81
  8
PATTFRN_FILL
  6
CONTINUOUS
 62
     7
 10
-77.150000000000034
 20
71.472186942055259
 30
0.0
 11
-70.622186942055208
 21
78.0
 31
0.0
  0
LINE
  5
82
  8
PATTFRN_FILL
  6
CONTINUOUS
 62
     7
 10
-76.822186918213404
 20
71.0
 30
0.0
 11
-69.822186918213362
 21
78.0
 31
0.0
  0
LINE
  5
83
  8
PATTFRN_FILL
  6
CONTINUOUS
 62
     7
 10
-76.022186894371544
 20
71.000000000000014
 30
0.0
 11
-69.022186894371487
 21
78.0
 31
0.0
  0
LINE
  5
84
  8
PATTFRN_FILL
  6
CONTINUOUS
 62
     7
 10
-75.22218687052974
 20
71.0
 30
0.0
 11
-68.22218687052964
 21
78.0
 31
0.0
  0
LINE
  5
85
  8
PATTFRN_FILL
  6
CONTINUOUS
 62
     7
 10
-74.422186846687836
 20
71.0
 30
0.0
 11
-67.422186846687765
 21
78.0
 31
0.0
  0
LINE
  5
86
  8
PATTFRN_FILL
  6
CONTINUOUS
 62
     7
 10
-73.622186822846004
 20
71.0
 30
0.0
 11
-66.622186822845933
 21
77.999999999999986
 31
0.0
  0
LINE
  5
87
  8
PATTFRN_FILL
  6
CONTINUOUS
 62
     7
 10
-72.822186799004143
 20
71.0
 30
0.0
 11
-65.822186799004072
 21
77.999999999999986
 31
0.0
  0
LINE
  5
88
  8
PATTFRN_FILL
  6
CONTINUOUS
 62
     7
 10
-77.150000000000006
 20
65.872186775162348
 30
0.0
 11
-77.022186775162297
 21
66.0
 31
0.0
  0
LINE
  5
89
  8
PATTFRN_FILL
  6
CONTINUOUS
 62
     7
 10
-72.022186775162282
 20
71.0
 30
0.0
 11
-65.291463447256021
 21
77.73072332790619
 31
0.0
  0
LINE
  5
8A
  8
PATTFRN_FILL
  6
CONTINUOUS
 62
     7
 10
-77.150000000000006
 20
65.072186751320501
 30
0.0
 11
-76.222186751320493
 21
66.0
 31
0.0
  0
LINE
  5
8B
  8
PATTFRN_FILL
  6
CONTINUOUS
 62
     7
 10
-71.222186751320436
 20
71.0
 30
0.0
 11
-64.880683803393509
 21
77.341502947926841
 31
0.0
  0
LINE
  5
8C
  8
PATTFRN_FILL
  6
CONTINUOUS
 62
     7
 10
-77.150000000000006
 20
64.27218672747864
 30
0.0
 11
-75.422186727478632
 21
66.0
 31
0.0
  0
LINE
  5
8D
  8
PATTFRN_FILL
  6
CONTINUOUS
 62
     7
 10
-70.422186727478561
 20
71.0
 30
0.0
 11
-64.501608222949429
 21
76.920578504529061
 31
0.0
  0
LINE
  5
8E
  8
PATTFRN_FILL
  6
CONTINUOUS
 62
     7
 10
-77.150000000000006
 20
63.472186703636801
 30
0.0
 11
-74.622186703636771
 21
66.0
 31
0.0
  0
LINE
  5
8F
  8
PATTFRN_FILL
  6
CONTINUOUS
 62
     7
 10
-69.622186703636729
 20
71.0
 30
0.0
 11
-64.154636205236883
 21
76.467550498399788
 31
0.0
  0
LINE
  5
90
  8
PATTFRN_FILL
  6
CONTINUOUS
 62
     7
 10
-77.150000000000006
 20
62.67218667979494
 30
0.0
 11
-73.822186679794896
 21
66.0
 31
0.0
  0
LINE
  5
91
  8
PATTFRN_FILL
  6
CONTINUOUS
 62
     7
 10
-68.822186679794854
 20
71.0
 30
0.0
 11
-63.840810921635068
 21
75.981375758159729
 31
0.0
  0
LINE
  5
92
  8
PATTFRN_FILL
  6
CONTINUOUS
 62
     7
 10
-77.150000000000006
 20
61.872186655953072
 30
0.0
 11
-73.022186655953035
 21
66.0
 31
0.0
  0
LINE
  5
93
  8
PATTFRN_FILL
  6
CONTINUOUS
 62
     7
 10
-68.022186655952964
 20
71.0
 30
0.0
 11
-63.561926951864749
 21
75.460259704088188
 31
0.0
  0
LINE
  5
94
  8
PATTFRN_FILL
  6
CONTINUOUS
 62
     7
 10
-77.150000000000006
 20
61.072186632111219
 30
0.0
 11
-72.222186632111175
 21
66.0
 31
0.0
  0
LINE
  5
95
  8
PATTFRN_FILL
  6
CONTINUOUS
 62
     7
 10
-67.222186632111146
 20
71.0
 30
0.0
 11
-63.320734261770681
 21
74.901452370340422
 31
0.0
  0
LINE
  5
96
  8
PATTFRN_FILL
  6
CONTINUOUS
 62
     7
 10
-77.150000000000006
 20
60.272186608269386
 30
0.0
 11
-71.422186608269328
 21
66.0
 31
0.0
  0
LINE
  5
97
  8
PATTFRN_FILL
  6
CONTINUOUS
 62
     7
 10
-66.422186608269286
 20
71.0
 30
0.0
 11
-63.121298428484138
 21
74.30088817978509
 31
0.0
  0
LINE
  5
98
  8
PATTFRN_FILL
  6
CONTINUOUS
 62
     7
 10
-77.150000000000006
 20
59.472186584427519
 30
0.0
 11
-70.622186584427482
 21
66.0
 31
0.0
  0
LINE
  5
99
  8
PATTFRN_FILL
  6
CONTINUOUS
 62
     7
 10
-65.622186584427439
 20
71.0
 30
0.0
 11
-62.969645360330162
 21
73.652541224097234
 31
0.0
  0
LINE
  5
9A
  8
PATTFRN_FILL
  6
CONTINUOUS
 62
     7
 10
-77.150000000000006
 20
58.672186560585672
 30
0.0
 11
-69.822186560585607
 21
66.0
 31
0.0
  0
LINE
  5
9B
  8
PATTFRN_FILL
  6
CONTINUOUS
 62
     7
 10
-64.82218656058555
 20
71.000000000000014
 30
0.0
 11
-62.874984252429151
 21
72.947202308156378
 31
0.0
  0
LINE
  5
9C
  8
PATTFRN_FILL
  6
CONTINUOUS
 62
     7
 10
-77.150000000000006
 20
57.87218653674384
 30
0.0
 11
-69.02218653674376
 21
66.0
 31
0.0
  0
LINE
  5
9D
  8
PATTFRN_FILL
  6
CONTINUOUS
 62
     7
 10
-64.022186536743703
 20
71.0
 30
0.0
 11
-62.850000000000009
 21
72.172186536743695
 31
0.0
  0
LINE
  5
9E
  8
PATTFRN_FILL
  6
CONTINUOUS
 62
     7
 10
-77.150000000000006
 20
57.072186512902
 30
0.0
 11
-68.222186512901914
 21
66.0
 31
0.0
  0
LINE
  5
9F
  8
PATTFRN_FILL
  6
CONTINUOUS
 62
     7
 10
-63.22218651290185
 20
71.0
 30
0.0
 11
-62.850000000000001
 21
71.372186512901862
 31
0.0
  0
LINE
  5
A0
  8
PATTFRN_FILL
  6
CONTINUOUS
 62
     7
 10
-77.150000000000006
 20
56.272186489060161
 30
0.0
 11
-67.422186489060053
 21
66.0
 31
0.0
  0
LINE
  5
A1
  8
PATTFRN_FILL
  6
CONTINUOUS
 62
     7
 10
-77.150000000000006
 20
55.472186465218279
 30
0.0
 11
-66.622186465218206
 21
65.999999999999972
 31
0.0
  0
LINE
  5
A2
  8
PATTFRN_FILL
  6
CONTINUOUS
 62
     7
 10
-77.150000000000006
 20
54.672186441376439
 30
0.0
 11
-65.822186441376317
 21
66.0
 31
0.0
  0
LINE
  5
A3
  8
PATTFRN_FILL
  6
CONTINUOUS
 62
     7
 10
-77.150000000000006
 20
53.872186417534579
 30
0.0
 11
-65.022186417534456
 21
66.0
 31
0.0
  0
LINE
  5
A4
  8
PATTFRN_FILL
  6
CONTINUOUS
 62
     7
 10
-77.150000000000006
 20
53.072186393692718
 30
0.0
 11
-64.222186393692624
 21
65.999999999999986
 31
0.0
  0
LINE
  5
A5
  8
PATTFRN_FILL
  6
CONTINUOUS
 62
     7
 10
-77.150000000000006
 20
52.272186369850893
 30
0.0
 11
-63.422186369850742
 21
66.0
 31
0.0
  0
LINE
  5
A6
  8
PATTFRN_FILL
  6
CONTINUOUS
 62
     7
 10
-76.822186346009019
 20
51.79999999999999
 30
0.0
 11
-62.850000000000009
 21
65.77218634600888
 31
0.0
  0
LINE
  5
A7
  8
PATTFRN_FILL
  6
CONTINUOUS
 62
     7
 10
-76.022186322167173
 20
51.800000000000011
 30
0.0
 11
-62.850000000000009
 21
64.972186322167033
 31
0.0
  0
LINE
  5
A8
  8
PATTFRN_FILL
  6
CONTINUOUS
 62
     7
 10
-75.222186298325312
 20
51.79999999999999
 30
0.0
 11
-62.850000000000001
 21
64.172186298325187
 31
0.0
  0
LINE
  5
A9
  8
PATTFRN_FILL
  6
CONTINUOUS
 62
     7
 10
-74.422186274483423
 20
51.800000000000011
 30
0.0
 11
-62.850000000000009
 21
63.372186274483333
 31
0.0
  0
LINE
  5
AA
  8
PATTFRN_FILL
  6
CONTINUOUS
 62
     7
 10
-77.150000000000006
 20
48.27218625064161
 30
0.0
 11
-76.422186250641616
 21
48.999999999999993
 31
0.0
  0
LINE
  5
AB
  8
PATTFRN_FILL
  6
CONTINUOUS
 62
     7
 10
-73.62218625064159
 20
51.79999999999999
 30
0.0
 11
-62.850000000000001
 21
62.572186250641472
 31
0.0
  0
LINE
  5
AC
  8
PATTFRN_FILL
  6
CONTINUOUS
 62
     7
 10
-77.150000000000034
 20
47.472186226799742
 30
0.0
 11
-75.622186226799741
 21
48.999999999999993
 31
0.0
  0
LINE
  5
AD
  8
PATTFRN_FILL
  6
CONTINUOUS
 62
     7
 10
-72.822186226799701
 20
51.800000000000011
 30
0.0
 11
-62.850000000000001
 21
61.772186226799619
 31
0.0
  0
LINE
  5
AE
  8
PATTFRN_FILL
  6
CONTINUOUS
 62
     7
 10
-77.150000000000006
 20
46.672186202957917
 30
0.0
 11
-74.822186202957923
 21
48.999999999999993
 31
0.0
  0
LINE
  5
AF
  8
PATTFRN_FILL
  6
CONTINUOUS
 62
     7
 10
-72.022186202957855
 20
51.79999999999999
 30
0.0
 11
-62.850000000000001
 21
60.972186202957772
 31
0.0
  0
LINE
  5
B0
  8
PATTFRN_FILL
  6
CONTINUOUS
 62
     7
 10
-77.150000000000006
 20
45.872186179116042
 30
0.0
 11
-74.022186179116034
 21
48.999999999999993
 31
0.0
  0
LINE
  5
B1
  8
PATTFRN_FILL
  6
CONTINUOUS
 62
     7
 10
-71.222186179116022
 20
51.79999999999999
 30
0.0
 11
-62.850000000000001
 21
60.172186179115933
 31
0.0
  0
LINE
  5
B2
  8
PATTFRN_FILL
  6
CONTINUOUS
 62
     7
 10
-77.150000000000006
 20
45.072186155274203
 30
0.0
 11
-73.222186155274159
 21
49.0
 31
0.0
  0
LINE
  5
B3
  8
PATTFRN_FILL
  6
CONTINUOUS
 62
     7
 10
-70.422186155274133
 20
51.79999999999999
 30
0.0
 11
-62.850000000000001
 21
59.372186155274058
 31
0.0
  0
LINE
  5
B4
  8
PATTFRN_FILL
  6
CONTINUOUS
 62
     7
 10
-77.150000000000034
 20
44.272186131432328
 30
0.0
 11
-72.422186131432284
 21
48.999999999999993
 31
0.0
  0
LINE
  5
B5
  8
PATTFRN_FILL
  6
CONTINUOUS
 62
     7
 10
-69.622186131432272
 20
51.79999999999999
 30
0.0
 11
-62.850000000000001
 21
58.572186131432218
 31
0.0
  0
LINE
  5
B6
  8
PATTFRN_FILL
  6
CONTINUOUS
 62
     7
 10
-77.150000000000006
 20
43.472186107590488
 30
0.0
 11
-71.622186107590437
 21
49.0
 31
0.0
  0
LINE
  5
B7
  8
PATTFRN_FILL
  6
CONTINUOUS
 62
     7
 10
-68.822186107590412
 20
51.79999999999999
 30
0.0
 11
-62.850000000000001
 21
57.77218610759035
 31
0.0
  0
LINE
  5
B8
  8
PATTFRN_FILL
  6
CONTINUOUS
 62
     7
 10
-77.150000000000006
 20
42.672186083748628
 30
0.0
 11
-70.822186083748605
 21
48.999999999999993
 31
0.0
  0
LINE
  5
B9
  8
PATTFRN_FILL
  6
CONTINUOUS
 62
     7
 10
-68.022186083748565
 20
51.79999999999999
 30
0.0
 11
-62.850000000000001
 21
56.972186083748511
 31
0.0
  0
LINE
  5
BA
  8
PATTFRN_FILL
  6
CONTINUOUS
 62
     7
 10
-77.150000000000006
 20
41.872186059906788
 30
0.0
 11
-70.022186059906744
 21
49.0
 31
0.0
  0
LINE
  5
BB
  8
PATTFRN_FILL
  6
CONTINUOUS
 62
     7
 10
-67.222186059906704
 20
51.79999999999999
 30
0.0
 11
-62.850000000000001
 21
56.17218605990665
 31
0.0
  0
LINE
  5
BC
  8
PATTFRN_FILL
  6
CONTINUOUS
 62
     7
 10
-77.150000000000006
 20
41.072186036064942
 30
0.0
 11
-69.222186036064869
 21
48.999999999999993
 31
0.0
  0
LINE
  5
BD
  8
PATTFRN_FILL
  6
CONTINUOUS
 62
     7
 10
-66.422186036064858
 20
51.79999999999999
 30
0.0
 11
-62.850000000000001
 21
55.372186036064818
 31
0.0
  0
LINE
  5
BE
  8
PATTFRN_FILL
  6
CONTINUOUS
 62
     7
 10
-77.150000000000006
 20
40.272186012223088
 30
0.0
 11
-68.422186012223023
 21
48.999999999999993
 31
0.0
  0
LINE
  5
BF
  8
PATTFRN_FILL
  6
CONTINUOUS
 62
     7
 10
-65.622186012222983
 20
51.79999999999999
 30
0.0
 11
-62.850000000000001
 21
54.572186012222957
 31
0.0
  0
LINE
  5
C0
  8
PATTFRN_FILL
  6
CONTINUOUS
 62
     7
 10
-77.150000000000006
 20
39.472185988381241
 30
0.0
 11
-67.622185988381133
 21
49.0
 31
0.0
  0
LINE
  5
C1
  8
PATTFRN_FILL
  6
CONTINUOUS
 62
     7
 10
-64.822185988381108
 20
51.79999999999999
 30
0.0
 11
-62.850000000000001
 21
53.772185988381082
 31
0.0
  0
LINE
  5
C2
  8
PATTFRN_FILL
  6
CONTINUOUS
 62
     7
 10
-77.150000000000006
 20
38.672185964539388
 30
0.0
 11
-66.822185964539301
 21
48.999999999999993
 31
0.0
  0
LINE
  5
C3
  8
PATTFRN_FILL
  6
CONTINUOUS
 62
     7
 10
-64.022185964539261
 20
51.79999999999999
 30
0.0
 11
-62.850000000000001
 21
52.97218596453925
 31
0.0
  0
LINE
  5
C4
  8
PATTFRN_FILL
  6
CONTINUOUS
 62
     7
 10
-77.150000000000006
 20
37.872185940697541
 30
0.0
 11
-66.022185940697426
 21
48.999999999999993
 31
0.0
  0
LINE
  5
C5
  8
PATTFRN_FILL
  6
CONTINUOUS
 62
     7
 10
-63.2221859406974
 20
51.79999999999999
 30
0.0
 11
-62.850000000000001
 21
52.172185940697403
 31
0.0
  0
LINE
  5
C6
  8
PATTFRN_FILL
  6
CONTINUOUS
 62
     7
 10
-77.14958110554511
 20
37.072604811310583
 30
0.0
 11
-65.222185916855565
 21
49.0
 31
0.0
  0
LINE
  5
C7
  8
PATTFRN_FILL
  6
CONTINUOUS
 62
     7
 10
-77.111094306906864
 20
36.311091586106983
 30
0.0
 11
-64.422185893013705
 21
48.999999999999993
 31
0.0
  0
LINE
  5
C8
  8
PATTFRN_FILL
  6
CONTINUOUS
 62
     7
 10
-76.987568614077603
 20
35.63461725509439
 30
0.0
 11
-63.622185869171851
 21
49.0
 31
0.0
  0
LINE
  5
C9
  8
PATTFRN_FILL
  6
CONTINUOUS
 62
     7
 10
-76.819832417403106
 20
35.002353427926998
 30
0.0
 11
-62.850000000000001
 21
48.972185845329989
 31
0.0
  0
LINE
  5
CA
  8
PATTFRN_FILL
  6
CONTINUOUS
 62
     7
 10
-76.606509834420905
 20
34.415675987067381
 30
0.0
 11
-62.850000000000001
 21
48.172185821488142
 31
0.0
  0
LINE
  5
CB
  8
PATTFRN_FILL
  6
CONTINUOUS
 62
     7
 10
-76.352903939977423
 20
33.869281857669002
 30
0.0
 11
-62.850000000000001
 21
47.372185797646281
 31
0.0
  0
LINE
  5
CC
  8
PATTFRN_FILL
  6
CONTINUOUS
 62
     7
 10
-76.062607167032809
 20
33.359578606771748
 30
0.0
 11
-62.850000000000001
 21
46.572185773804428
 31
0.0
  0
LINE
  5
CD
  8
PATTFRN_FILL
  6
CONTINUOUS
 62
     7
 10
-75.738034226037087
 20
32.884151523925588
 30
0.0
 11
-62.850000000000001
 21
45.772185749962567
 31
0.0
  0
LINE
  5
CE
  8
PATTFRN_FILL
  6
CONTINUOUS
 62
     7
 10
-75.380722838331181
 20
32.44146288778969
 30
0.0
 11
-62.850000000000001
 21
44.972185726120721
 31
0.0
  0
LINE
  5
CF
  8
PATTFRN_FILL
  6
CONTINUOUS
 62
     7
 10
-74.99150241677556
 20
32.030683285503429
 30
0.0
 11
-62.850000000000001
 21
44.172185702278881
 31
0.0
  0
LINE
  5
D0
  8
PATTFRN_FILL
  6
CONTINUOUS
 62
     7
 10
-74.570577931675984
 20
31.651607746761179
 30
0.0
 11
-62.850000000000001
 21
43.372185678437013
 31
0.0
  0
LINE
  5
D1
  8
PATTFRN_FILL
  6
CONTINUOUS
 62
     7
 10
-74.117549882914346
 20
31.304635771680928
 30
0.0
 11
-62.850000000000001
 21
42.57218565459516
 31
0.0
  0
LINE
  5
D2
  8
PATTFRN_FILL
  6
CONTINUOUS
 62
     7
 10
-73.631375098213695
 20
30.99081053253974
 30
0.0
 11
-62.850000000000001
 21
41.772185630753313
 31
0.0
  0
LINE
  5
D3
  8
PATTFRN_FILL
  6
CONTINUOUS
 62
     7
 10
-73.11109419965571
 20
30.711091407255829
 30
0.0
 11
-62.850000000000001
 21
40.972185606911452
 31
0.0
  0
LINE
  5
D4
  8
PATTFRN_FILL
  6
CONTINUOUS
 62
     7
 10
-72.55145161126336
 20
30.470733971806361
 30
0.0
 11
-62.850000000000001
 21
40.172185583069613
 31
0.0
  0
LINE
  5
D5
  8
PATTFRN_FILL
  6
CONTINUOUS
 62
     7
 10
-71.950887362528192
 20
30.27129819669965
 30
0.0
 11
-62.850000000000001
 21
39.372185559227752
 31
0.0
  0
LINE
  5
D6
  8
PATTFRN_FILL
  6
CONTINUOUS
 62
     7
 10
-71.302540339034735
 20
30.11964519635125
 30
0.0
 11
-62.850000000000001
 21
38.572185535385898
 31
0.0
  0
LINE
  5
D7
  8
PATTFRN_FILL
  6
CONTINUOUS
 62
     7
 10
-70.597201340243146
 20
30.024984171300972
 30
0.0
 11
-62.850000000000001
 21
37.772185511544052
 31
0.0
  0
LINE
  5
D8
  8
PATTFRN_FILL
  6
CONTINUOUS
 62
     7
 10
-69.819917311526694
 20
30.00226817617559
 30
0.0
 11
-62.852268176175592
 21
36.969917311526622
 31
0.0
  0
LINE
  5
D9
  8
PATTFRN_FILL
  6
CONTINUOUS
 62
     7
 10
-68.943734285794193
 20
30.07845117806621
 30
0.0
 11
-62.928451178066219
 21
36.093734285794127
 31
0.0
  0
LINE
  5
DA
  8
PATTFRN_FILL
  6
CONTINUOUS
 62
     7
 10
-67.911094008809229
 20
30.311091431209331
 30
0.0
 11
-63.162323187041551
 21
35.059862252976941
 31
0.0
  0
LINE
  5
DB
  8
PATTFRN_FILL
  6
CONTINUOUS
 62
     7
 10
-66.515823064240777
 20
30.906362351935911
 30
0.0
 11
-63.756362351935941
 21
33.665823064240691
 31
0.0
  0
LINE
  5
DC
  8
PATTFRN_FILL
  6
CONTINUOUS
 62
     7
 10
-63.664825776041859
 20
75.664825418041872
 30
0.0
 11
-66.000000357999994
 21
78.0
 31
0.0
  0
LINE
  5
DD
  8
PATTFRN_FILL
  6
CONTINUOUS
 62
     7
 10
-63.129468201082929
 20
74.32946780728291
 30
0.0
 11
-66.800000393800005
 21
78.0
 31
0.0
  0
LINE
  5
DE
  8
PATTFRN_FILL
  6
CONTINUOUS
 62
     7
 10
-62.915486081944891
 20
73.315485652344904
 30
0.0
 11
-67.600000429599973
 21
78.0
 31
0.0
  0
LINE
  5
DF
  8
PATTFRN_FILL
  6
CONTINUOUS
 62
     7
 10
-62.850709284569419
 20
72.450708819169421
 30
0.0
 11
-68.400000465399984
 21
77.999999999999986
 31
0.0
  0
LINE
  5
E0
  8
PATTFRN_FILL
  6
CONTINUOUS
 62
     7
 10
-62.850000000000001
 20
71.6499994988
 30
0.0
 11
-69.200000501200009
 21
78.0
 31
0.0
  0
LINE
  5
E1
  8
PATTFRN_FILL
  6
CONTINUOUS
 62
     7
 10
-62.850000000000001
 20
70.849999462999989
 30
0.0
 11
-70.000000537000005
 21
78.0
 31
0.0
  0
LINE
  5
E2
  8
PATTFRN_FILL
  6
CONTINUOUS
 62
     7
 10
-63.800000572800002
 20
71.0
 30
0.0
 11
-70.800000572800002
 21
78.0
 31
0.0
  0
LINE
  5
E3
  8
PATTFRN_FILL
  6
CONTINUOUS
 62
     7
 10
-64.600000608599998
 20
71.0
 30
0.0
 11
-71.600000608599984
 21
78.0
 31
0.0
  0
LINE
  5
E4
  8
PATTFRN_FILL
  6
CONTINUOUS
 62
     7
 10
-65.400000644399995
 20
71.0
 30
0.0
 11
-72.400000644399981
 21
77.999999999999986
 31
0.0
  0
LINE
  5
E5
  8
PATTFRN_FILL
  6
CONTINUOUS
 62
     7
 10
-66.200000680200006
 20
71.0
 30
0.0
 11
-73.200000680199992
 21
78.0
 31
0.0
  0
LINE
  5
E6
  8
PATTFRN_FILL
  6
CONTINUOUS
 62
     7
 10
-67.000000716000002
 20
71.0
 30
0.0
 11
-74.000000716000002
 21
77.999999999999986
 31
0.0
  0
LINE
  5
E7
  8
PATTFRN_FILL
  6
CONTINUOUS
 62
     7
 10
-67.800000751799999
 20
71.0
 30
0.0
 11
-74.612919124700426
 21
77.812918372900455
 31
0.0
  0
LINE
  5
E8
  8
PATTFRN_FILL
  6
CONTINUOUS
 62
     7
 10
-62.84999999999998
 20
65.249999212399985
 30
0.0
 11
-63.600000787600003
 21
66.0
 31
0.0
  0
LINE
  5
E9
  8
PATTFRN_FILL
  6
CONTINUOUS
 62
     7
 10
-68.600000787599967
 20
71.0
 30
0.0
 11
-75.030752070819943
 21
77.430751283219934
 31
0.0
  0
LINE
  5
EA
  8
PATTFRN_FILL
  6
CONTINUOUS
 62
     7
 10
-62.850000000000001
 20
64.449999176599974
 30
0.0
 11
-64.400000823400006
 21
66.0
 31
0.0
  0
LINE
  5
EB
  8
PATTFRN_FILL
  6
CONTINUOUS
 62
     7
 10
-69.400000823400006
 20
71.0
 30
0.0
 11
-75.416887428603957
 21
77.01688660520395
 31
0.0
  0
LINE
  5
EC
  8
PATTFRN_FILL
  6
CONTINUOUS
 62
     7
 10
-62.850000000000001
 20
63.649999140799977
 30
0.0
 11
-65.200000859200003
 21
65.999999999999986
 31
0.0
  0
LINE
  5
ED
  8
PATTFRN_FILL
  6
CONTINUOUS
 62
     7
 10
-70.200000859200031
 20
71.0
 30
0.0
 11
-75.771061311346728
 21
76.571060452146696
 31
0.0
  0
LINE
  5
EE
  8
PATTFRN_FILL
  6
CONTINUOUS
 62
     7
 10
-62.850000000000001
 20
62.849999104999981
 30
0.0
 11
-66.000000894999985
 21
66.0
 31
0.0
  0
LINE
  5
EF
  8
PATTFRN_FILL
  6
CONTINUOUS
 62
     7
 10
-71.000000895000014
 20
71.0
 30
0.0
 11
-76.092380232342208
 21
76.09237933734218
 31
0.0
  0
LINE
  5
F0
  8
PATTFRN_FILL
  6
CONTINUOUS
 62
     7
 10
-62.850000000000001
 20
62.049999069199998
 30
0.0
 11
-66.800000930799996
 21
66.0
 31
0.0
  0
LINE
  5
F1
  8
PATTFRN_FILL
  6
CONTINUOUS
 62
     7
 10
-71.800000930799996
 20
71.0
 30
0.0
 11
-76.379230219896513
 21
75.579229289096503
 31
0.0
  0
LINE
  5
F2
  8
PATTFRN_FILL
  6
CONTINUOUS
 62
     7
 10
-62.850000000000001
 20
61.249999033399988
 30
0.0
 11
-67.600000966600007
 21
66.0
 31
0.0
  0
LINE
  5
F3
  8
PATTFRN_FILL
  6
CONTINUOUS
 62
     7
 10
-72.600000966600021
 20
71.0
 30
0.0
 11
-76.629097935112199
 21
75.029096968512192
 31
0.0
  0
LINE
  5
F4
  8
PATTFRN_FILL
  6
CONTINUOUS
 62
     7
 10
-62.850000000000001
 20
60.449998997599991
 30
0.0
 11
-68.400001002400032
 21
66.0
 31
0.0
  0
LINE
  5
F5
  8
PATTFRN_FILL
  6
CONTINUOUS
 62
     7
 10
-73.400001002400032
 20
71.000000000000014
 30
0.0
 11
-76.838252972134143
 21
74.438251969734125
 31
0.0
  0
LINE
  5
F6
  8
PATTFRN_FILL
  6
CONTINUOUS
 62
     7
 10
-62.84999999999998
 20
59.649998961799973
 30
0.0
 11
-69.2000010382
 21
65.999999999999986
 31
0.0
  0
LINE
  5
F7
  8
PATTFRN_FILL
  6
CONTINUOUS
 62
     7
 10
-74.200001038200014
 20
71.0
 30
0.0
 11
-77.001183444506182
 21
73.801182406306197
 31
0.0
  0
LINE
  5
F8
  8
PATTFRN_FILL
  6
CONTINUOUS
 62
     7
 10
-62.850000000000001
 20
58.849998925999998
 30
0.0
 11
-70.000001073999982
 21
65.999999999999986
 31
0.0
  0
LINE
  5
F9
  8
PATTFRN_FILL
  6
CONTINUOUS
 62
     7
 10
-75.000001074000011
 20
71.0
 30
0.0
 11
-77.11109403186947
 21
73.111092957869474
 31
0.0
  0
LINE
  5
FA
  8
PATTFRN_FILL
  6
CONTINUOUS
 62
     7
 10
-62.850000000000001
 20
58.049998890199987
 30
0.0
 11
-70.800001109800021
 21
65.999999999999986
 31
0.0
  0
LINE
  5
FB
  8
PATTFRN_FILL
  6
CONTINUOUS
 62
     7
 10
-75.800001109799993
 20
71.0
 30
0.0
 11
-77.150000000000006
 21
72.349998890199998
 31
0.0
  0
LINE
  5
FC
  8
PATTFRN_FILL
  6
CONTINUOUS
 62
     7
 10
-62.850000000000001
 20
57.24999885439999
 30
0.0
 11
-71.600001145600004
 21
66.0
 31
0.0
  0
LINE
  5
FD
  8
PATTFRN_FILL
  6
CONTINUOUS
 62
     7
 10
-76.600001145600004
 20
71.0
 30
0.0
 11
-77.150000000000006
 21
71.549998854400002
 31
0.0
  0
LINE
  5
FE
  8
PATTFRN_FILL
  6
CONTINUOUS
 62
     7
 10
-62.850000000000001
 20
56.449998818599987
 30
0.0
 11
-72.4000011814
 21
66.0
 31
0.0
  0
LINE
  5
FF
  8
PATTFRN_FILL
  6
CONTINUOUS
 62
     7
 10
-62.850000000000001
 20
55.649998782799997
 30
0.0
 11
-73.200001217199983
 21
66.0
 31
0.0
  0
LINE
  5
100
  8
PATTFRN_FILL
  6
CONTINUOUS
 62
     7
 10
-62.84999999999998
 20
54.849998746999979
 30
0.0
 11
-74.000001252999979
 21
65.999999999999986
 31
0.0
  0
LINE
  5
101
  8
PATTFRN_FILL
  6
CONTINUOUS
 62
     7
 10
-62.850000000000001
 20
54.04999871119999
 30
0.0
 11
-74.800001288799976
 21
65.999999999999986
 31
0.0
  0
LINE
  5
102
  8
PATTFRN_FILL
  6
CONTINUOUS
 62
     7
 10
-62.850000000000001
 20
53.249998675400001
 30
0.0
 11
-75.600001324599987
 21
66.0
 31
0.0
  0
LINE
  5
103
  8
PATTFRN_FILL
  6
CONTINUOUS
 62
     7
 10
-62.850000000000001
 20
52.449998639599997
 30
0.0
 11
-76.400001360399983
 21
66.0
 31
0.0
  0
LINE
  5
104
  8
PATTFRN_FILL
  6
CONTINUOUS
 62
     7
 10
-63.000001396199991
 20
51.79999999999999
 30
0.0
 11
-77.150000000000006
 21
65.949998603799983
 31
0.0
  0
LINE
  5
105
  8
PATTFRN_FILL
  6
CONTINUOUS
 62
     7
 10
-63.800001431999988
 20
51.79999999999999
 30
0.0
 11
-77.150000000000006
 21
65.149998568000015
 31
0.0
  0
LINE
  5
106
  8
PATTFRN_FILL
  6
CONTINUOUS
 62
     7
 10
-64.600001467799984
 20
51.79999999999999
 30
0.0
 11
-77.150000000000006
 21
64.349998532200004
 31
0.0
  0
LINE
  5
107
  8
PATTFRN_FILL
  6
CONTINUOUS
 62
     7
 10
-65.400001503599995
 20
51.79999999999999
 30
0.0
 11
-77.150000000000006
 21
63.549998496400022
 31
0.0
  0
LINE
  5
108
  8
PATTFRN_FILL
  6
CONTINUOUS
 62
     7
 10
-62.84999999999998
 20
48.449998460600007
 30
0.0
 11
-63.400001539399959
 21
48.999999999999993
 31
0.0
  0
LINE
  5
109
  8
PATTFRN_FILL
  6
CONTINUOUS
 62
     7
 10
-66.200001539399992
 20
51.79999999999999
 30
0.0
 11
-77.150000000000006
 21
62.749998460599997
 31
0.0
  0
LINE
  5
10A
  8
PATTFRN_FILL
  6
CONTINUOUS
 62
     7
 10
-62.850000000000001
 20
47.649998424800017
 30
0.0
 11
-64.200001575199963
 21
48.999999999999993
 31
0.0
  0
LINE
  5
10B
  8
PATTFRN_FILL
  6
CONTINUOUS
 62
     7
 10
-67.00000157519996
 20
51.79999999999999
 30
0.0
 11
-77.150000000000006
 21
61.949998424800022
 31
0.0
  0
LINE
  5
10C
  8
PATTFRN_FILL
  6
CONTINUOUS
 62
     7
 10
-62.850000000000001
 20
46.849998389
 30
0.0
 11
-65.000001610999959
 21
48.999999999999993
 31
0.0
  0
LINE
  5
10D
  8
PATTFRN_FILL
  6
CONTINUOUS
 62
     7
 10
-67.800001610999999
 20
51.79999999999999
 30
0.0
 11
-77.150000000000006
 21
61.149998389000018
 31
0.0
  0
LINE
  5
10E
  8
PATTFRN_FILL
  6
CONTINUOUS
 62
     7
 10
-62.850000000000001
 20
46.049998353200017
 30
0.0
 11
-65.80000164679997
 21
48.999999999999993
 31
0.0
  0
LINE
  5
10F
  8
PATTFRN_FILL
  6
CONTINUOUS
 62
     7
 10
-68.600001646799967
 20
51.79999999999999
 30
0.0
 11
-77.150000000000006
 21
60.349998353200043
 31
0.0
  0
LINE
  5
110
  8
PATTFRN_FILL
  6
CONTINUOUS
 62
     7
 10
-62.850000000000001
 20
45.249998317400028
 30
0.0
 11
-66.600001682599952
 21
48.999999999999993
 31
0.0
  0
LINE
  5
111
  8
PATTFRN_FILL
  6
CONTINUOUS
 62
     7
 10
-69.400001682599964
 20
51.79999999999999
 30
0.0
 11
-77.150000000000006
 21
59.549998317400032
 31
0.0
  0
LINE
  5
112
  8
PATTFRN_FILL
  6
CONTINUOUS
 62
     7
 10
-62.850000000000001
 20
44.449998281600017
 30
0.0
 11
-67.400001718399963
 21
48.999999999999993
 31
0.0
  0
LINE
  5
113
  8
PATTFRN_FILL
  6
CONTINUOUS
 62
     7
 10
-70.20000171839996
 20
51.79999999999999
 30
0.0
 11
-77.150000000000006
 21
58.749998281600028
 31
0.0
  0
LINE
  5
114
  8
PATTFRN_FILL
  6
CONTINUOUS
 62
     7
 10
-62.850000000000001
 20
43.64999824580002
 30
0.0
 11
-68.200001754199931
 21
48.999999999999993
 31
0.0
  0
LINE
  5
115
  8
PATTFRN_FILL
  6
CONTINUOUS
 62
     7
 10
-71.000001754199957
 20
51.79999999999999
 30
0.0
 11
-77.150000000000006
 21
57.949998245800032
 31
0.0
  0
LINE
  5
116
  8
PATTFRN_FILL
  6
CONTINUOUS
 62
     7
 10
-62.850000000000001
 20
42.849998210000017
 30
0.0
 11
-69.00000178999997
 21
49.0
 31
0.0
  0
LINE
  5
117
  8
PATTFRN_FILL
  6
CONTINUOUS
 62
     7
 10
-71.800001789999953
 20
51.79999999999999
 30
0.0
 11
-77.150000000000006
 21
57.149998210000049
 31
0.0
  0
LINE
  5
118
  8
PATTFRN_FILL
  6
CONTINUOUS
 62
     7
 10
-62.850000000000001
 20
42.04999817420002
 30
0.0
 11
-69.800001825799939
 21
48.999999999999993
 31
0.0
  0
LINE
  5
119
  8
PATTFRN_FILL
  6
CONTINUOUS
 62
     7
 10
-72.60000182579995
 20
51.79999999999999
 30
0.0
 11
-77.150000000000006
 21
56.349998174200039
 31
0.0
  0
LINE
  5
11A
  8
PATTFRN_FILL
  6
CONTINUOUS
 62
     7
 10
-62.850000000000001
 20
41.249998138400052
 30
0.0
 11
-70.600001861599935
 21
48.999999999999993
 31
0.0
  0
LINE
  5
11B
  8
PATTFRN_FILL
  6
CONTINUOUS
 62
     7
 10
-73.400001861599947
 20
51.79999999999999
 30
0.0
 11
-77.150000000000006
 21
55.549998138400049
 31
0.0
  0
LINE
  5
11C
  8
PATTFRN_FILL
  6
CONTINUOUS
 62
     7
 10
-62.850000000000001
 20
40.449998102600041
 30
0.0
 11
-71.400001897399946
 21
48.999999999999993
 31
0.0
  0
LINE
  5
11D
  8
PATTFRN_FILL
  6
CONTINUOUS
 62
     7
 10
-74.200001897399943
 20
51.79999999999999
 30
0.0
 11
-77.150000000000006
 21
54.749998102600053
 31
0.0
  0
LINE
  5
11E
  8
PATTFRN_FILL
  6
CONTINUOUS
 62
     7
 10
-62.850000000000001
 20
39.649998066800052
 30
0.0
 11
-72.200001933199943
 21
48.999999999999993
 31
0.0
  0
LINE
  5
11F
  8
PATTFRN_FILL
  6
CONTINUOUS
 62
     7
 10
-75.00000193319994
 20
51.79999999999999
 30
0.0
 11
-77.150000000000006
 21
53.949998066800042
 31
0.0
  0
LINE
  5
120
  8
PATTFRN_FILL
  6
CONTINUOUS
 62
     7
 10
-62.850000000000001
 20
38.849998031000027
 30
0.0
 11
-73.000001968999925
 21
48.999999999999979
 31
0.0
  0
LINE
  5
121
  8
PATTFRN_FILL
  6
CONTINUOUS
 62
     7
 10
-75.800001968999936
 20
51.79999999999999
 30
0.0
 11
-77.150000000000006
 21
53.149998031000052
 31
0.0
  0
LINE
  5
122
  8
PATTFRN_FILL
  6
CONTINUOUS
 62
     7
 10
-62.850000000000001
 20
38.049997995200037
 30
0.0
 11
-73.800002004799964
 21
49.0
 31
0.0
  0
LINE
  5
123
  8
PATTFRN_FILL
  6
CONTINUOUS
 62
     7
 10
-76.600002004799933
 20
51.79999999999999
 30
0.0
 11
-77.150000000000006
 21
52.349997995200042
 31
0.0
  0
LINE
  5
124
  8
PATTFRN_FILL
  6
CONTINUOUS
 62
     7
 10
-62.850000000000001
 20
37.249997959400048
 30
0.0
 11
-74.600002040599932
 21
49.0
 31
0.0
  0
LINE
  5
125
  8
PATTFRN_FILL
  6
CONTINUOUS
 62
     7
 10
-62.881335452098782
 20
36.481333375698853
 30
0.0
 11
-75.400002076399915
 21
48.999999999999993
 31
0.0
  0
LINE
  5
126
  8
PATTFRN_FILL
  6
CONTINUOUS
 62
     7
 10
-62.982074754939418
 20
35.782072642739479
 30
0.0
 11
-76.200002112199911
 21
48.999999999999993
 31
0.0
  0
LINE
  5
127
  8
PATTFRN_FILL
  6
CONTINUOUS
 62
     7
 10
-63.138715441976387
 20
35.138713293976473
 30
0.0
 11
-77.000002147999908
 21
48.999999999999993
 31
0.0
  0
LINE
  5
128
  8
PATTFRN_FILL
  6
CONTINUOUS
 62
     7
 10
-63.34243922807196
 20
34.542437044272013
 30
0.0
 11
-77.150000000000006
 21
48.349997816200059
 31
0.0
  0
LINE
  5
129
  8
PATTFRN_FILL
  6
CONTINUOUS
 62
     7
 10
-63.587451777746182
 20
33.987449558146238
 30
0.0
 11
-77.150000000000006
 21
47.549997780400069
 31
0.0
  0
LINE
  5
12A
  8
PATTFRN_FILL
  6
CONTINUOUS
 62
     7
 10
-63.869837749904718
 20
33.4698354945048
 30
0.0
 11
-77.150000000000006
 21
46.749997744600073
 31
0.0
  0
LINE
  5
12B
  8
PATTFRN_FILL
  6
CONTINUOUS
 62
     7
 10
-64.186952740638489
 20
32.986950449438567
 30
0.0
 11
-77.150000000000006
 21
45.949997708800069
 31
0.0
  0
LINE
  5
12C
  8
PATTFRN_FILL
  6
CONTINUOUS
 62
     7
 10
-64.537082348257542
 20
32.537080021257623
 30
0.0
 11
-77.150000000000006
 21
45.149997673000087
 31
0.0
  0
LINE
  5
12D
  8
PATTFRN_FILL
  6
CONTINUOUS
 62
     7
 10
-64.919249500485577
 20
32.119247137685669
 30
0.0
 11
-77.150000000000006
 21
44.349997637200097
 31
0.0
  0
LINE
  5
12E
  8
PATTFRN_FILL
  6
CONTINUOUS
 62
     7
 10
-65.333114240975362
 20
31.73311184237545
 30
0.0
 11
-77.150000000000006
 21
43.549997601400086
 31
0.0
  0
LINE
  5
12F
  8
PATTFRN_FILL
  6
CONTINUOUS
 62
     7
 10
-65.778940457627613
 20
31.378938023227711
 30
0.0
 11
-77.150000000000006
 21
42.74999756560009
 31
0.0
  0
LINE
  5
130
  8
PATTFRN_FILL
  6
CONTINUOUS
 62
     7
 10
-66.257621638453614
 20
31.057619168253741
 30
0.0
 11
-77.150000000000006
 21
41.9499975298001
 31
0.0
  0
LINE
  5
131
  8
PATTFRN_FILL
  6
CONTINUOUS
 62
     7
 10
-66.770771756707276
 20
30.770769250707382
 30
0.0
 11
-77.150000000000006
 21
41.149997494000083
 31
0.0
  0
LINE
  5
132
  8
PATTFRN_FILL
  6
CONTINUOUS
 62
     7
 10
-67.320904153311659
 20
30.520901611511761
 30
0.0
 11
-77.150000000000006
 21
40.3499974582001
 31
0.0
  0
LINE
  5
133
  8
PATTFRN_FILL
  6
CONTINUOUS
 62
     7
 10
-67.911094008809229
 20
30.311091431209331
 30
0.0
 11
-77.150000000000006
 21
39.549997422400111
 31
0.0
  0
LINE
  5
134
  8
PATTFRN_FILL
  6
CONTINUOUS
 62
     7
 10
-68.54881889844853
 20
30.14881628504866
 30
0.0
 11
-77.150000000000006
 21
38.749997386600107
 31
0.0
  0
LINE
  5
135
  8
PATTFRN_FILL
  6
CONTINUOUS
 62
     7
 10
-69.240459853375057
 20
30.040457204175151
 30
0.0
 11
-77.150000000000006
 21
37.949997350800118
 31
0.0
  0
LINE
  5
136
  8
PATTFRN_FILL
  6
CONTINUOUS
 62
     7
 10
-70.000002684999899
 20
30.0
 30
0.0
 11
-77.150000000000006
 21
37.149997315000121
 31
0.0
  0
LINE
  5
137
  8
PATTFRN_FILL
  6
CONTINUOUS
 62
     7
 10
-70.850803193698823
 20
30.050800472898949
 30
0.0
 11
-77.111094306906821
 21
36.311091586106969
 31
0.0
  0
LINE
  5
138
  8
PATTFRN_FILL
  6
CONTINUOUS
 62
     7
 10
-71.841108535286708
 20
30.241105778686851
 30
0.0
 11
-76.908894221313176
 21
35.308891464713291
 31
0.0
  0
LINE
  5
139
  8
PATTFRN_FILL
  6
CONTINUOUS
 62
     7
 10
-73.11109419965571
 20
30.71109140725585
 30
0.0
 11
-76.436510248505158
 21
34.036507456105298
 31
0.0
  0
LINE
  5
13A
  8
PATTFRN_FILL
  6
CONTINUOUS
 62
     7
 10
30.97677746804732
 20
12.35546294938789
 30
0.0
 11
33.660053379958178
 21
9.6721870374770234
 31
0.0
  0
LINE
  5
13B
  8
PATTFRN_FILL
  6
CONTINUOUS
 62
     7
 10
29.746234753546759
 20
12.78600564004663
 30
0.0
 11
33.660053379958207
 21
8.8721870136351182
 31
0.0
  0
LINE
  5
13C
  8
PATTFRN_FILL
  6
CONTINUOUS
 62
     7
 10
28.771146337827702
 20
12.96109403192381
 30
0.0
 11
33.660053379958228
 21
8.0721869897932734
 31
0.0
  0
LINE
  5
13D
  8
PATTFRN_FILL
  6
CONTINUOUS
 62
     7
 10
27.93224034585533
 20
13.000000000054349
 30
0.0
 11
33.660053379958207
 21
7.2721869659514331
 31
0.0
  0
LINE
  5
13E
  8
PATTFRN_FILL
  6
CONTINUOUS
 62
     7
 10
27.13224032201348
 20
13.000000000054371
 30
0.0
 11
33.660053379958207
 21
6.4721869421095581
 31
0.0
  0
LINE
  5
13F
  8
PATTFRN_FILL
  6
CONTINUOUS
 62
     7
 10
26.66005337995821
 20
12.67218691826776
 30
0.0
 11
33.660053379958207
 21
5.6721869182677134
 31
0.0
  0
LINE
  5
140
  8
PATTFRN_FILL
  6
CONTINUOUS
 62
     7
 10
26.660053379958232
 20
11.87218689442588
 30
0.0
 11
33.660053379958207
 21
4.8721868944258393
 31
0.0
  0
LINE
  5
141
  8
PATTFRN_FILL
  6
CONTINUOUS
 62
     7
 10
26.66005337995821
 20
11.072186870584069
 30
0.0
 11
33.660053379958207
 21
4.0721868705839919
 31
0.0
  0
LINE
  5
142
  8
PATTFRN_FILL
  6
CONTINUOUS
 62
     7
 10
26.66005337995821
 20
10.272186846742191
 30
0.0
 11
33.660053379958207
 21
3.2721868467421311
 31
0.0
  0
LINE
  5
143
  8
PATTFRN_FILL
  6
CONTINUOUS
 62
     7
 10
26.66005337995821
 20
9.4721868229003494
 30
0.0
 11
33.6600533799582
 21
2.472186822900285
 31
0.0
  0
LINE
  5
144
  8
PATTFRN_FILL
  6
CONTINUOUS
 62
     7
 10
26.66005337995821
 20
8.6721867990584727
 30
0.0
 11
33.6600533799582
 21
1.672186799058424
 31
0.0
  0
LINE
  5
145
  8
PATTFRN_FILL
  6
CONTINUOUS
 62
     7
 10
21.532240155120519
 20
13.000000000054349
 30
0.0
 11
21.660053379958189
 21
12.872186775216649
 31
0.0
  0
LINE
  5
146
  8
PATTFRN_FILL
  6
CONTINUOUS
 62
     7
 10
26.66005337995821
 20
7.8721867752166252
 30
0.0
 11
33.390776707864411
 21
1.1414634473103731
 31
0.0
  0
LINE
  5
147
  8
PATTFRN_FILL
  6
CONTINUOUS
 62
     7
 10
20.73224013127869
 20
13.000000000054349
 30
0.0
 11
21.660053379958189
 21
12.07218675137484
 31
0.0
  0
LINE
  5
148
  8
PATTFRN_FILL
  6
CONTINUOUS
 62
     7
 10
26.66005337995821
 20
7.0721867513747858
 30
0.0
 11
33.001556327885069
 21
0.7306838034478621
 31
0.0
  0
LINE
  5
149
  8
PATTFRN_FILL
  6
CONTINUOUS
 62
     7
 10
19.932240107436829
 20
13.000000000054349
 30
0.0
 11
21.660053379958189
 21
11.27218672753296
 31
0.0
  0
LINE
  5
14A
  8
PATTFRN_FILL
  6
CONTINUOUS
 62
     7
 10
26.66005337995821
 20
6.2721867275329108
 30
0.0
 11
32.580631884487289
 21
0.3516082230037796
 31
0.0
  0
LINE
  5
14B
  8
PATTFRN_FILL
  6
CONTINUOUS
 62
     7
 10
19.132240083594979
 20
13.000000000054349
 30
0.0
 11
21.660053379958189
 21
10.47218670369112
 31
0.0
  0
LINE
  5
14C
  8
PATTFRN_FILL
  6
CONTINUOUS
 62
     7
 10
26.66005337995821
 20
5.4721867036910661
 30
0.0
 11
32.127603878357988
 21
0.0046362052912343
 31
0.0
  0
LINE
  5
14D
  8
PATTFRN_FILL
  6
CONTINUOUS
 62
     7
 10
18.332240059753129
 20
13.000000000054349
 30
0.0
 11
21.660053379958189
 21
9.6721866798492666
 31
0.0
  0
LINE
  5
14E
  8
PATTFRN_FILL
  6
CONTINUOUS
 62
     7
 10
26.66005337995821
 20
4.6721866798492204
 30
0.0
 11
31.64142913811796
 21
-0.3091890783105811
 31
0.0
  0
LINE
  5
14F
  8
PATTFRN_FILL
  6
CONTINUOUS
 62
     7
 10
17.532240035911268
 20
13.000000000054349
 30
0.0
 11
21.660053379958189
 21
8.8721866560073934
 31
0.0
  0
LINE
  5
150
  8
PATTFRN_FILL
  6
CONTINUOUS
 62
     7
 10
26.66005337995821
 20
3.8721866560073162
 30
0.0
 11
31.120313084046401
 21
-0.5880730480808865
 31
0.0
  0
LINE
  5
151
  8
PATTFRN_FILL
  6
CONTINUOUS
 62
     7
 10
16.732240012069429
 20
13.000000000054349
 30
0.0
 11
21.660053379958189
 21
8.0721866321655185
 31
0.0
  0
LINE
  5
152
  8
PATTFRN_FILL
  6
CONTINUOUS
 62
     7
 10
26.66005337995821
 20
3.072186632165498
 30
0.0
 11
30.56150575029864
 21
-0.8292657381749677
 31
0.0
  0
LINE
  5
153
  8
PATTFRN_FILL
  6
CONTINUOUS
 62
     7
 10
15.93223998822759
 20
13.000000000054349
 30
0.0
 11
21.660053379958189
 21
7.272186608323679
 31
0.0
  0
LINE
  5
154
  8
PATTFRN_FILL
  6
CONTINUOUS
 62
     7
 10
26.66005337995821
 20
2.2721866083236382
 30
0.0
 11
29.960941559743318
 21
-1.028701571461496
 31
0.0
  0
LINE
  5
155
  8
PATTFRN_FILL
  6
CONTINUOUS
 62
     7
 10
15.132239964385739
 20
13.000000000054349
 30
0.0
 11
21.660053379958189
 21
6.4721865844818316
 31
0.0
  0
LINE
  5
156
  8
PATTFRN_FILL
  6
CONTINUOUS
 62
     7
 10
26.66005337995821
 20
1.472186584481777
 30
0.0
 11
29.312594604055452
 21
-1.1803546396154869
 31
0.0
  0
LINE
  5
157
  8
PATTFRN_FILL
  6
CONTINUOUS
 62
     7
 10
14.332239940543911
 20
13.000000000054349
 30
0.0
 11
21.660053379958189
 21
5.6721865606399593
 31
0.0
  0
LINE
  5
158
  8
PATTFRN_FILL
  6
CONTINUOUS
 62
     7
 10
26.660053379958232
 20
0.6721865606399025
 30
0.0
 11
28.607255688114609
 21
-1.2750157475164909
 31
0.0
  0
LINE
  5
159
  8
PATTFRN_FILL
  6
CONTINUOUS
 62
     7
 10
13.53223991670208
 20
13.000000000054349
 30
0.0
 11
21.660053379958189
 21
4.8721865367981119
 31
0.0
  0
LINE
  5
15A
  8
PATTFRN_FILL
  6
CONTINUOUS
 62
     7
 10
26.66005337995821
 20
-0.1278134632019459
 30
0.0
 11
27.832239916701891
 21
-1.29999999994564
 31
0.0
  0
LINE
  5
15B
  8
PATTFRN_FILL
  6
CONTINUOUS
 62
     7
 10
12.732239892860241
 20
13.000000000054349
 30
0.0
 11
21.660053379958189
 21
4.0721865129562653
 31
0.0
  0
LINE
  5
15C
  8
PATTFRN_FILL
  6
CONTINUOUS
 62
     7
 10
26.66005337995821
 20
-0.9278134870437924
 30
0.0
 11
27.03223989286008
 21
-1.299999999945654
 31
0.0
  0
LINE
  5
15D
  8
PATTFRN_FILL
  6
CONTINUOUS
 62
     7
 10
11.932239869018391
 20
13.000000000054349
 30
0.0
 11
21.660053379958189
 21
3.272186489114405
 31
0.0
  0
LINE
  5
15E
  8
PATTFRN_FILL
  6
CONTINUOUS
 62
     7
 10
11.13223984517653
 20
13.000000000054349
 30
0.0
 11
21.66005337995816
 21
2.472186465272558
 31
0.0
  0
LINE
  5
15F
  8
PATTFRN_FILL
  6
CONTINUOUS
 62
     7
 10
10.33223982133468
 20
13.000000000054349
 30
0.0
 11
21.660053379958189
 21
1.6721864414306691
 31
0.0
  0
LINE
  5
160
  8
PATTFRN_FILL
  6
CONTINUOUS
 62
     7
 10
9.532239797492819
 20
13.000000000054349
 30
0.0
 11
21.660053379958189
 21
0.8721864175888091
 31
0.0
  0
LINE
  5
161
  8
PATTFRN_FILL
  6
CONTINUOUS
 62
     7
 10
8.7322397736509743
 20
13.000000000054349
 30
0.0
 11
21.660053379958171
 21
0.0721863937469749
 31
0.0
  0
LINE
  5
162
  8
PATTFRN_FILL
  6
CONTINUOUS
 62
     7
 10
7.9322397498091259
 20
13.000000000054349
 30
0.0
 11
21.660053379958189
 21
-0.7278136300949001
 31
0.0
  0
LINE
  5
163
  8
PATTFRN_FILL
  6
CONTINUOUS
 62
     7
 10
7.4600533799582376
 20
12.67218634606337
 30
0.0
 11
21.432239725967069
 21
-1.29999999994564
 31
0.0
  0
LINE
  5
164
  8
PATTFRN_FILL
  6
CONTINUOUS
 62
     7
 10
7.4600533799582518
 20
11.8721863222215
 30
0.0
 11
20.632239702125229
 21
-1.29999999994564
 31
0.0
  0
LINE
  5
165
  8
PATTFRN_FILL
  6
CONTINUOUS
 62
     7
 10
7.4600533799582323
 20
11.072186298379661
 30
0.0
 11
19.832239678283369
 21
-1.299999999945654
 31
0.0
  0
LINE
  5
166
  8
PATTFRN_FILL
  6
CONTINUOUS
 62
     7
 10
7.4600533799582518
 20
10.272186274537781
 30
0.0
 11
19.032239654441511
 21
-1.29999999994564
 31
0.0
  0
LINE
  5
167
  8
PATTFRN_FILL
  6
CONTINUOUS
 62
     7
 10
3.9322396305998519
 20
13.000000000054349
 30
0.0
 11
4.660053379958228
 21
12.27218625069597
 31
0.0
  0
LINE
  5
168
  8
PATTFRN_FILL
  6
CONTINUOUS
 62
     7
 10
7.4600533799582376
 20
9.4721862506959322
 30
0.0
 11
18.232239630599668
 21
-1.299999999945654
 31
0.0
  0
LINE
  5
169
  8
PATTFRN_FILL
  6
CONTINUOUS
 62
     7
 10
3.1322396067579921
 20
13.000000000054371
 30
0.0
 11
4.6600533799582351
 21
11.472186226854101
 31
0.0
  0
LINE
  5
16A
  8
PATTFRN_FILL
  6
CONTINUOUS
 62
     7
 10
7.4600533799582518
 20
8.672186226854059
 30
0.0
 11
17.432239606757818
 21
-1.299999999945654
 31
0.0
  0
LINE
  5
16B
  8
PATTFRN_FILL
  6
CONTINUOUS
 62
     7
 10
2.3322395829161588
 20
13.000000000054349
 30
0.0
 11
4.6600533799582351
 21
10.672186203012251
 31
0.0
  0
LINE
  5
16C
  8
PATTFRN_FILL
  6
CONTINUOUS
 62
     7
 10
7.4600533799582376
 20
7.8721862030122107
 30
0.0
 11
16.632239582915979
 21
-1.299999999945654
 31
0.0
  0
LINE
  5
16D
  8
PATTFRN_FILL
  6
CONTINUOUS
 62
     7
 10
1.5322395590742841
 20
13.000000000054349
 30
0.0
 11
4.6600533799582351
 21
9.8721861791703756
 31
0.0
  0
LINE
  5
16E
  8
PATTFRN_FILL
  6
CONTINUOUS
 62
     7
 10
7.4600533799582456
 20
7.0721861791703731
 30
0.0
 11
15.832239559074139
 21
-1.299999999945654
 31
0.0
  0
LINE
  5
16F
  8
PATTFRN_FILL
  6
CONTINUOUS
 62
     7
 10
0.7322395352324378
 20
13.000000000054349
 30
0.0
 11
4.6600533799582413
 21
9.0721861553285024
 31
0.0
  0
LINE
  5
170
  8
PATTFRN_FILL
  6
CONTINUOUS
 62
     7
 10
7.4600533799582456
 20
6.2721861553284972
 30
0.0
 11
15.0322395352323
 21
-1.299999999945654
 31
0.0
  0
LINE
  5
171
  8
PATTFRN_FILL
  6
CONTINUOUS
 62
     7
 10
-0.0677604886094159
 20
13.000000000054371
 30
0.0
 11
4.6600533799582351
 21
8.2721861314866558
 31
0.0
  0
LINE
  5
172
  8
PATTFRN_FILL
  6
CONTINUOUS
 62
     7
 10
7.4600533799582376
 20
5.472186131486624
 30
0.0
 11
14.23223951139045
 21
-1.299999999945654
 31
0.0
  0
LINE
  5
173
  8
PATTFRN_FILL
  6
CONTINUOUS
 62
     7
 10
-0.8677605124512624
 20
13.000000000054349
 30
0.0
 11
4.6600533799582413
 21
7.4721861076447844
 31
0.0
  0
LINE
  5
174
  8
PATTFRN_FILL
  6
CONTINUOUS
 62
     7
 10
7.4600533799582376
 20
4.6721861076447766
 30
0.0
 11
13.432239487548591
 21
-1.299999999945654
 31
0.0
  0
LINE
  5
175
  8
PATTFRN_FILL
  6
CONTINUOUS
 62
     7
 10
-1.6677605362931149
 20
13.000000000054349
 30
0.0
 11
4.6600533799582351
 21
6.6721860838029396
 31
0.0
  0
LINE
  5
176
  8
PATTFRN_FILL
  6
CONTINUOUS
 62
     7
 10
7.4600533799582376
 20
3.8721860838029309
 30
0.0
 11
12.63223946370675
 21
-1.299999999945654
 31
0.0
  0
LINE
  5
177
  8
PATTFRN_FILL
  6
CONTINUOUS
 62
     7
 10
-2.4677605601349621
 20
13.000000000054349
 30
0.0
 11
4.6600533799582413
 21
5.8721860599610958
 31
0.0
  0
LINE
  5
178
  8
PATTFRN_FILL
  6
CONTINUOUS
 62
     7
 10
7.4600533799582456
 20
3.072186059961056
 30
0.0
 11
11.8322394398649
 21
-1.299999999945654
 31
0.0
  0
LINE
  5
179
  8
PATTFRN_FILL
  6
CONTINUOUS
 62
     7
 10
-3.2677605839768149
 20
13.000000000054349
 30
0.0
 11
4.6600533799582351
 21
5.0721860361192208
 31
0.0
  0
LINE
  5
17A
  8
PATTFRN_FILL
  6
CONTINUOUS
 62
     7
 10
7.4600533799582456
 20
2.2721860361191961
 30
0.0
 11
11.032239416023049
 21
-1.299999999945654
 31
0.0
  0
LINE
  5
17B
  8
PATTFRN_FILL
  6
CONTINUOUS
 62
     7
 10
-4.067760607818669
 20
13.000000000054349
 30
0.0
 11
4.6600533799582351
 21
4.2721860122773752
 31
0.0
  0
LINE
  5
17C
  8
PATTFRN_FILL
  6
CONTINUOUS
 62
     7
 10
7.4600533799582456
 20
1.4721860122773349
 30
0.0
 11
10.232239392181199
 21
-1.299999999945654
 31
0.0
  0
LINE
  5
17D
  8
PATTFRN_FILL
  6
CONTINUOUS
 62
     7
 10
-4.8677606316605164
 20
13.000000000054349
 30
0.0
 11
4.6600533799582413
 21
3.4721859884355002
 31
0.0
  0
LINE
  5
17E
  8
PATTFRN_FILL
  6
CONTINUOUS
 62
     7
 10
7.4600533799582376
 20
0.6721859884354604
 30
0.0
 11
9.4322393683393315
 21
-1.299999999945654
 31
0.0
  0
LINE
  5
17F
  8
PATTFRN_FILL
  6
CONTINUOUS
 62
     7
 10
-5.6677606555023692
 20
13.000000000054349
 30
0.0
 11
4.6600533799582351
 21
2.6721859645936532
 31
0.0
  0
LINE
  5
180
  8
PATTFRN_FILL
  6
CONTINUOUS
 62
     7
 10
7.4600533799582376
 20
-0.1278140354063879
 30
0.0
 11
8.6322393444974921
 21
-1.299999999945654
 31
0.0
  0
LINE
  5
181
  8
PATTFRN_FILL
  6
CONTINUOUS
 62
     7
 10
-6.4677606793442299
 20
13.000000000054349
 30
0.0
 11
4.6600533799582351
 21
1.872185940751778
 31
0.0
  0
LINE
  5
182
  8
PATTFRN_FILL
  6
CONTINUOUS
 62
     7
 10
7.4600533799582376
 20
-0.9278140592482488
 30
0.0
 11
7.8322393206556384
 21
-1.299999999945654
 31
0.0
  0
LINE
  5
183
  8
PATTFRN_FILL
  6
CONTINUOUS
 62
     7
 10
-7.2673418087311861
 20
12.99958110559945
 30
0.0
 11
4.6600533799582413
 21
1.072185916909917
 31
0.0
  0
LINE
  5
184
  8
PATTFRN_FILL
  6
CONTINUOUS
 62
     7
 10
-8.0288550339347751
 20
12.961094306961209
 30
0.0
 11
4.6600533799582351
 21
0.2721858930680554
 31
0.0
  0
LINE
  5
185
  8
PATTFRN_FILL
  6
CONTINUOUS
 62
     7
 10
-8.7053293649473655
 20
12.83756861413193
 30
0.0
 11
4.6600533799582413
 21
-0.5278141307738054
 31
0.0
  0
LINE
  5
186
  8
PATTFRN_FILL
  6
CONTINUOUS
 62
     7
 10
-9.3375931921147597
 20
12.66983241745746
 30
0.0
 11
4.6322392252882301
 21
-1.299999999945654
 31
0.0
  0
LINE
  5
187
  8
PATTFRN_FILL
  6
CONTINUOUS
 62
     7
 10
-9.9242706329743928
 20
12.45650983447525
 30
0.0
 11
3.832239201446376
 21
-1.299999999945654
 31
0.0
  0
LINE
  5
188
  8
PATTFRN_FILL
  6
CONTINUOUS
 62
     7
 10
-10.470664762372749
 20
12.202903940031749
 30
0.0
 11
3.0322391776045241
 21
-1.299999999945654
 31
0.0
  0
LINE
  5
189
  8
PATTFRN_FILL
  6
CONTINUOUS
 62
     7
 10
-10.980368013270009
 20
11.912607167087151
 30
0.0
 11
2.2322391537626758
 21
-1.299999999945654
 31
0.0
  0
LINE
  5
18A
  8
PATTFRN_FILL
  6
CONTINUOUS
 62
     7
 10
-11.455795096116169
 20
11.588034226091461
 30
0.0
 11
1.432239129920823
 21
-1.299999999945654
 31
0.0
  0
LINE
  5
18B
  8
PATTFRN_FILL
  6
CONTINUOUS
 62
     7
 10
-11.898483732252069
 20
11.23072283838551
 30
0.0
 11
0.6322391060789699
 21
-1.299999999945654
 31
0.0
  0
LINE
  5
18C
  8
PATTFRN_FILL
  6
CONTINUOUS
 62
     7
 10
-12.309263334538331
 20
10.84150241682992
 30
0.0
 11
-0.1677609177628767
 21
-1.299999999945654
 31
0.0
  0
LINE
  5
18D
  8
PATTFRN_FILL
  6
CONTINUOUS
 62
     7
 10
-12.68833887328058
 20
10.42057793173033
 30
0.0
 11
-0.9677609416047376
 21
-1.299999999945654
 31
0.0
  0
LINE
  5
18E
  8
PATTFRN_FILL
  6
CONTINUOUS
 62
     7
 10
-13.035310848360821
 20
9.9675498829686902
 30
0.0
 11
-1.767760965446584
 21
-1.299999999945654
 31
0.0
  0
LINE
  5
18F
  8
PATTFRN_FILL
  6
CONTINUOUS
 62
     7
 10
-13.34913608750202
 20
9.4813750982680247
 30
0.0
 11
-2.5677609892884439
 21
-1.299999999945654
 31
0.0
  0
LINE
  5
190
  8
PATTFRN_FILL
  6
CONTINUOUS
 62
     7
 10
-13.628855212785931
 20
8.9610941997100664
 30
0.0
 11
-3.3677610131303051
 21
-1.299999999945654
 31
0.0
  0
LINE
  5
191
  8
PATTFRN_FILL
  6
CONTINUOUS
 62
     7
 10
-13.86921264823539
 20
8.401451611317702
 30
0.0
 11
-4.1677610369721441
 21
-1.299999999945654
 31
0.0
  0
LINE
  5
192
  8
PATTFRN_FILL
  6
CONTINUOUS
 62
     7
 10
-14.068648423342101
 20
7.800887362582535
 30
0.0
 11
-4.9677610608140048
 21
-1.299999999945654
 31
0.0
  0
LINE
  5
193
  8
PATTFRN_FILL
  6
CONTINUOUS
 62
     7
 10
-14.220301423690509
 20
7.1525403390890991
 30
0.0
 11
-5.7677610846558451
 21
-1.299999999945654
 31
0.0
  0
LINE
  5
194
  8
PATTFRN_FILL
  6
CONTINUOUS
 62
     7
 10
-14.314962448740779
 20
6.4472013402974957
 30
0.0
 11
-6.567761108497705
 21
-1.299999999945654
 31
0.0
  0
LINE
  5
195
  8
PATTFRN_FILL
  6
CONTINUOUS
 62
     7
 10
-14.337678443866171
 20
5.6699173115810471
 30
0.0
 11
-7.3700293085151429
 21
-1.2977318237700639
 31
0.0
  0
LINE
  5
196
  8
PATTFRN_FILL
  6
CONTINUOUS
 62
     7
 10
-14.26149544197555
 20
4.7937342858485454
 30
0.0
 11
-8.2462123342476303
 21
-1.221548821879437
 31
0.0
  0
LINE
  5
197
  8
PATTFRN_FILL
  6
CONTINUOUS
 62
     7
 10
-14.02885518883244
 20
3.761094008863568
 30
0.0
 11
-9.2800843670648163
 21
-0.9876768129040984
 31
0.0
  0
LINE
  5
198
  8
PATTFRN_FILL
  6
CONTINUOUS
 62
     7
 10
-13.43358426810585
 20
2.365823064295129
 30
0.0
 11
-10.67412355580106
 21
-0.393637648009701
 31
0.0
  0
LINE
  5
199
  8
PATTFRN_FILL
  6
CONTINUOUS
 62
     7
 10
31.324878798000089
 20
-0.4851742239037833
 30
0.0
 11
33.660053379958207
 21
1.850000358054346
 31
0.0
  0
LINE
  5
19A
  8
PATTFRN_FILL
  6
CONTINUOUS
 62
     7
 10
29.98952118724112
 20
-1.020531798862734
 30
0.0
 11
33.660053379958207
 21
2.650000393854357
 31
0.0
  0
LINE
  5
19B
  8
PATTFRN_FILL
  6
CONTINUOUS
 62
     7
 10
28.975539032303129
 20
-1.2345139180007569
 30
0.0
 11
33.660053379958207
 21
3.450000429654339
 31
0.0
  0
LINE
  5
19C
  8
PATTFRN_FILL
  6
CONTINUOUS
 62
     7
 10
28.110762199127649
 20
-1.2992907153762161
 30
0.0
 11
33.6600533799582
 21
4.2500004654543364
 31
0.0
  0
LINE
  5
19D
  8
PATTFRN_FILL
  6
CONTINUOUS
 62
     7
 10
27.31005287875821
 20
-1.299999999945654
 30
0.0
 11
33.660053379958207
 21
5.0500005012543614
 31
0.0
  0
LINE
  5
19E
  8
PATTFRN_FILL
  6
CONTINUOUS
 62
     7
 10
26.510052842958199
 20
-1.299999999945654
 30
0.0
 11
33.660053379958207
 21
5.8500005370543571
 31
0.0
  0
LINE
  5
19F
  8
PATTFRN_FILL
  6
CONTINUOUS
 62
     7
 10
26.66005337995821
 20
-0.3499994271456473
 30
0.0
 11
33.660053379958207
 21
6.6500005728543519
 31
0.0
  0
LINE
  5
1A0
  8
PATTFRN_FILL
  6
CONTINUOUS
 62
     7
 10
26.66005337995821
 20
0.4500006086543494
 30
0.0
 11
33.660053379958207
 21
7.4500006086543449
 31
0.0
  0
LINE
  5
1A1
  8
PATTFRN_FILL
  6
CONTINUOUS
 62
     7
 10
26.66005337995821
 20
1.2500006444543621
 30
0.0
 11
33.6600533799582
 21
8.2500006444543388
 31
0.0
  0
LINE
  5
1A2
  8
PATTFRN_FILL
  6
CONTINUOUS
 62
     7
 10
26.66005337995821
 20
2.050000680254358
 30
0.0
 11
33.660053379958207
 21
9.0500006802543354
 31
0.0
  0
LINE
  5
1A3
  8
PATTFRN_FILL
  6
CONTINUOUS
 62
     7
 10
26.66005337995821
 20
2.850000716054355
 30
0.0
 11
33.6600533799582
 21
9.8500007160543337
 31
0.0
  0
LINE
  5
1A4
  8
PATTFRN_FILL
  6
CONTINUOUS
 62
     7
 10
26.66005337995821
 20
3.650000751854352
 30
0.0
 11
33.472971752858648
 21
10.462919124754769
 31
0.0
  0
LINE
  5
1A5
  8
PATTFRN_FILL
  6
CONTINUOUS
 62
     7
 10
20.91005259235817
 20
-1.2999999999456691
 30
0.0
 11
21.660053379958189
 21
-0.5499992123456537
 31
0.0
  0
LINE
  5
1A6
  8
PATTFRN_FILL
  6
CONTINUOUS
 62
     7
 10
26.66005337995821
 20
4.450000787654333
 30
0.0
 11
33.090804663178162
 21
10.880752070874291
 31
0.0
  0
LINE
  5
1A7
  8
PATTFRN_FILL
  6
CONTINUOUS
 62
     7
 10
20.11005255655817
 20
-1.299999999945654
 30
0.0
 11
21.660053379958189
 21
0.2500008234543572
 31
0.0
  0
LINE
  5
1A8
  8
PATTFRN_FILL
  6
CONTINUOUS
 62
     7
 10
26.66005337995821
 20
5.250000823454358
 30
0.0
 11
32.676939985162171
 21
11.266887428658301
 31
0.0
  0
LINE
  5
1A9
  8
PATTFRN_FILL
  6
CONTINUOUS
 62
     7
 10
19.31005252075817
 20
-1.299999999945654
 30
0.0
 11
21.660053379958171
 21
1.050000859254355
 31
0.0
  0
LINE
  5
1AA
  8
PATTFRN_FILL
  6
CONTINUOUS
 62
     7
 10
26.66005337995821
 20
6.050000859254383
 30
0.0
 11
32.231113832104917
 21
11.621061311401069
 31
0.0
  0
LINE
  5
1AB
  8
PATTFRN_FILL
  6
CONTINUOUS
 62
     7
 10
18.51005248495818
 20
-1.299999999945654
 30
0.0
 11
21.660053379958189
 21
1.8500008950543521
 31
0.0
  0
LINE
  5
1AC
  8
PATTFRN_FILL
  6
CONTINUOUS
 62
     7
 10
26.66005337995821
 20
6.8500008950543778
 30
0.0
 11
31.752432717300412
 21
11.94238023239655
 31
0.0
  0
LINE
  5
1AD
  8
PATTFRN_FILL
  6
CONTINUOUS
 62
     7
 10
17.710052449158191
 20
-1.299999999945654
 30
0.0
 11
21.660053379958189
 21
2.6500009308543482
 31
0.0
  0
LINE
  5
1AE
  8
PATTFRN_FILL
  6
CONTINUOUS
 62
     7
 10
26.66005337995821
 20
7.6500009308543424
 30
0.0
 11
31.239282669054731
 21
12.229230219950839
 31
0.0
  0
LINE
  5
1AF
  8
PATTFRN_FILL
  6
CONTINUOUS
 62
     7
 10
16.910052413358191
 20
-1.299999999945654
 30
0.0
 11
21.660053379958189
 21
3.450000966654359
 31
0.0
  0
LINE
  5
1B0
  8
PATTFRN_FILL
  6
CONTINUOUS
 62
     7
 10
26.66005337995821
 20
8.4500009666543647
 30
0.0
 11
30.68915034847041
 21
12.47909793516655
 31
0.0
  0
LINE
  5
1B1
  8
PATTFRN_FILL
  6
CONTINUOUS
 62
     7
 10
16.110052377558201
 20
-1.299999999945654
 30
0.0
 11
21.660053379958189
 21
4.2500010024543693
 31
0.0
  0
LINE
  5
1B2
  8
PATTFRN_FILL
  6
CONTINUOUS
 62
     7
 10
26.660053379958232
 20
9.2500010024543595
 30
0.0
 11
30.09830534969236
 21
12.688252972188479
 31
0.0
  0
LINE
  5
1B3
  8
PATTFRN_FILL
  6
CONTINUOUS
 62
     7
 10
15.310052341758199
 20
-1.2999999999456691
 30
0.0
 11
21.660053379958171
 21
5.0500010382543374
 31
0.0
  0
LINE
  5
1B4
  8
PATTFRN_FILL
  6
CONTINUOUS
 62
     7
 10
26.66005337995821
 20
10.05000103825436
 30
0.0
 11
29.4612357862644
 21
12.851183444560521
 31
0.0
  0
LINE
  5
1B5
  8
PATTFRN_FILL
  6
CONTINUOUS
 62
     7
 10
14.510052305958229
 20
-1.299999999945654
 30
0.0
 11
21.660053379958171
 21
5.850001074054334
 31
0.0
  0
LINE
  5
1B6
  8
PATTFRN_FILL
  6
CONTINUOUS
 62
     7
 10
26.66005337995821
 20
10.850001074054351
 30
0.0
 11
28.771146337827702
 21
12.96109403192381
 31
0.0
  0
LINE
  5
1B7
  8
PATTFRN_FILL
  6
CONTINUOUS
 62
     7
 10
13.71005227015822
 20
-1.299999999945654
 30
0.0
 11
21.660053379958171
 21
6.6500011098543581
 31
0.0
  0
LINE
  5
1B8
  8
PATTFRN_FILL
  6
CONTINUOUS
 62
     7
 10
26.66005337995821
 20
11.650001109854349
 30
0.0
 11
28.010052270158209
 21
13.000000000054349
 31
0.0
  0
LINE
  5
1B9
  8
PATTFRN_FILL
  6
CONTINUOUS
 62
     7
 10
12.910052234358229
 20
-1.299999999945654
 30
0.0
 11
21.660053379958189
 21
7.4500011456543502
 31
0.0
  0
LINE
  5
1BA
  8
PATTFRN_FILL
  6
CONTINUOUS
 62
     7
 10
26.66005337995821
 20
12.450001145654349
 30
0.0
 11
27.210052234358219
 21
13.000000000054349
 31
0.0
  0
LINE
  5
1BB
  8
PATTFRN_FILL
  6
CONTINUOUS
 62
     7
 10
12.110052198558231
 20
-1.299999999945654
 30
0.0
 11
21.660053379958189
 21
8.2500011814543441
 31
0.0
  0
LINE
  5
1BC
  8
PATTFRN_FILL
  6
CONTINUOUS
 62
     7
 10
11.31005216275824
 20
-1.299999999945654
 30
0.0
 11
21.660053379958189
 21
9.0500012172543371
 31
0.0
  0
LINE
  5
1BD
  8
PATTFRN_FILL
  6
CONTINUOUS
 62
     7
 10
10.51005212695822
 20
-1.2999999999456691
 30
0.0
 11
21.660053379958171
 21
9.8500012530543355
 31
0.0
  0
LINE
  5
1BE
  8
PATTFRN_FILL
  6
CONTINUOUS
 62
     7
 10
9.7100520911582322
 20
-1.299999999945654
 30
0.0
 11
21.660053379958171
 21
10.65000128885433
 31
0.0
  0
LINE
  5
1BF
  8
PATTFRN_FILL
  6
CONTINUOUS
 62
     7
 10
8.9100520553582392
 20
-1.299999999945654
 30
0.0
 11
21.660053379958189
 21
11.45000132465433
 31
0.0
  0
LINE
  5
1C0
  8
PATTFRN_FILL
  6
CONTINUOUS
 62
     7
 10
8.1100520195582391
 20
-1.299999999945654
 30
0.0
 11
21.660053379958189
 21
12.250001360454331
 31
0.0
  0
LINE
  5
1C1
  8
PATTFRN_FILL
  6
CONTINUOUS
 62
     7
 10
7.4600533799582323
 20
-1.1499986037456571
 30
0.0
 11
21.610051983758179
 21
13.000000000054349
 31
0.0
  0
LINE
  5
1C2
  8
PATTFRN_FILL
  6
CONTINUOUS
 62
     7
 10
7.4600533799582376
 20
-0.3499985679456614
 30
0.0
 11
20.810051947958211
 21
13.000000000054349
 31
0.0
  0
LINE
  5
1C3
  8
PATTFRN_FILL
  6
CONTINUOUS
 62
     7
 10
7.4600533799582323
 20
0.4500014678543353
 30
0.0
 11
20.0100519121582
 21
13.000000000054349
 31
0.0
  0
LINE
  5
1C4
  8
PATTFRN_FILL
  6
CONTINUOUS
 62
     7
 10
7.4600533799582456
 20
1.250001503654347
 30
0.0
 11
19.2100518763582
 21
13.000000000054349
 31
0.0
  0
LINE
  5
1C5
  8
PATTFRN_FILL
  6
CONTINUOUS
 62
     7
 10
4.110051840558242
 20
-1.2999999999456691
 30
0.0
 11
4.660053379958228
 21
-0.7499984605456831
 31
0.0
  0
LINE
  5
1C6
  8
PATTFRN_FILL
  6
CONTINUOUS
 62
     7
 10
7.4600533799582323
 20
2.0500015394543438
 30
0.0
 11
18.4100518405582
 21
13.000000000054349
 31
0.0
  0
LINE
  5
1C7
  8
PATTFRN_FILL
  6
CONTINUOUS
 62
     7
 10
3.3100518047582601
 20
-1.299999999945654
 30
0.0
 11
4.660053379958228
 21
0.0500015752543135
 31
0.0
  0
LINE
  5
1C8
  8
PATTFRN_FILL
  6
CONTINUOUS
 62
     7
 10
7.4600533799582376
 20
2.8500015752543262
 30
0.0
 11
17.610051804758221
 21
13.000000000054349
 31
0.0
  0
LINE
  5
1C9
  8
PATTFRN_FILL
  6
CONTINUOUS
 62
     7
 10
2.510051768958248
 20
-1.299999999945654
 30
0.0
 11
4.660053379958228
 21
0.850001611054326
 31
0.0
  0
LINE
  5
1CA
  8
PATTFRN_FILL
  6
CONTINUOUS
 62
     7
 10
7.4600533799582376
 20
3.650001611054337
 30
0.0
 11
16.810051768958221
 21
13.000000000054349
 31
0.0
  0
LINE
  5
1CB
  8
PATTFRN_FILL
  6
CONTINUOUS
 62
     7
 10
1.7100517331582661
 20
-1.299999999945654
 30
0.0
 11
4.660053379958228
 21
1.6500016468543079
 31
0.0
  0
LINE
  5
1CC
  8
PATTFRN_FILL
  6
CONTINUOUS
 62
     7
 10
7.4600533799582323
 20
4.4500016468543189
 30
0.0
 11
16.010051733158239
 21
13.000000000054349
 31
0.0
  0
LINE
  5
1CD
  8
PATTFRN_FILL
  6
CONTINUOUS
 62
     7
 10
0.9100516973582699
 20
-1.299999999945654
 30
0.0
 11
4.660053379958228
 21
2.4500016826543041
 31
0.0
  0
LINE
  5
1CE
  8
PATTFRN_FILL
  6
CONTINUOUS
 62
     7
 10
7.4600533799582376
 20
5.2500016826543163
 30
0.0
 11
15.21005169735826
 21
13.000000000054349
 31
0.0
  0
LINE
  5
1CF
  8
PATTFRN_FILL
  6
CONTINUOUS
 62
     7
 10
0.1100516615582592
 20
-1.299999999945654
 30
0.0
 11
4.660053379958228
 21
3.2500017184543162
 31
0.0
  0
LINE
  5
1D0
  8
PATTFRN_FILL
  6
CONTINUOUS
 62
     7
 10
7.4600533799582456
 20
6.050001718454312
 30
0.0
 11
14.41005166155826
 21
13.000000000054349
 31
0.0
  0
LINE
  5
1D1
  8
PATTFRN_FILL
  6
CONTINUOUS
 62
     7
 10
-0.6899483742417303
 20
-1.299999999945654
 30
0.0
 11
4.660053379958228
 21
4.0500017542542972
 31
0.0
  0
LINE
  5
1D2
  8
PATTFRN_FILL
  6
CONTINUOUS
 62
     7
 10
7.4600533799582456
 20
6.8500017542543068
 30
0.0
 11
13.61005162575827
 21
13.000000000054349
 31
0.0
  0
LINE
  5
1D3
  8
PATTFRN_FILL
  6
CONTINUOUS
 62
     7
 10
-1.489948410041734
 20
-1.299999999945654
 30
0.0
 11
4.6600533799582413
 21
4.8500017900543231
 31
0.0
  0
LINE
  5
1D4
  8
PATTFRN_FILL
  6
CONTINUOUS
 62
     7
 10
7.4600533799582323
 20
7.6500017900542998
 30
0.0
 11
12.81005158995829
 21
13.000000000054349
 31
0.0
  0
LINE
  5
1D5
  8
PATTFRN_FILL
  6
CONTINUOUS
 62
     7
 10
-2.2899484458417301
 20
-1.299999999945654
 30
0.0
 11
4.660053379958228
 21
5.6500018258542912
 31
0.0
  0
LINE
  5
1D6
  8
PATTFRN_FILL
  6
CONTINUOUS
 62
     7
 10
7.4600533799582376
 20
8.4500018258542902
 30
0.0
 11
12.010051554158281
 21
13.000000000054349
 31
0.0
  0
LINE
  5
1D7
  8
PATTFRN_FILL
  6
CONTINUOUS
 62
     7
 10
-3.089948481641712
 20
-1.299999999945654
 30
0.0
 11
4.660053379958228
 21
6.450001861654286
 31
0.0
  0
LINE
  5
1D8
  8
PATTFRN_FILL
  6
CONTINUOUS
 62
     7
 10
7.4600533799582376
 20
9.2500018616542903
 30
0.0
 11
11.21005151835829
 21
13.000000000054349
 31
0.0
  0
LINE
  5
1D9
  8
PATTFRN_FILL
  6
CONTINUOUS
 62
     7
 10
-3.889948517441709
 20
-1.299999999945654
 30
0.0
 11
4.660053379958228
 21
7.2500018974542808
 31
0.0
  0
LINE
  5
1DA
  8
PATTFRN_FILL
  6
CONTINUOUS
 62
     7
 10
7.4600533799582376
 20
10.05000189745429
 30
0.0
 11
10.4100514825583
 21
13.000000000054349
 31
0.0
  0
LINE
  5
1DB
  8
PATTFRN_FILL
  6
CONTINUOUS
 62
     7
 10
-4.6899485532417131
 20
-1.299999999945654
 30
0.0
 11
4.660053379958228
 21
8.0500019332542738
 31
0.0
  0
LINE
  5
1DC
  8
PATTFRN_FILL
  6
CONTINUOUS
 62
     7
 10
7.4600533799582456
 20
10.85000193325428
 30
0.0
 11
9.6100514467582911
 21
13.000000000054349
 31
0.0
  0
LINE
  5
1DD
  8
PATTFRN_FILL
  6
CONTINUOUS
 62
     7
 10
-5.489948589041723
 20
-1.299999999945654
 30
0.0
 11
4.66005337995822
 21
8.8500019690542686
 31
0.0
  0
LINE
  5
1DE
  8
PATTFRN_FILL
  6
CONTINUOUS
 62
     7
 10
7.4600533799582376
 20
11.65000196905428
 30
0.0
 11
8.8100514109582857
 21
13.000000000054349
 31
0.0
  0
LINE
  5
1DF
  8
PATTFRN_FILL
  6
CONTINUOUS
 62
     7
 10
-6.2899486248417134
 20
-1.299999999945654
 30
0.0
 11
4.6600533799582413
 21
9.6500020048542918
 31
0.0
  0
LINE
  5
1E0
  8
PATTFRN_FILL
  6
CONTINUOUS
 62
     7
 10
7.4600533799582376
 20
12.450002004854269
 30
0.0
 11
8.0100513751582891
 21
13.000000000054349
 31
0.0
  0
LINE
  5
1E1
  8
PATTFRN_FILL
  6
CONTINUOUS
 62
     7
 10
-7.089948660641709
 20
-1.299999999945654
 30
0.0
 11
4.6600533799582413
 21
10.45000204065429
 31
0.0
  0
LINE
  5
1E2
  8
PATTFRN_FILL
  6
CONTINUOUS
 62
     7
 10
-7.8586132443429184
 20
-1.268664547846867
 30
0.0
 11
4.660053379958228
 21
11.25000207645426
 31
0.0
  0
LINE
  5
1E3
  8
PATTFRN_FILL
  6
CONTINUOUS
 62
     7
 10
-8.5578739773022807
 20
-1.1679252450062301
 30
0.0
 11
4.660053379958228
 21
12.05000211225425
 31
0.0
  0
LINE
  5
1E4
  8
PATTFRN_FILL
  6
CONTINUOUS
 62
     7
 10
-9.2012333260652923
 20
-1.0112845579692471
 30
0.0
 11
4.660053379958228
 21
12.85000214805425
 31
0.0
  0
LINE
  5
1E5
  8
PATTFRN_FILL
  6
CONTINUOUS
 62
     7
 10
-9.7975095757697446
 20
-0.8075607718736961
 30
0.0
 11
4.0100511961583081
 21
13.000000000054349
 31
0.0
  0
LINE
  5
1E6
  8
PATTFRN_FILL
  6
CONTINUOUS
 62
     7
 10
-10.352497061895519
 20
-0.5625482221994816
 30
0.0
 11
3.2100511603583111
 21
13.000000000054349
 31
0.0
  0
LINE
  5
1E7
  8
PATTFRN_FILL
  6
CONTINUOUS
 62
     7
 10
-10.87011112553696
 20
-0.2801622500409309
 30
0.0
 11
2.410051124558322
 21
13.000000000054349
 31
0.0
  0
LINE
  5
1E8
  8
PATTFRN_FILL
  6
CONTINUOUS
 62
     7
 10
-11.352996170603189
 20
0.0369527406928398
 30
0.0
 11
1.6100510887583179
 21
13.000000000054349
 31
0.0
  0
LINE
  5
1E9
  8
PATTFRN_FILL
  6
CONTINUOUS
 62
     7
 10
-11.80286659878413
 20
0.3870823483118926
 30
0.0
 11
0.8100510529583289
 21
13.000000000054349
 31
0.0
  0
LINE
  5
1EA
  8
PATTFRN_FILL
  6
CONTINUOUS
 62
     7
 10
-12.220699482356091
 20
0.7692495005399298
 30
0.0
 11
0.0100510171583323
 21
13.000000000054349
 31
0.0
  0
LINE
  5
1EB
  8
PATTFRN_FILL
  6
CONTINUOUS
 62
     7
 10
-12.6068347776663
 20
1.1831142410297151
 30
0.0
 11
-0.7899490186416643
 21
13.000000000054349
 31
0.0
  0
LINE
  5
1EC
  8
PATTFRN_FILL
  6
CONTINUOUS
 62
     7
 10
-12.96100859681404
 20
1.628940457681965
 30
0.0
 11
-1.5899490544416599
 21
13.000000000054349
 31
0.0
  0
LINE
  5
1ED
  8
PATTFRN_FILL
  6
CONTINUOUS
 62
     7
 10
-13.28232745178803
 20
2.1076216385079798
 30
0.0
 11
-2.3899490902416569
 21
13.000000000054349
 31
0.0
  0
LINE
  5
1EE
  8
PATTFRN_FILL
  6
CONTINUOUS
 62
     7
 10
-13.56917736933438
 20
2.620771756761628
 30
0.0
 11
-3.189949126041653
 21
13.000000000054349
 31
0.0
  0
LINE
  5
1EF
  8
PATTFRN_FILL
  6
CONTINUOUS
 62
     7
 10
-13.81904500852999
 20
3.1709041533660121
 30
0.0
 11
-3.98994916184165
 21
13.000000000054349
 31
0.0
  0
LINE
  5
1F0
  8
PATTFRN_FILL
  6
CONTINUOUS
 62
     7
 10
-14.02885518883244
 20
3.761094008863568
 30
0.0
 11
-4.7899491976416471
 21
13.000000000054349
 31
0.0
  0
LINE
  5
1F1
  8
PATTFRN_FILL
  6
CONTINUOUS
 62
     7
 10
-14.191130334993099
 20
4.3988188985028831
 30
0.0
 11
-5.5899492334416427
 21
13.000000000054349
 31
0.0
  0
LINE
  5
1F2
  8
PATTFRN_FILL
  6
CONTINUOUS
 62
     7
 10
-14.299489415866599
 20
5.090459853429409
 30
0.0
 11
-6.3899492692416402
 21
13.000000000054349
 31
0.0
  0
LINE
  5
1F3
  8
PATTFRN_FILL
  6
CONTINUOUS
 62
     7
 10
-14.339946620041751
 20
5.8500026850542364
 30
0.0
 11
-7.1899493050416359
 21
13.000000000054349
 31
0.0
  0
LINE
  5
1F4
  8
PATTFRN_FILL
  6
CONTINUOUS
 62
     7
 10
-14.2891461471428
 20
6.7008031937531731
 30
0.0
 11
-8.0288550339347893
 21
12.961094306961179
 31
0.0
  0
LINE
  5
1F5
  8
PATTFRN_FILL
  6
CONTINUOUS
 62
     7
 10
-14.09884084135491
 20
7.6911085353410549
 30
0.0
 11
-9.0310551553284721
 21
12.75889422136752
 31
0.0
  0
LINE
  5
1F6
  8
PATTFRN_FILL
  6
CONTINUOUS
 62
     7
 10
-13.62885521278591
 20
8.9610941997100664
 30
0.0
 11
-10.30343916393646
 21
12.2865102485595
 31
0.0
  0
LINE
  5
1F7
  8
SPEC
  6
CONTINUOUS
 62
     7
 10
-164.99999
 20
243.53182000000001
 30
0.0
 11
130.0
 21
243.53182000000001
 31
0.0
  0
LINE
  5
1F8
  8
SPEC
  6
CONTINUOUS
 62
     7
 10
-164.99999
 20
243.53182000000001
 30
0.0
 11
-164.99999
 21
161.0318199999999
 31
0.0
  0
LINE
  5
1F9
  8
SPEC
  6
CONTINUOUS
 62
     7
 10
-99.999989999999997
 20
243.53182000000001
 30
0.0
 11
-99.999989999999997
 21
161.0318199999999
 31
0.0
  0
LINE
  5
1FA
  8
SPEC
  6
CONTINUOUS
 62
     7
 10
130.0
 20
243.53182000000001
 30
0.0
 11
130.0
 21
161.0318199999999
 31
0.0
  0
TEXT
  5
1FB
  8
SPEC
 62
     7
 10
-163.27652562404131
 20
222.91016999437181
 30
0.0
 40
3.8006293402777769
  1
指向特性
 41
0.7
 11
-163.27652562404131
 21
226.71079933464949
 31
0.0
 73
     3
  0
TEXT
  5
1FC
  8
SPEC
 62
     7
 10
-98.366868355306053
 20
223.13798853823539
 30
0.0
 40
3.8006293402777769
  1
スーパーカーディオイド
 41
0.7
 11
-98.366868355306053
 21
226.93861787851321
 31
0.0
 73
     3
  0
LINE
  5
1FD
  8
SPEC
  6
CONTINUOUS
 62
     7
 10
-164.99999
 20
236.03182000000001
 30
0.0
 11
130.0
 21
236.03182000000001
 31
0.0
  0
TEXT
  5
1FE
  8
SPEC
 62
     7
 10
-163.32134317082631
 20
237.9267822971818
 30
0.0
 40
3.8006293402777769
  1
形式
 41
0.7
 11
-163.32134317082631
 21
241.7274116374596
 31
0.0
 73
     3
  0
TEXT
  5
1FF
  8
SPEC
 62
     7
 10
-98.751067741629996
 20
237.91416753219659
 30
0.0
 40
3.8006293402777769
  1
プリポラライズド・コンデンサー型 
 41
0.7
 11
-98.751067741629996
 21
241.7147968724743
 31
0.0
 73
     3
  0
LINE
  5
200
  8
SPEC
  6
CONTINUOUS
 62
     7
 10
-164.99999
 20
228.53182000000001
 30
0.0
 11
130.0
 21
228.53182000000001
 31
0.0
  0
TEXT
  5
201
  8
SPEC
 62
     7
 10
-163.22624106844069
 20
230.35709508849749
 30
0.0
 40
3.8006293402777769
  1
周波数特性
 41
0.7
 11
-163.22624106844069
 21
234.15772442877531
 31
0.0
 73
     3
  0
TEXT
  5
202
  8
SPEC
 62
     7
 10
-98.22712173872965
 20
230.3724901948402
 30
0.0
 40
3.8006293402777769
  1
20Hz～20kHz
 41
0.7
 11
-98.22712173872965
 21
234.17311953511799
 31
0.0
 73
     3
  0
LINE
  5
203
  8
SPEC
  6
CONTINUOUS
 62
     7
 10
-164.99999
 20
213.53182000000001
 30
0.0
 11
130.0
 21
213.53182000000001
 31
0.0
  0
LINE
  5
204
  8
SPEC
  6
CONTINUOUS
 62
     7
 10
-164.99999
 20
206.03182000000001
 30
0.0
 11
130.0
 21
206.03182000000001
 31
0.0
  0
TEXT
  5
205
  8
SPEC
 62
     7
 10
-163.5575589039895
 20
185.54889893321169
 30
0.0
 40
3.8006293402777769
  1
出力コネクター
 41
0.7
 11
-163.5575589039895
 21
189.3495282734894
 31
0.0
 73
     3
  0
LINE
  5
206
  8
SPEC
  6
CONTINUOUS
 62
     7
 10
-164.99999
 20
198.53182000000001
 30
0.0
 11
130.0
 21
198.53182000000001
 31
0.0
  0
LINE
  5
207
  8
SPEC
  6
CONTINUOUS
 62
     7
 10
-164.99999
 20
183.53182000000001
 30
0.0
 11
130.0
 21
183.53182000000001
 31
0.0
  0
TEXT
  5
208
  8
SPEC
 62
     7
 10
-162.49999
 20
246.31834000000001
 30
0.0
 40
4.8865234375000002
  1
仕様
 41
0.7
 11
-162.49999
 21
251.20486343749999
 31
0.0
 73
     3
  0
TEXT
  5
209
  8
SPEC
 62
     7
 10
-163.39722233131261
 20
170.59644786231109
 30
0.0
 40
3.8006293402777769
  1
ケーブル長
 41
0.7
 11
-163.39722233131261
 21
174.39707720258889
 31
0.0
 73
     3
  0
TEXT
  5
20A
  8
SPEC
 62
     7
 10
-98.396888964595632
 20
170.7987224390437
 30
0.0
 40
3.8006293402777769
  1
1.8m(VO4099Loにはケーブルは付属しておりません)
 41
0.7
 11
-98.396888964595632
 21
174.59935177932141
 31
0.0
 73
     3
  0
TEXT
  5
20B
  8
SPEC
 62
     7
 10
-163.37935947878549
 20
163.02748611312961
 30
0.0
 40
3.8006293402777769
  1
質量
 41
0.7
 11
-163.37935947878549
 21
166.82811545340741
 31
0.0
 73
     3
  0
TEXT
  5
20C
  8
SPEC
 62
     7
 10
-98.476857549133214
 20
163.27588388665109
 30
0.0
 40
3.8006293402777769
  1
18g
 41
0.7
 11
-98.476857549133214
 21
167.07651322692891
 31
0.0
 73
     3
  0
LINE
  5
20D
  8
SPEC
  6
CONTINUOUS
 62
     7
 10
-164.99999
 20
221.03182000000001
 30
0.0
 11
130.0
 21
221.03182000000001
 31
0.0
  0
LINE
  5
20E
  8
SPEC
  6
CONTINUOUS
 62
     7
 10
-164.99999
 20
191.03182000000001
 30
0.0
 11
130.0
 21
191.03182000000001
 31
0.0
  0
LINE
  5
20F
  8
SPEC
  6
CONTINUOUS
 62
     7
 10
-164.99999
 20
176.0318199999999
 30
0.0
 11
130.0
 21
176.0318199999999
 31
0.0
  0
LINE
  5
210
  8
SPEC
  6
CONTINUOUS
 62
     7
 10
-164.99999
 20
168.5318199999999
 30
0.0
 11
130.0
 21
168.5318199999999
 31
0.0
  0
LINE
  5
211
  8
SPEC
  6
CONTINUOUS
 62
     7
 10
-164.99999
 20
161.0318199999999
 30
0.0
 11
130.0
 21
161.0318199999999
 31
0.0
  0
TEXT
  5
212
  8
SPEC
 62
     7
 10
-163.26028180583381
 20
215.50119340149831
 30
0.0
 40
3.8006293402777769
  1
感度
 41
0.7
 11
-163.26028180583381
 21
219.30182274177599
 31
0.0
 73
     3
  0
TEXT
  5
213
  8
SPEC
 62
     7
 10
-98.173923426229294
 20
215.4088448237494
 30
0.0
 40
3.8006293402777769
  1
5mV/Pa、-54dB re、1V/Pa(\U+00B12dB@1kHz)
 41
0.7
 11
-98.173923426229294
 21
219.20947416402711
 31
0.0
 73
     3
  0
TEXT
  5
214
  8
SPEC
 62
     7
 10
-163.46301125730031
 20
208.0591866072462
 30
0.0
 40
3.8006293402777769
  1
インピーダンス
 41
0.7
 11
-163.46301125730031
 21
211.859815947524
 31
0.0
 73
     3
  0
TEXT
  5
215
  8
SPEC
 62
     7
 10
-98.486580648132417
 20
207.87825489402661
 30
0.0
 40
3.8006293402777769
  1
30～40\U+03A9(Micro Dotコネクター使用時)、100\U+03A9(DAD6001BC使用時)
 41
0.7
 11
-98.486580648132417
 21
211.67888423430441
 31
0.0
 73
     3
  0
TEXT
  5
216
  8
SPEC
 62
     7
 10
-98.486580648132417
 20
202.93936600513771
 30
0.0
 40
3.8006293402777769
  1
 
 41
0.7
 11
-98.486580648132417
 21
206.73999534541551
 31
0.0
 73
     3
  0
TEXT
  5
217
  8
SPEC
 62
     7
 10
-163.2864002201816
 20
200.38711741012199
 30
0.0
 40
3.8006293402777769
  1
等価雑音レベル
 41
0.7
 11
-163.2864002201816
 21
204.18774675039981
 31
0.0
 73
     3
  0
TEXT
  5
218
  8
SPEC
 62
     7
 10
-98.173522468877309
 20
200.34892234169911
 30
0.0
 40
3.8006293402777769
  1
28dB (A)re 
 41
0.7
 11
-98.173522468877309
 21
204.1495516819769
 31
0.0
 73
     3
  0
TEXT
  5
219
  8
SPEC
 62
     7
 10
-163.22839477507799
 20
193.12473779085281
 30
0.0
 40
3.8006293402777769
  1
最大音圧レベル
 41
0.7
 11
-163.22839477507799
 21
196.9253671311306
 31
0.0
 73
     3
  0
TEXT
  5
21A
  8
SPEC
 62
     7
 10
-98.461101498544181
 20
192.8907925509661
 30
0.0
 40
3.8006293402777769
  1
152dB
 41
0.7
 11
-98.461101498544181
 21
196.69142189124381
 31
0.0
 73
     3
  0
TEXT
  5
21B
  8
SPEC
 62
     7
 10
-163.38546065931851
 20
178.05869686293059
 30
0.0
 40
3.8006293402777769
  1
電源
 41
0.7
 11
-163.38546065931851
 21
181.85932620320841
 31
0.0
 73
     3
  0
TEXT
  5
21C
  8
SPEC
 62
     7
 10
-98.140860111168593
 20
178.13219116078869
 30
0.0
 40
3.8006293402777769
  1
DC48V/5mA(ファンタム)、DC5V～50V(ワイヤレスシステムでの使用時)
 41
0.7
 11
-98.140860111168593
 21
181.93282050106649
 31
0.0
 73
     3
  0
TEXT
  5
21D
  8
SPEC
 62
     7
 10
-98.128656154669216
 20
185.6464994147193
 30
0.0
 40
3.8006293402777769
  1
Micro Dot
 41
0.7
 11
-98.128656154669216
 21
189.4471287549971
 31
0.0
 73
     3
  0
TEXT
  5
21E
  8
DIMNSIONS
 62
     7
 10
-40.0
 20
-231.92919000000001
 30
0.0
 40
4.8865234375000002
  1
(単位：mm)
 41
0.7
 11
-40.0
 21
-227.04266656249999
 31
0.0
 73
     3
  0
LINE
  5
21F
  8
DIMNSIONS
  6
CONTINUOUS
 62
     7
 10
-79.649999985098844
 20
-160.0
 30
0.0
 11
-113.9999999850988
 21
-160.0
 31
0.0
  0
LINE
  5
220
  8
DIMNSIONS
  6
CONTINUOUS
 62
     7
 10
-73.999999985098853
 20
13.0
 30
0.0
 11
-113.9999999850988
 21
13.0
 31
0.0
  0
LINE
  5
221
  8
DIMNSIONS
  6
CONTINUOUS
 62
     7
 10
-110.0
 20
-160.0
 30
0.0
 11
-110.0
 21
13.0
 31
0.0
  0
LINE
  5
222
  8
DIMNSIONS
  6
CONTINUOUS
 62
     7
 10
-110.0
 20
-160.0
 30
0.0
 11
-111.7014773719376
 21
-153.65000000000001
 31
0.0
  0
LINE
  5
223
  8
DIMNSIONS
  6
CONTINUOUS
 62
     7
 10
-110.0
 20
-160.0
 30
0.0
 11
-108.2985226280623
 21
-153.65000000000001
 31
0.0
  0
LINE
  5
224
  8
DIMNSIONS
  6
CONTINUOUS
 62
     7
 10
-110.0
 20
13.0
 30
0.0
 11
-108.2985226280623
 21
6.6500000000000048
 31
0.0
  0
LINE
  5
225
  8
DIMNSIONS
  6
CONTINUOUS
 62
     7
 10
-110.0
 20
13.0
 30
0.0
 11
-111.7014773719376
 21
6.6500000000000048
 31
0.0
  0
TEXT
  5
226
  8
DIMNSIONS
 62
     7
 10
-112.98777778504621
 20
-78.791666666666671
 30
0.0
 40
5.4294705670165291
  1
173
 50
90.0
 41
0.7
 11
-118.4172483520627
 21
-78.791666666666671
 31
0.0
 73
     3
  0
LINE
  5
227
  8
DIMNSIONS
  6
CONTINUOUS
 62
     7
 10
-67.949390334559013
 20
-197.94939033455901
 30
0.0
 11
-60.0
 21
-190.0
 31
0.0
  0
LINE
  5
228
  8
DIMNSIONS
  6
CONTINUOUS
 62
     7
 10
-67.949390334559013
 20
-197.94939033455901
 30
0.0
 11
-64.662388461757018
 21
-192.2561360862918
 31
0.0
  0
LINE
  5
229
  8
DIMNSIONS
  6
CONTINUOUS
 62
     7
 10
-67.949390334559013
 20
-197.94939033455901
 30
0.0
 11
-62.256136086291882
 21
-194.6623884617569
 31
0.0
  0
LINE
  5
22A
  8
DIMNSIONS
  6
CONTINUOUS
 62
     7
 10
-60.0
 20
-190.0
 30
0.0
 11
-30.361111108503412
 21
-190.0
 31
0.0
  0
TEXT
  5
22B
  8
DIMNSIONS
 62
     7
 10
-47.999999997392287
 20
-187.01222221495371
 30
0.0
 40
5.4294705670165291
  1
\U+03C65.8
 41
0.7
 11
-47.999999997392287
 21
-181.58275164793719
 31
0.0
 73
     3
  0
LINE
  5
22C
  8
DIMNSIONS
  6
CONTINUOUS
 62
     7
 10
-73.999999985098853
 20
30.000000000000011
 30
0.0
 11
-113.9999999850988
 21
30.000000000000011
 31
0.0
  0
LINE
  5
22D
  8
DIMNSIONS
  6
CONTINUOUS
 62
     7
 10
-78.381780445140194
 20
78.0
 30
0.0
 11
-113.9999999850988
 21
78.0
 31
0.0
  0
LINE
  5
22E
  8
DIMNSIONS
  6
CONTINUOUS
 62
     7
 10
-110.0
 20
30.000000000000011
 30
0.0
 11
-110.0
 21
78.0
 31
0.0
  0
LINE
  5
22F
  8
DIMNSIONS
  6
CONTINUOUS
 62
     7
 10
-110.0
 20
30.000000000000011
 30
0.0
 11
-111.7014773719376
 21
36.350000000000009
 31
0.0
  0
LINE
  5
230
  8
DIMNSIONS
  6
CONTINUOUS
 62
     7
 10
-110.0
 20
30.000000000000011
 30
0.0
 11
-108.2985226280623
 21
36.350000000000009
 31
0.0
  0
LINE
  5
231
  8
DIMNSIONS
  6
CONTINUOUS
 62
     7
 10
-110.0
 20
78.0
 30
0.0
 11
-108.2985226280623
 21
71.65000000000002
 31
0.0
  0
LINE
  5
232
  8
DIMNSIONS
  6
CONTINUOUS
 62
     7
 10
-110.0
 20
78.0
 30
0.0
 11
-111.7014773719376
 21
71.65000000000002
 31
0.0
  0
TEXT
  5
233
  8
DIMNSIONS
 62
     7
 10
-112.98777778504621
 20
50.472222222222221
 30
0.0
 40
5.4294705670165291
  1
48
 50
90.0
 41
0.7
 11
-118.4172483520627
 21
50.472222222222221
 31
0.0
 73
     3
  0
LINE
  5
234
  8
DIMNSIONS
  6
CONTINUOUS
 62
     7
 10
-83.649999970197683
 20
-160.0
 30
0.0
 11
-93.999999985098853
 21
-160.0
 31
0.0
  0
LINE
  5
235
  8
DIMNSIONS
  6
CONTINUOUS
 62
     7
 10
-76.749999985098853
 20
-20.0
 30
0.0
 11
-93.999999985098853
 21
-20.0
 31
0.0
  0
LINE
  5
236
  8
DIMNSIONS
  6
CONTINUOUS
 62
     7
 10
-90.0
 20
-160.0
 30
0.0
 11
-90.0
 21
-20.0
 31
0.0
  0
LINE
  5
237
  8
DIMNSIONS
  6
CONTINUOUS
 62
     7
 10
-90.0
 20
-160.0
 30
0.0
 11
-91.701477371937628
 21
-153.65000000000001
 31
0.0
  0
LINE
  5
238
  8
DIMNSIONS
  6
CONTINUOUS
 62
     7
 10
-90.0
 20
-160.0
 30
0.0
 11
-88.298522628062386
 21
-153.65000000000001
 31
0.0
  0
LINE
  5
239
  8
DIMNSIONS
  6
CONTINUOUS
 62
     7
 10
-90.0
 20
-20.0
 30
0.0
 11
-88.298522628062386
 21
-26.350000000000001
 31
0.0
  0
LINE
  5
23A
  8
DIMNSIONS
  6
CONTINUOUS
 62
     7
 10
-90.0
 20
-20.0
 30
0.0
 11
-91.701477371937628
 21
-26.350000000000001
 31
0.0
  0
TEXT
  5
23B
  8
DIMNSIONS
 62
     7
 10
-92.987777932236625
 20
-95.291667675971979
 30
0.0
 40
5.429471376070798
  1
140
 50
90.0
 41
0.7
 11
-98.417249308307404
 21
-95.291667675971979
 31
0.0
 73
     3
  0
LINE
  5
23C
  8
DIMNSIONS
  6
CONTINUOUS
 62
     7
 10
-64.285583383376192
 20
9.8929497562613449
 30
0.0
 11
-50.0
 21
20.0
 31
0.0
  0
LINE
  5
23D
  8
DIMNSIONS
  6
CONTINUOUS
 62
     7
 10
-64.285583383376192
 20
9.8929497562613449
 30
0.0
 11
-60.059895229669031
 21
14.92892879462465
 31
0.0
  0
LINE
  5
23E
  8
DIMNSIONS
  6
CONTINUOUS
 62
     7
 10
-64.285583383376192
 20
9.8929497562613449
 30
0.0
 11
-58.108040574613142
 21
12.14139145955631
 31
0.0
  0
LINE
  5
23F
  8
DIMNSIONS
  6
CONTINUOUS
 62
     7
 10
-50.0
 20
20.0
 30
0.0
 11
-23.888886194800332
 21
20.0
 31
0.0
  0
TEXT
  5
240
  8
DIMNSIONS
 62
     7
 10
-37.999999997392287
 20
22.987778020550849
 30
0.0
 40
5.4294718615033641
  1
\U+03C614
 41
0.7
 11
-37.999999997392287
 21
28.417249882054211
 31
0.0
 73
     3
  0
TEXT
  5
241
  8
DATA
 62
     7
 10
94.245657692508544
 20
-234.19297017860561
 30
0.0
 40
4.8865234375000002
  1
VO4099Lo/VO4099D/VO4099T
 41
0.7
 11
94.245657692508544
 21
-229.30644674110559
 31
0.0
 73
     3
  0
TEXT
  5
242
  8
DATA
 62
     7
 10
94.274724553315565
 20
-218.77929134089271
 30
0.0
 40
4.8865234375000002
  1
DPA
 41
0.7
 11
94.274724553315565
 21
-213.89276790339269
 31
0.0
 73
     3
  0
TEXT
  5
243
  8
DATA
 62
     7
 10
91.480697903618946
 20
-226.16724459224491
 30
0.0
 40
3.2576822916666659
  1
d:vote楽器用マイクロホン　低感度
 41
0.7
 11
91.480697903618946
 21
-224.53840344641159
 31
0.0
 73
     2
  0
LINE
  5
244
  8
DATA
  6
CONTINUOUS
 62
     7
 10
-72.900000000000006
 20
-148.0
 30
0.0
 11
-67.099999999999994
 21
-148.0
 31
0.0
  0
LINE
  5
245
  8
DATA
  6
CONTINUOUS
 62
     7
 10
-72.900000000000006
 20
-160.0
 30
0.0
 11
-72.900000000000006
 21
-155.0
 31
0.0
  0
LINE
  5
246
  8
DATA
  6
CONTINUOUS
 62
     7
 10
-72.900000000000006
 20
-154.30000000000001
 30
0.0
 11
-72.900000000000006
 21
-148.0
 31
0.0
  0
LINE
  5
247
  8
DATA
  6
CONTINUOUS
 62
     7
 10
-67.099999999999994
 20
-160.0
 30
0.0
 11
-72.900000000000006
 21
-160.0
 31
0.0
  0
LINE
  5
248
  8
DATA
  6
CONTINUOUS
 62
     7
 10
-67.099999999999994
 20
-148.0
 30
0.0
 11
-67.099999999999994
 21
-154.30000000000001
 31
0.0
  0
LINE
  5
249
  8
DATA
  6
CONTINUOUS
 62
     7
 10
-67.099999999999994
 20
-155.0
 30
0.0
 11
-67.099999999999994
 21
-160.0
 31
0.0
  0
LINE
  5
24A
  8
DATA
  6
CONTINUOUS
 62
     7
 10
-73.0
 20
-155.0
 30
0.0
 11
-67.0
 21
-155.0
 31
0.0
  0
LINE
  5
24B
  8
DATA
  6
CONTINUOUS
 62
     7
 10
-73.0
 20
-154.30000000000001
 30
0.0
 11
-67.0
 21
-154.30000000000001
 31
0.0
  0
LINE
  5
24C
  8
DATA
  6
CONTINUOUS
 62
     7
 10
-73.0
 20
-155.0
 30
0.0
 11
-73.0
 21
-154.30000000000001
 31
0.0
  0
LINE
  5
24D
  8
DATA
  6
CONTINUOUS
 62
     7
 10
-67.0
 20
-155.0
 30
0.0
 11
-67.0
 21
-154.30000000000001
 31
0.0
  0
LINE
  5
24E
  8
DATA
  6
CONTINUOUS
 62
     7
 10
-72.400000000000006
 20
-147.0
 30
0.0
 11
-72.400000000000006
 21
-146.0
 31
0.0
  0
LINE
  5
24F
  8
DATA
  6
CONTINUOUS
 62
     7
 10
-72.400000000000006
 20
-145.0
 30
0.0
 11
-72.400000000000006
 21
-144.0
 31
0.0
  0
LINE
  5
250
  8
DATA
  6
CONTINUOUS
 62
     7
 10
-72.400000000000006
 20
-140.0
 30
0.0
 11
-72.400000000000006
 21
-139.0
 31
0.0
  0
LINE
  5
251
  8
DATA
  6
CONTINUOUS
 62
     7
 10
-72.400000000000006
 20
-138.0
 30
0.0
 11
-72.400000000000006
 21
-137.0
 31
0.0
  0
LINE
  5
252
  8
DATA
  6
CONTINUOUS
 62
     7
 10
-72.400000000000006
 20
-136.0
 30
0.0
 11
-72.400000000000006
 21
-135.0
 31
0.0
  0
LINE
  5
253
  8
DATA
  6
CONTINUOUS
 62
     7
 10
-72.400000000000006
 20
-134.0
 30
0.0
 11
-72.400000000000006
 21
-133.0
 31
0.0
  0
LINE
  5
254
  8
DATA
  6
CONTINUOUS
 62
     7
 10
-72.400000000000006
 20
-132.0
 30
0.0
 11
-72.400000000000006
 21
-131.0
 31
0.0
  0
LINE
  5
255
  8
DATA
  6
CONTINUOUS
 62
     7
 10
-72.400000000000006
 20
-130.0
 30
0.0
 11
-72.400000000000006
 21
-129.0
 31
0.0
  0
LINE
  5
256
  8
DATA
  6
CONTINUOUS
 62
     7
 10
-72.400000000000006
 20
-128.0
 30
0.0
 11
-72.400000000000006
 21
-127.0
 31
0.0
  0
LINE
  5
257
  8
DATA
  6
CONTINUOUS
 62
     7
 10
-72.400000000000006
 20
-126.0
 30
0.0
 11
-72.400000000000006
 21
-125.0
 31
0.0
  0
LINE
  5
258
  8
DATA
  6
CONTINUOUS
 62
     7
 10
-72.400000000000006
 20
-124.0
 30
0.0
 11
-72.400000000000006
 21
-123.0
 31
0.0
  0
LINE
  5
259
  8
DATA
  6
CONTINUOUS
 62
     7
 10
-72.400000000000006
 20
-122.0
 30
0.0
 11
-72.400000000000006
 21
-121.0
 31
0.0
  0
LINE
  5
25A
  8
DATA
  6
CONTINUOUS
 62
     7
 10
-72.400000000000006
 20
-120.0
 30
0.0
 11
-72.400000000000006
 21
-119.0
 31
0.0
  0
LINE
  5
25B
  8
DATA
  6
CONTINUOUS
 62
     7
 10
-72.400000000000006
 20
-117.9999999999999
 30
0.0
 11
-72.400000000000006
 21
-117.0
 31
0.0
  0
LINE
  5
25C
  8
DATA
  6
CONTINUOUS
 62
     7
 10
-72.400000000000006
 20
-116.0
 30
0.0
 11
-72.400000000000006
 21
-115.0
 31
0.0
  0
LINE
  5
25D
  8
DATA
  6
CONTINUOUS
 62
     7
 10
-72.400000000000006
 20
-114.0
 30
0.0
 11
-72.400000000000006
 21
-113.0
 31
0.0
  0
LINE
  5
25E
  8
DATA
  6
CONTINUOUS
 62
     7
 10
-72.400000000000006
 20
-112.0
 30
0.0
 11
-72.400000000000006
 21
-111.0
 31
0.0
  0
LINE
  5
25F
  8
DATA
  6
CONTINUOUS
 62
     7
 10
-72.400000000000006
 20
-110.0
 30
0.0
 11
-72.400000000000006
 21
-109.0
 31
0.0
  0
LINE
  5
260
  8
DATA
  6
CONTINUOUS
 62
     7
 10
-72.400000000000006
 20
-108.0
 30
0.0
 11
-72.400000000000006
 21
-107.0
 31
0.0
  0
LINE
  5
261
  8
DATA
  6
CONTINUOUS
 62
     7
 10
-72.400000000000006
 20
-106.0
 30
0.0
 11
-72.400000000000006
 21
-105.0
 31
0.0
  0
LINE
  5
262
  8
DATA
  6
CONTINUOUS
 62
     7
 10
-72.400000000000006
 20
-104.0
 30
0.0
 11
-72.400000000000006
 21
-103.0
 31
0.0
  0
LINE
  5
263
  8
DATA
  6
CONTINUOUS
 62
     7
 10
-72.400000000000006
 20
-102.0
 30
0.0
 11
-72.400000000000006
 21
-101.0
 31
0.0
  0
LINE
  5
264
  8
DATA
  6
CONTINUOUS
 62
     7
 10
-72.400000000000006
 20
-100.0
 30
0.0
 11
-72.400000000000006
 21
-99.0
 31
0.0
  0
LINE
  5
265
  8
DATA
  6
CONTINUOUS
 62
     7
 10
-72.400000000000006
 20
-97.999999999999972
 30
0.0
 11
-72.400000000000006
 21
-97.0
 31
0.0
  0
LINE
  5
266
  8
DATA
  6
CONTINUOUS
 62
     7
 10
-72.400000000000006
 20
-95.999999999999986
 30
0.0
 11
-72.400000000000006
 21
-94.999999999999986
 31
0.0
  0
LINE
  5
267
  8
DATA
  6
CONTINUOUS
 62
     7
 10
-72.400000000000006
 20
-94.0
 30
0.0
 11
-72.400000000000006
 21
-92.999999999999986
 31
0.0
  0
LINE
  5
268
  8
DATA
  6
CONTINUOUS
 62
     7
 10
-72.400000000000006
 20
-92.0
 30
0.0
 11
-72.400000000000006
 21
-91.0
 31
0.0
  0
LINE
  5
269
  8
DATA
  6
CONTINUOUS
 62
     7
 10
-72.400000000000006
 20
-90.0
 30
0.0
 11
-72.400000000000006
 21
-89.0
 31
0.0
  0
LINE
  5
26A
  8
DATA
  6
CONTINUOUS
 62
     7
 10
-72.400000000000006
 20
-88.000000000000014
 30
0.0
 11
-72.400000000000006
 21
-86.999999999999986
 31
0.0
  0
LINE
  5
26B
  8
DATA
  6
CONTINUOUS
 62
     7
 10
-72.400000000000006
 20
-85.999999999999986
 30
0.0
 11
-72.400000000000006
 21
-85.000000000000014
 31
0.0
  0
LINE
  5
26C
  8
DATA
  6
CONTINUOUS
 62
     7
 10
-72.400000000000006
 20
-84.0
 30
0.0
 11
-72.400000000000006
 21
-83.0
 31
0.0
  0
LINE
  5
26D
  8
DATA
  6
CONTINUOUS
 62
     7
 10
-72.400000000000006
 20
-82.000000000000014
 30
0.0
 11
-72.400000000000006
 21
-81.0
 31
0.0
  0
LINE
  5
26E
  8
DATA
  6
CONTINUOUS
 62
     7
 10
-72.400000000000006
 20
-80.000000000000014
 30
0.0
 11
-72.400000000000006
 21
-79.0
 31
0.0
  0
LINE
  5
26F
  8
DATA
  6
CONTINUOUS
 62
     7
 10
-72.400000000000006
 20
-77.999999999999986
 30
0.0
 11
-72.400000000000006
 21
-77.0
 31
0.0
  0
LINE
  5
270
  8
DATA
  6
CONTINUOUS
 62
     7
 10
-72.400000000000006
 20
-76.0
 30
0.0
 11
-72.400000000000006
 21
-75.0
 31
0.0
  0
LINE
  5
271
  8
DATA
  6
CONTINUOUS
 62
     7
 10
-72.400000000000006
 20
-74.0
 30
0.0
 11
-72.400000000000006
 21
-73.0
 31
0.0
  0
LINE
  5
272
  8
DATA
  6
CONTINUOUS
 62
     7
 10
-72.400000000000006
 20
-72.0
 30
0.0
 11
-72.400000000000006
 21
-71.0
 31
0.0
  0
LINE
  5
273
  8
DATA
  6
CONTINUOUS
 62
     7
 10
-72.400000000000006
 20
-70.0
 30
0.0
 11
-72.400000000000006
 21
-69.0
 31
0.0
  0
LINE
  5
274
  8
DATA
  6
CONTINUOUS
 62
     7
 10
-72.400000000000006
 20
-68.0
 30
0.0
 11
-72.400000000000006
 21
-67.0
 31
0.0
  0
LINE
  5
275
  8
DATA
  6
CONTINUOUS
 62
     7
 10
-72.400000000000006
 20
-66.0
 30
0.0
 11
-72.400000000000006
 21
-65.0
 31
0.0
  0
LINE
  5
276
  8
DATA
  6
CONTINUOUS
 62
     7
 10
-72.400000000000006
 20
-64.0
 30
0.0
 11
-72.400000000000006
 21
-63.0
 31
0.0
  0
LINE
  5
277
  8
DATA
  6
CONTINUOUS
 62
     7
 10
-72.400000000000006
 20
-61.999999999999993
 30
0.0
 11
-72.400000000000006
 21
-61.000000000000007
 31
0.0
  0
LINE
  5
278
  8
DATA
  6
CONTINUOUS
 62
     7
 10
-72.400000000000006
 20
-60.0
 30
0.0
 11
-72.400000000000006
 21
-58.999999999999993
 31
0.0
  0
LINE
  5
279
  8
DATA
  6
CONTINUOUS
 62
     7
 10
-72.400000000000006
 20
-57.999999999999993
 30
0.0
 11
-72.400000000000006
 21
-57.0
 31
0.0
  0
LINE
  5
27A
  8
DATA
  6
CONTINUOUS
 62
     7
 10
-72.400000000000006
 20
-55.999999999999993
 30
0.0
 11
-72.400000000000006
 21
-55.0
 31
0.0
  0
LINE
  5
27B
  8
DATA
  6
CONTINUOUS
 62
     7
 10
-72.400000000000006
 20
-54.000000000000007
 30
0.0
 11
-72.400000000000006
 21
-53.0
 31
0.0
  0
LINE
  5
27C
  8
DATA
  6
CONTINUOUS
 62
     7
 10
-72.400000000000006
 20
-52.0
 30
0.0
 11
-72.400000000000006
 21
-51.000000000000007
 31
0.0
  0
LINE
  5
27D
  8
DATA
  6
CONTINUOUS
 62
     7
 10
-72.400000000000006
 20
-50.0
 30
0.0
 11
-72.400000000000006
 21
-48.999999999999993
 31
0.0
  0
LINE
  5
27E
  8
DATA
  6
CONTINUOUS
 62
     7
 10
-72.400000000000006
 20
-47.999999999999993
 30
0.0
 11
-72.400000000000006
 21
-47.0
 31
0.0
  0
LINE
  5
27F
  8
DATA
  6
CONTINUOUS
 62
     7
 10
-72.400000000000006
 20
-45.999999999999993
 30
0.0
 11
-72.400000000000006
 21
-45.0
 31
0.0
  0
LINE
  5
280
  8
DATA
  6
CONTINUOUS
 62
     7
 10
-72.400000000000006
 20
-44.000000000000007
 30
0.0
 11
-72.400000000000006
 21
-42.999999999999993
 31
0.0
  0
LINE
  5
281
  8
DATA
  6
CONTINUOUS
 62
     7
 10
-72.400000000000006
 20
-41.999999999999993
 30
0.0
 11
-72.400000000000006
 21
-41.0
 31
0.0
  0
LINE
  5
282
  8
DATA
  6
CONTINUOUS
 62
     7
 10
-72.400000000000006
 20
-40.0
 30
0.0
 11
-72.400000000000006
 21
-39.0
 31
0.0
  0
LINE
  5
283
  8
DATA
  6
CONTINUOUS
 62
     7
 10
-72.400000000000006
 20
-38.0
 30
0.0
 11
-72.400000000000006
 21
-37.0
 31
0.0
  0
LINE
  5
284
  8
DATA
  6
CONTINUOUS
 62
     7
 10
-72.400000000000006
 20
-36.0
 30
0.0
 11
-72.400000000000006
 21
-35.0
 31
0.0
  0
LINE
  5
285
  8
DATA
  6
CONTINUOUS
 62
     7
 10
-72.400000000000006
 20
-34.0
 30
0.0
 11
-72.400000000000006
 21
-33.0
 31
0.0
  0
LINE
  5
286
  8
DATA
  6
CONTINUOUS
 62
     7
 10
-72.400000000000006
 20
-32.0
 30
0.0
 11
-72.400000000000006
 21
-31.0
 31
0.0
  0
LINE
  5
287
  8
DATA
  6
CONTINUOUS
 62
     7
 10
-72.400000000000006
 20
-30.0
 30
0.0
 11
-72.400000000000006
 21
-29.0
 31
0.0
  0
LINE
  5
288
  8
DATA
  6
CONTINUOUS
 62
     7
 10
-72.400000000000006
 20
-28.0
 30
0.0
 11
-72.400000000000006
 21
-27.0
 31
0.0
  0
LINE
  5
289
  8
DATA
  6
CONTINUOUS
 62
     7
 10
-72.400000000000006
 20
-26.0
 30
0.0
 11
-72.400000000000006
 21
-25.0
 31
0.0
  0
LINE
  5
28A
  8
DATA
  6
CONTINUOUS
 62
     7
 10
-72.400000000000006
 20
-24.0
 30
0.0
 11
-72.400000000000006
 21
-23.0
 31
0.0
  0
LINE
  5
28B
  8
DATA
  6
CONTINUOUS
 62
     7
 10
-72.400000000000006
 20
-22.000000000000011
 30
0.0
 11
-72.400000000000006
 21
-20.999999999999979
 31
0.0
  0
LINE
  5
28C
  8
DATA
  6
CONTINUOUS
 62
     7
 10
-67.600000000000009
 20
-21.880425347938569
 30
0.0
 11
-67.600000000000009
 21
-22.880425347938569
 31
0.0
  0
LINE
  5
28D
  8
DATA
  6
CONTINUOUS
 62
     7
 10
-67.600000000000009
 20
-23.880425347938569
 30
0.0
 11
-67.600000000000009
 21
-24.880425347938569
 31
0.0
  0
LINE
  5
28E
  8
DATA
  6
CONTINUOUS
 62
     7
 10
-67.600000000000009
 20
-25.880425347938569
 30
0.0
 11
-67.600000000000009
 21
-26.880425347938569
 31
0.0
  0
LINE
  5
28F
  8
DATA
  6
CONTINUOUS
 62
     7
 10
-67.600000000000009
 20
-27.880425347938569
 30
0.0
 11
-67.600000000000009
 21
-28.880425347938569
 31
0.0
  0
LINE
  5
290
  8
DATA
  6
CONTINUOUS
 62
     7
 10
-67.600000000000009
 20
-29.880425347938569
 30
0.0
 11
-67.600000000000009
 21
-30.880425347938569
 31
0.0
  0
LINE
  5
291
  8
DATA
  6
CONTINUOUS
 62
     7
 10
-67.600000000000009
 20
-31.880425347938569
 30
0.0
 11
-67.600000000000009
 21
-32.880425347938569
 31
0.0
  0
LINE
  5
292
  8
DATA
  6
CONTINUOUS
 62
     7
 10
-67.600000000000009
 20
-33.880425347938569
 30
0.0
 11
-67.600000000000009
 21
-34.880425347938569
 31
0.0
  0
LINE
  5
293
  8
DATA
  6
CONTINUOUS
 62
     7
 10
-67.600000000000009
 20
-35.880425347938569
 30
0.0
 11
-67.600000000000009
 21
-36.880425347938569
 31
0.0
  0
LINE
  5
294
  8
DATA
  6
CONTINUOUS
 62
     7
 10
-67.600000000000009
 20
-37.880425347938569
 30
0.0
 11
-67.600000000000009
 21
-38.880425347938569
 31
0.0
  0
LINE
  5
295
  8
DATA
  6
CONTINUOUS
 62
     7
 10
-67.600000000000009
 20
-39.880425347938569
 30
0.0
 11
-67.600000000000009
 21
-40.880425347938562
 31
0.0
  0
LINE
  5
296
  8
DATA
  6
CONTINUOUS
 62
     7
 10
-67.600000000000009
 20
-41.880425347938569
 30
0.0
 11
-67.600000000000009
 21
-42.880425347938569
 31
0.0
  0
LINE
  5
297
  8
DATA
  6
CONTINUOUS
 62
     7
 10
-67.600000000000009
 20
-43.880425347938562
 30
0.0
 11
-67.600000000000009
 21
-44.880425347938569
 31
0.0
  0
LINE
  5
298
  8
DATA
  6
CONTINUOUS
 62
     7
 10
-67.600000000000009
 20
-45.880425347938562
 30
0.0
 11
-67.600000000000009
 21
-46.880425347938569
 31
0.0
  0
LINE
  5
299
  8
DATA
  6
CONTINUOUS
 62
     7
 10
-67.600000000000009
 20
-47.880425347938569
 30
0.0
 11
-67.600000000000009
 21
-48.880425347938569
 31
0.0
  0
LINE
  5
29A
  8
DATA
  6
CONTINUOUS
 62
     7
 10
-67.600000000000009
 20
-49.880425347938569
 30
0.0
 11
-67.600000000000009
 21
-50.880425347938562
 31
0.0
  0
LINE
  5
29B
  8
DATA
  6
CONTINUOUS
 62
     7
 10
-67.600000000000009
 20
-51.880425347938584
 30
0.0
 11
-67.600000000000009
 21
-52.880425347938569
 31
0.0
  0
LINE
  5
29C
  8
DATA
  6
CONTINUOUS
 62
     7
 10
-67.600000000000009
 20
-53.880425347938569
 30
0.0
 11
-67.600000000000009
 21
-54.880425347938569
 31
0.0
  0
LINE
  5
29D
  8
DATA
  6
CONTINUOUS
 62
     7
 10
-67.600000000000009
 20
-55.880425347938562
 30
0.0
 11
-67.600000000000009
 21
-56.880425347938569
 31
0.0
  0
LINE
  5
29E
  8
DATA
  6
CONTINUOUS
 62
     7
 10
-67.600000000000009
 20
-57.880425347938569
 30
0.0
 11
-67.600000000000009
 21
-58.880425347938569
 31
0.0
  0
LINE
  5
29F
  8
DATA
  6
CONTINUOUS
 62
     7
 10
-67.600000000000009
 20
-59.880425347938569
 30
0.0
 11
-67.600000000000009
 21
-60.880425347938562
 31
0.0
  0
LINE
  5
2A0
  8
DATA
  6
CONTINUOUS
 62
     7
 10
-67.600000000000009
 20
-61.880425347938584
 30
0.0
 11
-67.600000000000009
 21
-62.880425347938569
 31
0.0
  0
LINE
  5
2A1
  8
DATA
  6
CONTINUOUS
 62
     7
 10
-67.600000000000009
 20
-63.880425347938569
 30
0.0
 11
-67.600000000000009
 21
-64.880425347938569
 31
0.0
  0
LINE
  5
2A2
  8
DATA
  6
CONTINUOUS
 62
     7
 10
-67.600000000000009
 20
-65.880425347938555
 30
0.0
 11
-67.600000000000009
 21
-66.880425347938569
 31
0.0
  0
LINE
  5
2A3
  8
DATA
  6
CONTINUOUS
 62
     7
 10
-67.600000000000009
 20
-67.880425347938569
 30
0.0
 11
-67.600000000000009
 21
-68.880425347938569
 31
0.0
  0
LINE
  5
2A4
  8
DATA
  6
CONTINUOUS
 62
     7
 10
-67.600000000000009
 20
-69.880425347938569
 30
0.0
 11
-67.600000000000009
 21
-70.880425347938555
 31
0.0
  0
LINE
  5
2A5
  8
DATA
  6
CONTINUOUS
 62
     7
 10
-67.600000000000009
 20
-71.880425347938569
 30
0.0
 11
-67.600000000000009
 21
-72.880425347938569
 31
0.0
  0
LINE
  5
2A6
  8
DATA
  6
CONTINUOUS
 62
     7
 10
-67.600000000000009
 20
-73.880425347938569
 30
0.0
 11
-67.600000000000009
 21
-74.880425347938569
 31
0.0
  0
LINE
  5
2A7
  8
DATA
  6
CONTINUOUS
 62
     7
 10
-67.600000000000009
 20
-75.880425347938555
 30
0.0
 11
-67.600000000000009
 21
-76.880425347938569
 31
0.0
  0
LINE
  5
2A8
  8
DATA
  6
CONTINUOUS
 62
     7
 10
-67.600000000000009
 20
-77.880425347938569
 30
0.0
 11
-67.600000000000009
 21
-78.880425347938569
 31
0.0
  0
LINE
  5
2A9
  8
DATA
  6
CONTINUOUS
 62
     7
 10
-67.600000000000009
 20
-79.880425347938569
 30
0.0
 11
-67.600000000000009
 21
-80.880425347938555
 31
0.0
  0
LINE
  5
2AA
  8
DATA
  6
CONTINUOUS
 62
     7
 10
-67.600000000000009
 20
-81.880425347938555
 30
0.0
 11
-67.600000000000009
 21
-82.880425347938584
 31
0.0
  0
LINE
  5
2AB
  8
DATA
  6
CONTINUOUS
 62
     7
 10
-67.600000000000009
 20
-83.880425347938569
 30
0.0
 11
-67.600000000000009
 21
-84.880425347938569
 31
0.0
  0
LINE
  5
2AC
  8
DATA
  6
CONTINUOUS
 62
     7
 10
-67.600000000000009
 20
-85.880425347938555
 30
0.0
 11
-67.600000000000009
 21
-86.880425347938541
 31
0.0
  0
LINE
  5
2AD
  8
DATA
  6
CONTINUOUS
 62
     7
 10
-67.600000000000009
 20
-87.880425347938541
 30
0.0
 11
-67.600000000000009
 21
-88.880425347938569
 31
0.0
  0
LINE
  5
2AE
  8
DATA
  6
CONTINUOUS
 62
     7
 10
-67.600000000000009
 20
-89.880425347938569
 30
0.0
 11
-67.600000000000009
 21
-90.880425347938555
 31
0.0
  0
LINE
  5
2AF
  8
DATA
  6
CONTINUOUS
 62
     7
 10
-67.600000000000009
 20
-91.880425347938555
 30
0.0
 11
-67.600000000000009
 21
-92.880425347938569
 31
0.0
  0
LINE
  5
2B0
  8
DATA
  6
CONTINUOUS
 62
     7
 10
-67.600000000000009
 20
-93.880425347938569
 30
0.0
 11
-67.600000000000009
 21
-94.880425347938569
 31
0.0
  0
LINE
  5
2B1
  8
DATA
  6
CONTINUOUS
 62
     7
 10
-67.600000000000009
 20
-95.880425347938555
 30
0.0
 11
-67.600000000000009
 21
-96.880425347938584
 31
0.0
  0
LINE
  5
2B2
  8
DATA
  6
CONTINUOUS
 62
     7
 10
-67.600000000000009
 20
-97.880425347938569
 30
0.0
 11
-67.600000000000009
 21
-98.880425347938555
 31
0.0
  0
LINE
  5
2B3
  8
DATA
  6
CONTINUOUS
 62
     7
 10
-67.600000000000009
 20
-99.880425347938569
 30
0.0
 11
-67.600000000000009
 21
-100.8804253479385
 31
0.0
  0
LINE
  5
2B4
  8
DATA
  6
CONTINUOUS
 62
     7
 10
-67.600000000000009
 20
-101.8804253479385
 30
0.0
 11
-67.600000000000009
 21
-102.8804253479385
 31
0.0
  0
LINE
  5
2B5
  8
DATA
  6
CONTINUOUS
 62
     7
 10
-67.600000000000009
 20
-103.8804253479385
 30
0.0
 11
-67.600000000000009
 21
-104.8804253479385
 31
0.0
  0
LINE
  5
2B6
  8
DATA
  6
CONTINUOUS
 62
     7
 10
-67.600000000000009
 20
-105.8804253479386
 30
0.0
 11
-67.600000000000009
 21
-106.8804253479386
 31
0.0
  0
LINE
  5
2B7
  8
DATA
  6
CONTINUOUS
 62
     7
 10
-67.600000000000009
 20
-107.8804253479386
 30
0.0
 11
-67.600000000000009
 21
-108.8804253479385
 31
0.0
  0
LINE
  5
2B8
  8
DATA
  6
CONTINUOUS
 62
     7
 10
-67.600000000000009
 20
-109.8804253479385
 30
0.0
 11
-67.600000000000009
 21
-110.8804253479385
 31
0.0
  0
LINE
  5
2B9
  8
DATA
  6
CONTINUOUS
 62
     7
 10
-67.600000000000009
 20
-111.8804253479385
 30
0.0
 11
-67.600000000000009
 21
-112.8804253479385
 31
0.0
  0
LINE
  5
2BA
  8
DATA
  6
CONTINUOUS
 62
     7
 10
-67.600000000000009
 20
-113.8804253479385
 30
0.0
 11
-67.600000000000009
 21
-114.8804253479385
 31
0.0
  0
LINE
  5
2BB
  8
DATA
  6
CONTINUOUS
 62
     7
 10
-67.600000000000009
 20
-115.8804253479385
 30
0.0
 11
-67.600000000000009
 21
-116.8804253479386
 31
0.0
  0
LINE
  5
2BC
  8
DATA
  6
CONTINUOUS
 62
     7
 10
-67.600000000000009
 20
-117.8804253479385
 30
0.0
 11
-67.600000000000009
 21
-118.8804253479385
 31
0.0
  0
LINE
  5
2BD
  8
DATA
  6
CONTINUOUS
 62
     7
 10
-67.600000000000009
 20
-119.8804253479385
 30
0.0
 11
-67.600000000000009
 21
-120.8804253479385
 31
0.0
  0
LINE
  5
2BE
  8
DATA
  6
CONTINUOUS
 62
     7
 10
-67.600000000000009
 20
-121.8804253479385
 30
0.0
 11
-67.600000000000009
 21
-122.8804253479385
 31
0.0
  0
LINE
  5
2BF
  8
DATA
  6
CONTINUOUS
 62
     7
 10
-67.600000000000009
 20
-123.8804253479385
 30
0.0
 11
-67.600000000000009
 21
-124.8804253479385
 31
0.0
  0
LINE
  5
2C0
  8
DATA
  6
CONTINUOUS
 62
     7
 10
-67.600000000000009
 20
-125.8804253479385
 30
0.0
 11
-67.600000000000009
 21
-126.8804253479385
 31
0.0
  0
LINE
  5
2C1
  8
DATA
  6
CONTINUOUS
 62
     7
 10
-67.600000000000009
 20
-127.8804253479385
 30
0.0
 11
-67.600000000000009
 21
-128.88042534793851
 31
0.0
  0
LINE
  5
2C2
  8
DATA
  6
CONTINUOUS
 62
     7
 10
-67.600000000000009
 20
-129.88042534793851
 30
0.0
 11
-67.600000000000009
 21
-130.8804253479386
 31
0.0
  0
LINE
  5
2C3
  8
DATA
  6
CONTINUOUS
 62
     7
 10
-67.600000000000009
 20
-131.88042534793851
 30
0.0
 11
-67.600000000000009
 21
-132.8804253479386
 31
0.0
  0
LINE
  5
2C4
  8
DATA
  6
CONTINUOUS
 62
     7
 10
-67.600000000000009
 20
-133.8804253479386
 30
0.0
 11
-67.600000000000009
 21
-134.8804253479386
 31
0.0
  0
LINE
  5
2C5
  8
DATA
  6
CONTINUOUS
 62
     7
 10
-67.600000000000009
 20
-135.8804253479386
 30
0.0
 11
-67.600000000000009
 21
-136.88042534793851
 31
0.0
  0
LINE
  5
2C6
  8
DATA
  6
CONTINUOUS
 62
     7
 10
-67.600000000000009
 20
-137.88042534793851
 30
0.0
 11
-67.600000000000009
 21
-138.88042534793851
 31
0.0
  0
LINE
  5
2C7
  8
DATA
  6
CONTINUOUS
 62
     7
 10
-67.600000000000009
 20
-143.52170139175419
 30
0.0
 11
-67.600000000000009
 21
-143.88042534793851
 31
0.0
  0
LINE
  5
2C8
  8
DATA
  6
CONTINUOUS
 62
     7
 10
-67.600000000000009
 20
-144.88042534793851
 30
0.0
 11
-67.600000000000009
 21
-145.88042534793851
 31
0.0
  0
LINE
  5
2C9
  8
DATA
  6
CONTINUOUS
 62
     7
 10
-67.600000000000009
 20
-146.88042534793851
 30
0.0
 11
-67.600000000000009
 21
-148.0
 31
0.0
  0
LINE
  5
2CA
  8
DATA
  6
CONTINUOUS
 62
     7
 10
-72.75
 20
-20.0
 30
0.0
 11
-67.250000000000014
 21
-20.0
 31
0.0
  0
CIRCLE
  5
2CB
  8
DATA
  6
CONTINUOUS
 62
     7
 10
-70.0
 20
5.8499999999999988
 30
0.0
 40
7.0
  0
LINE
  5
2CC
  8
DATA
  6
CONTINUOUS
 62
     7
 10
-73.0
 20
-5.3000000000000043
 30
0.0
 11
-73.0
 21
-0.4745553203367586
 31
0.0
  0
LINE
  5
2CD
  8
DATA
  6
CONTINUOUS
 62
     7
 10
-67.0
 20
-0.4745553203367594
 30
0.0
 11
-67.0
 21
-5.3000000000000016
 31
0.0
  0
LINE
  5
2CE
  8
DATA
  6
CONTINUOUS
 62
     7
 10
-67.000000007450581
 20
-5.2999999999999998
 30
0.0
 11
-73.0
 21
-5.2999999999999998
 31
0.0
  0
LINE
  5
2CF
  8
DATA
  6
CONTINUOUS
 62
     7
 10
-72.75
 20
-20.0
 30
0.0
 11
-72.75
 21
-16.0
 31
0.0
  0
LINE
  5
2D0
  8
DATA
  6
CONTINUOUS
 62
     7
 10
-67.250000000000014
 20
-20.0
 30
0.0
 11
-67.250000000000014
 21
-16.0
 31
0.0
  0
LINE
  5
2D1
  8
DATA
  6
CONTINUOUS
 62
     7
 10
-73.5
 20
-6.5418349334735924
 30
0.0
 11
-73.5
 21
-5.7999999999999998
 31
0.0
  0
LINE
  5
2D2
  8
DATA
  6
CONTINUOUS
 62
     7
 10
-66.5
 20
-6.5888417956630967
 30
0.0
 11
-66.5
 21
-5.8000000074505804
 31
0.0
  0
ARC
  5
2D3
  8
DATA
  6
CONTINUOUS
 62
     7
 10
-69.979438439448671
 20
-4.3782576285212729
 30
0.0
 40
4.3217912840866086
 50
220.64183945548379
 51
318.28087435805872
  0
ARC
  5
2D4
  8
DATA
  6
CONTINUOUS
 62
     7
 10
-73.0
 20
-5.7999999999999998
 30
0.0
 40
0.5
 50
90.0
 51
180.0
  0
ARC
  5
2D5
  8
DATA
  6
CONTINUOUS
 62
     7
 10
-67.000000007450581
 20
-5.8000000074505804
 30
0.0
 40
0.5000000074505806
 50
0.0
 51
90.0
  0
ARC
  5
2D6
  8
DATA
  6
CONTINUOUS
 62
     7
 10
-72.500000000000028
 20
-6.5418349334735924
 30
0.0
 40
0.9999999999999715
 50
180.0
 51
220.6418394554845
  0
ARC
  5
2D7
  8
DATA
  6
CONTINUOUS
 62
     7
 10
-67.499999999999972
 20
-6.5888417956630967
 30
0.0
 40
0.9999999999999731
 50
318.28087435805747
 51
0.0
  0
LINE
  5
2D8
  8
DATA
  6
CONTINUOUS
 62
     7
 10
-72.75
 20
-16.0
 30
0.0
 11
-72.400000000000006
 21
-7.9585874505891123
 31
0.0
  0
LINE
  5
2D9
  8
DATA
  6
CONTINUOUS
 62
     7
 10
-67.250000000000014
 20
-16.0
 30
0.0
 11
-67.600000000000009
 21
-7.9860481734505582
 31
0.0
  0
LINE
  5
2DA
  8
DATA
  6
CONTINUOUS
 62
     7
 10
-75.650000000000006
 20
-160.0
 30
0.0
 11
-75.650000000000006
 21
-143.19999999999999
 31
0.0
  0
LINE
  5
2DB
  8
DATA
  6
CONTINUOUS
 62
     7
 10
-64.350000000000009
 20
-143.19999999999999
 30
0.0
 11
-64.350000000000009
 21
-160.0
 31
0.0
  0
LINE
  5
2DC
  8
DATA
  6
CONTINUOUS
 62
     7
 10
-64.350000000000009
 20
-160.0
 30
0.0
 11
-75.650000000000006
 21
-160.0
 31
0.0
  0
LINE
  5
2DD
  8
DATA
  6
CONTINUOUS
 62
     7
 10
-73.25
 20
-160.0
 30
0.0
 11
-73.25
 21
-144.0
 31
0.0
  0
LINE
  5
2DE
  8
DATA
  6
CONTINUOUS
 62
     7
 10
-66.75
 20
-144.0
 30
0.0
 11
-66.75
 21
-160.0
 31
0.0
  0
ARC
  5
2DF
  8
DATA
  6
CONTINUOUS
 62
     7
 10
-70.0
 20
-148.78125
 30
0.0
 40
5.78125
 50
55.794542061895257
 51
124.2054579381047
  0
LINE
  5
2E0
  8
DATA
  6
CONTINUOUS
 62
     7
 10
-73.5
 20
-140.0
 30
0.0
 11
-66.5
 21
-140.0
 31
0.0
  0
LINE
  5
2E1
  8
DATA
  6
CONTINUOUS
 62
     7
 10
-78.199999995529652
 20
-144.0
 30
0.0
 11
-75.650000000000006
 21
-144.0
 31
0.0
  0
LINE
  5
2E2
  8
DATA
  6
CONTINUOUS
 62
     7
 10
-64.349999999999994
 20
-144.0
 30
0.0
 11
-61.800000004470348
 21
-144.0
 31
0.0
  0
LINE
  5
2E3
  8
DATA
  6
CONTINUOUS
 62
     7
 10
-78.200000000000003
 20
-143.19999999999999
 30
0.0
 11
-75.650000000000006
 21
-143.19999999999999
 31
0.0
  0
LINE
  5
2E4
  8
DATA
  6
CONTINUOUS
 62
     7
 10
-64.350000000000009
 20
-143.19999999999999
 30
0.0
 11
-61.800000004470348
 21
-143.19999999999999
 31
0.0
  0
LINE
  5
2E5
  8
DATA
  6
CONTINUOUS
 62
     7
 10
-78.5
 20
-143.69999999552959
 30
0.0
 11
-78.5
 21
-143.5
 31
0.0
  0
LINE
  5
2E6
  8
DATA
  6
CONTINUOUS
 62
     7
 10
-61.5
 20
-143.69999999552959
 30
0.0
 11
-61.5
 21
-143.50000000447031
 31
0.0
  0
LINE
  5
2E7
  8
DATA
  6
CONTINUOUS
 62
     7
 10
-75.650000000000006
 20
-143.19999999999999
 30
0.0
 11
-73.5
 21
-140.0
 31
0.0
  0
LINE
  5
2E8
  8
DATA
  6
CONTINUOUS
 62
     7
 10
-64.350000000000009
 20
-143.19999999999999
 30
0.0
 11
-66.5
 21
-140.0
 31
0.0
  0
LINE
  5
2E9
  8
DATA
  6
CONTINUOUS
 62
     7
 10
-72.400000000000006
 20
-148.0
 30
0.0
 11
-67.600000000000009
 21
-146.88042534793851
 31
0.0
  0
LINE
  5
2EA
  8
DATA
  6
CONTINUOUS
 62
     7
 10
-72.400000000000006
 20
-147.0
 30
0.0
 11
-67.600000000000009
 21
-145.88042534793851
 31
0.0
  0
LINE
  5
2EB
  8
DATA
  6
CONTINUOUS
 62
     7
 10
-72.400000000000006
 20
-146.0
 30
0.0
 11
-67.600000000000009
 21
-144.88042534793851
 31
0.0
  0
LINE
  5
2EC
  8
DATA
  6
CONTINUOUS
 62
     7
 10
-72.400000000000006
 20
-145.0
 30
0.0
 11
-67.600000000000009
 21
-143.88042534793851
 31
0.0
  0
LINE
  5
2ED
  8
DATA
  6
CONTINUOUS
 62
     7
 10
-72.400000000000006
 20
-144.0
 30
0.0
 11
-68.723958287594087
 21
-143.14258268309791
 31
0.0
  0
LINE
  5
2EE
  8
DATA
  6
CONTINUOUS
 62
     7
 10
-72.400000000000006
 20
-140.0
 30
0.0
 11
-67.600000000000009
 21
-138.88042534793851
 31
0.0
  0
LINE
  5
2EF
  8
DATA
  6
CONTINUOUS
 62
     7
 10
-72.400000000000006
 20
-139.0
 30
0.0
 11
-67.600000000000009
 21
-137.88042534793851
 31
0.0
  0
LINE
  5
2F0
  8
DATA
  6
CONTINUOUS
 62
     7
 10
-72.400000000000006
 20
-138.0
 30
0.0
 11
-67.600000000000009
 21
-136.88042534793851
 31
0.0
  0
LINE
  5
2F1
  8
DATA
  6
CONTINUOUS
 62
     7
 10
-72.400000000000006
 20
-137.0
 30
0.0
 11
-67.600000000000009
 21
-135.8804253479386
 31
0.0
  0
LINE
  5
2F2
  8
DATA
  6
CONTINUOUS
 62
     7
 10
-72.400000000000006
 20
-136.0
 30
0.0
 11
-67.600000000000009
 21
-134.8804253479386
 31
0.0
  0
LINE
  5
2F3
  8
DATA
  6
CONTINUOUS
 62
     7
 10
-72.400000000000006
 20
-135.0
 30
0.0
 11
-67.600000000000009
 21
-133.8804253479386
 31
0.0
  0
LINE
  5
2F4
  8
DATA
  6
CONTINUOUS
 62
     7
 10
-72.400000000000006
 20
-134.0
 30
0.0
 11
-67.600000000000009
 21
-132.8804253479386
 31
0.0
  0
LINE
  5
2F5
  8
DATA
  6
CONTINUOUS
 62
     7
 10
-72.400000000000006
 20
-133.0
 30
0.0
 11
-67.600000000000009
 21
-131.8804253479386
 31
0.0
  0
LINE
  5
2F6
  8
DATA
  6
CONTINUOUS
 62
     7
 10
-72.400000000000006
 20
-132.0
 30
0.0
 11
-67.600000000000009
 21
-130.8804253479386
 31
0.0
  0
LINE
  5
2F7
  8
DATA
  6
CONTINUOUS
 62
     7
 10
-72.400000000000006
 20
-131.0
 30
0.0
 11
-67.600000000000009
 21
-129.88042534793851
 31
0.0
  0
LINE
  5
2F8
  8
DATA
  6
CONTINUOUS
 62
     7
 10
-72.400000000000006
 20
-130.0
 30
0.0
 11
-67.600000000000009
 21
-128.88042534793851
 31
0.0
  0
LINE
  5
2F9
  8
DATA
  6
CONTINUOUS
 62
     7
 10
-72.400000000000006
 20
-129.0
 30
0.0
 11
-67.600000000000009
 21
-127.8804253479385
 31
0.0
  0
LINE
  5
2FA
  8
DATA
  6
CONTINUOUS
 62
     7
 10
-72.400000000000006
 20
-128.0
 30
0.0
 11
-67.600000000000009
 21
-126.8804253479385
 31
0.0
  0
LINE
  5
2FB
  8
DATA
  6
CONTINUOUS
 62
     7
 10
-72.400000000000006
 20
-127.0
 30
0.0
 11
-67.600000000000009
 21
-125.8804253479385
 31
0.0
  0
LINE
  5
2FC
  8
DATA
  6
CONTINUOUS
 62
     7
 10
-72.400000000000006
 20
-126.0
 30
0.0
 11
-67.600000000000009
 21
-124.8804253479385
 31
0.0
  0
LINE
  5
2FD
  8
DATA
  6
CONTINUOUS
 62
     7
 10
-72.400000000000006
 20
-125.0
 30
0.0
 11
-67.600000000000009
 21
-123.8804253479385
 31
0.0
  0
LINE
  5
2FE
  8
DATA
  6
CONTINUOUS
 62
     7
 10
-72.400000000000006
 20
-124.0
 30
0.0
 11
-67.600000000000009
 21
-122.8804253479385
 31
0.0
  0
LINE
  5
2FF
  8
DATA
  6
CONTINUOUS
 62
     7
 10
-72.400000000000006
 20
-123.0
 30
0.0
 11
-67.600000000000009
 21
-121.8804253479385
 31
0.0
  0
LINE
  5
300
  8
DATA
  6
CONTINUOUS
 62
     7
 10
-72.400000000000006
 20
-122.0
 30
0.0
 11
-67.600000000000009
 21
-120.8804253479385
 31
0.0
  0
LINE
  5
301
  8
DATA
  6
CONTINUOUS
 62
     7
 10
-72.400000000000006
 20
-121.0
 30
0.0
 11
-67.600000000000009
 21
-119.8804253479385
 31
0.0
  0
LINE
  5
302
  8
DATA
  6
CONTINUOUS
 62
     7
 10
-72.400000000000006
 20
-120.0
 30
0.0
 11
-67.600000000000009
 21
-118.8804253479385
 31
0.0
  0
LINE
  5
303
  8
DATA
  6
CONTINUOUS
 62
     7
 10
-72.400000000000006
 20
-119.0
 30
0.0
 11
-67.600000000000009
 21
-117.8804253479385
 31
0.0
  0
LINE
  5
304
  8
DATA
  6
CONTINUOUS
 62
     7
 10
-72.400000000000006
 20
-118.0
 30
0.0
 11
-67.600000000000009
 21
-116.8804253479385
 31
0.0
  0
LINE
  5
305
  8
DATA
  6
CONTINUOUS
 62
     7
 10
-72.400000000000006
 20
-117.0
 30
0.0
 11
-67.600000000000009
 21
-115.8804253479385
 31
0.0
  0
LINE
  5
306
  8
DATA
  6
CONTINUOUS
 62
     7
 10
-72.400000000000006
 20
-116.0
 30
0.0
 11
-67.600000000000009
 21
-114.8804253479385
 31
0.0
  0
LINE
  5
307
  8
DATA
  6
CONTINUOUS
 62
     7
 10
-72.400000000000006
 20
-115.0
 30
0.0
 11
-67.600000000000009
 21
-113.8804253479385
 31
0.0
  0
LINE
  5
308
  8
DATA
  6
CONTINUOUS
 62
     7
 10
-72.400000000000006
 20
-114.0
 30
0.0
 11
-67.600000000000009
 21
-112.8804253479385
 31
0.0
  0
LINE
  5
309
  8
DATA
  6
CONTINUOUS
 62
     7
 10
-72.400000000000006
 20
-113.0
 30
0.0
 11
-67.600000000000009
 21
-111.8804253479385
 31
0.0
  0
LINE
  5
30A
  8
DATA
  6
CONTINUOUS
 62
     7
 10
-72.400000000000006
 20
-112.0
 30
0.0
 11
-67.600000000000009
 21
-110.8804253479385
 31
0.0
  0
LINE
  5
30B
  8
DATA
  6
CONTINUOUS
 62
     7
 10
-72.400000000000006
 20
-111.0
 30
0.0
 11
-67.600000000000009
 21
-109.8804253479385
 31
0.0
  0
LINE
  5
30C
  8
DATA
  6
CONTINUOUS
 62
     7
 10
-72.400000000000006
 20
-110.0
 30
0.0
 11
-67.600000000000009
 21
-108.8804253479385
 31
0.0
  0
LINE
  5
30D
  8
DATA
  6
CONTINUOUS
 62
     7
 10
-72.400000000000006
 20
-109.0
 30
0.0
 11
-67.600000000000009
 21
-107.8804253479385
 31
0.0
  0
LINE
  5
30E
  8
DATA
  6
CONTINUOUS
 62
     7
 10
-72.400000000000006
 20
-108.0
 30
0.0
 11
-67.600000000000009
 21
-106.8804253479385
 31
0.0
  0
LINE
  5
30F
  8
DATA
  6
CONTINUOUS
 62
     7
 10
-72.400000000000006
 20
-107.0
 30
0.0
 11
-67.600000000000009
 21
-105.8804253479385
 31
0.0
  0
LINE
  5
310
  8
DATA
  6
CONTINUOUS
 62
     7
 10
-72.400000000000006
 20
-106.0
 30
0.0
 11
-67.600000000000009
 21
-104.8804253479385
 31
0.0
  0
LINE
  5
311
  8
DATA
  6
CONTINUOUS
 62
     7
 10
-72.400000000000006
 20
-105.0
 30
0.0
 11
-67.600000000000009
 21
-103.8804253479385
 31
0.0
  0
LINE
  5
312
  8
DATA
  6
CONTINUOUS
 62
     7
 10
-72.400000000000006
 20
-104.0
 30
0.0
 11
-67.600000000000009
 21
-102.8804253479385
 31
0.0
  0
LINE
  5
313
  8
DATA
  6
CONTINUOUS
 62
     7
 10
-72.400000000000006
 20
-103.0
 30
0.0
 11
-67.600000000000009
 21
-101.8804253479385
 31
0.0
  0
LINE
  5
314
  8
DATA
  6
CONTINUOUS
 62
     7
 10
-72.400000000000006
 20
-102.0
 30
0.0
 11
-67.600000000000009
 21
-100.8804253479385
 31
0.0
  0
LINE
  5
315
  8
DATA
  6
CONTINUOUS
 62
     7
 10
-72.400000000000006
 20
-101.0
 30
0.0
 11
-67.600000000000009
 21
-99.880425347938569
 31
0.0
  0
LINE
  5
316
  8
DATA
  6
CONTINUOUS
 62
     7
 10
-72.400000000000006
 20
-100.0
 30
0.0
 11
-67.600000000000009
 21
-98.880425347938569
 31
0.0
  0
LINE
  5
317
  8
DATA
  6
CONTINUOUS
 62
     7
 10
-72.400000000000006
 20
-99.0
 30
0.0
 11
-67.600000000000009
 21
-97.880425347938569
 31
0.0
  0
LINE
  5
318
  8
DATA
  6
CONTINUOUS
 62
     7
 10
-72.400000000000006
 20
-98.0
 30
0.0
 11
-67.600000000000009
 21
-96.880425347938584
 31
0.0
  0
LINE
  5
319
  8
DATA
  6
CONTINUOUS
 62
     7
 10
-72.400000000000006
 20
-97.0
 30
0.0
 11
-67.600000000000009
 21
-95.880425347938555
 31
0.0
  0
LINE
  5
31A
  8
DATA
  6
CONTINUOUS
 62
     7
 10
-72.400000000000006
 20
-96.0
 30
0.0
 11
-67.600000000000009
 21
-94.880425347938569
 31
0.0
  0
LINE
  5
31B
  8
DATA
  6
CONTINUOUS
 62
     7
 10
-72.400000000000006
 20
-95.0
 30
0.0
 11
-67.600000000000009
 21
-93.880425347938569
 31
0.0
  0
LINE
  5
31C
  8
DATA
  6
CONTINUOUS
 62
     7
 10
-72.400000000000006
 20
-94.0
 30
0.0
 11
-67.600000000000009
 21
-92.880425347938569
 31
0.0
  0
LINE
  5
31D
  8
DATA
  6
CONTINUOUS
 62
     7
 10
-72.400000000000006
 20
-93.0
 30
0.0
 11
-67.600000000000009
 21
-91.880425347938555
 31
0.0
  0
LINE
  5
31E
  8
DATA
  6
CONTINUOUS
 62
     7
 10
-72.400000000000006
 20
-92.0
 30
0.0
 11
-67.600000000000009
 21
-90.880425347938555
 31
0.0
  0
LINE
  5
31F
  8
DATA
  6
CONTINUOUS
 62
     7
 10
-72.400000000000006
 20
-91.0
 30
0.0
 11
-67.600000000000009
 21
-89.880425347938569
 31
0.0
  0
LINE
  5
320
  8
DATA
  6
CONTINUOUS
 62
     7
 10
-72.400000000000006
 20
-90.0
 30
0.0
 11
-67.600000000000009
 21
-88.880425347938569
 31
0.0
  0
LINE
  5
321
  8
DATA
  6
CONTINUOUS
 62
     7
 10
-72.400000000000006
 20
-89.0
 30
0.0
 11
-67.600000000000009
 21
-87.880425347938569
 31
0.0
  0
LINE
  5
322
  8
DATA
  6
CONTINUOUS
 62
     7
 10
-72.400000000000006
 20
-88.0
 30
0.0
 11
-67.600000000000009
 21
-86.880425347938555
 31
0.0
  0
LINE
  5
323
  8
DATA
  6
CONTINUOUS
 62
     7
 10
-72.400000000000006
 20
-87.0
 30
0.0
 11
-67.600000000000009
 21
-85.880425347938555
 31
0.0
  0
LINE
  5
324
  8
DATA
  6
CONTINUOUS
 62
     7
 10
-72.400000000000006
 20
-86.0
 30
0.0
 11
-67.600000000000009
 21
-84.880425347938569
 31
0.0
  0
LINE
  5
325
  8
DATA
  6
CONTINUOUS
 62
     7
 10
-72.400000000000006
 20
-85.0
 30
0.0
 11
-67.600000000000009
 21
-83.880425347938569
 31
0.0
  0
LINE
  5
326
  8
DATA
  6
CONTINUOUS
 62
     7
 10
-72.400000000000006
 20
-84.0
 30
0.0
 11
-67.600000000000009
 21
-82.880425347938569
 31
0.0
  0
LINE
  5
327
  8
DATA
  6
CONTINUOUS
 62
     7
 10
-72.400000000000006
 20
-83.0
 30
0.0
 11
-67.600000000000009
 21
-81.880425347938555
 31
0.0
  0
LINE
  5
328
  8
DATA
  6
CONTINUOUS
 62
     7
 10
-72.400000000000006
 20
-82.0
 30
0.0
 11
-67.600000000000009
 21
-80.880425347938555
 31
0.0
  0
LINE
  5
329
  8
DATA
  6
CONTINUOUS
 62
     7
 10
-72.400000000000006
 20
-81.0
 30
0.0
 11
-67.600000000000009
 21
-79.880425347938569
 31
0.0
  0
LINE
  5
32A
  8
DATA
  6
CONTINUOUS
 62
     7
 10
-72.400000000000006
 20
-80.0
 30
0.0
 11
-67.600000000000009
 21
-78.880425347938569
 31
0.0
  0
LINE
  5
32B
  8
DATA
  6
CONTINUOUS
 62
     7
 10
-72.400000000000006
 20
-79.0
 30
0.0
 11
-67.600000000000009
 21
-77.880425347938569
 31
0.0
  0
LINE
  5
32C
  8
DATA
  6
CONTINUOUS
 62
     7
 10
-72.400000000000006
 20
-78.0
 30
0.0
 11
-67.600000000000009
 21
-76.880425347938569
 31
0.0
  0
LINE
  5
32D
  8
DATA
  6
CONTINUOUS
 62
     7
 10
-72.400000000000006
 20
-77.0
 30
0.0
 11
-67.600000000000009
 21
-75.880425347938555
 31
0.0
  0
LINE
  5
32E
  8
DATA
  6
CONTINUOUS
 62
     7
 10
-72.400000000000006
 20
-76.0
 30
0.0
 11
-67.600000000000009
 21
-74.880425347938569
 31
0.0
  0
LINE
  5
32F
  8
DATA
  6
CONTINUOUS
 62
     7
 10
-72.400000000000006
 20
-75.0
 30
0.0
 11
-67.600000000000009
 21
-73.880425347938569
 31
0.0
  0
LINE
  5
330
  8
DATA
  6
CONTINUOUS
 62
     7
 10
-72.400000000000006
 20
-74.0
 30
0.0
 11
-67.600000000000009
 21
-72.880425347938569
 31
0.0
  0
LINE
  5
331
  8
DATA
  6
CONTINUOUS
 62
     7
 10
-72.400000000000006
 20
-73.0
 30
0.0
 11
-67.600000000000009
 21
-71.880425347938569
 31
0.0
  0
LINE
  5
332
  8
DATA
  6
CONTINUOUS
 62
     7
 10
-72.400000000000006
 20
-72.0
 30
0.0
 11
-67.600000000000009
 21
-70.880425347938555
 31
0.0
  0
LINE
  5
333
  8
DATA
  6
CONTINUOUS
 62
     7
 10
-72.400000000000006
 20
-71.0
 30
0.0
 11
-67.600000000000009
 21
-69.880425347938569
 31
0.0
  0
LINE
  5
334
  8
DATA
  6
CONTINUOUS
 62
     7
 10
-72.400000000000006
 20
-70.0
 30
0.0
 11
-67.600000000000009
 21
-68.880425347938569
 31
0.0
  0
LINE
  5
335
  8
DATA
  6
CONTINUOUS
 62
     7
 10
-72.400000000000006
 20
-69.0
 30
0.0
 11
-67.600000000000009
 21
-67.880425347938569
 31
0.0
  0
LINE
  5
336
  8
DATA
  6
CONTINUOUS
 62
     7
 10
-72.400000000000006
 20
-68.0
 30
0.0
 11
-67.600000000000009
 21
-66.880425347938569
 31
0.0
  0
LINE
  5
337
  8
DATA
  6
CONTINUOUS
 62
     7
 10
-72.400000000000006
 20
-67.0
 30
0.0
 11
-67.600000000000009
 21
-65.880425347938555
 31
0.0
  0
LINE
  5
338
  8
DATA
  6
CONTINUOUS
 62
     7
 10
-72.400000000000006
 20
-66.0
 30
0.0
 11
-67.600000000000009
 21
-64.880425347938569
 31
0.0
  0
LINE
  5
339
  8
DATA
  6
CONTINUOUS
 62
     7
 10
-72.400000000000006
 20
-65.0
 30
0.0
 11
-67.600000000000009
 21
-63.880425347938569
 31
0.0
  0
LINE
  5
33A
  8
DATA
  6
CONTINUOUS
 62
     7
 10
-72.400000000000006
 20
-64.0
 30
0.0
 11
-67.600000000000009
 21
-62.880425347938569
 31
0.0
  0
LINE
  5
33B
  8
DATA
  6
CONTINUOUS
 62
     7
 10
-72.400000000000006
 20
-63.0
 30
0.0
 11
-67.600000000000009
 21
-61.880425347938569
 31
0.0
  0
LINE
  5
33C
  8
DATA
  6
CONTINUOUS
 62
     7
 10
-72.400000000000006
 20
-62.0
 30
0.0
 11
-67.600000000000009
 21
-60.880425347938562
 31
0.0
  0
LINE
  5
33D
  8
DATA
  6
CONTINUOUS
 62
     7
 10
-72.400000000000006
 20
-61.0
 30
0.0
 11
-67.600000000000009
 21
-59.880425347938569
 31
0.0
  0
LINE
  5
33E
  8
DATA
  6
CONTINUOUS
 62
     7
 10
-72.400000000000006
 20
-60.0
 30
0.0
 11
-67.600000000000009
 21
-58.880425347938569
 31
0.0
  0
LINE
  5
33F
  8
DATA
  6
CONTINUOUS
 62
     7
 10
-72.400000000000006
 20
-59.0
 30
0.0
 11
-67.600000000000009
 21
-57.880425347938569
 31
0.0
  0
LINE
  5
340
  8
DATA
  6
CONTINUOUS
 62
     7
 10
-72.400000000000006
 20
-58.0
 30
0.0
 11
-67.600000000000009
 21
-56.880425347938569
 31
0.0
  0
LINE
  5
341
  8
DATA
  6
CONTINUOUS
 62
     7
 10
-72.400000000000006
 20
-57.0
 30
0.0
 11
-67.600000000000009
 21
-55.880425347938562
 31
0.0
  0
LINE
  5
342
  8
DATA
  6
CONTINUOUS
 62
     7
 10
-72.400000000000006
 20
-56.0
 30
0.0
 11
-67.600000000000009
 21
-54.880425347938569
 31
0.0
  0
LINE
  5
343
  8
DATA
  6
CONTINUOUS
 62
     7
 10
-72.400000000000006
 20
-55.0
 30
0.0
 11
-67.600000000000009
 21
-53.880425347938569
 31
0.0
  0
LINE
  5
344
  8
DATA
  6
CONTINUOUS
 62
     7
 10
-72.400000000000006
 20
-54.0
 30
0.0
 11
-67.600000000000009
 21
-52.880425347938569
 31
0.0
  0
LINE
  5
345
  8
DATA
  6
CONTINUOUS
 62
     7
 10
-72.400000000000006
 20
-53.0
 30
0.0
 11
-67.600000000000009
 21
-51.880425347938569
 31
0.0
  0
LINE
  5
346
  8
DATA
  6
CONTINUOUS
 62
     7
 10
-72.400000000000006
 20
-52.0
 30
0.0
 11
-67.600000000000009
 21
-50.880425347938562
 31
0.0
  0
LINE
  5
347
  8
DATA
  6
CONTINUOUS
 62
     7
 10
-72.400000000000006
 20
-51.0
 30
0.0
 11
-67.600000000000009
 21
-49.880425347938569
 31
0.0
  0
LINE
  5
348
  8
DATA
  6
CONTINUOUS
 62
     7
 10
-72.400000000000006
 20
-50.0
 30
0.0
 11
-67.600000000000009
 21
-48.880425347938569
 31
0.0
  0
LINE
  5
349
  8
DATA
  6
CONTINUOUS
 62
     7
 10
-72.400000000000006
 20
-49.0
 30
0.0
 11
-67.600000000000009
 21
-47.880425347938569
 31
0.0
  0
LINE
  5
34A
  8
DATA
  6
CONTINUOUS
 62
     7
 10
-72.400000000000006
 20
-48.0
 30
0.0
 11
-67.600000000000009
 21
-46.880425347938569
 31
0.0
  0
LINE
  5
34B
  8
DATA
  6
CONTINUOUS
 62
     7
 10
-72.400000000000006
 20
-47.0
 30
0.0
 11
-67.600000000000009
 21
-45.880425347938562
 31
0.0
  0
LINE
  5
34C
  8
DATA
  6
CONTINUOUS
 62
     7
 10
-72.400000000000006
 20
-46.0
 30
0.0
 11
-67.600000000000009
 21
-44.880425347938569
 31
0.0
  0
LINE
  5
34D
  8
DATA
  6
CONTINUOUS
 62
     7
 10
-72.400000000000006
 20
-45.0
 30
0.0
 11
-67.600000000000009
 21
-43.880425347938562
 31
0.0
  0
LINE
  5
34E
  8
DATA
  6
CONTINUOUS
 62
     7
 10
-72.400000000000006
 20
-44.0
 30
0.0
 11
-67.600000000000009
 21
-42.880425347938569
 31
0.0
  0
LINE
  5
34F
  8
DATA
  6
CONTINUOUS
 62
     7
 10
-72.400000000000006
 20
-43.0
 30
0.0
 11
-67.600000000000009
 21
-41.880425347938569
 31
0.0
  0
LINE
  5
350
  8
DATA
  6
CONTINUOUS
 62
     7
 10
-72.400000000000006
 20
-42.0
 30
0.0
 11
-67.600000000000009
 21
-40.880425347938562
 31
0.0
  0
LINE
  5
351
  8
DATA
  6
CONTINUOUS
 62
     7
 10
-72.400000000000006
 20
-41.0
 30
0.0
 11
-67.600000000000009
 21
-39.880425347938569
 31
0.0
  0
LINE
  5
352
  8
DATA
  6
CONTINUOUS
 62
     7
 10
-72.400000000000006
 20
-40.0
 30
0.0
 11
-67.600000000000009
 21
-38.880425347938569
 31
0.0
  0
LINE
  5
353
  8
DATA
  6
CONTINUOUS
 62
     7
 10
-72.400000000000006
 20
-39.0
 30
0.0
 11
-67.600000000000009
 21
-37.880425347938569
 31
0.0
  0
LINE
  5
354
  8
DATA
  6
CONTINUOUS
 62
     7
 10
-72.400000000000006
 20
-38.0
 30
0.0
 11
-67.600000000000009
 21
-36.880425347938569
 31
0.0
  0
LINE
  5
355
  8
DATA
  6
CONTINUOUS
 62
     7
 10
-72.400000000000006
 20
-37.0
 30
0.0
 11
-67.600000000000009
 21
-35.880425347938569
 31
0.0
  0
LINE
  5
356
  8
DATA
  6
CONTINUOUS
 62
     7
 10
-72.400000000000006
 20
-36.0
 30
0.0
 11
-67.600000000000009
 21
-34.880425347938569
 31
0.0
  0
LINE
  5
357
  8
DATA
  6
CONTINUOUS
 62
     7
 10
-72.400000000000006
 20
-35.0
 30
0.0
 11
-67.600000000000009
 21
-33.880425347938569
 31
0.0
  0
LINE
  5
358
  8
DATA
  6
CONTINUOUS
 62
     7
 10
-72.400000000000006
 20
-34.0
 30
0.0
 11
-67.600000000000009
 21
-32.880425347938569
 31
0.0
  0
LINE
  5
359
  8
DATA
  6
CONTINUOUS
 62
     7
 10
-72.400000000000006
 20
-33.0
 30
0.0
 11
-67.600000000000009
 21
-31.880425347938569
 31
0.0
  0
LINE
  5
35A
  8
DATA
  6
CONTINUOUS
 62
     7
 10
-72.400000000000006
 20
-32.0
 30
0.0
 11
-67.600000000000009
 21
-30.880425347938569
 31
0.0
  0
LINE
  5
35B
  8
DATA
  6
CONTINUOUS
 62
     7
 10
-72.400000000000006
 20
-31.0
 30
0.0
 11
-67.600000000000009
 21
-29.880425347938569
 31
0.0
  0
LINE
  5
35C
  8
DATA
  6
CONTINUOUS
 62
     7
 10
-72.400000000000006
 20
-30.0
 30
0.0
 11
-67.600000000000009
 21
-28.880425347938569
 31
0.0
  0
LINE
  5
35D
  8
DATA
  6
CONTINUOUS
 62
     7
 10
-72.400000000000006
 20
-29.0
 30
0.0
 11
-67.600000000000009
 21
-27.880425347938569
 31
0.0
  0
LINE
  5
35E
  8
DATA
  6
CONTINUOUS
 62
     7
 10
-72.400000000000006
 20
-28.0
 30
0.0
 11
-67.600000000000009
 21
-26.880425347938569
 31
0.0
  0
LINE
  5
35F
  8
DATA
  6
CONTINUOUS
 62
     7
 10
-72.400000000000006
 20
-27.0
 30
0.0
 11
-67.600000000000009
 21
-25.880425347938569
 31
0.0
  0
LINE
  5
360
  8
DATA
  6
CONTINUOUS
 62
     7
 10
-72.400000000000006
 20
-26.0
 30
0.0
 11
-67.600000000000009
 21
-24.880425347938569
 31
0.0
  0
LINE
  5
361
  8
DATA
  6
CONTINUOUS
 62
     7
 10
-72.400000000000006
 20
-25.0
 30
0.0
 11
-67.600000000000009
 21
-23.880425347938569
 31
0.0
  0
LINE
  5
362
  8
DATA
  6
CONTINUOUS
 62
     7
 10
-72.400000000000006
 20
-24.0
 30
0.0
 11
-67.600000000000009
 21
-22.880425347938569
 31
0.0
  0
LINE
  5
363
  8
DATA
  6
CONTINUOUS
 62
     7
 10
-72.400000000000006
 20
-23.0
 30
0.0
 11
-67.600000000000009
 21
-21.880425347938569
 31
0.0
  0
LINE
  5
364
  8
DATA
  6
CONTINUOUS
 62
     7
 10
-72.400000000000006
 20
-22.0
 30
0.0
 11
-68.112657489018773
 21
-21.0
 31
0.0
  0
LINE
  5
365
  8
DATA
  6
CONTINUOUS
 62
     7
 10
-72.25
 20
-140.0
 30
0.0
 11
-72.25
 21
-139.96501329212299
 31
0.0
  0
LINE
  5
366
  8
DATA
  6
CONTINUOUS
 62
     7
 10
-72.25
 20
-138.96501329212299
 30
0.0
 11
-72.25
 21
-137.96501329212299
 31
0.0
  0
LINE
  5
367
  8
DATA
  6
CONTINUOUS
 62
     7
 10
-72.25
 20
-136.96501329212299
 30
0.0
 11
-72.25
 21
-135.96501329212299
 31
0.0
  0
LINE
  5
368
  8
DATA
  6
CONTINUOUS
 62
     7
 10
-72.25
 20
-134.96501329212299
 30
0.0
 11
-72.25
 21
-133.96501329212299
 31
0.0
  0
LINE
  5
369
  8
DATA
  6
CONTINUOUS
 62
     7
 10
-72.25
 20
-132.96501329212299
 30
0.0
 11
-72.25
 21
-131.96501329212299
 31
0.0
  0
LINE
  5
36A
  8
DATA
  6
CONTINUOUS
 62
     7
 10
-72.25
 20
-130.96501329212299
 30
0.0
 11
-72.25
 21
-129.9650132921231
 31
0.0
  0
LINE
  5
36B
  8
DATA
  6
CONTINUOUS
 62
     7
 10
-72.25
 20
-128.9650132921231
 30
0.0
 11
-72.25
 21
-127.9650132921231
 31
0.0
  0
LINE
  5
36C
  8
DATA
  6
CONTINUOUS
 62
     7
 10
-72.25
 20
-126.9650132921231
 30
0.0
 11
-72.25
 21
-125.9650132921231
 31
0.0
  0
LINE
  5
36D
  8
DATA
  6
CONTINUOUS
 62
     7
 10
-72.25
 20
-124.9650132921231
 30
0.0
 11
-72.25
 21
-123.9650132921231
 31
0.0
  0
LINE
  5
36E
  8
DATA
  6
CONTINUOUS
 62
     7
 10
-72.25
 20
-122.9650132921231
 30
0.0
 11
-72.25
 21
-121.9650132921231
 31
0.0
  0
LINE
  5
36F
  8
DATA
  6
CONTINUOUS
 62
     7
 10
-72.25
 20
-120.9650132921231
 30
0.0
 11
-72.25
 21
-119.9650132921231
 31
0.0
  0
LINE
  5
370
  8
DATA
  6
CONTINUOUS
 62
     7
 10
-72.25
 20
-118.965013292123
 30
0.0
 11
-72.25
 21
-117.965013292123
 31
0.0
  0
LINE
  5
371
  8
DATA
  6
CONTINUOUS
 62
     7
 10
-72.25
 20
-116.965013292123
 30
0.0
 11
-72.25
 21
-115.965013292123
 31
0.0
  0
LINE
  5
372
  8
DATA
  6
CONTINUOUS
 62
     7
 10
-72.25
 20
-114.965013292123
 30
0.0
 11
-72.25
 21
-113.965013292123
 31
0.0
  0
LINE
  5
373
  8
DATA
  6
CONTINUOUS
 62
     7
 10
-72.25
 20
-112.965013292123
 30
0.0
 11
-72.25
 21
-111.965013292123
 31
0.0
  0
LINE
  5
374
  8
DATA
  6
CONTINUOUS
 62
     7
 10
-72.25
 20
-110.965013292123
 30
0.0
 11
-72.25
 21
-109.965013292123
 31
0.0
  0
LINE
  5
375
  8
DATA
  6
CONTINUOUS
 62
     7
 10
-72.25
 20
-108.965013292123
 30
0.0
 11
-72.25
 21
-107.965013292123
 31
0.0
  0
LINE
  5
376
  8
DATA
  6
CONTINUOUS
 62
     7
 10
-72.25
 20
-106.965013292123
 30
0.0
 11
-72.25
 21
-105.965013292123
 31
0.0
  0
LINE
  5
377
  8
DATA
  6
CONTINUOUS
 62
     7
 10
-72.25
 20
-104.965013292123
 30
0.0
 11
-72.25
 21
-103.9650132921231
 31
0.0
  0
LINE
  5
378
  8
DATA
  6
CONTINUOUS
 62
     7
 10
-72.25
 20
-102.9650132921231
 30
0.0
 11
-72.25
 21
-101.9650132921231
 31
0.0
  0
LINE
  5
379
  8
DATA
  6
CONTINUOUS
 62
     7
 10
-72.25
 20
-100.9650132921231
 30
0.0
 11
-72.25
 21
-99.965013292123075
 31
0.0
  0
LINE
  5
37A
  8
DATA
  6
CONTINUOUS
 62
     7
 10
-72.25
 20
-98.965013292123075
 30
0.0
 11
-72.25
 21
-97.965013292123075
 31
0.0
  0
LINE
  5
37B
  8
DATA
  6
CONTINUOUS
 62
     7
 10
-72.25
 20
-96.965013292123075
 30
0.0
 11
-72.25
 21
-95.965013292123075
 31
0.0
  0
LINE
  5
37C
  8
DATA
  6
CONTINUOUS
 62
     7
 10
-72.25
 20
-94.965013292123075
 30
0.0
 11
-72.25
 21
-93.965013292123075
 31
0.0
  0
LINE
  5
37D
  8
DATA
  6
CONTINUOUS
 62
     7
 10
-72.25
 20
-92.965013292123047
 30
0.0
 11
-72.25
 21
-91.965013292123075
 31
0.0
  0
LINE
  5
37E
  8
DATA
  6
CONTINUOUS
 62
     7
 10
-72.25
 20
-90.965013292123075
 30
0.0
 11
-72.25
 21
-89.965013292123075
 31
0.0
  0
LINE
  5
37F
  8
DATA
  6
CONTINUOUS
 62
     7
 10
-72.25
 20
-88.965013292123075
 30
0.0
 11
-72.25
 21
-87.965013292123075
 31
0.0
  0
LINE
  5
380
  8
DATA
  6
CONTINUOUS
 62
     7
 10
-72.25
 20
-86.965013292123075
 30
0.0
 11
-72.25
 21
-85.965013292123075
 31
0.0
  0
LINE
  5
381
  8
DATA
  6
CONTINUOUS
 62
     7
 10
-72.25
 20
-84.965013292123047
 30
0.0
 11
-72.25
 21
-83.965013292123061
 31
0.0
  0
LINE
  5
382
  8
DATA
  6
CONTINUOUS
 62
     7
 10
-72.25
 20
-82.965013292123089
 30
0.0
 11
-72.25
 21
-81.965013292123061
 31
0.0
  0
LINE
  5
383
  8
DATA
  6
CONTINUOUS
 62
     7
 10
-72.25
 20
-80.965013292123075
 30
0.0
 11
-72.25
 21
-79.965013292123103
 31
0.0
  0
LINE
  5
384
  8
DATA
  6
CONTINUOUS
 62
     7
 10
-72.25
 20
-78.965013292123061
 30
0.0
 11
-72.25
 21
-77.965013292123061
 31
0.0
  0
LINE
  5
385
  8
DATA
  6
CONTINUOUS
 62
     7
 10
-72.25
 20
-76.965013292123061
 30
0.0
 11
-72.25
 21
-75.965013292123061
 31
0.0
  0
LINE
  5
386
  8
DATA
  6
CONTINUOUS
 62
     7
 10
-72.25
 20
-74.965013292123061
 30
0.0
 11
-72.25
 21
-73.965013292123061
 31
0.0
  0
LINE
  5
387
  8
DATA
  6
CONTINUOUS
 62
     7
 10
-72.25
 20
-72.965013292123061
 30
0.0
 11
-72.25
 21
-71.965013292123075
 31
0.0
  0
LINE
  5
388
  8
DATA
  6
CONTINUOUS
 62
     7
 10
-72.25
 20
-70.965013292123075
 30
0.0
 11
-72.25
 21
-69.965013292123075
 31
0.0
  0
LINE
  5
389
  8
DATA
  6
CONTINUOUS
 62
     7
 10
-72.25
 20
-68.965013292123075
 30
0.0
 11
-72.25
 21
-67.965013292123075
 31
0.0
  0
LINE
  5
38A
  8
DATA
  6
CONTINUOUS
 62
     7
 10
-72.25
 20
-66.965013292123075
 30
0.0
 11
-72.25
 21
-65.965013292123075
 31
0.0
  0
LINE
  5
38B
  8
DATA
  6
CONTINUOUS
 62
     7
 10
-72.25
 20
-64.965013292123075
 30
0.0
 11
-72.25
 21
-63.965013292123082
 31
0.0
  0
LINE
  5
38C
  8
DATA
  6
CONTINUOUS
 62
     7
 10
-72.25
 20
-62.965013292123082
 30
0.0
 11
-72.25
 21
-61.965013292123103
 31
0.0
  0
LINE
  5
38D
  8
DATA
  6
CONTINUOUS
 62
     7
 10
-72.25
 20
-60.965013292123089
 30
0.0
 11
-72.25
 21
-59.965013292123082
 31
0.0
  0
LINE
  5
38E
  8
DATA
  6
CONTINUOUS
 62
     7
 10
-72.25
 20
-58.965013292123082
 30
0.0
 11
-72.25
 21
-57.965013292123082
 31
0.0
  0
LINE
  5
38F
  8
DATA
  6
CONTINUOUS
 62
     7
 10
-72.25
 20
-56.965013292123061
 30
0.0
 11
-72.25
 21
-55.965013292123082
 31
0.0
  0
LINE
  5
390
  8
DATA
  6
CONTINUOUS
 62
     7
 10
-72.25
 20
-54.965013292123103
 30
0.0
 11
-72.25
 21
-53.965013292123061
 31
0.0
  0
LINE
  5
391
  8
DATA
  6
CONTINUOUS
 62
     7
 10
-72.25
 20
-52.965013292123082
 30
0.0
 11
-72.25
 21
-51.965013292123082
 31
0.0
  0
LINE
  5
392
  8
DATA
  6
CONTINUOUS
 62
     7
 10
-72.25
 20
-50.965013292123082
 30
0.0
 11
-72.25
 21
-49.965013292123082
 31
0.0
  0
LINE
  5
393
  8
DATA
  6
CONTINUOUS
 62
     7
 10
-72.25
 20
-48.965013292123089
 30
0.0
 11
-72.25
 21
-47.965013292123089
 31
0.0
  0
LINE
  5
394
  8
DATA
  6
CONTINUOUS
 62
     7
 10
-72.25
 20
-46.965013292123082
 30
0.0
 11
-72.25
 21
-45.965013292123082
 31
0.0
  0
LINE
  5
395
  8
DATA
  6
CONTINUOUS
 62
     7
 10
-72.25
 20
-44.965013292123103
 30
0.0
 11
-72.25
 21
-43.965013292123061
 31
0.0
  0
LINE
  5
396
  8
DATA
  6
CONTINUOUS
 62
     7
 10
-72.25
 20
-42.965013292123082
 30
0.0
 11
-72.25
 21
-41.965013292123082
 31
0.0
  0
LINE
  5
397
  8
DATA
  6
CONTINUOUS
 62
     7
 10
-72.25
 20
-40.965013292123082
 30
0.0
 11
-72.25
 21
-39.965013292123082
 31
0.0
  0
LINE
  5
398
  8
DATA
  6
CONTINUOUS
 62
     7
 10
-72.25
 20
-38.965013292123082
 30
0.0
 11
-72.25
 21
-37.965013292123082
 31
0.0
  0
LINE
  5
399
  8
DATA
  6
CONTINUOUS
 62
     7
 10
-72.25
 20
-36.965013292123089
 30
0.0
 11
-72.25
 21
-35.965013292123082
 31
0.0
  0
LINE
  5
39A
  8
DATA
  6
CONTINUOUS
 62
     7
 10
-72.25
 20
-34.965013292123082
 30
0.0
 11
-72.25
 21
-33.965013292123082
 31
0.0
  0
LINE
  5
39B
  8
DATA
  6
CONTINUOUS
 62
     7
 10
-72.25
 20
-32.965013292123082
 30
0.0
 11
-72.25
 21
-31.965013292123079
 31
0.0
  0
LINE
  5
39C
  8
DATA
  6
CONTINUOUS
 62
     7
 10
-72.25
 20
-30.965013292123071
 30
0.0
 11
-72.25
 21
-29.965013292123079
 31
0.0
  0
LINE
  5
39D
  8
DATA
  6
CONTINUOUS
 62
     7
 10
-72.25
 20
-28.965013292123079
 30
0.0
 11
-72.25
 21
-27.965013292123079
 31
0.0
  0
LINE
  5
39E
  8
DATA
  6
CONTINUOUS
 62
     7
 10
-72.25
 20
-26.965013292123079
 30
0.0
 11
-72.25
 21
-25.965013292123071
 31
0.0
  0
LINE
  5
39F
  8
DATA
  6
CONTINUOUS
 62
     7
 10
-72.25
 20
-24.965013292123079
 30
0.0
 11
-72.25
 21
-23.965013292123071
 31
0.0
  0
LINE
  5
3A0
  8
DATA
  6
CONTINUOUS
 62
     7
 10
-72.25
 20
-22.965013292123079
 30
0.0
 11
-72.25
 21
-21.965013292123079
 31
0.0
  0
LINE
  5
3A1
  8
DATA
  6
CONTINUOUS
 62
     7
 10
-67.750000002200011
 20
-20.999999999999979
 30
0.0
 11
-67.750000002200011
 21
-21.915412056328631
 31
0.0
  0
LINE
  5
3A2
  8
DATA
  6
CONTINUOUS
 62
     7
 10
-67.750000002200011
 20
-22.915412056328631
 30
0.0
 11
-67.750000002200011
 21
-23.915412056328631
 31
0.0
  0
LINE
  5
3A3
  8
DATA
  6
CONTINUOUS
 62
     7
 10
-67.750000002200011
 20
-24.915412056328631
 30
0.0
 11
-67.750000002200011
 21
-25.915412056328631
 31
0.0
  0
LINE
  5
3A4
  8
DATA
  6
CONTINUOUS
 62
     7
 10
-67.750000002200011
 20
-26.915412056328631
 30
0.0
 11
-67.750000002200011
 21
-27.915412056328631
 31
0.0
  0
LINE
  5
3A5
  8
DATA
  6
CONTINUOUS
 62
     7
 10
-67.750000002200011
 20
-28.915412056328631
 30
0.0
 11
-67.750000002200011
 21
-29.915412056328631
 31
0.0
  0
LINE
  5
3A6
  8
DATA
  6
CONTINUOUS
 62
     7
 10
-67.750000002200011
 20
-30.915412056328631
 30
0.0
 11
-67.750000002200011
 21
-31.915412056328631
 31
0.0
  0
LINE
  5
3A7
  8
DATA
  6
CONTINUOUS
 62
     7
 10
-67.750000002200011
 20
-32.91541205632862
 30
0.0
 11
-67.750000002200011
 21
-33.915412056328627
 31
0.0
  0
LINE
  5
3A8
  8
DATA
  6
CONTINUOUS
 62
     7
 10
-67.750000002200011
 20
-34.915412056328627
 30
0.0
 11
-67.750000002200011
 21
-35.915412056328627
 31
0.0
  0
LINE
  5
3A9
  8
DATA
  6
CONTINUOUS
 62
     7
 10
-67.750000002200011
 20
-36.915412056328627
 30
0.0
 11
-67.750000002200011
 21
-37.915412056328627
 31
0.0
  0
LINE
  5
3AA
  8
DATA
  6
CONTINUOUS
 62
     7
 10
-67.750000002200011
 20
-38.915412056328641
 30
0.0
 11
-67.750000002200011
 21
-39.915412056328627
 31
0.0
  0
LINE
  5
3AB
  8
DATA
  6
CONTINUOUS
 62
     7
 10
-67.750000002200011
 20
-40.915412056328627
 30
0.0
 11
-67.750000002200011
 21
-41.915412056328613
 31
0.0
  0
LINE
  5
3AC
  8
DATA
  6
CONTINUOUS
 62
     7
 10
-67.750000002200011
 20
-42.915412056328613
 30
0.0
 11
-67.750000002200011
 21
-43.91541205632862
 31
0.0
  0
LINE
  5
3AD
  8
DATA
  6
CONTINUOUS
 62
     7
 10
-67.750000002200011
 20
-44.915412056328641
 30
0.0
 11
-67.750000002200011
 21
-45.91541205632862
 31
0.0
  0
LINE
  5
3AE
  8
DATA
  6
CONTINUOUS
 62
     7
 10
-67.750000002200011
 20
-46.91541205632862
 30
0.0
 11
-67.750000002200011
 21
-47.915412056328641
 31
0.0
  0
LINE
  5
3AF
  8
DATA
  6
CONTINUOUS
 62
     7
 10
-67.750000002200011
 20
-48.91541205632862
 30
0.0
 11
-67.750000002200011
 21
-49.915412056328627
 31
0.0
  0
LINE
  5
3B0
  8
DATA
  6
CONTINUOUS
 62
     7
 10
-67.750000002200011
 20
-50.915412056328641
 30
0.0
 11
-67.750000002200011
 21
-51.91541205632862
 31
0.0
  0
LINE
  5
3B1
  8
DATA
  6
CONTINUOUS
 62
     7
 10
-67.750000002200011
 20
-52.91541205632862
 30
0.0
 11
-67.750000002200011
 21
-53.91541205632862
 31
0.0
  0
LINE
  5
3B2
  8
DATA
  6
CONTINUOUS
 62
     7
 10
-67.750000002200011
 20
-54.915412056328641
 30
0.0
 11
-67.750000002200011
 21
-55.91541205632862
 31
0.0
  0
LINE
  5
3B3
  8
DATA
  6
CONTINUOUS
 62
     7
 10
-67.750000002200011
 20
-56.91541205632862
 30
0.0
 11
-67.750000002200011
 21
-57.915412056328627
 31
0.0
  0
LINE
  5
3B4
  8
DATA
  6
CONTINUOUS
 62
     7
 10
-67.750000002200011
 20
-58.91541205632862
 30
0.0
 11
-67.750000002200011
 21
-59.915412056328627
 31
0.0
  0
LINE
  5
3B5
  8
DATA
  6
CONTINUOUS
 62
     7
 10
-67.750000002200011
 20
-60.915412056328641
 30
0.0
 11
-67.750000002200011
 21
-61.91541205632862
 31
0.0
  0
LINE
  5
3B6
  8
DATA
  6
CONTINUOUS
 62
     7
 10
-67.750000002200011
 20
-62.915412056328613
 30
0.0
 11
-67.750000002200011
 21
-63.91541205632862
 31
0.0
  0
LINE
  5
3B7
  8
DATA
  6
CONTINUOUS
 62
     7
 10
-67.750000002200011
 20
-64.91541205632862
 30
0.0
 11
-67.750000002200011
 21
-65.915412056328634
 31
0.0
  0
LINE
  5
3B8
  8
DATA
  6
CONTINUOUS
 62
     7
 10
-67.750000002200011
 20
-66.915412056328648
 30
0.0
 11
-67.750000002200011
 21
-67.915412056328634
 31
0.0
  0
LINE
  5
3B9
  8
DATA
  6
CONTINUOUS
 62
     7
 10
-67.750000002200011
 20
-68.915412056328606
 30
0.0
 11
-67.750000002200011
 21
-69.915412056328634
 31
0.0
  0
LINE
  5
3BA
  8
DATA
  6
CONTINUOUS
 62
     7
 10
-67.750000002200011
 20
-70.915412056328634
 30
0.0
 11
-67.750000002200011
 21
-71.915412056328634
 31
0.0
  0
LINE
  5
3BB
  8
DATA
  6
CONTINUOUS
 62
     7
 10
-67.750000002200011
 20
-72.91541205632862
 30
0.0
 11
-67.750000002200011
 21
-73.915412056328634
 31
0.0
  0
LINE
  5
3BC
  8
DATA
  6
CONTINUOUS
 62
     7
 10
-67.750000002200011
 20
-74.91541205632862
 30
0.0
 11
-67.750000002200011
 21
-75.91541205632862
 31
0.0
  0
LINE
  5
3BD
  8
DATA
  6
CONTINUOUS
 62
     7
 10
-67.750000002200011
 20
-76.915412056328634
 30
0.0
 11
-67.750000002200011
 21
-77.91541205632862
 31
0.0
  0
LINE
  5
3BE
  8
DATA
  6
CONTINUOUS
 62
     7
 10
-67.750000002200011
 20
-78.915412056328606
 30
0.0
 11
-67.750000002200011
 21
-79.91541205632862
 31
0.0
  0
LINE
  5
3BF
  8
DATA
  6
CONTINUOUS
 62
     7
 10
-67.750000002200011
 20
-80.915412056328634
 30
0.0
 11
-67.750000002200011
 21
-81.91541205632862
 31
0.0
  0
LINE
  5
3C0
  8
DATA
  6
CONTINUOUS
 62
     7
 10
-67.750000002200011
 20
-82.91541205632862
 30
0.0
 11
-67.750000002200011
 21
-83.915412056328634
 31
0.0
  0
LINE
  5
3C1
  8
DATA
  6
CONTINUOUS
 62
     7
 10
-67.750000002200011
 20
-84.915412056328606
 30
0.0
 11
-67.750000002200011
 21
-85.915412056328634
 31
0.0
  0
LINE
  5
3C2
  8
DATA
  6
CONTINUOUS
 62
     7
 10
-67.750000002200011
 20
-86.915412056328634
 30
0.0
 11
-67.750000002200011
 21
-87.915412056328606
 31
0.0
  0
LINE
  5
3C3
  8
DATA
  6
CONTINUOUS
 62
     7
 10
-67.750000002200011
 20
-88.915412056328606
 30
0.0
 11
-67.750000002200011
 21
-89.915412056328606
 31
0.0
  0
LINE
  5
3C4
  8
DATA
  6
CONTINUOUS
 62
     7
 10
-67.750000002200011
 20
-90.915412056328634
 30
0.0
 11
-67.750000002200011
 21
-91.915412056328634
 31
0.0
  0
LINE
  5
3C5
  8
DATA
  6
CONTINUOUS
 62
     7
 10
-67.750000002200011
 20
-92.915412056328634
 30
0.0
 11
-67.750000002200011
 21
-93.915412056328634
 31
0.0
  0
LINE
  5
3C6
  8
DATA
  6
CONTINUOUS
 62
     7
 10
-67.750000002200011
 20
-94.915412056328634
 30
0.0
 11
-67.750000002200011
 21
-95.915412056328634
 31
0.0
  0
LINE
  5
3C7
  8
DATA
  6
CONTINUOUS
 62
     7
 10
-67.750000002200011
 20
-96.91541205632862
 30
0.0
 11
-67.750000002200011
 21
-97.915412056328634
 31
0.0
  0
LINE
  5
3C8
  8
DATA
  6
CONTINUOUS
 62
     7
 10
-67.750000002200011
 20
-98.915412056328634
 30
0.0
 11
-67.750000002200011
 21
-99.915412056328634
 31
0.0
  0
LINE
  5
3C9
  8
DATA
  6
CONTINUOUS
 62
     7
 10
-67.750000002200011
 20
-100.91541205632861
 30
0.0
 11
-67.750000002200011
 21
-101.91541205632861
 31
0.0
  0
LINE
  5
3CA
  8
DATA
  6
CONTINUOUS
 62
     7
 10
-67.750000002200011
 20
-102.91541205632861
 30
0.0
 11
-67.750000002200011
 21
-103.91541205632861
 31
0.0
  0
LINE
  5
3CB
  8
DATA
  6
CONTINUOUS
 62
     7
 10
-67.750000002200011
 20
-104.91541205632861
 30
0.0
 11
-67.750000002200011
 21
-105.91541205632861
 31
0.0
  0
LINE
  5
3CC
  8
DATA
  6
CONTINUOUS
 62
     7
 10
-67.750000002200011
 20
-106.91541205632861
 30
0.0
 11
-67.750000002200011
 21
-107.91541205632861
 31
0.0
  0
LINE
  5
3CD
  8
DATA
  6
CONTINUOUS
 62
     7
 10
-67.750000002200011
 20
-108.91541205632861
 30
0.0
 11
-67.750000002200011
 21
-109.91541205632861
 31
0.0
  0
LINE
  5
3CE
  8
DATA
  6
CONTINUOUS
 62
     7
 10
-67.750000002200011
 20
-110.91541205632861
 30
0.0
 11
-67.750000002200011
 21
-111.91541205632861
 31
0.0
  0
LINE
  5
3CF
  8
DATA
  6
CONTINUOUS
 62
     7
 10
-67.750000002200011
 20
-112.91541205632861
 30
0.0
 11
-67.750000002200011
 21
-113.91541205632861
 31
0.0
  0
LINE
  5
3D0
  8
DATA
  6
CONTINUOUS
 62
     7
 10
-67.750000002200011
 20
-114.91541205632861
 30
0.0
 11
-67.750000002200011
 21
-115.91541205632861
 31
0.0
  0
LINE
  5
3D1
  8
DATA
  6
CONTINUOUS
 62
     7
 10
-67.750000002200011
 20
-116.91541205632861
 30
0.0
 11
-67.750000002200011
 21
-117.91541205632861
 31
0.0
  0
LINE
  5
3D2
  8
DATA
  6
CONTINUOUS
 62
     7
 10
-67.750000002200011
 20
-118.91541205632861
 30
0.0
 11
-67.750000002200011
 21
-119.91541205632861
 31
0.0
  0
LINE
  5
3D3
  8
DATA
  6
CONTINUOUS
 62
     7
 10
-67.750000002200011
 20
-120.91541205632861
 30
0.0
 11
-67.750000002200011
 21
-121.91541205632861
 31
0.0
  0
LINE
  5
3D4
  8
DATA
  6
CONTINUOUS
 62
     7
 10
-67.750000002200011
 20
-122.91541205632861
 30
0.0
 11
-67.750000002200011
 21
-123.91541205632861
 31
0.0
  0
LINE
  5
3D5
  8
DATA
  6
CONTINUOUS
 62
     7
 10
-67.750000002200011
 20
-124.91541205632861
 30
0.0
 11
-67.750000002200011
 21
-125.91541205632861
 31
0.0
  0
LINE
  5
3D6
  8
DATA
  6
CONTINUOUS
 62
     7
 10
-67.750000002200011
 20
-126.91541205632861
 30
0.0
 11
-67.750000002200011
 21
-127.91541205632851
 31
0.0
  0
LINE
  5
3D7
  8
DATA
  6
CONTINUOUS
 62
     7
 10
-67.750000002200011
 20
-128.91541205632859
 30
0.0
 11
-67.750000002200011
 21
-129.91541205632859
 31
0.0
  0
LINE
  5
3D8
  8
DATA
  6
CONTINUOUS
 62
     7
 10
-67.750000002200011
 20
-130.91541205632859
 30
0.0
 11
-67.750000002200011
 21
-131.91541205632859
 31
0.0
  0
LINE
  5
3D9
  8
DATA
  6
CONTINUOUS
 62
     7
 10
-67.750000002200011
 20
-132.91541205632859
 30
0.0
 11
-67.750000002200011
 21
-133.91541205632859
 31
0.0
  0
LINE
  5
3DA
  8
DATA
  6
CONTINUOUS
 62
     7
 10
-67.750000002200011
 20
-134.91541205632859
 30
0.0
 11
-67.750000002200011
 21
-135.91541205632859
 31
0.0
  0
LINE
  5
3DB
  8
DATA
  6
CONTINUOUS
 62
     7
 10
-67.750000002200011
 20
-136.91541205632859
 30
0.0
 11
-67.750000002200011
 21
-137.91541205632859
 31
0.0
  0
LINE
  5
3DC
  8
DATA
  6
CONTINUOUS
 62
     7
 10
-67.750000002200011
 20
-138.91541205632859
 30
0.0
 11
-67.750000002200011
 21
-139.99999999999989
 31
0.0
  0
LINE
  5
3DD
  8
DATA
  6
CONTINUOUS
 62
     7
 10
-72.25
 20
-143.45580620980741
 30
0.0
 11
-72.25
 21
-143.96501329212299
 31
0.0
  0
LINE
  5
3DE
  8
DATA
  6
CONTINUOUS
 62
     7
 10
-72.25
 20
-144.9650132921231
 30
0.0
 11
-72.25
 21
-145.9650132921231
 31
0.0
  0
LINE
  5
3DF
  8
DATA
  6
CONTINUOUS
 62
     7
 10
-72.25
 20
-146.9650132921231
 30
0.0
 11
-72.25
 21
-147.96501329212299
 31
0.0
  0
LINE
  5
3E0
  8
DATA
  6
CONTINUOUS
 62
     7
 10
-67.750000002200011
 20
-143.91541205632859
 30
0.0
 11
-67.750000002200011
 21
-144.91541205632859
 31
0.0
  0
LINE
  5
3E1
  8
DATA
  6
CONTINUOUS
 62
     7
 10
-67.750000002200011
 20
-145.91541205632859
 30
0.0
 11
-67.750000002200011
 21
-146.91541205632859
 31
0.0
  0
LINE
  5
3E2
  8
DATA
  6
STYLE_05
 62
     7
 10
-75.650000000000006
 20
-172.5
 30
0.0
 11
-75.650000000000006
 21
-155.69999999999999
 31
0.0
  0
LINE
  5
3E3
  8
DATA
  6
STYLE_05
 62
     7
 10
-64.350000000000009
 20
-155.69999999999999
 30
0.0
 11
-64.350000000000009
 21
-172.5
 31
0.0
  0
LINE
  5
3E4
  8
DATA
  6
STYLE_05
 62
     7
 10
-64.350000000000009
 20
-172.5
 30
0.0
 11
-75.650000000000006
 21
-172.5
 31
0.0
  0
LINE
  5
3E5
  8
DATA
  6
STYLE_05
 62
     7
 10
-73.5
 20
-152.5
 30
0.0
 11
-66.5
 21
-152.5
 31
0.0
  0
LINE
  5
3E6
  8
DATA
  6
STYLE_05
 62
     7
 10
-78.199999995529652
 20
-156.5
 30
0.0
 11
-75.650000000000006
 21
-156.5
 31
0.0
  0
LINE
  5
3E7
  8
DATA
  6
STYLE_05
 62
     7
 10
-64.349999999999994
 20
-156.5
 30
0.0
 11
-61.800000004470348
 21
-156.5
 31
0.0
  0
LINE
  5
3E8
  8
DATA
  6
STYLE_05
 62
     7
 10
-78.199999995529652
 20
-155.69999999999999
 30
0.0
 11
-75.650000000000006
 21
-155.69999999999999
 31
0.0
  0
LINE
  5
3E9
  8
DATA
  6
STYLE_05
 62
     7
 10
-64.350000000000009
 20
-155.69999999999999
 30
0.0
 11
-61.800000004470348
 21
-155.69999999999999
 31
0.0
  0
LINE
  5
3EA
  8
DATA
  6
STYLE_05
 62
     7
 10
-78.5
 20
-156.19999999552959
 30
0.0
 11
-78.5
 21
-156.00000000447031
 31
0.0
  0
LINE
  5
3EB
  8
DATA
  6
STYLE_05
 62
     7
 10
-61.5
 20
-156.19999999552959
 30
0.0
 11
-61.5
 21
-156.00000000447031
 31
0.0
  0
LINE
  5
3EC
  8
DATA
  6
STYLE_05
 62
     7
 10
-75.650000000000006
 20
-155.69999999999999
 30
0.0
 11
-73.5
 21
-152.5
 31
0.0
  0
LINE
  5
3ED
  8
DATA
  6
STYLE_05
 62
     7
 10
-64.350000000000009
 20
-155.69999999999999
 30
0.0
 11
-66.5
 21
-152.5
 31
0.0
  0
LINE
  5
3EE
  8
DATA
  6
CONTINUOUS
 62
     7
 10
17.599999999999991
 20
-140.0
 30
0.0
 11
17.599999999999991
 21
-139.0
 31
0.0
  0
LINE
  5
3EF
  8
DATA
  6
CONTINUOUS
 62
     7
 10
17.599999999999991
 20
-138.0
 30
0.0
 11
17.599999999999991
 21
-137.0
 31
0.0
  0
LINE
  5
3F0
  8
DATA
  6
CONTINUOUS
 62
     7
 10
17.599999999999991
 20
-136.0
 30
0.0
 11
17.599999999999991
 21
-135.0
 31
0.0
  0
LINE
  5
3F1
  8
DATA
  6
CONTINUOUS
 62
     7
 10
17.599999999999991
 20
-134.0
 30
0.0
 11
17.599999999999991
 21
-133.0
 31
0.0
  0
LINE
  5
3F2
  8
DATA
  6
CONTINUOUS
 62
     7
 10
17.599999999999991
 20
-132.0
 30
0.0
 11
17.599999999999991
 21
-131.0
 31
0.0
  0
LINE
  5
3F3
  8
DATA
  6
CONTINUOUS
 62
     7
 10
17.599999999999991
 20
-130.0
 30
0.0
 11
17.599999999999991
 21
-129.0
 31
0.0
  0
LINE
  5
3F4
  8
DATA
  6
CONTINUOUS
 62
     7
 10
17.599999999999991
 20
-128.0
 30
0.0
 11
17.599999999999991
 21
-127.0
 31
0.0
  0
LINE
  5
3F5
  8
DATA
  6
CONTINUOUS
 62
     7
 10
17.599999999999991
 20
-126.0
 30
0.0
 11
17.599999999999991
 21
-125.0
 31
0.0
  0
LINE
  5
3F6
  8
DATA
  6
CONTINUOUS
 62
     7
 10
17.599999999999991
 20
-124.0
 30
0.0
 11
17.599999999999991
 21
-123.0
 31
0.0
  0
LINE
  5
3F7
  8
DATA
  6
CONTINUOUS
 62
     7
 10
17.599999999999991
 20
-122.0
 30
0.0
 11
17.599999999999991
 21
-121.0
 31
0.0
  0
LINE
  5
3F8
  8
DATA
  6
CONTINUOUS
 62
     7
 10
17.599999999999991
 20
-120.0
 30
0.0
 11
17.599999999999991
 21
-119.0
 31
0.0
  0
LINE
  5
3F9
  8
DATA
  6
CONTINUOUS
 62
     7
 10
17.599999999999991
 20
-117.9999999999999
 30
0.0
 11
17.599999999999991
 21
-117.0
 31
0.0
  0
LINE
  5
3FA
  8
DATA
  6
CONTINUOUS
 62
     7
 10
17.599999999999991
 20
-116.0
 30
0.0
 11
17.599999999999991
 21
-115.0
 31
0.0
  0
LINE
  5
3FB
  8
DATA
  6
CONTINUOUS
 62
     7
 10
17.599999999999991
 20
-114.0
 30
0.0
 11
17.599999999999991
 21
-113.0
 31
0.0
  0
LINE
  5
3FC
  8
DATA
  6
CONTINUOUS
 62
     7
 10
17.599999999999991
 20
-112.0
 30
0.0
 11
17.599999999999991
 21
-111.0
 31
0.0
  0
LINE
  5
3FD
  8
DATA
  6
CONTINUOUS
 62
     7
 10
17.599999999999991
 20
-110.0
 30
0.0
 11
17.599999999999991
 21
-109.0
 31
0.0
  0
LINE
  5
3FE
  8
DATA
  6
CONTINUOUS
 62
     7
 10
17.599999999999991
 20
-108.0
 30
0.0
 11
17.599999999999991
 21
-107.0
 31
0.0
  0
LINE
  5
3FF
  8
DATA
  6
CONTINUOUS
 62
     7
 10
17.599999999999991
 20
-106.0
 30
0.0
 11
17.599999999999991
 21
-105.0
 31
0.0
  0
LINE
  5
400
  8
DATA
  6
CONTINUOUS
 62
     7
 10
17.599999999999991
 20
-104.0
 30
0.0
 11
17.599999999999991
 21
-103.0
 31
0.0
  0
LINE
  5
401
  8
DATA
  6
CONTINUOUS
 62
     7
 10
17.599999999999991
 20
-102.0
 30
0.0
 11
17.599999999999991
 21
-101.0
 31
0.0
  0
LINE
  5
402
  8
DATA
  6
CONTINUOUS
 62
     7
 10
17.599999999999991
 20
-100.0
 30
0.0
 11
17.599999999999991
 21
-99.0
 31
0.0
  0
LINE
  5
403
  8
DATA
  6
CONTINUOUS
 62
     7
 10
17.599999999999991
 20
-97.999999999999972
 30
0.0
 11
17.599999999999991
 21
-97.0
 31
0.0
  0
LINE
  5
404
  8
DATA
  6
CONTINUOUS
 62
     7
 10
17.599999999999991
 20
-95.999999999999986
 30
0.0
 11
17.599999999999991
 21
-94.999999999999986
 31
0.0
  0
LINE
  5
405
  8
DATA
  6
CONTINUOUS
 62
     7
 10
17.599999999999991
 20
-94.0
 30
0.0
 11
17.599999999999991
 21
-92.999999999999986
 31
0.0
  0
LINE
  5
406
  8
DATA
  6
CONTINUOUS
 62
     7
 10
17.599999999999991
 20
-92.0
 30
0.0
 11
17.599999999999991
 21
-91.0
 31
0.0
  0
LINE
  5
407
  8
DATA
  6
CONTINUOUS
 62
     7
 10
17.599999999999991
 20
-90.0
 30
0.0
 11
17.599999999999991
 21
-89.0
 31
0.0
  0
LINE
  5
408
  8
DATA
  6
CONTINUOUS
 62
     7
 10
17.599999999999991
 20
-88.000000000000014
 30
0.0
 11
17.599999999999991
 21
-86.999999999999986
 31
0.0
  0
LINE
  5
409
  8
DATA
  6
CONTINUOUS
 62
     7
 10
17.599999999999991
 20
-85.999999999999986
 30
0.0
 11
17.599999999999991
 21
-85.000000000000014
 31
0.0
  0
LINE
  5
40A
  8
DATA
  6
CONTINUOUS
 62
     7
 10
17.599999999999991
 20
-84.0
 30
0.0
 11
17.599999999999991
 21
-83.0
 31
0.0
  0
LINE
  5
40B
  8
DATA
  6
CONTINUOUS
 62
     7
 10
17.599999999999991
 20
-82.000000000000014
 30
0.0
 11
17.599999999999991
 21
-81.0
 31
0.0
  0
LINE
  5
40C
  8
DATA
  6
CONTINUOUS
 62
     7
 10
17.599999999999991
 20
-80.000000000000014
 30
0.0
 11
17.599999999999991
 21
-79.0
 31
0.0
  0
LINE
  5
40D
  8
DATA
  6
CONTINUOUS
 62
     7
 10
17.599999999999991
 20
-77.999999999999986
 30
0.0
 11
17.599999999999991
 21
-77.0
 31
0.0
  0
LINE
  5
40E
  8
DATA
  6
CONTINUOUS
 62
     7
 10
17.599999999999991
 20
-76.0
 30
0.0
 11
17.599999999999991
 21
-75.0
 31
0.0
  0
LINE
  5
40F
  8
DATA
  6
CONTINUOUS
 62
     7
 10
17.599999999999991
 20
-74.0
 30
0.0
 11
17.599999999999991
 21
-73.0
 31
0.0
  0
LINE
  5
410
  8
DATA
  6
CONTINUOUS
 62
     7
 10
17.599999999999991
 20
-72.0
 30
0.0
 11
17.599999999999991
 21
-71.0
 31
0.0
  0
LINE
  5
411
  8
DATA
  6
CONTINUOUS
 62
     7
 10
17.599999999999991
 20
-70.0
 30
0.0
 11
17.599999999999991
 21
-69.0
 31
0.0
  0
LINE
  5
412
  8
DATA
  6
CONTINUOUS
 62
     7
 10
17.599999999999991
 20
-68.0
 30
0.0
 11
17.599999999999991
 21
-67.0
 31
0.0
  0
LINE
  5
413
  8
DATA
  6
CONTINUOUS
 62
     7
 10
17.599999999999991
 20
-66.0
 30
0.0
 11
17.599999999999991
 21
-65.0
 31
0.0
  0
LINE
  5
414
  8
DATA
  6
CONTINUOUS
 62
     7
 10
17.599999999999991
 20
-64.0
 30
0.0
 11
17.599999999999991
 21
-63.0
 31
0.0
  0
LINE
  5
415
  8
DATA
  6
CONTINUOUS
 62
     7
 10
17.599999999999991
 20
-61.999999999999993
 30
0.0
 11
17.599999999999991
 21
-61.000000000000007
 31
0.0
  0
LINE
  5
416
  8
DATA
  6
CONTINUOUS
 62
     7
 10
17.599999999999991
 20
-60.0
 30
0.0
 11
17.599999999999991
 21
-58.999999999999993
 31
0.0
  0
LINE
  5
417
  8
DATA
  6
CONTINUOUS
 62
     7
 10
17.599999999999991
 20
-57.999999999999993
 30
0.0
 11
17.599999999999991
 21
-57.0
 31
0.0
  0
LINE
  5
418
  8
DATA
  6
CONTINUOUS
 62
     7
 10
17.599999999999991
 20
-55.999999999999993
 30
0.0
 11
17.599999999999991
 21
-55.0
 31
0.0
  0
LINE
  5
419
  8
DATA
  6
CONTINUOUS
 62
     7
 10
17.599999999999991
 20
-54.000000000000007
 30
0.0
 11
17.599999999999991
 21
-53.0
 31
0.0
  0
LINE
  5
41A
  8
DATA
  6
CONTINUOUS
 62
     7
 10
17.599999999999991
 20
-52.0
 30
0.0
 11
17.599999999999991
 21
-51.000000000000007
 31
0.0
  0
LINE
  5
41B
  8
DATA
  6
CONTINUOUS
 62
     7
 10
17.599999999999991
 20
-50.0
 30
0.0
 11
17.599999999999991
 21
-48.999999999999993
 31
0.0
  0
LINE
  5
41C
  8
DATA
  6
CONTINUOUS
 62
     7
 10
17.599999999999991
 20
-47.999999999999993
 30
0.0
 11
17.599999999999991
 21
-47.0
 31
0.0
  0
LINE
  5
41D
  8
DATA
  6
CONTINUOUS
 62
     7
 10
17.599999999999991
 20
-45.999999999999993
 30
0.0
 11
17.599999999999991
 21
-45.0
 31
0.0
  0
LINE
  5
41E
  8
DATA
  6
CONTINUOUS
 62
     7
 10
17.599999999999991
 20
-44.000000000000007
 30
0.0
 11
17.599999999999991
 21
-42.999999999999993
 31
0.0
  0
LINE
  5
41F
  8
DATA
  6
CONTINUOUS
 62
     7
 10
17.599999999999991
 20
-41.999999999999993
 30
0.0
 11
17.599999999999991
 21
-41.0
 31
0.0
  0
LINE
  5
420
  8
DATA
  6
CONTINUOUS
 62
     7
 10
17.599999999999991
 20
-40.0
 30
0.0
 11
17.599999999999991
 21
-39.0
 31
0.0
  0
LINE
  5
421
  8
DATA
  6
CONTINUOUS
 62
     7
 10
17.599999999999991
 20
-38.0
 30
0.0
 11
17.599999999999991
 21
-37.0
 31
0.0
  0
LINE
  5
422
  8
DATA
  6
CONTINUOUS
 62
     7
 10
17.599999999999991
 20
-36.0
 30
0.0
 11
17.599999999999991
 21
-35.0
 31
0.0
  0
LINE
  5
423
  8
DATA
  6
CONTINUOUS
 62
     7
 10
17.599999999999991
 20
-34.0
 30
0.0
 11
17.599999999999991
 21
-33.0
 31
0.0
  0
LINE
  5
424
  8
DATA
  6
CONTINUOUS
 62
     7
 10
17.599999999999991
 20
-32.0
 30
0.0
 11
17.599999999999991
 21
-31.0
 31
0.0
  0
LINE
  5
425
  8
DATA
  6
CONTINUOUS
 62
     7
 10
17.599999999999991
 20
-30.0
 30
0.0
 11
17.599999999999991
 21
-29.0
 31
0.0
  0
LINE
  5
426
  8
DATA
  6
CONTINUOUS
 62
     7
 10
17.599999999999991
 20
-28.0
 30
0.0
 11
17.599999999999991
 21
-27.0
 31
0.0
  0
LINE
  5
427
  8
DATA
  6
CONTINUOUS
 62
     7
 10
17.599999999999991
 20
-26.0
 30
0.0
 11
17.599999999999991
 21
-25.0
 31
0.0
  0
LINE
  5
428
  8
DATA
  6
CONTINUOUS
 62
     7
 10
17.599999999999991
 20
-24.0
 30
0.0
 11
17.599999999999991
 21
-23.0
 31
0.0
  0
LINE
  5
429
  8
DATA
  6
CONTINUOUS
 62
     7
 10
17.599999999999991
 20
-22.000000000000011
 30
0.0
 11
17.599999999999991
 21
-20.999999999999979
 31
0.0
  0
LINE
  5
42A
  8
DATA
  6
CONTINUOUS
 62
     7
 10
22.399999999999991
 20
-21.880425347938569
 30
0.0
 11
22.399999999999991
 21
-22.880425347938569
 31
0.0
  0
LINE
  5
42B
  8
DATA
  6
CONTINUOUS
 62
     7
 10
22.399999999999991
 20
-23.880425347938569
 30
0.0
 11
22.399999999999991
 21
-24.880425347938569
 31
0.0
  0
LINE
  5
42C
  8
DATA
  6
CONTINUOUS
 62
     7
 10
22.399999999999991
 20
-25.880425347938569
 30
0.0
 11
22.399999999999991
 21
-26.880425347938569
 31
0.0
  0
LINE
  5
42D
  8
DATA
  6
CONTINUOUS
 62
     7
 10
22.399999999999991
 20
-27.880425347938569
 30
0.0
 11
22.399999999999991
 21
-28.880425347938569
 31
0.0
  0
LINE
  5
42E
  8
DATA
  6
CONTINUOUS
 62
     7
 10
22.399999999999991
 20
-29.880425347938569
 30
0.0
 11
22.399999999999991
 21
-30.880425347938569
 31
0.0
  0
LINE
  5
42F
  8
DATA
  6
CONTINUOUS
 62
     7
 10
22.399999999999991
 20
-31.880425347938569
 30
0.0
 11
22.399999999999991
 21
-32.880425347938569
 31
0.0
  0
LINE
  5
430
  8
DATA
  6
CONTINUOUS
 62
     7
 10
22.399999999999991
 20
-33.880425347938569
 30
0.0
 11
22.399999999999991
 21
-34.880425347938569
 31
0.0
  0
LINE
  5
431
  8
DATA
  6
CONTINUOUS
 62
     7
 10
22.399999999999991
 20
-35.880425347938569
 30
0.0
 11
22.399999999999991
 21
-36.880425347938569
 31
0.0
  0
LINE
  5
432
  8
DATA
  6
CONTINUOUS
 62
     7
 10
22.399999999999991
 20
-37.880425347938569
 30
0.0
 11
22.399999999999991
 21
-38.880425347938569
 31
0.0
  0
LINE
  5
433
  8
DATA
  6
CONTINUOUS
 62
     7
 10
22.399999999999991
 20
-39.880425347938569
 30
0.0
 11
22.399999999999991
 21
-40.880425347938562
 31
0.0
  0
LINE
  5
434
  8
DATA
  6
CONTINUOUS
 62
     7
 10
22.399999999999991
 20
-41.880425347938569
 30
0.0
 11
22.399999999999991
 21
-42.880425347938569
 31
0.0
  0
LINE
  5
435
  8
DATA
  6
CONTINUOUS
 62
     7
 10
22.399999999999991
 20
-43.880425347938562
 30
0.0
 11
22.399999999999991
 21
-44.880425347938569
 31
0.0
  0
LINE
  5
436
  8
DATA
  6
CONTINUOUS
 62
     7
 10
22.399999999999991
 20
-45.880425347938562
 30
0.0
 11
22.399999999999991
 21
-46.880425347938569
 31
0.0
  0
LINE
  5
437
  8
DATA
  6
CONTINUOUS
 62
     7
 10
22.399999999999991
 20
-47.880425347938569
 30
0.0
 11
22.399999999999991
 21
-48.880425347938569
 31
0.0
  0
LINE
  5
438
  8
DATA
  6
CONTINUOUS
 62
     7
 10
22.399999999999991
 20
-49.880425347938569
 30
0.0
 11
22.399999999999991
 21
-50.880425347938562
 31
0.0
  0
LINE
  5
439
  8
DATA
  6
CONTINUOUS
 62
     7
 10
22.399999999999991
 20
-51.880425347938584
 30
0.0
 11
22.399999999999991
 21
-52.880425347938569
 31
0.0
  0
LINE
  5
43A
  8
DATA
  6
CONTINUOUS
 62
     7
 10
22.399999999999991
 20
-53.880425347938569
 30
0.0
 11
22.399999999999991
 21
-54.880425347938569
 31
0.0
  0
LINE
  5
43B
  8
DATA
  6
CONTINUOUS
 62
     7
 10
22.399999999999991
 20
-55.880425347938562
 30
0.0
 11
22.399999999999991
 21
-56.880425347938569
 31
0.0
  0
LINE
  5
43C
  8
DATA
  6
CONTINUOUS
 62
     7
 10
22.399999999999991
 20
-57.880425347938569
 30
0.0
 11
22.399999999999991
 21
-58.880425347938569
 31
0.0
  0
LINE
  5
43D
  8
DATA
  6
CONTINUOUS
 62
     7
 10
22.399999999999991
 20
-59.880425347938569
 30
0.0
 11
22.399999999999991
 21
-60.880425347938562
 31
0.0
  0
LINE
  5
43E
  8
DATA
  6
CONTINUOUS
 62
     7
 10
22.399999999999991
 20
-61.880425347938584
 30
0.0
 11
22.399999999999991
 21
-62.880425347938569
 31
0.0
  0
LINE
  5
43F
  8
DATA
  6
CONTINUOUS
 62
     7
 10
22.399999999999991
 20
-63.880425347938569
 30
0.0
 11
22.399999999999991
 21
-64.880425347938569
 31
0.0
  0
LINE
  5
440
  8
DATA
  6
CONTINUOUS
 62
     7
 10
22.399999999999991
 20
-65.880425347938555
 30
0.0
 11
22.399999999999991
 21
-66.880425347938569
 31
0.0
  0
LINE
  5
441
  8
DATA
  6
CONTINUOUS
 62
     7
 10
22.399999999999991
 20
-67.880425347938569
 30
0.0
 11
22.399999999999991
 21
-68.880425347938569
 31
0.0
  0
LINE
  5
442
  8
DATA
  6
CONTINUOUS
 62
     7
 10
22.399999999999991
 20
-69.880425347938569
 30
0.0
 11
22.399999999999991
 21
-70.880425347938555
 31
0.0
  0
LINE
  5
443
  8
DATA
  6
CONTINUOUS
 62
     7
 10
22.399999999999991
 20
-71.880425347938569
 30
0.0
 11
22.399999999999991
 21
-72.880425347938569
 31
0.0
  0
LINE
  5
444
  8
DATA
  6
CONTINUOUS
 62
     7
 10
22.399999999999991
 20
-73.880425347938569
 30
0.0
 11
22.399999999999991
 21
-74.880425347938569
 31
0.0
  0
LINE
  5
445
  8
DATA
  6
CONTINUOUS
 62
     7
 10
22.399999999999991
 20
-75.880425347938555
 30
0.0
 11
22.399999999999991
 21
-76.880425347938569
 31
0.0
  0
LINE
  5
446
  8
DATA
  6
CONTINUOUS
 62
     7
 10
22.399999999999991
 20
-77.880425347938569
 30
0.0
 11
22.399999999999991
 21
-78.880425347938569
 31
0.0
  0
LINE
  5
447
  8
DATA
  6
CONTINUOUS
 62
     7
 10
22.399999999999991
 20
-79.880425347938569
 30
0.0
 11
22.399999999999991
 21
-80.880425347938555
 31
0.0
  0
LINE
  5
448
  8
DATA
  6
CONTINUOUS
 62
     7
 10
22.399999999999991
 20
-81.880425347938555
 30
0.0
 11
22.399999999999991
 21
-82.880425347938584
 31
0.0
  0
LINE
  5
449
  8
DATA
  6
CONTINUOUS
 62
     7
 10
22.399999999999991
 20
-83.880425347938569
 30
0.0
 11
22.399999999999991
 21
-84.880425347938569
 31
0.0
  0
LINE
  5
44A
  8
DATA
  6
CONTINUOUS
 62
     7
 10
22.399999999999991
 20
-85.880425347938555
 30
0.0
 11
22.399999999999991
 21
-86.880425347938541
 31
0.0
  0
LINE
  5
44B
  8
DATA
  6
CONTINUOUS
 62
     7
 10
22.399999999999991
 20
-87.880425347938541
 30
0.0
 11
22.399999999999991
 21
-88.880425347938569
 31
0.0
  0
LINE
  5
44C
  8
DATA
  6
CONTINUOUS
 62
     7
 10
22.399999999999991
 20
-89.880425347938569
 30
0.0
 11
22.399999999999991
 21
-90.880425347938555
 31
0.0
  0
LINE
  5
44D
  8
DATA
  6
CONTINUOUS
 62
     7
 10
22.399999999999991
 20
-91.880425347938555
 30
0.0
 11
22.399999999999991
 21
-92.880425347938569
 31
0.0
  0
LINE
  5
44E
  8
DATA
  6
CONTINUOUS
 62
     7
 10
22.399999999999991
 20
-93.880425347938569
 30
0.0
 11
22.399999999999991
 21
-94.880425347938569
 31
0.0
  0
LINE
  5
44F
  8
DATA
  6
CONTINUOUS
 62
     7
 10
22.399999999999991
 20
-95.880425347938555
 30
0.0
 11
22.399999999999991
 21
-96.880425347938584
 31
0.0
  0
LINE
  5
450
  8
DATA
  6
CONTINUOUS
 62
     7
 10
22.399999999999991
 20
-97.880425347938569
 30
0.0
 11
22.399999999999991
 21
-98.880425347938555
 31
0.0
  0
LINE
  5
451
  8
DATA
  6
CONTINUOUS
 62
     7
 10
22.399999999999991
 20
-99.880425347938569
 30
0.0
 11
22.399999999999991
 21
-100.8804253479385
 31
0.0
  0
LINE
  5
452
  8
DATA
  6
CONTINUOUS
 62
     7
 10
22.399999999999991
 20
-101.8804253479385
 30
0.0
 11
22.399999999999991
 21
-102.8804253479385
 31
0.0
  0
LINE
  5
453
  8
DATA
  6
CONTINUOUS
 62
     7
 10
22.399999999999991
 20
-103.8804253479385
 30
0.0
 11
22.399999999999991
 21
-104.8804253479385
 31
0.0
  0
LINE
  5
454
  8
DATA
  6
CONTINUOUS
 62
     7
 10
22.399999999999991
 20
-105.8804253479386
 30
0.0
 11
22.399999999999991
 21
-106.8804253479386
 31
0.0
  0
LINE
  5
455
  8
DATA
  6
CONTINUOUS
 62
     7
 10
22.399999999999991
 20
-107.8804253479386
 30
0.0
 11
22.399999999999991
 21
-108.8804253479385
 31
0.0
  0
LINE
  5
456
  8
DATA
  6
CONTINUOUS
 62
     7
 10
22.399999999999991
 20
-109.8804253479385
 30
0.0
 11
22.399999999999991
 21
-110.8804253479385
 31
0.0
  0
LINE
  5
457
  8
DATA
  6
CONTINUOUS
 62
     7
 10
22.399999999999991
 20
-111.8804253479385
 30
0.0
 11
22.399999999999991
 21
-112.8804253479385
 31
0.0
  0
LINE
  5
458
  8
DATA
  6
CONTINUOUS
 62
     7
 10
22.399999999999991
 20
-113.8804253479385
 30
0.0
 11
22.399999999999991
 21
-114.8804253479385
 31
0.0
  0
LINE
  5
459
  8
DATA
  6
CONTINUOUS
 62
     7
 10
22.399999999999991
 20
-115.8804253479385
 30
0.0
 11
22.399999999999991
 21
-116.8804253479386
 31
0.0
  0
LINE
  5
45A
  8
DATA
  6
CONTINUOUS
 62
     7
 10
22.399999999999991
 20
-117.8804253479385
 30
0.0
 11
22.399999999999991
 21
-118.8804253479385
 31
0.0
  0
LINE
  5
45B
  8
DATA
  6
CONTINUOUS
 62
     7
 10
22.399999999999991
 20
-119.8804253479385
 30
0.0
 11
22.399999999999991
 21
-120.8804253479385
 31
0.0
  0
LINE
  5
45C
  8
DATA
  6
CONTINUOUS
 62
     7
 10
22.399999999999991
 20
-121.8804253479385
 30
0.0
 11
22.399999999999991
 21
-122.8804253479385
 31
0.0
  0
LINE
  5
45D
  8
DATA
  6
CONTINUOUS
 62
     7
 10
22.399999999999991
 20
-123.8804253479385
 30
0.0
 11
22.399999999999991
 21
-124.8804253479385
 31
0.0
  0
LINE
  5
45E
  8
DATA
  6
CONTINUOUS
 62
     7
 10
22.399999999999991
 20
-125.8804253479385
 30
0.0
 11
22.399999999999991
 21
-126.8804253479385
 31
0.0
  0
LINE
  5
45F
  8
DATA
  6
CONTINUOUS
 62
     7
 10
22.399999999999991
 20
-127.8804253479385
 30
0.0
 11
22.399999999999991
 21
-128.88042534793851
 31
0.0
  0
LINE
  5
460
  8
DATA
  6
CONTINUOUS
 62
     7
 10
22.399999999999991
 20
-129.88042534793851
 30
0.0
 11
22.399999999999991
 21
-130.8804253479386
 31
0.0
  0
LINE
  5
461
  8
DATA
  6
CONTINUOUS
 62
     7
 10
22.399999999999991
 20
-131.88042534793851
 30
0.0
 11
22.399999999999991
 21
-132.8804253479386
 31
0.0
  0
LINE
  5
462
  8
DATA
  6
CONTINUOUS
 62
     7
 10
22.399999999999991
 20
-133.8804253479386
 30
0.0
 11
22.399999999999991
 21
-134.8804253479386
 31
0.0
  0
LINE
  5
463
  8
DATA
  6
CONTINUOUS
 62
     7
 10
22.399999999999991
 20
-135.8804253479386
 30
0.0
 11
22.399999999999991
 21
-136.88042534793851
 31
0.0
  0
LINE
  5
464
  8
DATA
  6
CONTINUOUS
 62
     7
 10
22.399999999999991
 20
-137.88042534793851
 30
0.0
 11
22.399999999999991
 21
-138.88042534793851
 31
0.0
  0
LINE
  5
465
  8
DATA
  6
CONTINUOUS
 62
     7
 10
17.25
 20
-20.0
 30
0.0
 11
22.749999999999989
 21
-20.0
 31
0.0
  0
LINE
  5
466
  8
DATA
  6
CONTINUOUS
 62
     7
 10
17.25
 20
-20.0
 30
0.0
 11
17.25
 21
-17.86820810082332
 31
0.0
  0
LINE
  5
467
  8
DATA
  6
CONTINUOUS
 62
     7
 10
22.749999999999989
 20
-20.0
 30
0.0
 11
22.749999999999989
 21
-16.259360864220881
 31
0.0
  0
LINE
  5
468
  8
DATA
  6
CONTINUOUS
 62
     7
 10
25.649999999999991
 20
-144.00000000021251
 30
0.0
 11
25.649999999999991
 21
-160.0
 31
0.0
  0
LINE
  5
469
  8
DATA
  6
CONTINUOUS
 62
     7
 10
17.599999999999991
 20
-140.0
 30
0.0
 11
22.399999999999991
 21
-138.88042534793851
 31
0.0
  0
LINE
  5
46A
  8
DATA
  6
CONTINUOUS
 62
     7
 10
17.599999999999991
 20
-139.0
 30
0.0
 11
22.399999999999991
 21
-137.88042534793851
 31
0.0
  0
LINE
  5
46B
  8
DATA
  6
CONTINUOUS
 62
     7
 10
17.599999999999991
 20
-138.0
 30
0.0
 11
22.399999999999991
 21
-136.88042534793851
 31
0.0
  0
LINE
  5
46C
  8
DATA
  6
CONTINUOUS
 62
     7
 10
17.599999999999991
 20
-137.0
 30
0.0
 11
22.399999999999991
 21
-135.8804253479386
 31
0.0
  0
LINE
  5
46D
  8
DATA
  6
CONTINUOUS
 62
     7
 10
17.599999999999991
 20
-136.0
 30
0.0
 11
22.399999999999991
 21
-134.8804253479386
 31
0.0
  0
LINE
  5
46E
  8
DATA
  6
CONTINUOUS
 62
     7
 10
17.599999999999991
 20
-135.0
 30
0.0
 11
22.399999999999991
 21
-133.8804253479386
 31
0.0
  0
LINE
  5
46F
  8
DATA
  6
CONTINUOUS
 62
     7
 10
17.599999999999991
 20
-134.0
 30
0.0
 11
22.399999999999991
 21
-132.8804253479386
 31
0.0
  0
LINE
  5
470
  8
DATA
  6
CONTINUOUS
 62
     7
 10
17.599999999999991
 20
-133.0
 30
0.0
 11
22.399999999999991
 21
-131.8804253479386
 31
0.0
  0
LINE
  5
471
  8
DATA
  6
CONTINUOUS
 62
     7
 10
17.599999999999991
 20
-132.0
 30
0.0
 11
22.399999999999991
 21
-130.8804253479386
 31
0.0
  0
LINE
  5
472
  8
DATA
  6
CONTINUOUS
 62
     7
 10
17.599999999999991
 20
-131.0
 30
0.0
 11
22.399999999999991
 21
-129.88042534793851
 31
0.0
  0
LINE
  5
473
  8
DATA
  6
CONTINUOUS
 62
     7
 10
17.599999999999991
 20
-130.0
 30
0.0
 11
22.399999999999991
 21
-128.88042534793851
 31
0.0
  0
LINE
  5
474
  8
DATA
  6
CONTINUOUS
 62
     7
 10
17.599999999999991
 20
-129.0
 30
0.0
 11
22.399999999999991
 21
-127.8804253479385
 31
0.0
  0
LINE
  5
475
  8
DATA
  6
CONTINUOUS
 62
     7
 10
17.599999999999991
 20
-128.0
 30
0.0
 11
22.399999999999991
 21
-126.8804253479385
 31
0.0
  0
LINE
  5
476
  8
DATA
  6
CONTINUOUS
 62
     7
 10
17.599999999999991
 20
-127.0
 30
0.0
 11
22.399999999999991
 21
-125.8804253479385
 31
0.0
  0
LINE
  5
477
  8
DATA
  6
CONTINUOUS
 62
     7
 10
17.599999999999991
 20
-126.0
 30
0.0
 11
22.399999999999991
 21
-124.8804253479385
 31
0.0
  0
LINE
  5
478
  8
DATA
  6
CONTINUOUS
 62
     7
 10
17.599999999999991
 20
-125.0
 30
0.0
 11
22.399999999999991
 21
-123.8804253479385
 31
0.0
  0
LINE
  5
479
  8
DATA
  6
CONTINUOUS
 62
     7
 10
17.599999999999991
 20
-124.0
 30
0.0
 11
22.399999999999991
 21
-122.8804253479385
 31
0.0
  0
LINE
  5
47A
  8
DATA
  6
CONTINUOUS
 62
     7
 10
17.599999999999991
 20
-123.0
 30
0.0
 11
22.399999999999991
 21
-121.8804253479385
 31
0.0
  0
LINE
  5
47B
  8
DATA
  6
CONTINUOUS
 62
     7
 10
17.599999999999991
 20
-122.0
 30
0.0
 11
22.399999999999991
 21
-120.8804253479385
 31
0.0
  0
LINE
  5
47C
  8
DATA
  6
CONTINUOUS
 62
     7
 10
17.599999999999991
 20
-121.0
 30
0.0
 11
22.399999999999991
 21
-119.8804253479385
 31
0.0
  0
LINE
  5
47D
  8
DATA
  6
CONTINUOUS
 62
     7
 10
17.599999999999991
 20
-120.0
 30
0.0
 11
22.399999999999991
 21
-118.8804253479385
 31
0.0
  0
LINE
  5
47E
  8
DATA
  6
CONTINUOUS
 62
     7
 10
17.599999999999991
 20
-119.0
 30
0.0
 11
22.399999999999991
 21
-117.8804253479385
 31
0.0
  0
LINE
  5
47F
  8
DATA
  6
CONTINUOUS
 62
     7
 10
17.599999999999991
 20
-118.0
 30
0.0
 11
22.399999999999991
 21
-116.8804253479385
 31
0.0
  0
LINE
  5
480
  8
DATA
  6
CONTINUOUS
 62
     7
 10
17.599999999999991
 20
-117.0
 30
0.0
 11
22.399999999999991
 21
-115.8804253479385
 31
0.0
  0
LINE
  5
481
  8
DATA
  6
CONTINUOUS
 62
     7
 10
17.599999999999991
 20
-116.0
 30
0.0
 11
22.399999999999991
 21
-114.8804253479385
 31
0.0
  0
LINE
  5
482
  8
DATA
  6
CONTINUOUS
 62
     7
 10
17.599999999999991
 20
-115.0
 30
0.0
 11
22.399999999999991
 21
-113.8804253479385
 31
0.0
  0
LINE
  5
483
  8
DATA
  6
CONTINUOUS
 62
     7
 10
17.599999999999991
 20
-114.0
 30
0.0
 11
22.399999999999991
 21
-112.8804253479385
 31
0.0
  0
LINE
  5
484
  8
DATA
  6
CONTINUOUS
 62
     7
 10
17.599999999999991
 20
-113.0
 30
0.0
 11
22.399999999999991
 21
-111.8804253479385
 31
0.0
  0
LINE
  5
485
  8
DATA
  6
CONTINUOUS
 62
     7
 10
17.599999999999991
 20
-112.0
 30
0.0
 11
22.399999999999991
 21
-110.8804253479385
 31
0.0
  0
LINE
  5
486
  8
DATA
  6
CONTINUOUS
 62
     7
 10
17.599999999999991
 20
-111.0
 30
0.0
 11
22.399999999999991
 21
-109.8804253479385
 31
0.0
  0
LINE
  5
487
  8
DATA
  6
CONTINUOUS
 62
     7
 10
17.599999999999991
 20
-110.0
 30
0.0
 11
22.399999999999991
 21
-108.8804253479385
 31
0.0
  0
LINE
  5
488
  8
DATA
  6
CONTINUOUS
 62
     7
 10
17.599999999999991
 20
-109.0
 30
0.0
 11
22.399999999999991
 21
-107.8804253479385
 31
0.0
  0
LINE
  5
489
  8
DATA
  6
CONTINUOUS
 62
     7
 10
17.599999999999991
 20
-108.0
 30
0.0
 11
22.399999999999991
 21
-106.8804253479385
 31
0.0
  0
LINE
  5
48A
  8
DATA
  6
CONTINUOUS
 62
     7
 10
17.599999999999991
 20
-107.0
 30
0.0
 11
22.399999999999991
 21
-105.8804253479385
 31
0.0
  0
LINE
  5
48B
  8
DATA
  6
CONTINUOUS
 62
     7
 10
17.599999999999991
 20
-106.0
 30
0.0
 11
22.399999999999991
 21
-104.8804253479385
 31
0.0
  0
LINE
  5
48C
  8
DATA
  6
CONTINUOUS
 62
     7
 10
17.599999999999991
 20
-105.0
 30
0.0
 11
22.399999999999991
 21
-103.8804253479385
 31
0.0
  0
LINE
  5
48D
  8
DATA
  6
CONTINUOUS
 62
     7
 10
17.599999999999991
 20
-104.0
 30
0.0
 11
22.399999999999991
 21
-102.8804253479385
 31
0.0
  0
LINE
  5
48E
  8
DATA
  6
CONTINUOUS
 62
     7
 10
17.599999999999991
 20
-103.0
 30
0.0
 11
22.399999999999991
 21
-101.8804253479385
 31
0.0
  0
LINE
  5
48F
  8
DATA
  6
CONTINUOUS
 62
     7
 10
17.599999999999991
 20
-102.0
 30
0.0
 11
22.399999999999991
 21
-100.8804253479385
 31
0.0
  0
LINE
  5
490
  8
DATA
  6
CONTINUOUS
 62
     7
 10
17.599999999999991
 20
-101.0
 30
0.0
 11
22.399999999999991
 21
-99.880425347938569
 31
0.0
  0
LINE
  5
491
  8
DATA
  6
CONTINUOUS
 62
     7
 10
17.599999999999991
 20
-100.0
 30
0.0
 11
22.399999999999991
 21
-98.880425347938569
 31
0.0
  0
LINE
  5
492
  8
DATA
  6
CONTINUOUS
 62
     7
 10
17.599999999999991
 20
-99.0
 30
0.0
 11
22.399999999999991
 21
-97.880425347938569
 31
0.0
  0
LINE
  5
493
  8
DATA
  6
CONTINUOUS
 62
     7
 10
17.599999999999991
 20
-98.0
 30
0.0
 11
22.399999999999991
 21
-96.880425347938584
 31
0.0
  0
LINE
  5
494
  8
DATA
  6
CONTINUOUS
 62
     7
 10
17.599999999999991
 20
-97.0
 30
0.0
 11
22.399999999999991
 21
-95.880425347938555
 31
0.0
  0
LINE
  5
495
  8
DATA
  6
CONTINUOUS
 62
     7
 10
17.599999999999991
 20
-96.0
 30
0.0
 11
22.399999999999991
 21
-94.880425347938569
 31
0.0
  0
LINE
  5
496
  8
DATA
  6
CONTINUOUS
 62
     7
 10
17.599999999999991
 20
-95.0
 30
0.0
 11
22.399999999999991
 21
-93.880425347938569
 31
0.0
  0
LINE
  5
497
  8
DATA
  6
CONTINUOUS
 62
     7
 10
17.599999999999991
 20
-94.0
 30
0.0
 11
22.399999999999991
 21
-92.880425347938569
 31
0.0
  0
LINE
  5
498
  8
DATA
  6
CONTINUOUS
 62
     7
 10
17.599999999999991
 20
-93.0
 30
0.0
 11
22.399999999999991
 21
-91.880425347938555
 31
0.0
  0
LINE
  5
499
  8
DATA
  6
CONTINUOUS
 62
     7
 10
17.599999999999991
 20
-92.0
 30
0.0
 11
22.399999999999991
 21
-90.880425347938555
 31
0.0
  0
LINE
  5
49A
  8
DATA
  6
CONTINUOUS
 62
     7
 10
17.599999999999991
 20
-91.0
 30
0.0
 11
22.399999999999991
 21
-89.880425347938569
 31
0.0
  0
LINE
  5
49B
  8
DATA
  6
CONTINUOUS
 62
     7
 10
17.599999999999991
 20
-90.0
 30
0.0
 11
22.399999999999991
 21
-88.880425347938569
 31
0.0
  0
LINE
  5
49C
  8
DATA
  6
CONTINUOUS
 62
     7
 10
17.599999999999991
 20
-89.0
 30
0.0
 11
22.399999999999991
 21
-87.880425347938569
 31
0.0
  0
LINE
  5
49D
  8
DATA
  6
CONTINUOUS
 62
     7
 10
17.599999999999991
 20
-88.0
 30
0.0
 11
22.399999999999991
 21
-86.880425347938555
 31
0.0
  0
LINE
  5
49E
  8
DATA
  6
CONTINUOUS
 62
     7
 10
17.599999999999991
 20
-87.0
 30
0.0
 11
22.399999999999991
 21
-85.880425347938555
 31
0.0
  0
LINE
  5
49F
  8
DATA
  6
CONTINUOUS
 62
     7
 10
17.599999999999991
 20
-86.0
 30
0.0
 11
22.399999999999991
 21
-84.880425347938569
 31
0.0
  0
LINE
  5
4A0
  8
DATA
  6
CONTINUOUS
 62
     7
 10
17.599999999999991
 20
-85.0
 30
0.0
 11
22.399999999999991
 21
-83.880425347938569
 31
0.0
  0
LINE
  5
4A1
  8
DATA
  6
CONTINUOUS
 62
     7
 10
17.599999999999991
 20
-84.0
 30
0.0
 11
22.399999999999991
 21
-82.880425347938569
 31
0.0
  0
LINE
  5
4A2
  8
DATA
  6
CONTINUOUS
 62
     7
 10
17.599999999999991
 20
-83.0
 30
0.0
 11
22.399999999999991
 21
-81.880425347938555
 31
0.0
  0
LINE
  5
4A3
  8
DATA
  6
CONTINUOUS
 62
     7
 10
17.599999999999991
 20
-82.0
 30
0.0
 11
22.399999999999991
 21
-80.880425347938555
 31
0.0
  0
LINE
  5
4A4
  8
DATA
  6
CONTINUOUS
 62
     7
 10
17.599999999999991
 20
-81.0
 30
0.0
 11
22.399999999999991
 21
-79.880425347938569
 31
0.0
  0
LINE
  5
4A5
  8
DATA
  6
CONTINUOUS
 62
     7
 10
17.599999999999991
 20
-80.0
 30
0.0
 11
22.399999999999991
 21
-78.880425347938569
 31
0.0
  0
LINE
  5
4A6
  8
DATA
  6
CONTINUOUS
 62
     7
 10
17.599999999999991
 20
-79.0
 30
0.0
 11
22.399999999999991
 21
-77.880425347938569
 31
0.0
  0
LINE
  5
4A7
  8
DATA
  6
CONTINUOUS
 62
     7
 10
17.599999999999991
 20
-78.0
 30
0.0
 11
22.399999999999991
 21
-76.880425347938569
 31
0.0
  0
LINE
  5
4A8
  8
DATA
  6
CONTINUOUS
 62
     7
 10
17.599999999999991
 20
-77.0
 30
0.0
 11
22.399999999999991
 21
-75.880425347938555
 31
0.0
  0
LINE
  5
4A9
  8
DATA
  6
CONTINUOUS
 62
     7
 10
17.599999999999991
 20
-76.0
 30
0.0
 11
22.399999999999991
 21
-74.880425347938569
 31
0.0
  0
LINE
  5
4AA
  8
DATA
  6
CONTINUOUS
 62
     7
 10
17.599999999999991
 20
-75.0
 30
0.0
 11
22.399999999999991
 21
-73.880425347938569
 31
0.0
  0
LINE
  5
4AB
  8
DATA
  6
CONTINUOUS
 62
     7
 10
17.599999999999991
 20
-74.0
 30
0.0
 11
22.399999999999991
 21
-72.880425347938569
 31
0.0
  0
LINE
  5
4AC
  8
DATA
  6
CONTINUOUS
 62
     7
 10
17.599999999999991
 20
-73.0
 30
0.0
 11
22.399999999999991
 21
-71.880425347938569
 31
0.0
  0
LINE
  5
4AD
  8
DATA
  6
CONTINUOUS
 62
     7
 10
17.599999999999991
 20
-72.0
 30
0.0
 11
22.399999999999991
 21
-70.880425347938555
 31
0.0
  0
LINE
  5
4AE
  8
DATA
  6
CONTINUOUS
 62
     7
 10
17.599999999999991
 20
-71.0
 30
0.0
 11
22.399999999999991
 21
-69.880425347938569
 31
0.0
  0
LINE
  5
4AF
  8
DATA
  6
CONTINUOUS
 62
     7
 10
17.599999999999991
 20
-70.0
 30
0.0
 11
22.399999999999991
 21
-68.880425347938569
 31
0.0
  0
LINE
  5
4B0
  8
DATA
  6
CONTINUOUS
 62
     7
 10
17.599999999999991
 20
-69.0
 30
0.0
 11
22.399999999999991
 21
-67.880425347938569
 31
0.0
  0
LINE
  5
4B1
  8
DATA
  6
CONTINUOUS
 62
     7
 10
17.599999999999991
 20
-68.0
 30
0.0
 11
22.399999999999991
 21
-66.880425347938569
 31
0.0
  0
LINE
  5
4B2
  8
DATA
  6
CONTINUOUS
 62
     7
 10
17.599999999999991
 20
-67.0
 30
0.0
 11
22.399999999999991
 21
-65.880425347938555
 31
0.0
  0
LINE
  5
4B3
  8
DATA
  6
CONTINUOUS
 62
     7
 10
17.599999999999991
 20
-66.0
 30
0.0
 11
22.399999999999991
 21
-64.880425347938569
 31
0.0
  0
LINE
  5
4B4
  8
DATA
  6
CONTINUOUS
 62
     7
 10
17.599999999999991
 20
-65.0
 30
0.0
 11
22.399999999999991
 21
-63.880425347938569
 31
0.0
  0
LINE
  5
4B5
  8
DATA
  6
CONTINUOUS
 62
     7
 10
17.599999999999991
 20
-64.0
 30
0.0
 11
22.399999999999991
 21
-62.880425347938569
 31
0.0
  0
LINE
  5
4B6
  8
DATA
  6
CONTINUOUS
 62
     7
 10
17.599999999999991
 20
-63.0
 30
0.0
 11
22.399999999999991
 21
-61.880425347938569
 31
0.0
  0
LINE
  5
4B7
  8
DATA
  6
CONTINUOUS
 62
     7
 10
17.599999999999991
 20
-62.0
 30
0.0
 11
22.399999999999991
 21
-60.880425347938562
 31
0.0
  0
LINE
  5
4B8
  8
DATA
  6
CONTINUOUS
 62
     7
 10
17.599999999999991
 20
-61.0
 30
0.0
 11
22.399999999999991
 21
-59.880425347938569
 31
0.0
  0
LINE
  5
4B9
  8
DATA
  6
CONTINUOUS
 62
     7
 10
17.599999999999991
 20
-60.0
 30
0.0
 11
22.399999999999991
 21
-58.880425347938569
 31
0.0
  0
LINE
  5
4BA
  8
DATA
  6
CONTINUOUS
 62
     7
 10
17.599999999999991
 20
-59.0
 30
0.0
 11
22.399999999999991
 21
-57.880425347938569
 31
0.0
  0
LINE
  5
4BB
  8
DATA
  6
CONTINUOUS
 62
     7
 10
17.599999999999991
 20
-58.0
 30
0.0
 11
22.399999999999991
 21
-56.880425347938569
 31
0.0
  0
LINE
  5
4BC
  8
DATA
  6
CONTINUOUS
 62
     7
 10
17.599999999999991
 20
-57.0
 30
0.0
 11
22.399999999999991
 21
-55.880425347938562
 31
0.0
  0
LINE
  5
4BD
  8
DATA
  6
CONTINUOUS
 62
     7
 10
17.599999999999991
 20
-56.0
 30
0.0
 11
22.399999999999991
 21
-54.880425347938569
 31
0.0
  0
LINE
  5
4BE
  8
DATA
  6
CONTINUOUS
 62
     7
 10
17.599999999999991
 20
-55.0
 30
0.0
 11
22.399999999999991
 21
-53.880425347938569
 31
0.0
  0
LINE
  5
4BF
  8
DATA
  6
CONTINUOUS
 62
     7
 10
17.599999999999991
 20
-54.0
 30
0.0
 11
22.399999999999991
 21
-52.880425347938569
 31
0.0
  0
LINE
  5
4C0
  8
DATA
  6
CONTINUOUS
 62
     7
 10
17.599999999999991
 20
-53.0
 30
0.0
 11
22.399999999999991
 21
-51.880425347938569
 31
0.0
  0
LINE
  5
4C1
  8
DATA
  6
CONTINUOUS
 62
     7
 10
17.599999999999991
 20
-52.0
 30
0.0
 11
22.399999999999991
 21
-50.880425347938562
 31
0.0
  0
LINE
  5
4C2
  8
DATA
  6
CONTINUOUS
 62
     7
 10
17.599999999999991
 20
-51.0
 30
0.0
 11
22.399999999999991
 21
-49.880425347938569
 31
0.0
  0
LINE
  5
4C3
  8
DATA
  6
CONTINUOUS
 62
     7
 10
17.599999999999991
 20
-50.0
 30
0.0
 11
22.399999999999991
 21
-48.880425347938569
 31
0.0
  0
LINE
  5
4C4
  8
DATA
  6
CONTINUOUS
 62
     7
 10
17.599999999999991
 20
-49.0
 30
0.0
 11
22.399999999999991
 21
-47.880425347938569
 31
0.0
  0
LINE
  5
4C5
  8
DATA
  6
CONTINUOUS
 62
     7
 10
17.599999999999991
 20
-48.0
 30
0.0
 11
22.399999999999991
 21
-46.880425347938569
 31
0.0
  0
LINE
  5
4C6
  8
DATA
  6
CONTINUOUS
 62
     7
 10
17.599999999999991
 20
-47.0
 30
0.0
 11
22.399999999999991
 21
-45.880425347938562
 31
0.0
  0
LINE
  5
4C7
  8
DATA
  6
CONTINUOUS
 62
     7
 10
17.599999999999991
 20
-46.0
 30
0.0
 11
22.399999999999991
 21
-44.880425347938569
 31
0.0
  0
LINE
  5
4C8
  8
DATA
  6
CONTINUOUS
 62
     7
 10
17.599999999999991
 20
-45.0
 30
0.0
 11
22.399999999999991
 21
-43.880425347938562
 31
0.0
  0
LINE
  5
4C9
  8
DATA
  6
CONTINUOUS
 62
     7
 10
17.599999999999991
 20
-44.0
 30
0.0
 11
22.399999999999991
 21
-42.880425347938569
 31
0.0
  0
LINE
  5
4CA
  8
DATA
  6
CONTINUOUS
 62
     7
 10
17.599999999999991
 20
-43.0
 30
0.0
 11
22.399999999999991
 21
-41.880425347938569
 31
0.0
  0
LINE
  5
4CB
  8
DATA
  6
CONTINUOUS
 62
     7
 10
17.599999999999991
 20
-42.0
 30
0.0
 11
22.399999999999991
 21
-40.880425347938562
 31
0.0
  0
LINE
  5
4CC
  8
DATA
  6
CONTINUOUS
 62
     7
 10
17.599999999999991
 20
-41.0
 30
0.0
 11
22.399999999999991
 21
-39.880425347938569
 31
0.0
  0
LINE
  5
4CD
  8
DATA
  6
CONTINUOUS
 62
     7
 10
17.599999999999991
 20
-40.0
 30
0.0
 11
22.399999999999991
 21
-38.880425347938569
 31
0.0
  0
LINE
  5
4CE
  8
DATA
  6
CONTINUOUS
 62
     7
 10
17.599999999999991
 20
-39.0
 30
0.0
 11
22.399999999999991
 21
-37.880425347938569
 31
0.0
  0
LINE
  5
4CF
  8
DATA
  6
CONTINUOUS
 62
     7
 10
17.599999999999991
 20
-38.0
 30
0.0
 11
22.399999999999991
 21
-36.880425347938569
 31
0.0
  0
LINE
  5
4D0
  8
DATA
  6
CONTINUOUS
 62
     7
 10
17.599999999999991
 20
-37.0
 30
0.0
 11
22.399999999999991
 21
-35.880425347938569
 31
0.0
  0
LINE
  5
4D1
  8
DATA
  6
CONTINUOUS
 62
     7
 10
17.599999999999991
 20
-36.0
 30
0.0
 11
22.399999999999991
 21
-34.880425347938569
 31
0.0
  0
LINE
  5
4D2
  8
DATA
  6
CONTINUOUS
 62
     7
 10
17.599999999999991
 20
-35.0
 30
0.0
 11
22.399999999999991
 21
-33.880425347938569
 31
0.0
  0
LINE
  5
4D3
  8
DATA
  6
CONTINUOUS
 62
     7
 10
17.599999999999991
 20
-34.0
 30
0.0
 11
22.399999999999991
 21
-32.880425347938569
 31
0.0
  0
LINE
  5
4D4
  8
DATA
  6
CONTINUOUS
 62
     7
 10
17.599999999999991
 20
-33.0
 30
0.0
 11
22.399999999999991
 21
-31.880425347938569
 31
0.0
  0
LINE
  5
4D5
  8
DATA
  6
CONTINUOUS
 62
     7
 10
17.599999999999991
 20
-32.0
 30
0.0
 11
22.399999999999991
 21
-30.880425347938569
 31
0.0
  0
LINE
  5
4D6
  8
DATA
  6
CONTINUOUS
 62
     7
 10
17.599999999999991
 20
-31.0
 30
0.0
 11
22.399999999999991
 21
-29.880425347938569
 31
0.0
  0
LINE
  5
4D7
  8
DATA
  6
CONTINUOUS
 62
     7
 10
17.599999999999991
 20
-30.0
 30
0.0
 11
22.399999999999991
 21
-28.880425347938569
 31
0.0
  0
LINE
  5
4D8
  8
DATA
  6
CONTINUOUS
 62
     7
 10
17.599999999999991
 20
-29.0
 30
0.0
 11
22.399999999999991
 21
-27.880425347938569
 31
0.0
  0
LINE
  5
4D9
  8
DATA
  6
CONTINUOUS
 62
     7
 10
17.599999999999991
 20
-28.0
 30
0.0
 11
22.399999999999991
 21
-26.880425347938569
 31
0.0
  0
LINE
  5
4DA
  8
DATA
  6
CONTINUOUS
 62
     7
 10
17.599999999999991
 20
-27.0
 30
0.0
 11
22.399999999999991
 21
-25.880425347938569
 31
0.0
  0
LINE
  5
4DB
  8
DATA
  6
CONTINUOUS
 62
     7
 10
17.599999999999991
 20
-26.0
 30
0.0
 11
22.399999999999991
 21
-24.880425347938569
 31
0.0
  0
LINE
  5
4DC
  8
DATA
  6
CONTINUOUS
 62
     7
 10
17.599999999999991
 20
-25.0
 30
0.0
 11
22.399999999999991
 21
-23.880425347938569
 31
0.0
  0
LINE
  5
4DD
  8
DATA
  6
CONTINUOUS
 62
     7
 10
17.599999999999991
 20
-24.0
 30
0.0
 11
22.399999999999991
 21
-22.880425347938569
 31
0.0
  0
LINE
  5
4DE
  8
DATA
  6
CONTINUOUS
 62
     7
 10
17.599999999999991
 20
-23.0
 30
0.0
 11
22.399999999999991
 21
-21.880425347938569
 31
0.0
  0
LINE
  5
4DF
  8
DATA
  6
CONTINUOUS
 62
     7
 10
17.599999999999991
 20
-22.0
 30
0.0
 11
21.887342510981231
 21
-21.0
 31
0.0
  0
LINE
  5
4E0
  8
DATA
  6
CONTINUOUS
 62
     7
 10
17.75
 20
-140.0
 30
0.0
 11
17.75
 21
-139.96501329212299
 31
0.0
  0
LINE
  5
4E1
  8
DATA
  6
CONTINUOUS
 62
     7
 10
17.75
 20
-138.96501329212299
 30
0.0
 11
17.75
 21
-137.96501329212299
 31
0.0
  0
LINE
  5
4E2
  8
DATA
  6
CONTINUOUS
 62
     7
 10
17.75
 20
-136.96501329212299
 30
0.0
 11
17.75
 21
-135.96501329212299
 31
0.0
  0
LINE
  5
4E3
  8
DATA
  6
CONTINUOUS
 62
     7
 10
17.75
 20
-134.96501329212299
 30
0.0
 11
17.75
 21
-133.96501329212299
 31
0.0
  0
LINE
  5
4E4
  8
DATA
  6
CONTINUOUS
 62
     7
 10
17.75
 20
-132.96501329212299
 30
0.0
 11
17.75
 21
-131.96501329212299
 31
0.0
  0
LINE
  5
4E5
  8
DATA
  6
CONTINUOUS
 62
     7
 10
17.75
 20
-130.96501329212299
 30
0.0
 11
17.75
 21
-129.9650132921231
 31
0.0
  0
LINE
  5
4E6
  8
DATA
  6
CONTINUOUS
 62
     7
 10
17.75
 20
-128.9650132921231
 30
0.0
 11
17.75
 21
-127.9650132921231
 31
0.0
  0
LINE
  5
4E7
  8
DATA
  6
CONTINUOUS
 62
     7
 10
17.75
 20
-126.9650132921231
 30
0.0
 11
17.75
 21
-125.9650132921231
 31
0.0
  0
LINE
  5
4E8
  8
DATA
  6
CONTINUOUS
 62
     7
 10
17.75
 20
-124.9650132921231
 30
0.0
 11
17.75
 21
-123.9650132921231
 31
0.0
  0
LINE
  5
4E9
  8
DATA
  6
CONTINUOUS
 62
     7
 10
17.75
 20
-122.9650132921231
 30
0.0
 11
17.75
 21
-121.9650132921231
 31
0.0
  0
LINE
  5
4EA
  8
DATA
  6
CONTINUOUS
 62
     7
 10
17.75
 20
-120.9650132921231
 30
0.0
 11
17.75
 21
-119.9650132921231
 31
0.0
  0
LINE
  5
4EB
  8
DATA
  6
CONTINUOUS
 62
     7
 10
17.75
 20
-118.965013292123
 30
0.0
 11
17.75
 21
-117.965013292123
 31
0.0
  0
LINE
  5
4EC
  8
DATA
  6
CONTINUOUS
 62
     7
 10
17.75
 20
-116.965013292123
 30
0.0
 11
17.75
 21
-115.965013292123
 31
0.0
  0
LINE
  5
4ED
  8
DATA
  6
CONTINUOUS
 62
     7
 10
17.75
 20
-114.965013292123
 30
0.0
 11
17.75
 21
-113.965013292123
 31
0.0
  0
LINE
  5
4EE
  8
DATA
  6
CONTINUOUS
 62
     7
 10
17.75
 20
-112.965013292123
 30
0.0
 11
17.75
 21
-111.965013292123
 31
0.0
  0
LINE
  5
4EF
  8
DATA
  6
CONTINUOUS
 62
     7
 10
17.75
 20
-110.965013292123
 30
0.0
 11
17.75
 21
-109.965013292123
 31
0.0
  0
LINE
  5
4F0
  8
DATA
  6
CONTINUOUS
 62
     7
 10
17.75
 20
-108.965013292123
 30
0.0
 11
17.75
 21
-107.965013292123
 31
0.0
  0
LINE
  5
4F1
  8
DATA
  6
CONTINUOUS
 62
     7
 10
17.75
 20
-106.965013292123
 30
0.0
 11
17.75
 21
-105.965013292123
 31
0.0
  0
LINE
  5
4F2
  8
DATA
  6
CONTINUOUS
 62
     7
 10
17.75
 20
-104.965013292123
 30
0.0
 11
17.75
 21
-103.9650132921231
 31
0.0
  0
LINE
  5
4F3
  8
DATA
  6
CONTINUOUS
 62
     7
 10
17.75
 20
-102.9650132921231
 30
0.0
 11
17.75
 21
-101.9650132921231
 31
0.0
  0
LINE
  5
4F4
  8
DATA
  6
CONTINUOUS
 62
     7
 10
17.75
 20
-100.9650132921231
 30
0.0
 11
17.75
 21
-99.965013292123075
 31
0.0
  0
LINE
  5
4F5
  8
DATA
  6
CONTINUOUS
 62
     7
 10
17.75
 20
-98.965013292123075
 30
0.0
 11
17.75
 21
-97.965013292123075
 31
0.0
  0
LINE
  5
4F6
  8
DATA
  6
CONTINUOUS
 62
     7
 10
17.75
 20
-96.965013292123075
 30
0.0
 11
17.75
 21
-95.965013292123075
 31
0.0
  0
LINE
  5
4F7
  8
DATA
  6
CONTINUOUS
 62
     7
 10
17.75
 20
-94.965013292123075
 30
0.0
 11
17.75
 21
-93.965013292123075
 31
0.0
  0
LINE
  5
4F8
  8
DATA
  6
CONTINUOUS
 62
     7
 10
17.75
 20
-92.965013292123047
 30
0.0
 11
17.75
 21
-91.965013292123075
 31
0.0
  0
LINE
  5
4F9
  8
DATA
  6
CONTINUOUS
 62
     7
 10
17.75
 20
-90.965013292123075
 30
0.0
 11
17.75
 21
-89.965013292123075
 31
0.0
  0
LINE
  5
4FA
  8
DATA
  6
CONTINUOUS
 62
     7
 10
17.75
 20
-88.965013292123075
 30
0.0
 11
17.75
 21
-87.965013292123075
 31
0.0
  0
LINE
  5
4FB
  8
DATA
  6
CONTINUOUS
 62
     7
 10
17.75
 20
-86.965013292123075
 30
0.0
 11
17.75
 21
-85.965013292123075
 31
0.0
  0
LINE
  5
4FC
  8
DATA
  6
CONTINUOUS
 62
     7
 10
17.75
 20
-84.965013292123047
 30
0.0
 11
17.75
 21
-83.965013292123061
 31
0.0
  0
LINE
  5
4FD
  8
DATA
  6
CONTINUOUS
 62
     7
 10
17.75
 20
-82.965013292123089
 30
0.0
 11
17.75
 21
-81.965013292123061
 31
0.0
  0
LINE
  5
4FE
  8
DATA
  6
CONTINUOUS
 62
     7
 10
17.75
 20
-80.965013292123075
 30
0.0
 11
17.75
 21
-79.965013292123103
 31
0.0
  0
LINE
  5
4FF
  8
DATA
  6
CONTINUOUS
 62
     7
 10
17.75
 20
-78.965013292123061
 30
0.0
 11
17.75
 21
-77.965013292123061
 31
0.0
  0
LINE
  5
500
  8
DATA
  6
CONTINUOUS
 62
     7
 10
17.75
 20
-76.965013292123061
 30
0.0
 11
17.75
 21
-75.965013292123061
 31
0.0
  0
LINE
  5
501
  8
DATA
  6
CONTINUOUS
 62
     7
 10
17.75
 20
-74.965013292123061
 30
0.0
 11
17.75
 21
-73.965013292123061
 31
0.0
  0
LINE
  5
502
  8
DATA
  6
CONTINUOUS
 62
     7
 10
17.75
 20
-72.965013292123061
 30
0.0
 11
17.75
 21
-71.965013292123075
 31
0.0
  0
LINE
  5
503
  8
DATA
  6
CONTINUOUS
 62
     7
 10
17.75
 20
-70.965013292123075
 30
0.0
 11
17.75
 21
-69.965013292123075
 31
0.0
  0
LINE
  5
504
  8
DATA
  6
CONTINUOUS
 62
     7
 10
17.75
 20
-68.965013292123075
 30
0.0
 11
17.75
 21
-67.965013292123075
 31
0.0
  0
LINE
  5
505
  8
DATA
  6
CONTINUOUS
 62
     7
 10
17.75
 20
-66.965013292123075
 30
0.0
 11
17.75
 21
-65.965013292123075
 31
0.0
  0
LINE
  5
506
  8
DATA
  6
CONTINUOUS
 62
     7
 10
17.75
 20
-64.965013292123075
 30
0.0
 11
17.75
 21
-63.965013292123082
 31
0.0
  0
LINE
  5
507
  8
DATA
  6
CONTINUOUS
 62
     7
 10
17.75
 20
-62.965013292123082
 30
0.0
 11
17.75
 21
-61.965013292123103
 31
0.0
  0
LINE
  5
508
  8
DATA
  6
CONTINUOUS
 62
     7
 10
17.75
 20
-60.965013292123089
 30
0.0
 11
17.75
 21
-59.965013292123082
 31
0.0
  0
LINE
  5
509
  8
DATA
  6
CONTINUOUS
 62
     7
 10
17.75
 20
-58.965013292123082
 30
0.0
 11
17.75
 21
-57.965013292123082
 31
0.0
  0
LINE
  5
50A
  8
DATA
  6
CONTINUOUS
 62
     7
 10
17.75
 20
-56.965013292123061
 30
0.0
 11
17.75
 21
-55.965013292123082
 31
0.0
  0
LINE
  5
50B
  8
DATA
  6
CONTINUOUS
 62
     7
 10
17.75
 20
-54.965013292123103
 30
0.0
 11
17.75
 21
-53.965013292123061
 31
0.0
  0
LINE
  5
50C
  8
DATA
  6
CONTINUOUS
 62
     7
 10
17.75
 20
-52.965013292123082
 30
0.0
 11
17.75
 21
-51.965013292123082
 31
0.0
  0
LINE
  5
50D
  8
DATA
  6
CONTINUOUS
 62
     7
 10
17.75
 20
-50.965013292123082
 30
0.0
 11
17.75
 21
-49.965013292123082
 31
0.0
  0
LINE
  5
50E
  8
DATA
  6
CONTINUOUS
 62
     7
 10
17.75
 20
-48.965013292123089
 30
0.0
 11
17.75
 21
-47.965013292123089
 31
0.0
  0
LINE
  5
50F
  8
DATA
  6
CONTINUOUS
 62
     7
 10
17.75
 20
-46.965013292123082
 30
0.0
 11
17.75
 21
-45.965013292123082
 31
0.0
  0
LINE
  5
510
  8
DATA
  6
CONTINUOUS
 62
     7
 10
17.75
 20
-44.965013292123103
 30
0.0
 11
17.75
 21
-43.965013292123061
 31
0.0
  0
LINE
  5
511
  8
DATA
  6
CONTINUOUS
 62
     7
 10
17.75
 20
-42.965013292123082
 30
0.0
 11
17.75
 21
-41.965013292123082
 31
0.0
  0
LINE
  5
512
  8
DATA
  6
CONTINUOUS
 62
     7
 10
17.75
 20
-40.965013292123082
 30
0.0
 11
17.75
 21
-39.965013292123082
 31
0.0
  0
LINE
  5
513
  8
DATA
  6
CONTINUOUS
 62
     7
 10
17.75
 20
-38.965013292123082
 30
0.0
 11
17.75
 21
-37.965013292123082
 31
0.0
  0
LINE
  5
514
  8
DATA
  6
CONTINUOUS
 62
     7
 10
17.75
 20
-36.965013292123089
 30
0.0
 11
17.75
 21
-35.965013292123082
 31
0.0
  0
LINE
  5
515
  8
DATA
  6
CONTINUOUS
 62
     7
 10
17.75
 20
-34.965013292123082
 30
0.0
 11
17.75
 21
-33.965013292123082
 31
0.0
  0
LINE
  5
516
  8
DATA
  6
CONTINUOUS
 62
     7
 10
17.75
 20
-32.965013292123082
 30
0.0
 11
17.75
 21
-31.965013292123079
 31
0.0
  0
LINE
  5
517
  8
DATA
  6
CONTINUOUS
 62
     7
 10
17.75
 20
-30.965013292123071
 30
0.0
 11
17.75
 21
-29.965013292123079
 31
0.0
  0
LINE
  5
518
  8
DATA
  6
CONTINUOUS
 62
     7
 10
17.75
 20
-28.965013292123079
 30
0.0
 11
17.75
 21
-27.965013292123079
 31
0.0
  0
LINE
  5
519
  8
DATA
  6
CONTINUOUS
 62
     7
 10
17.75
 20
-26.965013292123079
 30
0.0
 11
17.75
 21
-25.965013292123071
 31
0.0
  0
LINE
  5
51A
  8
DATA
  6
CONTINUOUS
 62
     7
 10
17.75
 20
-24.965013292123079
 30
0.0
 11
17.75
 21
-23.965013292123071
 31
0.0
  0
LINE
  5
51B
  8
DATA
  6
CONTINUOUS
 62
     7
 10
17.75
 20
-22.965013292123079
 30
0.0
 11
17.75
 21
-21.965013292123079
 31
0.0
  0
LINE
  5
51C
  8
DATA
  6
CONTINUOUS
 62
     7
 10
22.249999997799989
 20
-20.999999999999979
 30
0.0
 11
22.249999997799989
 21
-21.915412056328631
 31
0.0
  0
LINE
  5
51D
  8
DATA
  6
CONTINUOUS
 62
     7
 10
22.249999997799989
 20
-22.915412056328631
 30
0.0
 11
22.249999997799989
 21
-23.915412056328631
 31
0.0
  0
LINE
  5
51E
  8
DATA
  6
CONTINUOUS
 62
     7
 10
22.249999997799989
 20
-24.915412056328631
 30
0.0
 11
22.249999997799989
 21
-25.915412056328631
 31
0.0
  0
LINE
  5
51F
  8
DATA
  6
CONTINUOUS
 62
     7
 10
22.249999997799989
 20
-26.915412056328631
 30
0.0
 11
22.249999997799989
 21
-27.915412056328631
 31
0.0
  0
LINE
  5
520
  8
DATA
  6
CONTINUOUS
 62
     7
 10
22.249999997799989
 20
-28.915412056328631
 30
0.0
 11
22.249999997799989
 21
-29.915412056328631
 31
0.0
  0
LINE
  5
521
  8
DATA
  6
CONTINUOUS
 62
     7
 10
22.249999997799989
 20
-30.915412056328631
 30
0.0
 11
22.249999997799989
 21
-31.915412056328631
 31
0.0
  0
LINE
  5
522
  8
DATA
  6
CONTINUOUS
 62
     7
 10
22.249999997799989
 20
-32.91541205632862
 30
0.0
 11
22.249999997799989
 21
-33.915412056328627
 31
0.0
  0
LINE
  5
523
  8
DATA
  6
CONTINUOUS
 62
     7
 10
22.249999997799989
 20
-34.915412056328627
 30
0.0
 11
22.249999997799989
 21
-35.915412056328627
 31
0.0
  0
LINE
  5
524
  8
DATA
  6
CONTINUOUS
 62
     7
 10
22.249999997799989
 20
-36.915412056328627
 30
0.0
 11
22.249999997799989
 21
-37.915412056328627
 31
0.0
  0
LINE
  5
525
  8
DATA
  6
CONTINUOUS
 62
     7
 10
22.249999997799989
 20
-38.915412056328641
 30
0.0
 11
22.249999997799989
 21
-39.915412056328627
 31
0.0
  0
LINE
  5
526
  8
DATA
  6
CONTINUOUS
 62
     7
 10
22.249999997799989
 20
-40.915412056328627
 30
0.0
 11
22.249999997799989
 21
-41.915412056328613
 31
0.0
  0
LINE
  5
527
  8
DATA
  6
CONTINUOUS
 62
     7
 10
22.249999997799989
 20
-42.915412056328613
 30
0.0
 11
22.249999997799989
 21
-43.91541205632862
 31
0.0
  0
LINE
  5
528
  8
DATA
  6
CONTINUOUS
 62
     7
 10
22.249999997799989
 20
-44.915412056328641
 30
0.0
 11
22.249999997799989
 21
-45.91541205632862
 31
0.0
  0
LINE
  5
529
  8
DATA
  6
CONTINUOUS
 62
     7
 10
22.249999997799989
 20
-46.91541205632862
 30
0.0
 11
22.249999997799989
 21
-47.915412056328641
 31
0.0
  0
LINE
  5
52A
  8
DATA
  6
CONTINUOUS
 62
     7
 10
22.249999997799989
 20
-48.91541205632862
 30
0.0
 11
22.249999997799989
 21
-49.915412056328627
 31
0.0
  0
LINE
  5
52B
  8
DATA
  6
CONTINUOUS
 62
     7
 10
22.249999997799989
 20
-50.915412056328641
 30
0.0
 11
22.249999997799989
 21
-51.91541205632862
 31
0.0
  0
LINE
  5
52C
  8
DATA
  6
CONTINUOUS
 62
     7
 10
22.249999997799989
 20
-52.91541205632862
 30
0.0
 11
22.249999997799989
 21
-53.91541205632862
 31
0.0
  0
LINE
  5
52D
  8
DATA
  6
CONTINUOUS
 62
     7
 10
22.249999997799989
 20
-54.915412056328641
 30
0.0
 11
22.249999997799989
 21
-55.91541205632862
 31
0.0
  0
LINE
  5
52E
  8
DATA
  6
CONTINUOUS
 62
     7
 10
22.249999997799989
 20
-56.91541205632862
 30
0.0
 11
22.249999997799989
 21
-57.915412056328627
 31
0.0
  0
LINE
  5
52F
  8
DATA
  6
CONTINUOUS
 62
     7
 10
22.249999997799989
 20
-58.91541205632862
 30
0.0
 11
22.249999997799989
 21
-59.915412056328627
 31
0.0
  0
LINE
  5
530
  8
DATA
  6
CONTINUOUS
 62
     7
 10
22.249999997799989
 20
-60.915412056328641
 30
0.0
 11
22.249999997799989
 21
-61.91541205632862
 31
0.0
  0
LINE
  5
531
  8
DATA
  6
CONTINUOUS
 62
     7
 10
22.249999997799989
 20
-62.915412056328613
 30
0.0
 11
22.249999997799989
 21
-63.91541205632862
 31
0.0
  0
LINE
  5
532
  8
DATA
  6
CONTINUOUS
 62
     7
 10
22.249999997799989
 20
-64.91541205632862
 30
0.0
 11
22.249999997799989
 21
-65.915412056328634
 31
0.0
  0
LINE
  5
533
  8
DATA
  6
CONTINUOUS
 62
     7
 10
22.249999997799989
 20
-66.915412056328648
 30
0.0
 11
22.249999997799989
 21
-67.915412056328634
 31
0.0
  0
LINE
  5
534
  8
DATA
  6
CONTINUOUS
 62
     7
 10
22.249999997799989
 20
-68.915412056328606
 30
0.0
 11
22.249999997799989
 21
-69.915412056328634
 31
0.0
  0
LINE
  5
535
  8
DATA
  6
CONTINUOUS
 62
     7
 10
22.249999997799989
 20
-70.915412056328634
 30
0.0
 11
22.249999997799989
 21
-71.915412056328634
 31
0.0
  0
LINE
  5
536
  8
DATA
  6
CONTINUOUS
 62
     7
 10
22.249999997799989
 20
-72.91541205632862
 30
0.0
 11
22.249999997799989
 21
-73.915412056328634
 31
0.0
  0
LINE
  5
537
  8
DATA
  6
CONTINUOUS
 62
     7
 10
22.249999997799989
 20
-74.91541205632862
 30
0.0
 11
22.249999997799989
 21
-75.91541205632862
 31
0.0
  0
LINE
  5
538
  8
DATA
  6
CONTINUOUS
 62
     7
 10
22.249999997799989
 20
-76.915412056328634
 30
0.0
 11
22.249999997799989
 21
-77.91541205632862
 31
0.0
  0
LINE
  5
539
  8
DATA
  6
CONTINUOUS
 62
     7
 10
22.249999997799989
 20
-78.915412056328606
 30
0.0
 11
22.249999997799989
 21
-79.91541205632862
 31
0.0
  0
LINE
  5
53A
  8
DATA
  6
CONTINUOUS
 62
     7
 10
22.249999997799989
 20
-80.915412056328634
 30
0.0
 11
22.249999997799989
 21
-81.91541205632862
 31
0.0
  0
LINE
  5
53B
  8
DATA
  6
CONTINUOUS
 62
     7
 10
22.249999997799989
 20
-82.91541205632862
 30
0.0
 11
22.249999997799989
 21
-83.915412056328634
 31
0.0
  0
LINE
  5
53C
  8
DATA
  6
CONTINUOUS
 62
     7
 10
22.249999997799989
 20
-84.915412056328606
 30
0.0
 11
22.249999997799989
 21
-85.915412056328634
 31
0.0
  0
LINE
  5
53D
  8
DATA
  6
CONTINUOUS
 62
     7
 10
22.249999997799989
 20
-86.915412056328634
 30
0.0
 11
22.249999997799989
 21
-87.915412056328606
 31
0.0
  0
LINE
  5
53E
  8
DATA
  6
CONTINUOUS
 62
     7
 10
22.249999997799989
 20
-88.915412056328606
 30
0.0
 11
22.249999997799989
 21
-89.915412056328606
 31
0.0
  0
LINE
  5
53F
  8
DATA
  6
CONTINUOUS
 62
     7
 10
22.249999997799989
 20
-90.915412056328634
 30
0.0
 11
22.249999997799989
 21
-91.915412056328634
 31
0.0
  0
LINE
  5
540
  8
DATA
  6
CONTINUOUS
 62
     7
 10
22.249999997799989
 20
-92.915412056328634
 30
0.0
 11
22.249999997799989
 21
-93.915412056328634
 31
0.0
  0
LINE
  5
541
  8
DATA
  6
CONTINUOUS
 62
     7
 10
22.249999997799989
 20
-94.915412056328634
 30
0.0
 11
22.249999997799989
 21
-95.915412056328634
 31
0.0
  0
LINE
  5
542
  8
DATA
  6
CONTINUOUS
 62
     7
 10
22.249999997799989
 20
-96.91541205632862
 30
0.0
 11
22.249999997799989
 21
-97.915412056328634
 31
0.0
  0
LINE
  5
543
  8
DATA
  6
CONTINUOUS
 62
     7
 10
22.249999997799989
 20
-98.915412056328634
 30
0.0
 11
22.249999997799989
 21
-99.915412056328634
 31
0.0
  0
LINE
  5
544
  8
DATA
  6
CONTINUOUS
 62
     7
 10
22.249999997799989
 20
-100.91541205632861
 30
0.0
 11
22.249999997799989
 21
-101.91541205632861
 31
0.0
  0
LINE
  5
545
  8
DATA
  6
CONTINUOUS
 62
     7
 10
22.249999997799989
 20
-102.91541205632861
 30
0.0
 11
22.249999997799989
 21
-103.91541205632861
 31
0.0
  0
LINE
  5
546
  8
DATA
  6
CONTINUOUS
 62
     7
 10
22.249999997799989
 20
-104.91541205632861
 30
0.0
 11
22.249999997799989
 21
-105.91541205632861
 31
0.0
  0
LINE
  5
547
  8
DATA
  6
CONTINUOUS
 62
     7
 10
22.249999997799989
 20
-106.91541205632861
 30
0.0
 11
22.249999997799989
 21
-107.91541205632861
 31
0.0
  0
LINE
  5
548
  8
DATA
  6
CONTINUOUS
 62
     7
 10
22.249999997799989
 20
-108.91541205632861
 30
0.0
 11
22.249999997799989
 21
-109.91541205632861
 31
0.0
  0
LINE
  5
549
  8
DATA
  6
CONTINUOUS
 62
     7
 10
22.249999997799989
 20
-110.91541205632861
 30
0.0
 11
22.249999997799989
 21
-111.91541205632861
 31
0.0
  0
LINE
  5
54A
  8
DATA
  6
CONTINUOUS
 62
     7
 10
22.249999997799989
 20
-112.91541205632861
 30
0.0
 11
22.249999997799989
 21
-113.91541205632861
 31
0.0
  0
LINE
  5
54B
  8
DATA
  6
CONTINUOUS
 62
     7
 10
22.249999997799989
 20
-114.91541205632861
 30
0.0
 11
22.249999997799989
 21
-115.91541205632861
 31
0.0
  0
LINE
  5
54C
  8
DATA
  6
CONTINUOUS
 62
     7
 10
22.249999997799989
 20
-116.91541205632861
 30
0.0
 11
22.249999997799989
 21
-117.91541205632861
 31
0.0
  0
LINE
  5
54D
  8
DATA
  6
CONTINUOUS
 62
     7
 10
22.249999997799989
 20
-118.91541205632861
 30
0.0
 11
22.249999997799989
 21
-119.91541205632861
 31
0.0
  0
LINE
  5
54E
  8
DATA
  6
CONTINUOUS
 62
     7
 10
22.249999997799989
 20
-120.91541205632861
 30
0.0
 11
22.249999997799989
 21
-121.91541205632861
 31
0.0
  0
LINE
  5
54F
  8
DATA
  6
CONTINUOUS
 62
     7
 10
22.249999997799989
 20
-122.91541205632861
 30
0.0
 11
22.249999997799989
 21
-123.91541205632861
 31
0.0
  0
LINE
  5
550
  8
DATA
  6
CONTINUOUS
 62
     7
 10
22.249999997799989
 20
-124.91541205632861
 30
0.0
 11
22.249999997799989
 21
-125.91541205632861
 31
0.0
  0
LINE
  5
551
  8
DATA
  6
CONTINUOUS
 62
     7
 10
22.249999997799989
 20
-126.91541205632861
 30
0.0
 11
22.249999997799989
 21
-127.91541205632851
 31
0.0
  0
LINE
  5
552
  8
DATA
  6
CONTINUOUS
 62
     7
 10
22.249999997799989
 20
-128.91541205632859
 30
0.0
 11
22.249999997799989
 21
-129.91541205632859
 31
0.0
  0
LINE
  5
553
  8
DATA
  6
CONTINUOUS
 62
     7
 10
22.249999997799989
 20
-130.91541205632859
 30
0.0
 11
22.249999997799989
 21
-131.91541205632859
 31
0.0
  0
LINE
  5
554
  8
DATA
  6
CONTINUOUS
 62
     7
 10
22.249999997799989
 20
-132.91541205632859
 30
0.0
 11
22.249999997799989
 21
-133.91541205632859
 31
0.0
  0
LINE
  5
555
  8
DATA
  6
CONTINUOUS
 62
     7
 10
22.249999997799989
 20
-134.91541205632859
 30
0.0
 11
22.249999997799989
 21
-135.91541205632859
 31
0.0
  0
LINE
  5
556
  8
DATA
  6
CONTINUOUS
 62
     7
 10
22.249999997799989
 20
-136.91541205632859
 30
0.0
 11
22.249999997799989
 21
-137.91541205632859
 31
0.0
  0
LINE
  5
557
  8
DATA
  6
CONTINUOUS
 62
     7
 10
22.249999997799989
 20
-138.91541205632859
 30
0.0
 11
22.249999997799989
 21
-139.99999999999989
 31
0.0
  0
LINE
  5
558
  8
DATA
  6
CONTINUOUS
 62
     7
 10
6.4217372008603633
 20
-5.3000000000000016
 30
0.0
 11
9.3008599340320401
 21
-5.3000000000000016
 31
0.0
  0
LINE
  5
559
  8
DATA
  6
CONTINUOUS
 62
     7
 10
19.199293833225191
 20
-5.3000000000000016
 30
0.0
 11
23.954147697221831
 21
-5.3000000000000016
 31
0.0
  0
LINE
  5
55A
  8
DATA
  6
CONTINUOUS
 62
     7
 10
6.0498884660564762
 20
-1.826167985907639
 30
0.0
 11
6.222011293909449
 21
-5.1104671912485911
 31
0.0
  0
LINE
  5
55B
  8
DATA
  6
CONTINUOUS
 62
     7
 10
5.8261196904581602
 20
-5.199334435989508
 30
0.0
 11
5.6465967160030557
 21
-1.7738320218241821
 31
0.0
  0
LINE
  5
55C
  8
DATA
  6
CONTINUOUS
 62
     7
 10
24.278018828258428
 20
-1.8261679859076321
 30
0.0
 11
24.45510815284138
 21
-5.2052335942121664
 31
0.0
  0
LINE
  5
55D
  8
DATA
  6
CONTINUOUS
 62
     7
 10
24.054010652185362
 20
-5.1947664028076046
 30
0.0
 11
23.874727078575049
 21
-1.7738320288848191
 31
0.0
  0
LINE
  5
55E
  8
DATA
  6
CONTINUOUS
 62
     7
 10
5.3001537672572354
 20
-5.8000000000000016
 30
0.0
 11
5.3001537672572354
 21
-9.1933237504757201
 31
0.0
  0
LINE
  5
55F
  8
DATA
  6
CONTINUOUS
 62
     7
 10
25.30015376725725
 20
-5.8000000074505831
 30
0.0
 11
25.30015376725725
 21
-8.7001514121372452
 31
0.0
  0
ARC
  5
560
  8
DATA
  6
CONTINUOUS
 62
     7
 10
14.25007688362861
 20
3.027507010097227
 30
0.0
 40
9.2167925889901365
 50
249.62734252166081
 51
290.37265747833919
  0
ARC
  5
561
  8
DATA
  6
CONTINUOUS
 62
     7
 10
9.3008599340320401
 20
-10.30000000000002
 30
0.0
 40
5.0000000000000204
 50
69.627342521660864
 51
90.0
  0
ARC
  5
562
  8
DATA
  6
CONTINUOUS
 62
     7
 10
19.199293833225191
 20
-10.29999999999999
 30
0.0
 40
4.9999999999999876
 50
90.0
 51
110.37265747833931
  0
ARC
  5
563
  8
DATA
  6
CONTINUOUS
 62
     7
 10
5.8001537672572354
 20
-5.8000000000000016
 30
0.0
 40
0.4999999999999998
 50
97.074609628995063
 51
180.0
  0
ARC
  5
564
  8
DATA
  6
CONTINUOUS
 62
     7
 10
24.800153759806669
 20
-5.8000000074505831
 30
0.0
 40
0.5000000074505806
 50
0.0
 51
90.0
  0
LINE
  5
565
  8
DATA
  6
CONTINUOUS
 62
     7
 10
9.6475812593461097
 20
-11.63242596733595
 30
0.0
 11
12.55218261119586
 21
-12.52278479036659
 31
0.0
  0
ARC
  5
566
  8
DATA
  6
CONTINUOUS
 62
     7
 10
6.7168418338165843
 20
-21.19332375047572
 30
0.0
 40
9.9999999999999982
 50
72.957921588504661
 51
85.331316217106021
  0
LINE
  5
567
  8
DATA
  6
CONTINUOUS
 62
     7
 10
23.198973327720811
 20
-10.69759040210795
 30
0.0
 11
22.18204757023349
 21
-10.64607794258597
 31
0.0
  0
ARC
  5
568
  8
DATA
  6
CONTINUOUS
 62
     7
 10
22.708868746750479
 20
-12.96959007066218
 30
0.0
 40
2.4266632673267852
 50
110.41067329945
 51
253.75019256845999
  0
ARC
  5
569
  8
DATA
  6
CONTINUOUS
 62
     7
 10
21.749999999999979
 20
-16.259360864220881
 30
0.0
 40
1.0
 50
0.0
 51
73.750192568460079
  0
ARC
  5
56A
  8
DATA
  6
CONTINUOUS
 62
     7
 10
22.141575394418911
 20
-11.445053538574239
 30
0.0
 40
0.799999999999983
 50
87.100156062044661
 51
110.41067329945039
  0
LINE
  5
56B
  8
DATA
  6
CONTINUOUS
 62
     7
 10
13.751951843935229
 20
-13.22823278021681
 30
0.0
 11
16.328991060398231
 21
-15.70538675573162
 31
0.0
  0
ARC
  5
56C
  8
DATA
  6
CONTINUOUS
 62
     7
 10
11.672960783537
 20
-15.391054125308511
 30
0.0
 40
3.0000000000000009
 50
46.132180275131219
 51
72.957921588504632
  0
ARC
  5
56D
  8
DATA
  6
CONTINUOUS
 62
     7
 10
14.25
 20
-17.86820810082332
 30
0.0
 40
3.0
 50
0.0
 51
46.132180275131311
  0
ARC
  5
56E
  8
DATA
  6
CONTINUOUS
 62
     7
 10
7.300153767257231
 20
-9.1933237504757201
 30
0.0
 40
1.999999999999996
 50
180.0
 51
257.87844460220361
  0
ARC
  5
56F
  8
DATA
  6
CONTINUOUS
 62
     7
 10
23.30015376725725
 20
-8.7001514121372452
 30
0.0
 40
2.0
 50
267.1001560620449
 51
0.0
  0
LINE
  5
570
  8
DATA
  6
CONTINUOUS
 62
     7
 10
6.8801809622645456
 20
-11.14873236328957
 30
0.0
 11
7.5307794660899097
 21
-11.226503518788491
 31
0.0
  0
ARC
  5
571
  8
DATA
  6
CONTINUOUS
 62
     7
 10
5.1472819486257713
 20
-1.799999999945654
 30
0.0
 40
0.4999999999999984
 50
3.0000000000000289
 51
90.0
  0
LINE
  5
572
  8
DATA
  6
CONTINUOUS
 62
     7
 10
23.37541230375739
 20
-1.2999999999456431
 30
0.0
 11
6.5492032408741307
 21
-1.299999999945654
 31
0.0
  0
ARC
  5
573
  8
DATA
  6
CONTINUOUS
 62
     7
 10
6.5492032408741307
 20
-1.8000000073962339
 30
0.0
 40
0.5000000074505806
 50
90.0
 51
183.0
  0
ARC
  5
574
  8
DATA
  6
CONTINUOUS
 62
     7
 10
23.37541230375739
 20
-1.800000007396223
 30
0.0
 40
0.5000000074505828
 50
2.9999999999999738
 51
89.999999999999986
  0
LINE
  5
575
  8
DATA
  6
CONTINUOUS
 62
     7
 10
28.010053379958212
 20
-1.299999999945654
 30
0.0
 11
24.777333603076091
 21
-1.2999999999456471
 31
0.0
  0
ARC
  5
576
  8
DATA
  6
CONTINUOUS
 62
     7
 10
24.777333603076091
 20
-1.800000007396227
 30
0.0
 40
0.5000000074505806
 50
89.999999999999574
 51
183.0
  0
ARC
  5
577
  8
DATA
  6
CONTINUOUS
 62
     7
 10
6.4217372008603588
 20
-5.1000000000000014
 30
0.0
 40
0.1999999999999951
 50
183.00000000000011
 51
270.00000000000102
  0
ARC
  5
578
  8
DATA
  6
CONTINUOUS
 62
     7
 10
5.7262567369292574
 20
-5.2045680316166036
 30
0.0
 40
0.1000000000535184
 50
277.07460965958109
 51
3.0000000000002278
  0
ARC
  5
579
  8
DATA
  6
CONTINUOUS
 62
     7
 10
23.954147697221831
 20
-5.1999999985098864
 30
0.0
 40
0.1000000014901161
 50
270.0
 51
2.999999999999944
  0
LINE
  5
57A
  8
DATA
  6
CONTINUOUS
 62
     7
 10
24.800153759806669
 20
-5.3000000000000016
 30
0.0
 11
24.554971107804899
 21
-5.3000000000000007
 31
0.0
  0
ARC
  5
57B
  8
DATA
  6
CONTINUOUS
 62
     7
 10
24.554971107804899
 20
-5.1999999985098846
 30
0.0
 40
0.1000000014901151
 50
183.0
 51
270.0
  0
LINE
  5
57C
  8
DATA
  6
CONTINUOUS
 62
     7
 10
5.7385729087002284
 20
-5.3038066930526169
 30
0.0
 11
6.4217372008603633
 21
-5.3000000000000016
 31
0.0
  0
LINE
  5
57D
  8
DATA
  6
CONTINUOUS
 62
     7
 10
5.1472819486257713
 20
-1.299999999945654
 30
0.0
 11
6.5492032408741307
 21
-1.299999999945654
 31
0.0
  0
LINE
  5
57E
  8
DATA
  6
CONTINUOUS
 62
     7
 10
23.37541230375739
 20
-1.2999999999456431
 30
0.0
 11
24.777333603076091
 21
-1.2999999999456471
 31
0.0
  0
LINE
  5
57F
  8
DATA
  6
CONTINUOUS
 62
     7
 10
23.954147697221831
 20
-5.3000000000000016
 30
0.0
 11
24.554971107804899
 21
-5.3000000000000007
 31
0.0
  0
ARC
  5
580
  8
DATA
  6
CONTINUOUS
 62
     7
 10
39.201556345329571
 20
-1.7710592316195291
 30
0.0
 40
8.4646198933209469
 50
281.47329217444673
 51
45.10373233043736
  0
ARC
  5
581
  8
DATA
  6
CONTINUOUS
 62
     7
 10
28.86398826180336
 20
-19.737334870531711
 30
0.0
 40
9.6415779891650875
 50
88.300105038390825
 51
146.8199095957045
  0
LINE
  5
582
  8
DATA
  6
CONTINUOUS
 62
     7
 10
29.149999999999999
 20
-10.1
 30
0.0
 11
40.885263463232789
 21
-10.066535123907251
 31
0.0
  0
ARC
  5
583
  8
DATA
  6
CONTINUOUS
 62
     7
 10
43.058624014343351
 20
2.1000000000543451
 30
0.0
 40
3.0000000000000049
 50
45.103732330437467
 51
90.0
  0
ARC
  5
584
  8
DATA
  6
CONTINUOUS
 62
     7
 10
38.32253611970512
 20
-1.2143395415973519
 30
0.0
 40
10.82933221455346
 50
291.47230019002171
 51
28.86773823217078
  0
ARC
  5
585
  8
DATA
  6
CONTINUOUS
 62
     7
 10
27.593237463233489
 20
-17.583316193924219
 30
0.0
 40
6.014003113775316
 50
89.780057213108364
 51
157.67986136379781
  0
LINE
  5
586
  8
DATA
  6
CONTINUOUS
 62
     7
 10
41.203735345604201
 20
-11.500235358064639
 30
0.0
 11
27.508965633142338
 21
-11.569903542928749
 31
0.0
  0
ARC
  5
587
  8
DATA
  6
CONTINUOUS
 62
     7
 10
43.427495180454429
 20
1.6000000000543599
 30
0.0
 40
4.9999999999999867
 50
28.867738232170709
 51
89.999999999999986
  0
ARC
  5
588
  8
DATA
  6
CONTINUOUS
 62
     7
 10
41.188473909702488
 20
-8.500274176886748
 30
0.0
 40
3.000000000000004
 50
270.29147321267652
 51
291.47230019002149
  0
ARC
  5
589
  8
DATA
  6
CONTINUOUS
 62
     7
 10
-78.200000000000003
 20
-143.5
 30
0.0
 40
0.3000000000000114
 50
90.0
 51
180.0
  0
ARC
  5
58A
  8
DATA
  6
CONTINUOUS
 62
     7
 10
-78.199999995529652
 20
-143.69999999552959
 30
0.0
 40
0.3000000044703484
 50
180.0
 51
270.0
  0
ARC
  5
58B
  8
DATA
  6
CONTINUOUS
 62
     7
 10
-61.800000004470348
 20
-143.50000000447031
 30
0.0
 40
0.3000000044703484
 50
0.0
 51
90.0
  0
ARC
  5
58C
  8
DATA
  6
CONTINUOUS
 62
     7
 10
-61.800000004470348
 20
-143.69999999552959
 30
0.0
 40
0.3000000044703484
 50
270.0
 51
0.0
  0
ARC
  5
58D
  8
DATA
  6
STYLE_05
 62
     7
 10
-78.199999995529652
 20
-156.00000000447031
 30
0.0
 40
0.3000000044703484
 50
90.0
 51
180.0
  0
ARC
  5
58E
  8
DATA
  6
STYLE_05
 62
     7
 10
-78.199999995529652
 20
-156.19999999552959
 30
0.0
 40
0.3000000044703484
 50
180.0
 51
270.0
  0
ARC
  5
58F
  8
DATA
  6
STYLE_05
 62
     7
 10
-61.800000004470348
 20
-156.00000000447031
 30
0.0
 40
0.3000000044703484
 50
0.0
 51
90.0
  0
ARC
  5
590
  8
DATA
  6
STYLE_05
 62
     7
 10
-61.800000004470348
 20
-156.19999999552959
 30
0.0
 40
0.3000000044703484
 50
270.0
 51
0.0
  0
LINE
  5
591
  8
DATA
  6
CONTINUOUS
 62
     7
 10
22.900000000000009
 20
-160.00000000021251
 30
0.0
 11
17.100000000000009
 21
-160.00000000021251
 31
0.0
  0
LINE
  5
592
  8
DATA
  6
CONTINUOUS
 62
     7
 10
25.650000000000009
 20
-144.00000000021251
 30
0.0
 11
25.650000000000009
 21
-160.00000000021251
 31
0.0
  0
LINE
  5
593
  8
DATA
  6
CONTINUOUS
 62
     7
 10
25.650000000000009
 20
-160.00000000021251
 30
0.0
 11
16.649999999999999
 21
-160.00000000021251
 31
0.0
  0
LINE
  5
594
  8
DATA
  6
CONTINUOUS
 62
     7
 10
16.500000000000021
 20
-140.00000000021251
 30
0.0
 11
23.500000000000011
 21
-140.00000000021251
 31
0.0
  0
LINE
  5
595
  8
DATA
  6
CONTINUOUS
 62
     7
 10
18.95000000000001
 20
-144.00000000021251
 30
0.0
 11
28.199999995529669
 21
-144.00000000021251
 31
0.0
  0
LINE
  5
596
  8
DATA
  6
CONTINUOUS
 62
     7
 10
18.95000000000001
 20
-143.2000000002125
 30
0.0
 11
28.199999995529669
 21
-143.2000000002125
 31
0.0
  0
LINE
  5
597
  8
DATA
  6
CONTINUOUS
 62
     7
 10
28.500000000000011
 20
-143.69999999574219
 30
0.0
 11
28.500000000000011
 21
-143.50000000468279
 31
0.0
  0
LINE
  5
598
  8
DATA
  6
CONTINUOUS
 62
     7
 10
14.484375
 20
-143.00000000021251
 30
0.0
 11
16.500000000000021
 21
-140.00000000021251
 31
0.0
  0
LINE
  5
599
  8
DATA
  6
CONTINUOUS
 62
     7
 10
25.650000000000009
 20
-143.2000000002125
 30
0.0
 11
23.500000000000011
 21
-140.00000000021251
 31
0.0
  0
LINE
  5
59A
  8
DATA
  6
CONTINUOUS
 62
     7
 10
17.750000000000021
 20
-140.00000000021251
 30
0.0
 11
17.750000000000021
 21
-139.96501329233561
 31
0.0
  0
ARC
  5
59B
  8
DATA
  6
CONTINUOUS
 62
     7
 10
28.199999995529669
 20
-143.50000000468279
 30
0.0
 40
0.3000000044703484
 50
0.0
 51
90.0
  0
ARC
  5
59C
  8
DATA
  6
CONTINUOUS
 62
     7
 10
28.199999995529669
 20
-143.69999999574219
 30
0.0
 40
0.3000000044703484
 50
270.0
 51
0.0
  0
LINE
  5
59D
  8
DATA
  6
CONTINUOUS
 62
     7
 10
16.649999999999999
 20
-144.00000000021251
 30
0.0
 11
16.649999999999999
 21
-160.00000000021251
 31
0.0
  0
LINE
  5
59E
  8
DATA
  6
CONTINUOUS
 62
     7
 10
16.649999999999999
 20
-144.00000000021251
 30
0.0
 11
14.484375
 21
-143.00000000021251
 31
0.0
  0
LINE
  5
59F
  8
DATA
  6
CONTINUOUS
 62
     7
 10
18.95000000000001
 20
-144.00000000021251
 30
0.0
 11
18.95000000000001
 21
-143.2000000002125
 31
0.0
  0
LINE
  5
5A0
  8
DATA
  6
STYLE_05
 62
     7
 10
22.900000000000009
 20
-172.50000000021251
 30
0.0
 11
17.100000000000009
 21
-172.50000000021251
 31
0.0
  0
LINE
  5
5A1
  8
DATA
  6
STYLE_05
 62
     7
 10
25.650000000000009
 20
-156.50000000021251
 30
0.0
 11
25.650000000000009
 21
-172.50000000021251
 31
0.0
  0
LINE
  5
5A2
  8
DATA
  6
STYLE_05
 62
     7
 10
25.650000000000009
 20
-172.50000000021251
 30
0.0
 11
16.649999999999999
 21
-172.50000000021251
 31
0.0
  0
LINE
  5
5A3
  8
DATA
  6
STYLE_05
 62
     7
 10
16.500000000000021
 20
-152.50000000021251
 30
0.0
 11
23.500000000000011
 21
-152.50000000021251
 31
0.0
  0
LINE
  5
5A4
  8
DATA
  6
STYLE_05
 62
     7
 10
18.95000000000001
 20
-156.50000000021251
 30
0.0
 11
28.199999995529669
 21
-156.50000000021251
 31
0.0
  0
LINE
  5
5A5
  8
DATA
  6
STYLE_05
 62
     7
 10
18.95000000000001
 20
-155.7000000002125
 30
0.0
 11
28.199999995529669
 21
-155.7000000002125
 31
0.0
  0
LINE
  5
5A6
  8
DATA
  6
STYLE_05
 62
     7
 10
28.500000000000011
 20
-156.19999999574219
 30
0.0
 11
28.500000000000011
 21
-156.00000000468279
 31
0.0
  0
LINE
  5
5A7
  8
DATA
  6
STYLE_05
 62
     7
 10
14.484375
 20
-155.50000000021251
 30
0.0
 11
16.500000000000021
 21
-152.50000000021251
 31
0.0
  0
LINE
  5
5A8
  8
DATA
  6
STYLE_05
 62
     7
 10
25.650000000000009
 20
-155.7000000002125
 30
0.0
 11
23.500000000000011
 21
-152.50000000021251
 31
0.0
  0
LINE
  5
5A9
  8
DATA
  6
STYLE_05
 62
     7
 10
17.750000000000021
 20
-152.50000000021251
 30
0.0
 11
17.750000000000021
 21
-152.46501329233561
 31
0.0
  0
ARC
  5
5AA
  8
DATA
  6
STYLE_05
 62
     7
 10
28.199999995529669
 20
-156.00000000468279
 30
0.0
 40
0.3000000044703484
 50
0.0
 51
90.0
  0
ARC
  5
5AB
  8
DATA
  6
STYLE_05
 62
     7
 10
28.199999995529669
 20
-156.19999999574219
 30
0.0
 40
0.3000000044703484
 50
270.0
 51
0.0
  0
LINE
  5
5AC
  8
DATA
  6
STYLE_05
 62
     7
 10
16.649999999999999
 20
-156.50000000021251
 30
0.0
 11
16.649999999999999
 21
-172.50000000021251
 31
0.0
  0
LINE
  5
5AD
  8
DATA
  6
STYLE_05
 62
     7
 10
16.649999999999999
 20
-156.50000000021251
 30
0.0
 11
14.484375
 21
-155.50000000021251
 31
0.0
  0
LINE
  5
5AE
  8
DATA
  6
STYLE_05
 62
     7
 10
18.95000000000001
 20
-156.50000000021251
 30
0.0
 11
18.95000000000001
 21
-155.7000000002125
 31
0.0
  0
CIRCLE
  5
5AF
  8
DATA
  6
CONTINUOUS
 62
     7
 10
-70.0
 20
-200.0
 30
0.0
 40
2.9000000000000048
  0
CIRCLE
  5
5B0
  8
DATA
  6
CONTINUOUS
 62
     7
 10
-70.0
 20
-200.0
 30
0.0
 40
2.0
  0
CIRCLE
  5
5B1
  8
DATA
  6
CONTINUOUS
 62
     7
 10
-70.0
 20
-200.0
 30
0.0
 40
0.375
  0
CIRCLE
  5
5B2
  8
DATA
  6
CONTINUOUS
 62
     7
 10
-70.0
 20
-200.0
 30
0.0
 40
5.6500000000000048
  0
CIRCLE
  5
5B3
  8
DATA
  6
CONTINUOUS
 62
     7
 10
-70.0
 20
-200.0
 30
0.0
 40
4.0
  0
LINE
  5
5B4
  8
DATA
  6
CONTINUOUS
 62
     7
 10
-73.25
 20
-195.37831199668341
 30
0.0
 11
-72.420327471955943
 21
-196.81534696889989
 31
0.0
  0
LINE
  5
5B5
  8
DATA
  6
CONTINUOUS
 62
     7
 10
-66.75
 20
-195.37831199668341
 30
0.0
 11
-67.579672528044057
 21
-196.81534696889989
 31
0.0
  0
LINE
  5
5B6
  8
DATA
  6
CONTINUOUS
 62
     7
 10
-7.189946620041745
 20
13.000000000054349
 30
0.0
 11
28.010053379958212
 21
13.000000000054349
 31
0.0
  0
LINE
  5
5B7
  8
DATA
  6
CONTINUOUS
 62
     7
 10
33.660053379958228
 20
6.6000000000543499
 30
0.0
 11
43.427495180454429
 21
6.6000000000543499
 31
0.0
  0
LINE
  5
5B8
  8
DATA
  6
CONTINUOUS
 62
     7
 10
43.058624014343351
 20
5.1000000000543517
 30
0.0
 11
33.660053379958228
 21
5.1000000000543517
 31
0.0
  0
LINE
  5
5B9
  8
DATA
  6
CONTINUOUS
 62
     7
 10
22.7100533799582
 20
-1.299999999945654
 30
0.0
 11
22.7100533799582
 21
13.000000000054349
 31
0.0
  0
LINE
  5
5BA
  8
DATA
  6
CONTINUOUS
 62
     7
 10
25.610053379958231
 20
13.00000000005436
 30
0.0
 11
25.610053379958231
 21
-1.29999999994564
 31
0.0
  0
LINE
  5
5BB
  8
DATA
  6
CONTINUOUS
 62
     7
 10
33.660053379958207
 20
10.231780460095679
 30
0.0
 11
33.660053379958207
 21
1.46821954001304
 31
0.0
  0
ARC
  5
5BC
  8
DATA
  6
CONTINUOUS
 62
     7
 10
28.010053379958212
 20
5.8500000000543517
 30
0.0
 40
7.1500000000000083
 50
270.0
 51
322.20512103674167
  0
ARC
  5
5BD
  8
DATA
  6
CONTINUOUS
 62
     7
 10
28.010053379958212
 20
5.8500000000543517
 30
0.0
 40
7.1500000000000048
 50
37.794878963258242
 51
90.0
  0
LINE
  5
5BE
  8
DATA
  6
CONTINUOUS
 62
     7
 10
26.66005337995821
 20
13.000000000054349
 30
0.0
 11
26.66005337995821
 21
-1.299999999945654
 31
0.0
  0
LINE
  5
5BF
  8
DATA
  6
CONTINUOUS
 62
     7
 10
-7.1899466200417592
 20
-1.299999999945654
 30
0.0
 11
5.1472819486257713
 21
-1.299999999945654
 31
0.0
  0
LINE
  5
5C0
  8
DATA
  6
CONTINUOUS
 62
     7
 10
21.660053379958189
 20
13.000000000054349
 30
0.0
 11
21.660053379958189
 21
-1.299999999945654
 31
0.0
  0
LINE
  5
5C1
  8
DATA
  6
CONTINUOUS
 62
     7
 10
7.4600533799582376
 20
13.000000000054349
 30
0.0
 11
7.4600533799582376
 21
-1.299999999945654
 31
0.0
  0
LINE
  5
5C2
  8
DATA
  6
CONTINUOUS
 62
     7
 10
4.6600533799582413
 20
13.000000000054349
 30
0.0
 11
4.6600533799582413
 21
-1.299999999945654
 31
0.0
  0
ARC
  5
5C3
  8
DATA
  6
CONTINUOUS
 62
     7
 10
-7.189946620041745
 20
5.8500000000543517
 30
0.0
 40
7.1499999999999959
 50
90.000000000000114
 51
269.99999999999989
  0
LINE
  5
5C4
  8
DATA
  6
CONTINUOUS
 62
     7
 10
-74.381780460041341
 20
78.0
 30
0.0
 11
-65.618219539958687
 21
78.0
 31
0.0
  0
LINE
  5
5C5
  8
DATA
  6
CONTINUOUS
 62
     7
 10
-70.75
 20
78.000000000000014
 30
0.0
 11
-70.75
 21
92.249999999999986
 31
0.0
  0
LINE
  5
5C6
  8
DATA
  6
CONTINUOUS
 62
     7
 10
-69.25
 20
92.249999999999986
 30
0.0
 11
-69.25
 21
78.000000000000014
 31
0.0
  0
ARC
  5
5C7
  8
DATA
  6
CONTINUOUS
 62
     7
 10
-70.0
 20
92.249999999999986
 30
0.0
 40
0.75
 50
0.0
 51
180.0
  0
LINE
  5
5C8
  8
DATA
  6
CONTINUOUS
 62
     7
 10
-77.150000000000006
 20
37.15000000000002
 30
0.0
 11
-77.150000000000006
 21
72.34999999999998
 31
0.0
  0
LINE
  5
5C9
  8
DATA
  6
CONTINUOUS
 62
     7
 10
-62.850000000000001
 20
37.149999999999999
 30
0.0
 11
-62.850000000000001
 21
72.34999999999998
 31
0.0
  0
LINE
  5
5CA
  8
DATA
  6
CONTINUOUS
 62
     7
 10
-62.850000000000001
 20
67.050000000000011
 30
0.0
 11
-77.150000000000006
 21
67.050000000000011
 31
0.0
  0
LINE
  5
5CB
  8
DATA
  6
CONTINUOUS
 62
     7
 10
-77.15000000000002
 20
69.950000000000017
 30
0.0
 11
-62.850000000000009
 21
69.950000000000017
 31
0.0
  0
ARC
  5
5CC
  8
DATA
  6
CONTINUOUS
 62
     7
 10
-70.0
 20
72.34999999999998
 30
0.0
 40
7.1500000000000048
 50
0.0
 51
52.205121036741772
  0
ARC
  5
5CD
  8
DATA
  6
CONTINUOUS
 62
     7
 10
-70.0
 20
72.34999999999998
 30
0.0
 40
7.150000000000011
 50
127.7948789632583
 51
180.0
  0
LINE
  5
5CE
  8
DATA
  6
CONTINUOUS
 62
     7
 10
-77.150000000000006
 20
66.0
 30
0.0
 11
-62.850000000000001
 21
66.0
 31
0.0
  0
LINE
  5
5CF
  8
DATA
  6
CONTINUOUS
 62
     7
 10
-77.150000000000006
 20
71.0
 30
0.0
 11
-62.850000000000001
 21
71.0
 31
0.0
  0
LINE
  5
5D0
  8
DATA
  6
CONTINUOUS
 62
     7
 10
-77.150000000000006
 20
49.0
 30
0.0
 11
-62.850000000000001
 21
49.0
 31
0.0
  0
LINE
  5
5D1
  8
DATA
  6
CONTINUOUS
 62
     7
 10
-77.150000000000006
 20
51.79999999999999
 30
0.0
 11
-62.850000000000001
 21
51.79999999999999
 31
0.0
  0
ARC
  5
5D2
  8
DATA
  6
CONTINUOUS
 62
     7
 10
-70.0
 20
37.15000000000002
 30
0.0
 40
7.1500000000000048
 50
180.00000000000011
 51
359.99999999999977
  0
TEXT
  5
5D3
  8
DATA
 62
     7
 10
-48.366400458765298
 20
51.465028972869959
 30
0.0
 40
5.429471376070798
  1
ウインドスクリーン
 41
0.7
 11
-48.366400458765298
 21
54.179764660905363
 31
0.0
 73
     2
  0
LINE
  5
5D4
  8
DATA
  6
CONTINUOUS
 62
     7
 10
-62.850000000000001
 20
40.0
 30
0.0
 11
-50.0
 21
50.0
 31
0.0
  0
LINE
  5
5D5
  8
DATA
  6
CONTINUOUS
 62
     7
 10
-62.850000000000001
 20
40.0
 30
0.0
 11
-58.80263915518502
 21
45.180385645786842
 31
0.0
  0
LINE
  5
5D6
  8
DATA
  6
CONTINUOUS
 62
     7
 10
-62.850000000000001
 20
40.0
 30
0.0
 11
-56.754689867214353
 21
42.46266514824417
 31
0.0
  0
LINE
  5
5D7
  8
DATA
  6
CONTINUOUS
 62
     7
 10
-50.0
 20
50.0
 30
0.0
 11
20.0
 21
50.0
 31
0.0
  0
LINE
  5
5D8
  8
DATA
  6
CONTINUOUS
 62
     7
 10
-72.400000000000006
 20
-21.0
 30
0.0
 11
-68.112657489018773
 21
-20.0
 31
0.0
  0
LINE
  5
5D9
  8
DATA
  6
CONTINUOUS
 62
     7
 10
-72.25
 20
-20.965013292123079
 30
0.0
 11
-72.25
 21
-20.0
 31
0.0
  0
LINE
  5
5DA
  8
DATA
  6
CONTINUOUS
 62
     7
 10
-68.112657489018773
 20
-21.0
 30
0.0
 11
-67.750000002200011
 21
-20.915412056328631
 31
0.0
  0
LINE
  5
5DB
  8
DATA
  6
CONTINUOUS
 62
     7
 10
-67.750000002200011
 20
-20.999999999999979
 30
0.0
 11
-67.750000002200011
 21
-20.915412056328631
 31
0.0
  0
LINE
  5
5DC
  8
DATA
  6
CONTINUOUS
 62
     7
 10
-67.600000000000009
 20
-20.880425347938559
 30
0.0
 11
-67.600000000000009
 21
-20.0
 31
0.0
  0
LINE
  5
5DD
  8
DATA
  6
CONTINUOUS
 62
     7
 10
-67.750000002200011
 20
-20.915412056328631
 30
0.0
 11
-67.600000000000023
 21
-20.880425347938569
 31
0.0
  0
LINE
  5
5DE
  8
DATA
  6
CONTINUOUS
 62
     7
 10
17.599999999999991
 20
-21.0
 30
0.0
 11
21.887342510981231
 21
-20.0
 31
0.0
  0
LINE
  5
5DF
  8
DATA
  6
CONTINUOUS
 62
     7
 10
17.75
 20
-20.965013292123079
 30
0.0
 11
17.75
 21
-20.0
 31
0.0
  0
LINE
  5
5E0
  8
DATA
  6
CONTINUOUS
 62
     7
 10
21.887342510981231
 20
-21.0
 30
0.0
 11
22.399999999999991
 21
-20.880425347938559
 31
0.0
  0
LINE
  5
5E1
  8
DATA
  6
CONTINUOUS
 62
     7
 10
22.249999997799989
 20
-20.999999999999979
 30
0.0
 11
22.249999997799989
 21
-20.915412056328631
 31
0.0
  0
LINE
  5
5E2
  8
DATA
  6
CONTINUOUS
 62
     7
 10
22.399999999999991
 20
-20.880425347938559
 30
0.0
 11
22.399999999999991
 21
-20.0
 31
0.0
  0
ENDSEC
  0
EOF
