  0
SECTION
  2
HEADER
  9
$ACADVER
  1
AC1009
  9
$INSBASE
 10
0.0
 20
0.0
 30
0.0
  9
$EXTMIN
 10
-440.03295646984219
 20
-668.08610648204149
 30
-0.0015258207003583
  9
$EXTMAX
 10
640.03296149898449
 20
937.70798434659082
 30
0.0000000349246037
  9
$LIMMIN
 10
0.0
 20
0.0
  9
$LIMMAX
 10
0.0
 20
0.0
  9
$ORTHOMODE
 70
     0
  9
$REGENMODE
 70
     1
  9
$FILLMODE
 70
     1
  9
$QTEXTMODE
 70
     0
  9
$MIRRTEXT
 70
     1
  9
$DRAGMODE
 70
     2
  9
$LTSCALE
 40
30.48
  9
$OSMODE
 70
   231
  9
$ATTMODE
 70
     1
  9
$TEXTSIZE
 40
0.0
  9
$TRACEWID
 40
1.0
  9
$TEXTSTYLE
  7
STANDARD
  9
$CLAYER
  8
DATA
  9
$CELTYPE
  6
BYLAYER
  9
$CECOLOR
 62
   256
  9
$DIMSCALE
 40
1.0
  9
$DIMASZ
 40
0.18
  9
$DIMEXO
 40
0.0625
  9
$DIMDLI
 40
0.38
  9
$DIMRND
 40
0.0
  9
$DIMDLE
 40
0.0
  9
$DIMEXE
 40
0.18
  9
$DIMTP
 40
0.0
  9
$DIMTM
 40
0.0
  9
$DIMTXT
 40
0.18
  9
$DIMCEN
 40
0.09
  9
$DIMTSZ
 40
0.0
  9
$DIMTOL
 70
     0
  9
$DIMLIM
 70
     0
  9
$DIMTIH
 70
     1
  9
$DIMTOH
 70
     1
  9
$DIMSE1
 70
     0
  9
$DIMSE2
 70
     0
  9
$DIMTAD
 70
     0
  9
$DIMZIN
 70
     0
  9
$DIMBLK
  1

  9
$DIMASO
 70
     1
  9
$DIMSHO
 70
     1
  9
$DIMPOST
  1

  9
$DIMAPOST
  1

  9
$DIMALT
 70
     0
  9
$DIMALTD
 70
     2
  9
$DIMALTF
 40
25.399999999999999
  9
$DIMLFAC
 40
1.0
  9
$DIMTOFL
 70
     0
  9
$DIMTVP
 40
0.0
  9
$DIMTIX
 70
     0
  9
$DIMSOXD
 70
     0
  9
$DIMSAH
 70
     0
  9
$DIMBLK1
  1

  9
$DIMBLK2
  1

  9
$DIMSTYLE
  2
STANDARD
  9
$DIMCLRD
 70
     0
  9
$DIMCLRE
 70
     0
  9
$DIMCLRT
 70
     0
  9
$DIMTFAC
 40
1.0
  9
$DIMGAP
 40
0.09
  9
$LUNITS
 70
     2
  9
$LUPREC
 70
     4
  9
$SKETCHINC
 40
0.1
  9
$FILLETRAD
 40
0.0
  9
$AUNITS
 70
     0
  9
$AUPREC
 70
     0
  9
$MENU
  1
acad
  9
$ELEVATION
 40
0.0
  9
$PELEVATION
 40
0.0
  9
$THICKNESS
 40
0.0
  9
$LIMCHECK
 70
     0
  9
$BLIPMODE
 70
     0
  9
$CHAMFERA
 40
0.0
  9
$CHAMFERB
 40
0.0
  9
$SKPOLY
 70
     0
  9
$TDCREATE
 40
2456224.4268402779
  9
$TDUPDATE
 40
2456224.4279015171
  9
$TDINDWG
 40
0.0003874537
  9
$TDUSRTIMER
 40
0.0003869097
  9
$USRTIMER
 70
     1
  9
$ANGBASE
 50
0.0
  9
$ANGDIR
 70
     0
  9
$PDMODE
 70
     1
  9
$PDSIZE
 40
-2.0
  9
$PLINEWID
 40
0.0
  9
$COORDS
 70
     2
  9
$SPLFRAME
 70
     0
  9
$SPLINETYPE
 70
     6
  9
$SPLINESEGS
 70
     8
  9
$ATTDIA
 70
     0
  9
$ATTREQ
 70
     1
  9
$HANDLING
 70
     1
  9
$HANDSEED
  5
690
  9
$SURFTAB1
 70
     6
  9
$SURFTAB2
 70
     6
  9
$SURFTYPE
 70
     6
  9
$SURFU
 70
     6
  9
$SURFV
 70
     6
  9
$UCSNAME
  2

  9
$UCSORG
 10
0.0
 20
0.0
 30
0.0
  9
$UCSXDIR
 10
1.0
 20
0.0
 30
0.0
  9
$UCSYDIR
 10
0.0
 20
1.0
 30
0.0
  9
$PUCSNAME
  2

  9
$PUCSORG
 10
0.0
 20
0.0
 30
0.0
  9
$PUCSXDIR
 10
1.0
 20
0.0
 30
0.0
  9
$PUCSYDIR
 10
0.0
 20
1.0
 30
0.0
  9
$USERI1
 70
     0
  9
$USERI2
 70
     0
  9
$USERI3
 70
     0
  9
$USERI4
 70
     0
  9
$USERI5
 70
     0
  9
$USERR1
 40
0.0
  9
$USERR2
 40
0.0
  9
$USERR3
 40
0.0
  9
$USERR4
 40
0.0
  9
$USERR5
 40
0.0
  9
$WORLDVIEW
 70
     1
  9
$SHADEDGE
 70
     3
  9
$SHADEDIF
 70
    70
  9
$TILEMODE
 70
     1
  9
$MAXACTVP
 70
    64
  9
$PLIMCHECK
 70
     0
  9
$PEXTMIN
 10
1.0000000000000000E+020
 20
1.0000000000000000E+020
 30
1.0000000000000000E+020
  9
$PEXTMAX
 10
-1.0000000000000000E+020
 20
-1.0000000000000000E+020
 30
-1.0000000000000000E+020
  9
$PLIMMIN
 10
0.0
 20
0.0
  9
$PLIMMAX
 10
12.0
 20
9.0
  9
$UNITMODE
 70
     0
  9
$VISRETAIN
 70
     0
  9
$PLINEGEN
 70
     1
  9
$PSLTSCALE
 70
     0
  0
ENDSEC
  0
SECTION
  2
TABLES
  0
TABLE
  2
VPORT
 70
     1
  0
VPORT
  2
*ACTIVE
 70
     0
 10
0.0
 20
0.0
 11
1.0
 21
1.0
 12
100.00000251457089
 22
136.3894771394873
 13
0.0
 23
0.0
 14
1.0
 24
1.0
 15
0.0
 25
0.0
 16
0.0
 26
0.0
 36
1.0
 17
0.0
 27
0.0
 37
0.0
 40
1615.441038497409
 41
2.2333333333333329
 42
50.0
 43
0.0
 44
0.0
 50
0.0
 51
0.0
 71
     0
 72
  2000
 73
     1
 74
     1
 75
     0
 76
     0
 77
     0
 78
     0
  0
ENDTAB
  0
TABLE
  2
LTYPE
 70
    12
  0
LTYPE
  2
CONTINUOUS
 70
     0
  3
Solid line
 72
    65
 73
     0
 40
0.0
  0
LTYPE
  2
PHANTOM2
 70
     0
  3
___ _ _ ___ _ _ ___ _ _ ___ _ _
 72
    65
 73
     6
 40
1.25
 49
0.625
 49
-0.125
 49
0.125
 49
-0.125
 49
0.125
 49
-0.125
  0
ENDTAB
  0
TABLE
  2
LAYER
 70
     6
  0
LAYER
  2
0
 70
     0
 62
     7
  6
CONTINUOUS
  0
LAYER
  2
DATA
 70
     0
 62
     7
  6
CONTINUOUS
  0
LAYER
  2
HIBINO-BASE
 70
     0
 62
     7
  6
CONTINUOUS
  0
LAYER
  2
PATTERN_FILL
 70
     0
 62
     7
  6
CONTINUOUS
  0
LAYER
  2
SPEC
 70
     0
 62
     7
  6
CONTINUOUS
  0
LAYER
  2
DIMNSIONS
 70
     0
 62
     7
  6
CONTINUOUS
  0
ENDTAB
  0
TABLE
  2
STYLE
 70
     3
  0
STYLE
  2
STANDARD
 70
     0
 40
0.0
 41
1.0
 50
0.0
 71
     0
 42
0.0
  3
txt
  4
BIGFONT.SHX
  0
ENDTAB
  0
TABLE
  2
VIEW
 70
     0
  0
ENDTAB
  0
TABLE
  2
UCS
 70
     0
  0
ENDTAB
  0
TABLE
  2
APPID
 70
     4
  0
APPID
  2
ACAD
 70
     0
  0
APPID
  2
ACADANNOTATIVE
 70
     0
  0
APPID
  2
ACAD_NAV_VCDISPLAY
 70
     0
  0
APPID
  2
ACAD_MLEADERVER
 70
     0
  0
ENDTAB
  0
TABLE
  2
DIMSTYLE
 70
     2
  0
DIMSTYLE
  2
STANDARD
 70
     0
  3

  4

  5

  6

  7

 40
1.0
 41
0.18
 42
0.0625
 43
0.38
 44
0.18
 45
0.0
 46
0.0
 47
0.0
 48
0.0
140
0.18
141
0.09
142
0.0
143
25.399999999999999
144
1.0
145
0.0
146
1.0
147
0.09
 71
     0
 72
     0
 73
     1
 74
     1
 75
     0
 76
     0
 77
     0
 78
     0
170
     0
171
     2
172
     0
173
     0
174
     0
175
     0
176
     0
177
     0
178
     0
  0
ENDTAB
  0
ENDSEC
  0
SECTION
  2
BLOCKS
  0
BLOCK
  8
0
  2
$MODEL_SPACE
 70
     0
 10
0.0
 20
0.0
 30
0.0
  3
$MODEL_SPACE
  1

  0
ENDBLK
  5
59B
  8
0
  0
BLOCK
 67
     1
  8
0
  2
$PAPER_SPACE
 70
     0
 10
0.0
 20
0.0
 30
0.0
  3
$PAPER_SPACE
  1

  0
ENDBLK
  5
597
 67
     1
  8
0
  0
ENDSEC
  0
SECTION
  2
ENTITIES
  0
LINE
  5
2D
  8
HIBINO-BASE
  6
CONTINUOUS
 62
     7
 10
-439.99999999999989
 20
937.65907500000003
 30
0.0
 11
639.99999999999977
 21
937.65907500000003
 31
0.0
  0
LINE
  5
2E
  8
HIBINO-BASE
  6
CONTINUOUS
 62
     7
 10
639.99999999999977
 20
-622.34092499999986
 30
0.0
 11
-439.99999999999989
 21
-622.34092499999986
 31
0.0
  0
LINE
  5
2F
  8
HIBINO-BASE
  6
CONTINUOUS
 62
     7
 10
-439.99999999999989
 20
-622.34092499999986
 30
0.0
 11
-439.99999999999989
 21
937.65907500000003
 31
0.0
  0
TEXT
  5
30
  8
HIBINO-BASE
 62
     7
 10
-396.89600000000002
 20
-661.02779485009705
 30
0.0
 40
21.174934895833331
  1
Hibino Corporation
 41
0.7
 11
-396.89600000000002
 21
-639.85285995426375
 31
0.0
 73
     3
  0
LINE
  5
31
  8
HIBINO-BASE
  6
CONTINUOUS
 62
     7
 10
639.99999999999977
 20
937.65907500000003
 30
0.0
 11
639.99999999999977
 21
-622.34092499999986
 31
0.0
  0
LINE
  5
32
  8
HIBINO-BASE
  6
CONTINUOUS
 62
     7
 10
100.0
 20
-487.34092500000003
 30
0.0
 11
639.99999999999977
 21
-487.34092500000003
 31
0.0
  0
LINE
  5
33
  8
HIBINO-BASE
  6
CONTINUOUS
 62
     7
 10
100.0
 20
-622.34092499999986
 30
0.0
 11
100.0
 21
-487.34092500000003
 31
0.0
  0
TEXT
  5
34
  8
HIBINO-BASE
 62
     7
 10
105.40000000000001
 20
-502.39308499999999
 30
0.0
 40
9.7730468749999986
  1
NOTE
 41
0.7
 11
105.40000000000001
 21
-492.62003812500001
 31
0.0
 73
     3
  0
LINE
  5
35
  8
HIBINO-BASE
  6
CONTINUOUS
 62
     7
 10
310.0
 20
-622.34092499999986
 30
0.0
 11
310.0
 21
-487.34092500000003
 31
0.0
  0
TEXT
  5
36
  8
HIBINO-BASE
 62
     7
 10
315.39999999999998
 20
-502.39308499999999
 30
0.0
 40
9.7730468749999986
  1
TITLE
 41
0.7
 11
315.39999999999998
 21
-492.62003812500001
 31
0.0
 73
     3
  0
TEXT
  5
37
  8
HIBINO-BASE
 62
     7
 10
400.41033999999991
 20
-660.31765833333327
 30
0.0
 40
21.174934895833331
  1
ヒビノ株式会社
 41
0.7
 11
400.41033999999991
 21
-639.14272343749985
 31
0.0
 73
     3
  0
LINE
  5
38
  8
HIBINO-BASE
  6
CONTINUOUS
 62
     7
 10
100.0
 20
-562.34092499999986
 30
0.0
 11
639.99999999999977
 21
-562.34092499999986
 31
0.0
  0
TEXT
  5
39
  8
HIBINO-BASE
 62
     7
 10
390.39999999999998
 20
-577.05516499999987
 30
0.0
 40
9.7730468749999986
  1
DRAWN
 41
0.7
 11
390.39999999999998
 21
-567.2821181249999
 31
0.0
 73
     3
  0
TEXT
  5
3A
  8
HIBINO-BASE
 62
     7
 10
240.40000000000001
 20
-577.05516499999987
 30
0.0
 40
9.7730468749999986
  1
DATE
 41
0.7
 11
240.40000000000001
 21
-567.2821181249999
 31
0.0
 73
     3
  0
TEXT
  5
3B
  8
HIBINO-BASE
 62
     7
 10
180.40000000000001
 20
-577.05516499999987
 30
0.0
 40
9.7730468749999986
  1
SCALE
 41
0.7
 11
180.40000000000001
 21
-567.2821181249999
 31
0.0
 73
     3
  0
TEXT
  5
3C
  8
HIBINO-BASE
 62
     7
 10
315.39999999999998
 20
-577.05516499999987
 30
0.0
 40
9.7730468749999986
  1
DESIGN
 41
0.7
 11
315.39999999999998
 21
-567.2821181249999
 31
0.0
 73
     3
  0
TEXT
  5
3D
  8
HIBINO-BASE
 62
     7
 10
540.39999999999986
 20
-577.05516499999987
 30
0.0
 40
9.7730468749999986
  1
DRAWING NO.
 41
0.7
 11
540.39999999999986
 21
-567.2821181249999
 31
0.0
 73
     3
  0
TEXT
  5
3E
  8
HIBINO-BASE
 62
     7
 10
465.39999999999992
 20
-577.05516499999987
 30
0.0
 40
9.7730468749999986
  1
CHECK
 41
0.7
 11
465.39999999999992
 21
-567.2821181249999
 31
0.0
 73
     3
  0
LINE
  5
3F
  8
HIBINO-BASE
  6
CONTINUOUS
 62
     7
 10
186.25
 20
-614.84092499999997
 30
0.0
 11
208.75
 21
-592.34092499999986
 31
0.0
  0
TEXT
  5
40
  8
HIBINO-BASE
 62
     7
 10
183.2999999999999
 20
-598.99458500000003
 30
0.0
 40
9.7730468749999986
  1
1
 41
0.7
 11
183.2999999999999
 21
-589.22153812500005
 31
0.0
 73
     3
  0
LINE
  5
41
  8
HIBINO-BASE
  6
CONTINUOUS
 62
     7
 10
175.0
 20
-622.34092499999986
 30
0.0
 11
175.0
 21
-562.34092499999986
 31
0.0
  0
LINE
  5
42
  8
HIBINO-BASE
  6
CONTINUOUS
 62
     7
 10
235.0
 20
-622.34092499999986
 30
0.0
 11
235.0
 21
-562.34092499999986
 31
0.0
  0
LINE
  5
43
  8
HIBINO-BASE
  6
CONTINUOUS
 62
     7
 10
385.0
 20
-562.34092499999986
 30
0.0
 11
385.0
 21
-622.34092499999986
 31
0.0
  0
LINE
  5
44
  8
HIBINO-BASE
  6
CONTINUOUS
 62
     7
 10
535.0
 20
-562.34092499999986
 30
0.0
 11
535.0
 21
-622.34092499999986
 31
0.0
  0
LINE
  5
45
  8
HIBINO-BASE
  6
CONTINUOUS
 62
     7
 10
460.0
 20
-622.34092499999986
 30
0.0
 11
460.0
 21
-562.34092499999986
 31
0.0
  0
TEXT
  5
46
  8
HIBINO-BASE
 62
     7
 10
240.13924
 20
-605.15904499999999
 30
0.0
 40
9.7730468749999986
  1
'08.11.
 41
0.7
 11
240.13924
 21
-595.38599812500013
 31
0.0
 73
     3
  0
TEXT
  5
47
  8
HIBINO-BASE
 62
     7
 10
206.16387738103271
 20
-611.76233999999954
 30
0.0
 40
9.7730468749999986
  1
6
 41
0.7
 11
206.16387738103271
 21
-601.98929312499945
 31
0.0
 73
     3
  0
TEXT
  5
48
  8
HIBINO-BASE
 62
     7
 10
394.03486006620773
 20
-605.15904499999999
 30
0.0
 40
9.7730468749999986
  1
N.Sasaki
 41
0.7
 11
394.03486006620773
 21
-595.38599812500013
 31
0.0
 73
     3
  0
TEXT
  5
49
  8
HIBINO-BASE
 62
     7
 10
123.3
 20
-610.48492499999975
 30
0.0
 40
19.546093750000001
  1
A4
 41
0.7
 11
123.3
 21
-590.93883124999979
 31
0.0
 73
     3
  0
TEXT
  5
4A
  8
HIBINO-BASE
 62
     7
 10
105.7499999999999
 20
-578.05765500000007
 30
0.0
 40
9.7730468749999986
  1
PAPER SIZE
 41
0.7
 11
105.7499999999999
 21
-568.28460812500009
 31
0.0
 73
     3
  0
LINE
  5
4B
  8
PATTERN_FILL
  6
CONTINUOUS
 62
     7
 10
-220.5
 20
76.27999999996446
 30
0.0
 11
-220.5
 21
73.999999999964444
 31
0.0
  0
LINE
  5
4C
  8
PATTERN_FILL
  6
CONTINUOUS
 62
     7
 10
-219.0
 20
76.27999999996446
 30
0.0
 11
-219.0
 21
73.999999999964444
 31
0.0
  0
LINE
  5
4D
  8
PATTERN_FILL
  6
CONTINUOUS
 62
     7
 10
-217.5
 20
76.27999999996446
 30
0.0
 11
-217.5
 21
73.999999999964444
 31
0.0
  0
LINE
  5
4E
  8
PATTERN_FILL
  6
CONTINUOUS
 62
     7
 10
-216.0
 20
76.27999999996446
 30
0.0
 11
-216.0
 21
73.999999999964444
 31
0.0
  0
LINE
  5
4F
  8
PATTERN_FILL
  6
CONTINUOUS
 62
     7
 10
-214.5
 20
76.27999999996446
 30
0.0
 11
-214.5
 21
73.999999999964444
 31
0.0
  0
LINE
  5
50
  8
PATTERN_FILL
  6
CONTINUOUS
 62
     7
 10
-213.0
 20
76.27999999996446
 30
0.0
 11
-213.0
 21
73.999999999964444
 31
0.0
  0
LINE
  5
51
  8
PATTERN_FILL
  6
CONTINUOUS
 62
     7
 10
-211.5
 20
76.27999999996446
 30
0.0
 11
-211.5
 21
73.999999999964444
 31
0.0
  0
LINE
  5
52
  8
PATTERN_FILL
  6
CONTINUOUS
 62
     7
 10
-210.0
 20
76.27999999996446
 30
0.0
 11
-210.0
 21
73.999999999964444
 31
0.0
  0
LINE
  5
53
  8
PATTERN_FILL
  6
CONTINUOUS
 62
     7
 10
-208.5
 20
76.27999999996446
 30
0.0
 11
-208.5
 21
73.999999999964444
 31
0.0
  0
LINE
  5
54
  8
PATTERN_FILL
  6
CONTINUOUS
 62
     7
 10
-207.0
 20
76.27999999996446
 30
0.0
 11
-207.0
 21
73.999999999964444
 31
0.0
  0
LINE
  5
55
  8
PATTERN_FILL
  6
CONTINUOUS
 62
     7
 10
-205.5
 20
76.27999999996446
 30
0.0
 11
-205.5
 21
73.999999999964444
 31
0.0
  0
LINE
  5
56
  8
PATTERN_FILL
  6
CONTINUOUS
 62
     7
 10
-204.0
 20
76.27999999996446
 30
0.0
 11
-204.0
 21
73.999999999964444
 31
0.0
  0
LINE
  5
57
  8
PATTERN_FILL
  6
CONTINUOUS
 62
     7
 10
-202.5
 20
76.27999999996446
 30
0.0
 11
-202.5
 21
73.999999999964444
 31
0.0
  0
LINE
  5
58
  8
PATTERN_FILL
  6
CONTINUOUS
 62
     7
 10
-201.0
 20
76.27999999996446
 30
0.0
 11
-201.0
 21
73.999999999964444
 31
0.0
  0
LINE
  5
59
  8
PATTERN_FILL
  6
CONTINUOUS
 62
     7
 10
-199.5
 20
76.27999999996446
 30
0.0
 11
-199.5
 21
73.999999999964444
 31
0.0
  0
LINE
  5
5A
  8
PATTERN_FILL
  6
CONTINUOUS
 62
     7
 10
-198.0
 20
76.27999999996446
 30
0.0
 11
-198.0
 21
73.999999999964444
 31
0.0
  0
LINE
  5
5B
  8
PATTERN_FILL
  6
CONTINUOUS
 62
     7
 10
-196.5
 20
76.27999999996446
 30
0.0
 11
-196.5
 21
73.999999999964444
 31
0.0
  0
LINE
  5
5C
  8
PATTERN_FILL
  6
CONTINUOUS
 62
     7
 10
-195.0
 20
76.27999999996446
 30
0.0
 11
-195.0
 21
73.999999999964444
 31
0.0
  0
LINE
  5
5D
  8
PATTERN_FILL
  6
CONTINUOUS
 62
     7
 10
-193.5
 20
76.27999999996446
 30
0.0
 11
-193.5
 21
73.999999999964444
 31
0.0
  0
LINE
  5
5E
  8
PATTERN_FILL
  6
CONTINUOUS
 62
     7
 10
-192.0
 20
76.27999999996446
 30
0.0
 11
-192.0
 21
73.999999999964444
 31
0.0
  0
LINE
  5
5F
  8
PATTERN_FILL
  6
CONTINUOUS
 62
     7
 10
-190.5
 20
76.27999999996446
 30
0.0
 11
-190.5
 21
73.999999999964444
 31
0.0
  0
LINE
  5
60
  8
PATTERN_FILL
  6
CONTINUOUS
 62
     7
 10
-189.0
 20
76.27999999996446
 30
0.0
 11
-189.0
 21
73.999999999964444
 31
0.0
  0
LINE
  5
61
  8
PATTERN_FILL
  6
CONTINUOUS
 62
     7
 10
-187.5
 20
76.27999999996446
 30
0.0
 11
-187.5
 21
73.999999999964444
 31
0.0
  0
LINE
  5
62
  8
PATTERN_FILL
  6
CONTINUOUS
 62
     7
 10
-186.0
 20
76.27999999996446
 30
0.0
 11
-186.0
 21
73.999999999964444
 31
0.0
  0
LINE
  5
63
  8
PATTERN_FILL
  6
CONTINUOUS
 62
     7
 10
-184.5
 20
76.27999999996446
 30
0.0
 11
-184.5
 21
73.999999999964444
 31
0.0
  0
LINE
  5
64
  8
PATTERN_FILL
  6
CONTINUOUS
 62
     7
 10
-183.0
 20
76.27999999996446
 30
0.0
 11
-183.0
 21
73.999999999964444
 31
0.0
  0
LINE
  5
65
  8
PATTERN_FILL
  6
CONTINUOUS
 62
     7
 10
-181.5
 20
76.27999999996446
 30
0.0
 11
-181.5
 21
73.999999999964444
 31
0.0
  0
LINE
  5
66
  8
PATTERN_FILL
  6
CONTINUOUS
 62
     7
 10
-180.0
 20
76.27999999996446
 30
0.0
 11
-180.0
 21
73.999999999964444
 31
0.0
  0
LINE
  5
67
  8
PATTERN_FILL
  6
CONTINUOUS
 62
     7
 10
-178.5
 20
76.27999999996446
 30
0.0
 11
-178.5
 21
73.999999999964444
 31
0.0
  0
LINE
  5
68
  8
PATTERN_FILL
  6
CONTINUOUS
 62
     7
 10
-177.0
 20
76.27999999996446
 30
0.0
 11
-177.0
 21
73.999999999964444
 31
0.0
  0
LINE
  5
69
  8
PATTERN_FILL
  6
CONTINUOUS
 62
     7
 10
-175.5
 20
76.27999999996446
 30
0.0
 11
-175.5
 21
73.999999999964444
 31
0.0
  0
LINE
  5
6A
  8
PATTERN_FILL
  6
CONTINUOUS
 62
     7
 10
-174.0
 20
76.27999999996446
 30
0.0
 11
-174.0
 21
73.999999999964444
 31
0.0
  0
LINE
  5
6B
  8
PATTERN_FILL
  6
CONTINUOUS
 62
     7
 10
-172.5
 20
76.27999999996446
 30
0.0
 11
-172.5
 21
73.999999999964444
 31
0.0
  0
LINE
  5
6C
  8
PATTERN_FILL
  6
CONTINUOUS
 62
     7
 10
-171.0
 20
76.27999999996446
 30
0.0
 11
-171.0
 21
73.999999999964444
 31
0.0
  0
LINE
  5
6D
  8
PATTERN_FILL
  6
CONTINUOUS
 62
     7
 10
-169.5
 20
76.27999999996446
 30
0.0
 11
-169.5
 21
73.999999999964444
 31
0.0
  0
LINE
  5
6E
  8
PATTERN_FILL
  6
CONTINUOUS
 62
     7
 10
-168.0
 20
76.27999999996446
 30
0.0
 11
-168.0
 21
73.999999999964444
 31
0.0
  0
LINE
  5
6F
  8
PATTERN_FILL
  6
CONTINUOUS
 62
     7
 10
-166.5
 20
76.27999999996446
 30
0.0
 11
-166.5
 21
73.999999999964444
 31
0.0
  0
LINE
  5
70
  8
PATTERN_FILL
  6
CONTINUOUS
 62
     7
 10
-165.0
 20
76.27999999996446
 30
0.0
 11
-165.0
 21
73.999999999964444
 31
0.0
  0
LINE
  5
71
  8
PATTERN_FILL
  6
CONTINUOUS
 62
     7
 10
-163.5
 20
76.27999999996446
 30
0.0
 11
-163.5
 21
73.999999999964444
 31
0.0
  0
LINE
  5
72
  8
PATTERN_FILL
  6
CONTINUOUS
 62
     7
 10
-162.0
 20
76.27999999996446
 30
0.0
 11
-162.0
 21
73.999999999964444
 31
0.0
  0
LINE
  5
73
  8
PATTERN_FILL
  6
CONTINUOUS
 62
     7
 10
-160.5
 20
76.27999999996446
 30
0.0
 11
-160.5
 21
73.999999999964444
 31
0.0
  0
LINE
  5
74
  8
PATTERN_FILL
  6
CONTINUOUS
 62
     7
 10
-159.0
 20
76.27999999996446
 30
0.0
 11
-159.0
 21
73.999999999964444
 31
0.0
  0
LINE
  5
75
  8
PATTERN_FILL
  6
CONTINUOUS
 62
     7
 10
-157.5
 20
76.27999999996446
 30
0.0
 11
-157.5
 21
73.999999999964444
 31
0.0
  0
LINE
  5
76
  8
PATTERN_FILL
  6
CONTINUOUS
 62
     7
 10
-156.0
 20
76.27999999996446
 30
0.0
 11
-156.0
 21
73.999999999964444
 31
0.0
  0
LINE
  5
77
  8
PATTERN_FILL
  6
CONTINUOUS
 62
     7
 10
-154.5
 20
76.27999999996446
 30
0.0
 11
-154.5
 21
73.999999999964444
 31
0.0
  0
LINE
  5
78
  8
PATTERN_FILL
  6
CONTINUOUS
 62
     7
 10
-153.0
 20
76.27999999996446
 30
0.0
 11
-153.0
 21
73.999999999964444
 31
0.0
  0
LINE
  5
79
  8
PATTERN_FILL
  6
CONTINUOUS
 62
     7
 10
-151.5
 20
76.27999999996446
 30
0.0
 11
-151.5
 21
73.999999999964444
 31
0.0
  0
LINE
  5
7A
  8
PATTERN_FILL
  6
CONTINUOUS
 62
     7
 10
-150.0
 20
76.27999999996446
 30
0.0
 11
-150.0
 21
73.999999999964444
 31
0.0
  0
LINE
  5
7B
  8
PATTERN_FILL
  6
CONTINUOUS
 62
     7
 10
-148.5
 20
76.27999999996446
 30
0.0
 11
-148.5
 21
73.999999999964444
 31
0.0
  0
LINE
  5
7C
  8
PATTERN_FILL
  6
CONTINUOUS
 62
     7
 10
-147.0
 20
76.27999999996446
 30
0.0
 11
-147.0
 21
73.999999999964444
 31
0.0
  0
LINE
  5
7D
  8
PATTERN_FILL
  6
CONTINUOUS
 62
     7
 10
-145.5
 20
76.27999999996446
 30
0.0
 11
-145.5
 21
73.999999999964444
 31
0.0
  0
LINE
  5
7E
  8
PATTERN_FILL
  6
CONTINUOUS
 62
     7
 10
-144.0
 20
76.27999999996446
 30
0.0
 11
-144.0
 21
73.999999999964444
 31
0.0
  0
LINE
  5
7F
  8
PATTERN_FILL
  6
CONTINUOUS
 62
     7
 10
-142.5
 20
76.27999999996446
 30
0.0
 11
-142.5
 21
73.999999999964444
 31
0.0
  0
LINE
  5
80
  8
PATTERN_FILL
  6
CONTINUOUS
 62
     7
 10
-141.0
 20
76.27999999996446
 30
0.0
 11
-141.0
 21
73.999999999964444
 31
0.0
  0
LINE
  5
81
  8
PATTERN_FILL
  6
CONTINUOUS
 62
     7
 10
-139.5
 20
76.27999999996446
 30
0.0
 11
-139.5
 21
73.999999999964444
 31
0.0
  0
LINE
  5
82
  8
PATTERN_FILL
  6
CONTINUOUS
 62
     7
 10
-138.0
 20
76.27999999996446
 30
0.0
 11
-138.0
 21
73.999999999964444
 31
0.0
  0
LINE
  5
83
  8
PATTERN_FILL
  6
CONTINUOUS
 62
     7
 10
-136.5
 20
76.27999999996446
 30
0.0
 11
-136.5
 21
73.999999999964444
 31
0.0
  0
LINE
  5
84
  8
PATTERN_FILL
  6
CONTINUOUS
 62
     7
 10
-135.0
 20
76.27999999996446
 30
0.0
 11
-135.0
 21
73.999999999964444
 31
0.0
  0
LINE
  5
85
  8
PATTERN_FILL
  6
CONTINUOUS
 62
     7
 10
-133.5
 20
76.27999999996446
 30
0.0
 11
-133.5
 21
73.999999999964444
 31
0.0
  0
LINE
  5
86
  8
PATTERN_FILL
  6
CONTINUOUS
 62
     7
 10
-132.0
 20
76.27999999996446
 30
0.0
 11
-132.0
 21
73.999999999964444
 31
0.0
  0
LINE
  5
87
  8
PATTERN_FILL
  6
CONTINUOUS
 62
     7
 10
-130.5
 20
76.27999999996446
 30
0.0
 11
-130.5
 21
73.999999999964444
 31
0.0
  0
LINE
  5
88
  8
PATTERN_FILL
  6
CONTINUOUS
 62
     7
 10
-129.0
 20
76.27999999996446
 30
0.0
 11
-129.0
 21
73.999999999964444
 31
0.0
  0
LINE
  5
89
  8
PATTERN_FILL
  6
CONTINUOUS
 62
     7
 10
-127.5
 20
76.27999999996446
 30
0.0
 11
-127.5
 21
73.999999999964444
 31
0.0
  0
LINE
  5
8A
  8
PATTERN_FILL
  6
CONTINUOUS
 62
     7
 10
-126.0
 20
76.27999999996446
 30
0.0
 11
-126.0
 21
73.999999999964444
 31
0.0
  0
LINE
  5
8B
  8
PATTERN_FILL
  6
CONTINUOUS
 62
     7
 10
-124.5
 20
76.27999999996446
 30
0.0
 11
-124.5
 21
73.999999999964444
 31
0.0
  0
LINE
  5
8C
  8
PATTERN_FILL
  6
CONTINUOUS
 62
     7
 10
-123.0
 20
76.27999999996446
 30
0.0
 11
-123.0
 21
73.999999999964444
 31
0.0
  0
LINE
  5
8D
  8
PATTERN_FILL
  6
CONTINUOUS
 62
     7
 10
-121.5
 20
76.27999999996446
 30
0.0
 11
-121.5
 21
73.999999999964444
 31
0.0
  0
LINE
  5
8E
  8
PATTERN_FILL
  6
CONTINUOUS
 62
     7
 10
-120.0
 20
76.27999999996446
 30
0.0
 11
-120.0
 21
73.999999999964444
 31
0.0
  0
LINE
  5
8F
  8
PATTERN_FILL
  6
CONTINUOUS
 62
     7
 10
-118.5
 20
76.27999999996446
 30
0.0
 11
-118.5
 21
73.999999999964444
 31
0.0
  0
LINE
  5
90
  8
PATTERN_FILL
  6
CONTINUOUS
 62
     7
 10
-117.0
 20
76.27999999996446
 30
0.0
 11
-117.0
 21
73.999999999964444
 31
0.0
  0
LINE
  5
91
  8
PATTERN_FILL
  6
CONTINUOUS
 62
     7
 10
-115.5
 20
76.27999999996446
 30
0.0
 11
-115.5
 21
73.999999999964444
 31
0.0
  0
LINE
  5
92
  8
PATTERN_FILL
  6
CONTINUOUS
 62
     7
 10
-114.0
 20
76.27999999996446
 30
0.0
 11
-114.0
 21
73.999999999964444
 31
0.0
  0
LINE
  5
93
  8
PATTERN_FILL
  6
CONTINUOUS
 62
     7
 10
-112.5
 20
76.27999999996446
 30
0.0
 11
-112.5
 21
73.999999999964444
 31
0.0
  0
LINE
  5
94
  8
PATTERN_FILL
  6
CONTINUOUS
 62
     7
 10
-111.0
 20
76.27999999996446
 30
0.0
 11
-111.0
 21
73.999999999964444
 31
0.0
  0
LINE
  5
95
  8
PATTERN_FILL
  6
CONTINUOUS
 62
     7
 10
-109.5
 20
76.27999999996446
 30
0.0
 11
-109.5
 21
73.999999999964444
 31
0.0
  0
LINE
  5
96
  8
PATTERN_FILL
  6
CONTINUOUS
 62
     7
 10
-108.0
 20
76.27999999996446
 30
0.0
 11
-108.0
 21
73.999999999964444
 31
0.0
  0
LINE
  5
97
  8
PATTERN_FILL
  6
CONTINUOUS
 62
     7
 10
-106.5
 20
76.27999999996446
 30
0.0
 11
-106.5
 21
73.999999999964444
 31
0.0
  0
LINE
  5
98
  8
PATTERN_FILL
  6
CONTINUOUS
 62
     7
 10
-105.0
 20
76.27999999996446
 30
0.0
 11
-105.0
 21
73.999999999964444
 31
0.0
  0
LINE
  5
99
  8
PATTERN_FILL
  6
CONTINUOUS
 62
     7
 10
-103.5
 20
76.27999999996446
 30
0.0
 11
-103.5
 21
73.999999999964444
 31
0.0
  0
LINE
  5
9A
  8
PATTERN_FILL
  6
CONTINUOUS
 62
     7
 10
-102.0
 20
76.27999999996446
 30
0.0
 11
-102.0
 21
73.999999999964444
 31
0.0
  0
LINE
  5
9B
  8
PATTERN_FILL
  6
CONTINUOUS
 62
     7
 10
-100.5
 20
76.27999999996446
 30
0.0
 11
-100.5
 21
73.999999999964444
 31
0.0
  0
LINE
  5
9C
  8
PATTERN_FILL
  6
CONTINUOUS
 62
     7
 10
-99.0
 20
76.27999999996446
 30
0.0
 11
-99.0
 21
73.999999999964444
 31
0.0
  0
LINE
  5
9D
  8
PATTERN_FILL
  6
CONTINUOUS
 62
     7
 10
-97.5
 20
76.27999999996446
 30
0.0
 11
-97.5
 21
73.999999999964444
 31
0.0
  0
LINE
  5
9E
  8
PATTERN_FILL
  6
CONTINUOUS
 62
     7
 10
-96.0
 20
76.27999999996446
 30
0.0
 11
-96.0
 21
73.999999999964444
 31
0.0
  0
LINE
  5
9F
  8
PATTERN_FILL
  6
CONTINUOUS
 62
     7
 10
-94.500000000000014
 20
76.27999999996446
 30
0.0
 11
-94.500000000000014
 21
73.999999999964444
 31
0.0
  0
LINE
  5
A0
  8
PATTERN_FILL
  6
CONTINUOUS
 62
     7
 10
-93.0
 20
76.27999999996446
 30
0.0
 11
-93.0
 21
73.999999999964444
 31
0.0
  0
LINE
  5
A1
  8
PATTERN_FILL
  6
CONTINUOUS
 62
     7
 10
-91.5
 20
76.27999999996446
 30
0.0
 11
-91.5
 21
73.999999999964444
 31
0.0
  0
LINE
  5
A2
  8
PATTERN_FILL
  6
CONTINUOUS
 62
     7
 10
-90.000000000000014
 20
76.27999999996446
 30
0.0
 11
-90.000000000000014
 21
73.999999999964444
 31
0.0
  0
LINE
  5
A3
  8
PATTERN_FILL
  6
CONTINUOUS
 62
     7
 10
-88.500000000000014
 20
76.27999999996446
 30
0.0
 11
-88.500000000000014
 21
73.999999999964444
 31
0.0
  0
LINE
  5
A4
  8
PATTERN_FILL
  6
CONTINUOUS
 62
     7
 10
-87.000000000000014
 20
76.27999999996446
 30
0.0
 11
-87.000000000000014
 21
73.999999999964444
 31
0.0
  0
LINE
  5
A5
  8
PATTERN_FILL
  6
CONTINUOUS
 62
     7
 10
-85.500000000000014
 20
76.27999999996446
 30
0.0
 11
-85.500000000000014
 21
73.999999999964444
 31
0.0
  0
LINE
  5
A6
  8
PATTERN_FILL
  6
CONTINUOUS
 62
     7
 10
-84.000000000000014
 20
76.27999999996446
 30
0.0
 11
-84.000000000000014
 21
73.999999999964444
 31
0.0
  0
LINE
  5
A7
  8
PATTERN_FILL
  6
CONTINUOUS
 62
     7
 10
-82.500000000000014
 20
76.27999999996446
 30
0.0
 11
-82.500000000000014
 21
73.999999999964444
 31
0.0
  0
LINE
  5
A8
  8
PATTERN_FILL
  6
CONTINUOUS
 62
     7
 10
-81.000000000000014
 20
76.27999999996446
 30
0.0
 11
-81.000000000000014
 21
73.999999999964444
 31
0.0
  0
LINE
  5
A9
  8
PATTERN_FILL
  6
CONTINUOUS
 62
     7
 10
-79.500000000000014
 20
76.27999999996446
 30
0.0
 11
-79.500000000000014
 21
73.999999999964444
 31
0.0
  0
LINE
  5
AA
  8
PATTERN_FILL
  6
CONTINUOUS
 62
     7
 10
-78.000000000000014
 20
76.27999999996446
 30
0.0
 11
-78.000000000000014
 21
73.999999999964444
 31
0.0
  0
LINE
  5
AB
  8
PATTERN_FILL
  6
CONTINUOUS
 62
     7
 10
-76.500000000000014
 20
76.27999999996446
 30
0.0
 11
-76.500000000000014
 21
73.999999999964444
 31
0.0
  0
LINE
  5
AC
  8
PATTERN_FILL
  6
CONTINUOUS
 62
     7
 10
-75.000000000000014
 20
76.27999999996446
 30
0.0
 11
-75.000000000000014
 21
73.999999999964444
 31
0.0
  0
LINE
  5
AD
  8
PATTERN_FILL
  6
CONTINUOUS
 62
     7
 10
-73.500000000000014
 20
76.27999999996446
 30
0.0
 11
-73.500000000000014
 21
73.999999999964444
 31
0.0
  0
LINE
  5
AE
  8
PATTERN_FILL
  6
CONTINUOUS
 62
     7
 10
-72.000000000000014
 20
76.27999999996446
 30
0.0
 11
-72.000000000000014
 21
73.999999999964444
 31
0.0
  0
LINE
  5
AF
  8
PATTERN_FILL
  6
CONTINUOUS
 62
     7
 10
-70.500000000000014
 20
76.27999999996446
 30
0.0
 11
-70.500000000000014
 21
73.999999999964444
 31
0.0
  0
LINE
  5
B0
  8
PATTERN_FILL
  6
CONTINUOUS
 62
     7
 10
-69.000000000000014
 20
76.27999999996446
 30
0.0
 11
-69.000000000000014
 21
73.999999999964444
 31
0.0
  0
LINE
  5
B1
  8
PATTERN_FILL
  6
CONTINUOUS
 62
     7
 10
-67.500000000000014
 20
76.27999999996446
 30
0.0
 11
-67.500000000000014
 21
73.999999999964444
 31
0.0
  0
LINE
  5
B2
  8
PATTERN_FILL
  6
CONTINUOUS
 62
     7
 10
-66.000000000000014
 20
76.27999999996446
 30
0.0
 11
-66.000000000000014
 21
73.999999999964444
 31
0.0
  0
LINE
  5
B3
  8
PATTERN_FILL
  6
CONTINUOUS
 62
     7
 10
-64.500000000000014
 20
76.27999999996446
 30
0.0
 11
-64.500000000000014
 21
73.999999999964444
 31
0.0
  0
LINE
  5
B4
  8
PATTERN_FILL
  6
CONTINUOUS
 62
     7
 10
-63.000000000000021
 20
76.27999999996446
 30
0.0
 11
-63.000000000000021
 21
73.999999999964444
 31
0.0
  0
LINE
  5
B5
  8
PATTERN_FILL
  6
CONTINUOUS
 62
     7
 10
-61.500000000000021
 20
76.27999999996446
 30
0.0
 11
-61.500000000000021
 21
73.999999999964444
 31
0.0
  0
LINE
  5
B6
  8
PATTERN_FILL
  6
CONTINUOUS
 62
     7
 10
-60.000000000000021
 20
76.27999999996446
 30
0.0
 11
-60.000000000000021
 21
73.999999999964444
 31
0.0
  0
LINE
  5
B7
  8
PATTERN_FILL
  6
CONTINUOUS
 62
     7
 10
-58.500000000000021
 20
76.27999999996446
 30
0.0
 11
-58.500000000000021
 21
73.999999999964444
 31
0.0
  0
LINE
  5
B8
  8
PATTERN_FILL
  6
CONTINUOUS
 62
     7
 10
-57.000000000000021
 20
76.27999999996446
 30
0.0
 11
-57.000000000000021
 21
73.999999999964444
 31
0.0
  0
LINE
  5
B9
  8
PATTERN_FILL
  6
CONTINUOUS
 62
     7
 10
-55.500000000000021
 20
76.27999999996446
 30
0.0
 11
-55.500000000000021
 21
73.999999999964444
 31
0.0
  0
LINE
  5
BA
  8
PATTERN_FILL
  6
CONTINUOUS
 62
     7
 10
-54.000000000000021
 20
76.27999999996446
 30
0.0
 11
-54.000000000000021
 21
73.999999999964444
 31
0.0
  0
LINE
  5
BB
  8
PATTERN_FILL
  6
CONTINUOUS
 62
     7
 10
-52.500000000000021
 20
76.27999999996446
 30
0.0
 11
-52.500000000000021
 21
73.999999999964444
 31
0.0
  0
LINE
  5
BC
  8
PATTERN_FILL
  6
CONTINUOUS
 62
     7
 10
-51.000000000000021
 20
76.27999999996446
 30
0.0
 11
-51.000000000000021
 21
73.999999999964444
 31
0.0
  0
LINE
  5
BD
  8
PATTERN_FILL
  6
CONTINUOUS
 62
     7
 10
-49.500000000000021
 20
76.27999999996446
 30
0.0
 11
-49.500000000000021
 21
73.999999999964444
 31
0.0
  0
LINE
  5
BE
  8
PATTERN_FILL
  6
CONTINUOUS
 62
     7
 10
-48.000000000000021
 20
76.27999999996446
 30
0.0
 11
-48.000000000000021
 21
73.999999999964444
 31
0.0
  0
LINE
  5
BF
  8
PATTERN_FILL
  6
CONTINUOUS
 62
     7
 10
-46.500000000000021
 20
76.27999999996446
 30
0.0
 11
-46.500000000000021
 21
73.999999999964444
 31
0.0
  0
LINE
  5
C0
  8
PATTERN_FILL
  6
CONTINUOUS
 62
     7
 10
-45.000000000000021
 20
76.27999999996446
 30
0.0
 11
-45.000000000000021
 21
73.999999999964444
 31
0.0
  0
LINE
  5
C1
  8
PATTERN_FILL
  6
CONTINUOUS
 62
     7
 10
-43.500000000000021
 20
76.27999999996446
 30
0.0
 11
-43.500000000000021
 21
73.999999999964444
 31
0.0
  0
LINE
  5
C2
  8
PATTERN_FILL
  6
CONTINUOUS
 62
     7
 10
-42.000000000000007
 20
76.27999999996446
 30
0.0
 11
-42.000000000000007
 21
73.999999999964444
 31
0.0
  0
LINE
  5
C3
  8
PATTERN_FILL
  6
CONTINUOUS
 62
     7
 10
-40.500000000000007
 20
76.27999999996446
 30
0.0
 11
-40.500000000000007
 21
73.999999999964444
 31
0.0
  0
LINE
  5
C4
  8
PATTERN_FILL
  6
CONTINUOUS
 62
     7
 10
-39.000000000000021
 20
76.27999999996446
 30
0.0
 11
-39.000000000000021
 21
73.999999999964444
 31
0.0
  0
LINE
  5
C5
  8
PATTERN_FILL
  6
CONTINUOUS
 62
     7
 10
-37.500000000000021
 20
76.27999999996446
 30
0.0
 11
-37.500000000000021
 21
73.999999999964444
 31
0.0
  0
LINE
  5
C6
  8
PATTERN_FILL
  6
CONTINUOUS
 62
     7
 10
-36.000000000000007
 20
76.27999999996446
 30
0.0
 11
-36.000000000000007
 21
73.999999999964444
 31
0.0
  0
LINE
  5
C7
  8
PATTERN_FILL
  6
CONTINUOUS
 62
     7
 10
-34.500000000000007
 20
76.27999999996446
 30
0.0
 11
-34.500000000000007
 21
73.999999999964444
 31
0.0
  0
LINE
  5
C8
  8
PATTERN_FILL
  6
CONTINUOUS
 62
     7
 10
-33.000000000000007
 20
76.27999999996446
 30
0.0
 11
-33.000000000000007
 21
73.999999999964444
 31
0.0
  0
LINE
  5
C9
  8
PATTERN_FILL
  6
CONTINUOUS
 62
     7
 10
-31.500000000000011
 20
76.27999999996446
 30
0.0
 11
-31.500000000000011
 21
73.999999999964444
 31
0.0
  0
LINE
  5
CA
  8
PATTERN_FILL
  6
CONTINUOUS
 62
     7
 10
-30.000000000000011
 20
76.27999999996446
 30
0.0
 11
-30.000000000000011
 21
73.999999999964444
 31
0.0
  0
LINE
  5
CB
  8
PATTERN_FILL
  6
CONTINUOUS
 62
     7
 10
-28.500000000000011
 20
76.27999999996446
 30
0.0
 11
-28.500000000000011
 21
73.999999999964444
 31
0.0
  0
LINE
  5
CC
  8
PATTERN_FILL
  6
CONTINUOUS
 62
     7
 10
-27.000000000000011
 20
76.27999999996446
 30
0.0
 11
-27.000000000000011
 21
73.999999999964444
 31
0.0
  0
LINE
  5
CD
  8
PATTERN_FILL
  6
CONTINUOUS
 62
     7
 10
-25.500000000000011
 20
76.27999999996446
 30
0.0
 11
-25.500000000000011
 21
73.999999999964444
 31
0.0
  0
LINE
  5
CE
  8
PATTERN_FILL
  6
CONTINUOUS
 62
     7
 10
-24.000000000000011
 20
76.27999999996446
 30
0.0
 11
-24.000000000000011
 21
73.999999999964444
 31
0.0
  0
LINE
  5
CF
  8
PATTERN_FILL
  6
CONTINUOUS
 62
     7
 10
-22.500000000000011
 20
76.27999999996446
 30
0.0
 11
-22.500000000000011
 21
73.999999999964444
 31
0.0
  0
LINE
  5
D0
  8
PATTERN_FILL
  6
CONTINUOUS
 62
     7
 10
-21.000000000000011
 20
76.27999999996446
 30
0.0
 11
-21.000000000000011
 21
73.999999999964444
 31
0.0
  0
LINE
  5
D1
  8
PATTERN_FILL
  6
CONTINUOUS
 62
     7
 10
-19.500000000000011
 20
76.27999999996446
 30
0.0
 11
-19.500000000000011
 21
73.999999999964444
 31
0.0
  0
LINE
  5
D2
  8
PATTERN_FILL
  6
CONTINUOUS
 62
     7
 10
-18.000000000000021
 20
76.27999999996446
 30
0.0
 11
-18.000000000000021
 21
73.999999999964444
 31
0.0
  0
LINE
  5
D3
  8
PATTERN_FILL
  6
CONTINUOUS
 62
     7
 10
-16.500000000000021
 20
76.27999999996446
 30
0.0
 11
-16.500000000000021
 21
73.999999999964444
 31
0.0
  0
LINE
  5
D4
  8
PATTERN_FILL
  6
CONTINUOUS
 62
     7
 10
-15.000000000000011
 20
76.27999999996446
 30
0.0
 11
-15.000000000000011
 21
73.999999999964444
 31
0.0
  0
LINE
  5
D5
  8
PATTERN_FILL
  6
CONTINUOUS
 62
     7
 10
-13.500000000000011
 20
76.27999999996446
 30
0.0
 11
-13.500000000000011
 21
73.999999999964444
 31
0.0
  0
LINE
  5
D6
  8
PATTERN_FILL
  6
CONTINUOUS
 62
     7
 10
-12.000000000000011
 20
76.27999999996446
 30
0.0
 11
-12.000000000000011
 21
73.999999999964444
 31
0.0
  0
LINE
  5
D7
  8
PATTERN_FILL
  6
CONTINUOUS
 62
     7
 10
-10.500000000000011
 20
76.27999999996446
 30
0.0
 11
-10.500000000000011
 21
73.999999999964444
 31
0.0
  0
LINE
  5
D8
  8
PATTERN_FILL
  6
CONTINUOUS
 62
     7
 10
-9.0000000000000142
 20
76.27999999996446
 30
0.0
 11
-9.0000000000000142
 21
73.999999999964444
 31
0.0
  0
LINE
  5
D9
  8
PATTERN_FILL
  6
CONTINUOUS
 62
     7
 10
-7.5000000000000142
 20
76.27999999996446
 30
0.0
 11
-7.5000000000000142
 21
73.999999999964444
 31
0.0
  0
LINE
  5
DA
  8
PATTERN_FILL
  6
CONTINUOUS
 62
     7
 10
-6.0000000000000142
 20
76.27999999996446
 30
0.0
 11
-6.0000000000000142
 21
73.999999999964444
 31
0.0
  0
LINE
  5
DB
  8
PATTERN_FILL
  6
CONTINUOUS
 62
     7
 10
-4.5000000000000142
 20
76.27999999996446
 30
0.0
 11
-4.5000000000000142
 21
73.999999999964444
 31
0.0
  0
LINE
  5
DC
  8
PATTERN_FILL
  6
CONTINUOUS
 62
     7
 10
-3.0000000000000142
 20
76.27999999996446
 30
0.0
 11
-3.0000000000000142
 21
73.999999999964444
 31
0.0
  0
LINE
  5
DD
  8
PATTERN_FILL
  6
CONTINUOUS
 62
     7
 10
-1.500000000000014
 20
76.27999999996446
 30
0.0
 11
-1.500000000000014
 21
73.999999999964444
 31
0.0
  0
LINE
  5
DE
  8
PATTERN_FILL
  6
CONTINUOUS
 62
     7
 10
-0.0000000000000142
 20
76.27999999996446
 30
0.0
 11
-0.0000000000000142
 21
73.999999999964444
 31
0.0
  0
LINE
  5
DF
  8
PATTERN_FILL
  6
CONTINUOUS
 62
     7
 10
1.4999999999999849
 20
76.27999999996446
 30
0.0
 11
1.4999999999999849
 21
73.999999999964444
 31
0.0
  0
LINE
  5
E0
  8
PATTERN_FILL
  6
CONTINUOUS
 62
     7
 10
2.9999999999999849
 20
76.27999999996446
 30
0.0
 11
2.9999999999999849
 21
73.999999999964444
 31
0.0
  0
LINE
  5
E1
  8
PATTERN_FILL
  6
CONTINUOUS
 62
     7
 10
4.4999999999999849
 20
76.27999999996446
 30
0.0
 11
4.4999999999999849
 21
73.999999999964444
 31
0.0
  0
LINE
  5
E2
  8
PATTERN_FILL
  6
CONTINUOUS
 62
     7
 10
5.9999999999999849
 20
76.27999999996446
 30
0.0
 11
5.9999999999999849
 21
73.999999999964444
 31
0.0
  0
LINE
  5
E3
  8
PATTERN_FILL
  6
CONTINUOUS
 62
     7
 10
7.4999999999999867
 20
76.27999999996446
 30
0.0
 11
7.4999999999999867
 21
73.999999999964444
 31
0.0
  0
LINE
  5
E4
  8
PATTERN_FILL
  6
CONTINUOUS
 62
     7
 10
8.9999999999999876
 20
76.27999999996446
 30
0.0
 11
8.9999999999999876
 21
73.999999999964444
 31
0.0
  0
LINE
  5
E5
  8
PATTERN_FILL
  6
CONTINUOUS
 62
     7
 10
10.49999999999998
 20
76.27999999996446
 30
0.0
 11
10.49999999999998
 21
73.999999999964444
 31
0.0
  0
LINE
  5
E6
  8
PATTERN_FILL
  6
CONTINUOUS
 62
     7
 10
11.99999999999998
 20
76.27999999996446
 30
0.0
 11
11.99999999999998
 21
73.999999999964444
 31
0.0
  0
LINE
  5
E7
  8
PATTERN_FILL
  6
CONTINUOUS
 62
     7
 10
13.49999999999998
 20
76.27999999996446
 30
0.0
 11
13.49999999999998
 21
73.999999999964444
 31
0.0
  0
LINE
  5
E8
  8
PATTERN_FILL
  6
CONTINUOUS
 62
     7
 10
14.99999999999998
 20
76.27999999996446
 30
0.0
 11
14.99999999999998
 21
73.999999999964444
 31
0.0
  0
LINE
  5
E9
  8
PATTERN_FILL
  6
CONTINUOUS
 62
     7
 10
16.499999999999979
 20
76.27999999996446
 30
0.0
 11
16.499999999999979
 21
73.999999999964444
 31
0.0
  0
LINE
  5
EA
  8
PATTERN_FILL
  6
CONTINUOUS
 62
     7
 10
17.999999999999979
 20
76.27999999996446
 30
0.0
 11
17.999999999999979
 21
73.999999999964444
 31
0.0
  0
LINE
  5
EB
  8
PATTERN_FILL
  6
CONTINUOUS
 62
     7
 10
19.499999999999979
 20
76.27999999996446
 30
0.0
 11
19.499999999999979
 21
73.999999999964444
 31
0.0
  0
LINE
  5
EC
  8
PATTERN_FILL
  6
CONTINUOUS
 62
     7
 10
20.999999999999979
 20
76.27999999996446
 30
0.0
 11
20.999999999999979
 21
73.999999999964444
 31
0.0
  0
LINE
  5
ED
  8
PATTERN_FILL
  6
CONTINUOUS
 62
     7
 10
22.499999999999989
 20
76.27999999996446
 30
0.0
 11
22.499999999999989
 21
73.999999999964444
 31
0.0
  0
LINE
  5
EE
  8
PATTERN_FILL
  6
CONTINUOUS
 62
     7
 10
23.999999999999989
 20
76.27999999996446
 30
0.0
 11
23.999999999999989
 21
73.999999999964444
 31
0.0
  0
LINE
  5
EF
  8
PATTERN_FILL
  6
CONTINUOUS
 62
     7
 10
25.499999999999989
 20
76.27999999996446
 30
0.0
 11
25.499999999999989
 21
73.999999999964444
 31
0.0
  0
LINE
  5
F0
  8
PATTERN_FILL
  6
CONTINUOUS
 62
     7
 10
26.999999999999989
 20
76.27999999996446
 30
0.0
 11
26.999999999999989
 21
73.999999999964444
 31
0.0
  0
LINE
  5
F1
  8
PATTERN_FILL
  6
CONTINUOUS
 62
     7
 10
28.499999999999989
 20
76.27999999996446
 30
0.0
 11
28.499999999999989
 21
73.999999999964444
 31
0.0
  0
LINE
  5
F2
  8
PATTERN_FILL
  6
CONTINUOUS
 62
     7
 10
29.999999999999989
 20
76.27999999996446
 30
0.0
 11
29.999999999999989
 21
73.999999999964444
 31
0.0
  0
LINE
  5
F3
  8
PATTERN_FILL
  6
CONTINUOUS
 62
     7
 10
31.499999999999989
 20
76.27999999996446
 30
0.0
 11
31.499999999999989
 21
73.999999999964444
 31
0.0
  0
LINE
  5
F4
  8
PATTERN_FILL
  6
CONTINUOUS
 62
     7
 10
32.999999999999993
 20
76.27999999996446
 30
0.0
 11
32.999999999999993
 21
73.999999999964444
 31
0.0
  0
LINE
  5
F5
  8
PATTERN_FILL
  6
CONTINUOUS
 62
     7
 10
34.499999999999993
 20
76.27999999996446
 30
0.0
 11
34.499999999999993
 21
73.999999999964444
 31
0.0
  0
LINE
  5
F6
  8
PATTERN_FILL
  6
CONTINUOUS
 62
     7
 10
35.999999999999993
 20
76.27999999996446
 30
0.0
 11
35.999999999999993
 21
73.999999999964444
 31
0.0
  0
LINE
  5
F7
  8
PATTERN_FILL
  6
CONTINUOUS
 62
     7
 10
37.5
 20
76.27999999996446
 30
0.0
 11
37.5
 21
73.999999999964444
 31
0.0
  0
LINE
  5
F8
  8
PATTERN_FILL
  6
CONTINUOUS
 62
     7
 10
39.0
 20
76.27999999996446
 30
0.0
 11
39.0
 21
73.999999999964444
 31
0.0
  0
LINE
  5
F9
  8
PATTERN_FILL
  6
CONTINUOUS
 62
     7
 10
40.499999999999993
 20
76.27999999996446
 30
0.0
 11
40.499999999999993
 21
73.999999999964444
 31
0.0
  0
LINE
  5
FA
  8
PATTERN_FILL
  6
CONTINUOUS
 62
     7
 10
41.999999999999993
 20
76.27999999996446
 30
0.0
 11
41.999999999999993
 21
73.999999999964444
 31
0.0
  0
LINE
  5
FB
  8
PATTERN_FILL
  6
CONTINUOUS
 62
     7
 10
43.499999999999993
 20
76.27999999996446
 30
0.0
 11
43.499999999999993
 21
73.999999999964444
 31
0.0
  0
LINE
  5
FC
  8
PATTERN_FILL
  6
CONTINUOUS
 62
     7
 10
44.999999999999993
 20
76.27999999996446
 30
0.0
 11
44.999999999999993
 21
73.999999999964444
 31
0.0
  0
LINE
  5
FD
  8
PATTERN_FILL
  6
CONTINUOUS
 62
     7
 10
46.499999999999993
 20
76.27999999996446
 30
0.0
 11
46.499999999999993
 21
73.999999999964444
 31
0.0
  0
LINE
  5
FE
  8
PATTERN_FILL
  6
CONTINUOUS
 62
     7
 10
47.999999999999993
 20
76.27999999996446
 30
0.0
 11
47.999999999999993
 21
73.999999999964444
 31
0.0
  0
LINE
  5
FF
  8
PATTERN_FILL
  6
CONTINUOUS
 62
     7
 10
49.499999999999993
 20
76.27999999996446
 30
0.0
 11
49.499999999999993
 21
73.999999999964444
 31
0.0
  0
LINE
  5
100
  8
PATTERN_FILL
  6
CONTINUOUS
 62
     7
 10
51.200000000100772
 20
402.49999999996447
 30
0.0
 11
51.200000000100772
 21
400.21999999996439
 31
0.0
  0
LINE
  5
101
  8
PATTERN_FILL
  6
CONTINUOUS
 62
     7
 10
-220.5
 20
402.49999999996447
 30
0.0
 11
-220.5
 21
400.21999999996439
 31
0.0
  0
LINE
  5
102
  8
PATTERN_FILL
  6
CONTINUOUS
 62
     7
 10
-219.0
 20
402.49999999996447
 30
0.0
 11
-219.0
 21
400.21999999996439
 31
0.0
  0
LINE
  5
103
  8
PATTERN_FILL
  6
CONTINUOUS
 62
     7
 10
-217.5
 20
402.49999999996447
 30
0.0
 11
-217.5
 21
400.21999999996439
 31
0.0
  0
LINE
  5
104
  8
PATTERN_FILL
  6
CONTINUOUS
 62
     7
 10
-216.0
 20
402.49999999996447
 30
0.0
 11
-216.0
 21
400.21999999996439
 31
0.0
  0
LINE
  5
105
  8
PATTERN_FILL
  6
CONTINUOUS
 62
     7
 10
-214.5
 20
402.49999999996447
 30
0.0
 11
-214.5
 21
400.21999999996439
 31
0.0
  0
LINE
  5
106
  8
PATTERN_FILL
  6
CONTINUOUS
 62
     7
 10
-213.0
 20
402.49999999996447
 30
0.0
 11
-213.0
 21
400.21999999996439
 31
0.0
  0
LINE
  5
107
  8
PATTERN_FILL
  6
CONTINUOUS
 62
     7
 10
-211.5
 20
402.49999999996447
 30
0.0
 11
-211.5
 21
400.21999999996439
 31
0.0
  0
LINE
  5
108
  8
PATTERN_FILL
  6
CONTINUOUS
 62
     7
 10
-210.0
 20
402.49999999996447
 30
0.0
 11
-210.0
 21
400.21999999996439
 31
0.0
  0
LINE
  5
109
  8
PATTERN_FILL
  6
CONTINUOUS
 62
     7
 10
-208.5
 20
402.49999999996447
 30
0.0
 11
-208.5
 21
400.21999999996439
 31
0.0
  0
LINE
  5
10A
  8
PATTERN_FILL
  6
CONTINUOUS
 62
     7
 10
-207.0
 20
402.49999999996447
 30
0.0
 11
-207.0
 21
400.21999999996439
 31
0.0
  0
LINE
  5
10B
  8
PATTERN_FILL
  6
CONTINUOUS
 62
     7
 10
-205.5
 20
402.49999999996447
 30
0.0
 11
-205.5
 21
400.21999999996439
 31
0.0
  0
LINE
  5
10C
  8
PATTERN_FILL
  6
CONTINUOUS
 62
     7
 10
-204.0
 20
402.49999999996447
 30
0.0
 11
-204.0
 21
400.21999999996439
 31
0.0
  0
LINE
  5
10D
  8
PATTERN_FILL
  6
CONTINUOUS
 62
     7
 10
-202.5
 20
402.49999999996447
 30
0.0
 11
-202.5
 21
400.21999999996439
 31
0.0
  0
LINE
  5
10E
  8
PATTERN_FILL
  6
CONTINUOUS
 62
     7
 10
-201.0
 20
402.49999999996447
 30
0.0
 11
-201.0
 21
400.21999999996439
 31
0.0
  0
LINE
  5
10F
  8
PATTERN_FILL
  6
CONTINUOUS
 62
     7
 10
-199.5
 20
402.49999999996447
 30
0.0
 11
-199.5
 21
400.21999999996439
 31
0.0
  0
LINE
  5
110
  8
PATTERN_FILL
  6
CONTINUOUS
 62
     7
 10
-198.0
 20
402.49999999996447
 30
0.0
 11
-198.0
 21
400.21999999996439
 31
0.0
  0
LINE
  5
111
  8
PATTERN_FILL
  6
CONTINUOUS
 62
     7
 10
-196.5
 20
402.49999999996447
 30
0.0
 11
-196.5
 21
400.21999999996439
 31
0.0
  0
LINE
  5
112
  8
PATTERN_FILL
  6
CONTINUOUS
 62
     7
 10
-195.0
 20
402.49999999996447
 30
0.0
 11
-195.0
 21
400.21999999996439
 31
0.0
  0
LINE
  5
113
  8
PATTERN_FILL
  6
CONTINUOUS
 62
     7
 10
-193.5
 20
402.49999999996447
 30
0.0
 11
-193.5
 21
400.21999999996439
 31
0.0
  0
LINE
  5
114
  8
PATTERN_FILL
  6
CONTINUOUS
 62
     7
 10
-192.0
 20
402.49999999996447
 30
0.0
 11
-192.0
 21
400.21999999996439
 31
0.0
  0
LINE
  5
115
  8
PATTERN_FILL
  6
CONTINUOUS
 62
     7
 10
-190.5
 20
402.49999999996447
 30
0.0
 11
-190.5
 21
400.21999999996439
 31
0.0
  0
LINE
  5
116
  8
PATTERN_FILL
  6
CONTINUOUS
 62
     7
 10
-189.0
 20
402.49999999996447
 30
0.0
 11
-189.0
 21
400.21999999996439
 31
0.0
  0
LINE
  5
117
  8
PATTERN_FILL
  6
CONTINUOUS
 62
     7
 10
-187.5
 20
402.49999999996447
 30
0.0
 11
-187.5
 21
400.21999999996439
 31
0.0
  0
LINE
  5
118
  8
PATTERN_FILL
  6
CONTINUOUS
 62
     7
 10
-186.0
 20
402.49999999996447
 30
0.0
 11
-186.0
 21
400.21999999996439
 31
0.0
  0
LINE
  5
119
  8
PATTERN_FILL
  6
CONTINUOUS
 62
     7
 10
-184.5
 20
402.49999999996447
 30
0.0
 11
-184.5
 21
400.21999999996439
 31
0.0
  0
LINE
  5
11A
  8
PATTERN_FILL
  6
CONTINUOUS
 62
     7
 10
-183.0
 20
402.49999999996447
 30
0.0
 11
-183.0
 21
400.21999999996439
 31
0.0
  0
LINE
  5
11B
  8
PATTERN_FILL
  6
CONTINUOUS
 62
     7
 10
-181.5
 20
402.49999999996447
 30
0.0
 11
-181.5
 21
400.21999999996439
 31
0.0
  0
LINE
  5
11C
  8
PATTERN_FILL
  6
CONTINUOUS
 62
     7
 10
-180.0
 20
402.49999999996447
 30
0.0
 11
-180.0
 21
400.21999999996439
 31
0.0
  0
LINE
  5
11D
  8
PATTERN_FILL
  6
CONTINUOUS
 62
     7
 10
-178.5
 20
402.49999999996447
 30
0.0
 11
-178.5
 21
400.21999999996439
 31
0.0
  0
LINE
  5
11E
  8
PATTERN_FILL
  6
CONTINUOUS
 62
     7
 10
-177.0
 20
402.49999999996447
 30
0.0
 11
-177.0
 21
400.21999999996439
 31
0.0
  0
LINE
  5
11F
  8
PATTERN_FILL
  6
CONTINUOUS
 62
     7
 10
-175.5
 20
402.49999999996447
 30
0.0
 11
-175.5
 21
400.21999999996439
 31
0.0
  0
LINE
  5
120
  8
PATTERN_FILL
  6
CONTINUOUS
 62
     7
 10
-174.0
 20
402.49999999996447
 30
0.0
 11
-174.0
 21
400.21999999996439
 31
0.0
  0
LINE
  5
121
  8
PATTERN_FILL
  6
CONTINUOUS
 62
     7
 10
-172.5
 20
402.49999999996447
 30
0.0
 11
-172.5
 21
400.21999999996439
 31
0.0
  0
LINE
  5
122
  8
PATTERN_FILL
  6
CONTINUOUS
 62
     7
 10
-171.0
 20
402.49999999996447
 30
0.0
 11
-171.0
 21
400.21999999996439
 31
0.0
  0
LINE
  5
123
  8
PATTERN_FILL
  6
CONTINUOUS
 62
     7
 10
-169.5
 20
402.49999999996447
 30
0.0
 11
-169.5
 21
400.21999999996439
 31
0.0
  0
LINE
  5
124
  8
PATTERN_FILL
  6
CONTINUOUS
 62
     7
 10
-168.0
 20
402.49999999996447
 30
0.0
 11
-168.0
 21
400.21999999996439
 31
0.0
  0
LINE
  5
125
  8
PATTERN_FILL
  6
CONTINUOUS
 62
     7
 10
-166.5
 20
402.49999999996447
 30
0.0
 11
-166.5
 21
400.21999999996439
 31
0.0
  0
LINE
  5
126
  8
PATTERN_FILL
  6
CONTINUOUS
 62
     7
 10
-165.0
 20
402.49999999996447
 30
0.0
 11
-165.0
 21
400.21999999996439
 31
0.0
  0
LINE
  5
127
  8
PATTERN_FILL
  6
CONTINUOUS
 62
     7
 10
-163.5
 20
402.49999999996447
 30
0.0
 11
-163.5
 21
400.21999999996439
 31
0.0
  0
LINE
  5
128
  8
PATTERN_FILL
  6
CONTINUOUS
 62
     7
 10
-162.0
 20
402.49999999996447
 30
0.0
 11
-162.0
 21
400.21999999996439
 31
0.0
  0
LINE
  5
129
  8
PATTERN_FILL
  6
CONTINUOUS
 62
     7
 10
-160.5
 20
402.49999999996447
 30
0.0
 11
-160.5
 21
400.21999999996439
 31
0.0
  0
LINE
  5
12A
  8
PATTERN_FILL
  6
CONTINUOUS
 62
     7
 10
-159.0
 20
402.49999999996447
 30
0.0
 11
-159.0
 21
400.21999999996439
 31
0.0
  0
LINE
  5
12B
  8
PATTERN_FILL
  6
CONTINUOUS
 62
     7
 10
-157.5
 20
402.49999999996447
 30
0.0
 11
-157.5
 21
400.21999999996439
 31
0.0
  0
LINE
  5
12C
  8
PATTERN_FILL
  6
CONTINUOUS
 62
     7
 10
-156.0
 20
402.49999999996447
 30
0.0
 11
-156.0
 21
400.21999999996439
 31
0.0
  0
LINE
  5
12D
  8
PATTERN_FILL
  6
CONTINUOUS
 62
     7
 10
-154.5
 20
402.49999999996447
 30
0.0
 11
-154.5
 21
400.21999999996439
 31
0.0
  0
LINE
  5
12E
  8
PATTERN_FILL
  6
CONTINUOUS
 62
     7
 10
-153.0
 20
402.49999999996447
 30
0.0
 11
-153.0
 21
400.21999999996439
 31
0.0
  0
LINE
  5
12F
  8
PATTERN_FILL
  6
CONTINUOUS
 62
     7
 10
-151.5
 20
402.49999999996447
 30
0.0
 11
-151.5
 21
400.21999999996439
 31
0.0
  0
LINE
  5
130
  8
PATTERN_FILL
  6
CONTINUOUS
 62
     7
 10
-150.0
 20
402.49999999996447
 30
0.0
 11
-150.0
 21
400.21999999996439
 31
0.0
  0
LINE
  5
131
  8
PATTERN_FILL
  6
CONTINUOUS
 62
     7
 10
-148.5
 20
402.49999999996447
 30
0.0
 11
-148.5
 21
400.21999999996439
 31
0.0
  0
LINE
  5
132
  8
PATTERN_FILL
  6
CONTINUOUS
 62
     7
 10
-147.0
 20
402.49999999996447
 30
0.0
 11
-147.0
 21
400.21999999996439
 31
0.0
  0
LINE
  5
133
  8
PATTERN_FILL
  6
CONTINUOUS
 62
     7
 10
-145.5
 20
402.49999999996447
 30
0.0
 11
-145.5
 21
400.21999999996439
 31
0.0
  0
LINE
  5
134
  8
PATTERN_FILL
  6
CONTINUOUS
 62
     7
 10
-144.0
 20
402.49999999996447
 30
0.0
 11
-144.0
 21
400.21999999996439
 31
0.0
  0
LINE
  5
135
  8
PATTERN_FILL
  6
CONTINUOUS
 62
     7
 10
-142.5
 20
402.49999999996447
 30
0.0
 11
-142.5
 21
400.21999999996439
 31
0.0
  0
LINE
  5
136
  8
PATTERN_FILL
  6
CONTINUOUS
 62
     7
 10
-141.0
 20
402.49999999996447
 30
0.0
 11
-141.0
 21
400.21999999996439
 31
0.0
  0
LINE
  5
137
  8
PATTERN_FILL
  6
CONTINUOUS
 62
     7
 10
-139.5
 20
402.49999999996447
 30
0.0
 11
-139.5
 21
400.21999999996439
 31
0.0
  0
LINE
  5
138
  8
PATTERN_FILL
  6
CONTINUOUS
 62
     7
 10
-138.0
 20
402.49999999996447
 30
0.0
 11
-138.0
 21
400.21999999996439
 31
0.0
  0
LINE
  5
139
  8
PATTERN_FILL
  6
CONTINUOUS
 62
     7
 10
-136.5
 20
402.49999999996447
 30
0.0
 11
-136.5
 21
400.21999999996439
 31
0.0
  0
LINE
  5
13A
  8
PATTERN_FILL
  6
CONTINUOUS
 62
     7
 10
-135.0
 20
402.49999999996447
 30
0.0
 11
-135.0
 21
400.21999999996439
 31
0.0
  0
LINE
  5
13B
  8
PATTERN_FILL
  6
CONTINUOUS
 62
     7
 10
-133.5
 20
402.49999999996447
 30
0.0
 11
-133.5
 21
400.21999999996439
 31
0.0
  0
LINE
  5
13C
  8
PATTERN_FILL
  6
CONTINUOUS
 62
     7
 10
-132.0
 20
402.49999999996447
 30
0.0
 11
-132.0
 21
400.21999999996439
 31
0.0
  0
LINE
  5
13D
  8
PATTERN_FILL
  6
CONTINUOUS
 62
     7
 10
-130.5
 20
402.49999999996447
 30
0.0
 11
-130.5
 21
400.21999999996439
 31
0.0
  0
LINE
  5
13E
  8
PATTERN_FILL
  6
CONTINUOUS
 62
     7
 10
-129.0
 20
402.49999999996447
 30
0.0
 11
-129.0
 21
400.21999999996439
 31
0.0
  0
LINE
  5
13F
  8
PATTERN_FILL
  6
CONTINUOUS
 62
     7
 10
-127.5
 20
402.49999999996447
 30
0.0
 11
-127.5
 21
400.21999999996439
 31
0.0
  0
LINE
  5
140
  8
PATTERN_FILL
  6
CONTINUOUS
 62
     7
 10
-126.0
 20
402.49999999996447
 30
0.0
 11
-126.0
 21
400.21999999996439
 31
0.0
  0
LINE
  5
141
  8
PATTERN_FILL
  6
CONTINUOUS
 62
     7
 10
-124.5
 20
402.49999999996447
 30
0.0
 11
-124.5
 21
400.21999999996439
 31
0.0
  0
LINE
  5
142
  8
PATTERN_FILL
  6
CONTINUOUS
 62
     7
 10
-123.0
 20
402.49999999996447
 30
0.0
 11
-123.0
 21
400.21999999996439
 31
0.0
  0
LINE
  5
143
  8
PATTERN_FILL
  6
CONTINUOUS
 62
     7
 10
-121.5
 20
402.49999999996447
 30
0.0
 11
-121.5
 21
400.21999999996439
 31
0.0
  0
LINE
  5
144
  8
PATTERN_FILL
  6
CONTINUOUS
 62
     7
 10
-120.0
 20
402.49999999996447
 30
0.0
 11
-120.0
 21
400.21999999996439
 31
0.0
  0
LINE
  5
145
  8
PATTERN_FILL
  6
CONTINUOUS
 62
     7
 10
-118.5
 20
402.49999999996447
 30
0.0
 11
-118.5
 21
400.21999999996439
 31
0.0
  0
LINE
  5
146
  8
PATTERN_FILL
  6
CONTINUOUS
 62
     7
 10
-117.0
 20
402.49999999996447
 30
0.0
 11
-117.0
 21
400.21999999996439
 31
0.0
  0
LINE
  5
147
  8
PATTERN_FILL
  6
CONTINUOUS
 62
     7
 10
-115.5
 20
402.49999999996447
 30
0.0
 11
-115.5
 21
400.21999999996439
 31
0.0
  0
LINE
  5
148
  8
PATTERN_FILL
  6
CONTINUOUS
 62
     7
 10
-114.0
 20
402.49999999996447
 30
0.0
 11
-114.0
 21
400.21999999996439
 31
0.0
  0
LINE
  5
149
  8
PATTERN_FILL
  6
CONTINUOUS
 62
     7
 10
-112.5
 20
402.49999999996447
 30
0.0
 11
-112.5
 21
400.21999999996439
 31
0.0
  0
LINE
  5
14A
  8
PATTERN_FILL
  6
CONTINUOUS
 62
     7
 10
-111.0
 20
402.49999999996447
 30
0.0
 11
-111.0
 21
400.21999999996439
 31
0.0
  0
LINE
  5
14B
  8
PATTERN_FILL
  6
CONTINUOUS
 62
     7
 10
-109.5
 20
402.49999999996447
 30
0.0
 11
-109.5
 21
400.21999999996439
 31
0.0
  0
LINE
  5
14C
  8
PATTERN_FILL
  6
CONTINUOUS
 62
     7
 10
-108.0
 20
402.49999999996447
 30
0.0
 11
-108.0
 21
400.21999999996439
 31
0.0
  0
LINE
  5
14D
  8
PATTERN_FILL
  6
CONTINUOUS
 62
     7
 10
-106.5
 20
402.49999999996447
 30
0.0
 11
-106.5
 21
400.21999999996439
 31
0.0
  0
LINE
  5
14E
  8
PATTERN_FILL
  6
CONTINUOUS
 62
     7
 10
-105.0
 20
402.49999999996447
 30
0.0
 11
-105.0
 21
400.21999999996439
 31
0.0
  0
LINE
  5
14F
  8
PATTERN_FILL
  6
CONTINUOUS
 62
     7
 10
-103.5
 20
402.49999999996447
 30
0.0
 11
-103.5
 21
400.21999999996439
 31
0.0
  0
LINE
  5
150
  8
PATTERN_FILL
  6
CONTINUOUS
 62
     7
 10
-102.0
 20
402.49999999996447
 30
0.0
 11
-102.0
 21
400.21999999996439
 31
0.0
  0
LINE
  5
151
  8
PATTERN_FILL
  6
CONTINUOUS
 62
     7
 10
-100.5
 20
402.49999999996447
 30
0.0
 11
-100.5
 21
400.21999999996439
 31
0.0
  0
LINE
  5
152
  8
PATTERN_FILL
  6
CONTINUOUS
 62
     7
 10
-99.0
 20
402.49999999996447
 30
0.0
 11
-99.0
 21
400.21999999996439
 31
0.0
  0
LINE
  5
153
  8
PATTERN_FILL
  6
CONTINUOUS
 62
     7
 10
-97.5
 20
402.49999999996447
 30
0.0
 11
-97.5
 21
400.21999999996439
 31
0.0
  0
LINE
  5
154
  8
PATTERN_FILL
  6
CONTINUOUS
 62
     7
 10
-96.0
 20
402.49999999996447
 30
0.0
 11
-96.0
 21
400.21999999996439
 31
0.0
  0
LINE
  5
155
  8
PATTERN_FILL
  6
CONTINUOUS
 62
     7
 10
-94.500000000000014
 20
402.49999999996447
 30
0.0
 11
-94.500000000000014
 21
400.21999999996439
 31
0.0
  0
LINE
  5
156
  8
PATTERN_FILL
  6
CONTINUOUS
 62
     7
 10
-93.0
 20
402.49999999996447
 30
0.0
 11
-93.0
 21
400.21999999996439
 31
0.0
  0
LINE
  5
157
  8
PATTERN_FILL
  6
CONTINUOUS
 62
     7
 10
-91.5
 20
402.49999999996447
 30
0.0
 11
-91.5
 21
400.21999999996439
 31
0.0
  0
LINE
  5
158
  8
PATTERN_FILL
  6
CONTINUOUS
 62
     7
 10
-90.000000000000014
 20
402.49999999996447
 30
0.0
 11
-90.000000000000014
 21
400.21999999996439
 31
0.0
  0
LINE
  5
159
  8
PATTERN_FILL
  6
CONTINUOUS
 62
     7
 10
-88.500000000000014
 20
402.49999999996447
 30
0.0
 11
-88.500000000000014
 21
400.21999999996439
 31
0.0
  0
LINE
  5
15A
  8
PATTERN_FILL
  6
CONTINUOUS
 62
     7
 10
-87.000000000000014
 20
402.49999999996447
 30
0.0
 11
-87.000000000000014
 21
400.21999999996439
 31
0.0
  0
LINE
  5
15B
  8
PATTERN_FILL
  6
CONTINUOUS
 62
     7
 10
-85.500000000000014
 20
402.49999999996447
 30
0.0
 11
-85.500000000000014
 21
400.21999999996439
 31
0.0
  0
LINE
  5
15C
  8
PATTERN_FILL
  6
CONTINUOUS
 62
     7
 10
-84.000000000000014
 20
402.49999999996447
 30
0.0
 11
-84.000000000000014
 21
400.21999999996439
 31
0.0
  0
LINE
  5
15D
  8
PATTERN_FILL
  6
CONTINUOUS
 62
     7
 10
-82.500000000000014
 20
402.49999999996447
 30
0.0
 11
-82.500000000000014
 21
400.21999999996439
 31
0.0
  0
LINE
  5
15E
  8
PATTERN_FILL
  6
CONTINUOUS
 62
     7
 10
-81.000000000000014
 20
402.49999999996447
 30
0.0
 11
-81.000000000000014
 21
400.21999999996439
 31
0.0
  0
LINE
  5
15F
  8
PATTERN_FILL
  6
CONTINUOUS
 62
     7
 10
-79.500000000000014
 20
402.49999999996447
 30
0.0
 11
-79.500000000000014
 21
400.21999999996439
 31
0.0
  0
LINE
  5
160
  8
PATTERN_FILL
  6
CONTINUOUS
 62
     7
 10
-78.000000000000014
 20
402.49999999996447
 30
0.0
 11
-78.000000000000014
 21
400.21999999996439
 31
0.0
  0
LINE
  5
161
  8
PATTERN_FILL
  6
CONTINUOUS
 62
     7
 10
-76.500000000000014
 20
402.49999999996447
 30
0.0
 11
-76.500000000000014
 21
400.21999999996439
 31
0.0
  0
LINE
  5
162
  8
PATTERN_FILL
  6
CONTINUOUS
 62
     7
 10
-75.000000000000014
 20
402.49999999996447
 30
0.0
 11
-75.000000000000014
 21
400.21999999996439
 31
0.0
  0
LINE
  5
163
  8
PATTERN_FILL
  6
CONTINUOUS
 62
     7
 10
-73.500000000000014
 20
402.49999999996447
 30
0.0
 11
-73.500000000000014
 21
400.21999999996439
 31
0.0
  0
LINE
  5
164
  8
PATTERN_FILL
  6
CONTINUOUS
 62
     7
 10
-72.000000000000014
 20
402.49999999996447
 30
0.0
 11
-72.000000000000014
 21
400.21999999996439
 31
0.0
  0
LINE
  5
165
  8
PATTERN_FILL
  6
CONTINUOUS
 62
     7
 10
-70.500000000000014
 20
402.49999999996447
 30
0.0
 11
-70.500000000000014
 21
400.21999999996439
 31
0.0
  0
LINE
  5
166
  8
PATTERN_FILL
  6
CONTINUOUS
 62
     7
 10
-69.000000000000014
 20
402.49999999996447
 30
0.0
 11
-69.000000000000014
 21
400.21999999996439
 31
0.0
  0
LINE
  5
167
  8
PATTERN_FILL
  6
CONTINUOUS
 62
     7
 10
-67.500000000000014
 20
402.49999999996447
 30
0.0
 11
-67.500000000000014
 21
400.21999999996439
 31
0.0
  0
LINE
  5
168
  8
PATTERN_FILL
  6
CONTINUOUS
 62
     7
 10
-66.000000000000014
 20
402.49999999996447
 30
0.0
 11
-66.000000000000014
 21
400.21999999996439
 31
0.0
  0
LINE
  5
169
  8
PATTERN_FILL
  6
CONTINUOUS
 62
     7
 10
-64.500000000000014
 20
402.49999999996447
 30
0.0
 11
-64.500000000000014
 21
400.21999999996439
 31
0.0
  0
LINE
  5
16A
  8
PATTERN_FILL
  6
CONTINUOUS
 62
     7
 10
-63.000000000000021
 20
402.49999999996447
 30
0.0
 11
-63.000000000000021
 21
400.21999999996439
 31
0.0
  0
LINE
  5
16B
  8
PATTERN_FILL
  6
CONTINUOUS
 62
     7
 10
-61.500000000000021
 20
402.49999999996447
 30
0.0
 11
-61.500000000000021
 21
400.21999999996439
 31
0.0
  0
LINE
  5
16C
  8
PATTERN_FILL
  6
CONTINUOUS
 62
     7
 10
-60.000000000000021
 20
402.49999999996447
 30
0.0
 11
-60.000000000000021
 21
400.21999999996439
 31
0.0
  0
LINE
  5
16D
  8
PATTERN_FILL
  6
CONTINUOUS
 62
     7
 10
-58.500000000000021
 20
402.49999999996447
 30
0.0
 11
-58.500000000000021
 21
400.21999999996439
 31
0.0
  0
LINE
  5
16E
  8
PATTERN_FILL
  6
CONTINUOUS
 62
     7
 10
-57.000000000000021
 20
402.49999999996447
 30
0.0
 11
-57.000000000000021
 21
400.21999999996439
 31
0.0
  0
LINE
  5
16F
  8
PATTERN_FILL
  6
CONTINUOUS
 62
     7
 10
-55.500000000000021
 20
402.49999999996447
 30
0.0
 11
-55.500000000000021
 21
400.21999999996439
 31
0.0
  0
LINE
  5
170
  8
PATTERN_FILL
  6
CONTINUOUS
 62
     7
 10
-54.000000000000021
 20
402.49999999996447
 30
0.0
 11
-54.000000000000021
 21
400.21999999996439
 31
0.0
  0
LINE
  5
171
  8
PATTERN_FILL
  6
CONTINUOUS
 62
     7
 10
-52.500000000000021
 20
402.49999999996447
 30
0.0
 11
-52.500000000000021
 21
400.21999999996439
 31
0.0
  0
LINE
  5
172
  8
PATTERN_FILL
  6
CONTINUOUS
 62
     7
 10
-51.000000000000021
 20
402.49999999996447
 30
0.0
 11
-51.000000000000021
 21
400.21999999996439
 31
0.0
  0
LINE
  5
173
  8
PATTERN_FILL
  6
CONTINUOUS
 62
     7
 10
-49.500000000000021
 20
402.49999999996447
 30
0.0
 11
-49.500000000000021
 21
400.21999999996439
 31
0.0
  0
LINE
  5
174
  8
PATTERN_FILL
  6
CONTINUOUS
 62
     7
 10
-48.000000000000021
 20
402.49999999996447
 30
0.0
 11
-48.000000000000021
 21
400.21999999996439
 31
0.0
  0
LINE
  5
175
  8
PATTERN_FILL
  6
CONTINUOUS
 62
     7
 10
-46.500000000000021
 20
402.49999999996447
 30
0.0
 11
-46.500000000000021
 21
400.21999999996439
 31
0.0
  0
LINE
  5
176
  8
PATTERN_FILL
  6
CONTINUOUS
 62
     7
 10
-45.000000000000021
 20
402.49999999996447
 30
0.0
 11
-45.000000000000021
 21
400.21999999996439
 31
0.0
  0
LINE
  5
177
  8
PATTERN_FILL
  6
CONTINUOUS
 62
     7
 10
-43.500000000000021
 20
402.49999999996447
 30
0.0
 11
-43.500000000000021
 21
400.21999999996439
 31
0.0
  0
LINE
  5
178
  8
PATTERN_FILL
  6
CONTINUOUS
 62
     7
 10
-42.000000000000007
 20
402.49999999996447
 30
0.0
 11
-42.000000000000007
 21
400.21999999996439
 31
0.0
  0
LINE
  5
179
  8
PATTERN_FILL
  6
CONTINUOUS
 62
     7
 10
-40.500000000000007
 20
402.49999999996447
 30
0.0
 11
-40.500000000000007
 21
400.21999999996439
 31
0.0
  0
LINE
  5
17A
  8
PATTERN_FILL
  6
CONTINUOUS
 62
     7
 10
-39.000000000000021
 20
402.49999999996447
 30
0.0
 11
-39.000000000000021
 21
400.21999999996439
 31
0.0
  0
LINE
  5
17B
  8
PATTERN_FILL
  6
CONTINUOUS
 62
     7
 10
-37.500000000000021
 20
402.49999999996447
 30
0.0
 11
-37.500000000000021
 21
400.21999999996439
 31
0.0
  0
LINE
  5
17C
  8
PATTERN_FILL
  6
CONTINUOUS
 62
     7
 10
-36.000000000000007
 20
402.49999999996447
 30
0.0
 11
-36.000000000000007
 21
400.21999999996439
 31
0.0
  0
LINE
  5
17D
  8
PATTERN_FILL
  6
CONTINUOUS
 62
     7
 10
-34.500000000000007
 20
402.49999999996447
 30
0.0
 11
-34.500000000000007
 21
400.21999999996439
 31
0.0
  0
LINE
  5
17E
  8
PATTERN_FILL
  6
CONTINUOUS
 62
     7
 10
-33.000000000000007
 20
402.49999999996447
 30
0.0
 11
-33.000000000000007
 21
400.21999999996439
 31
0.0
  0
LINE
  5
17F
  8
PATTERN_FILL
  6
CONTINUOUS
 62
     7
 10
-31.500000000000011
 20
402.49999999996447
 30
0.0
 11
-31.500000000000011
 21
400.21999999996439
 31
0.0
  0
LINE
  5
180
  8
PATTERN_FILL
  6
CONTINUOUS
 62
     7
 10
-30.000000000000011
 20
402.49999999996447
 30
0.0
 11
-30.000000000000011
 21
400.21999999996439
 31
0.0
  0
LINE
  5
181
  8
PATTERN_FILL
  6
CONTINUOUS
 62
     7
 10
-28.500000000000011
 20
402.49999999996447
 30
0.0
 11
-28.500000000000011
 21
400.21999999996439
 31
0.0
  0
LINE
  5
182
  8
PATTERN_FILL
  6
CONTINUOUS
 62
     7
 10
-27.000000000000011
 20
402.49999999996447
 30
0.0
 11
-27.000000000000011
 21
400.21999999996439
 31
0.0
  0
LINE
  5
183
  8
PATTERN_FILL
  6
CONTINUOUS
 62
     7
 10
-25.500000000000011
 20
402.49999999996447
 30
0.0
 11
-25.500000000000011
 21
400.21999999996439
 31
0.0
  0
LINE
  5
184
  8
PATTERN_FILL
  6
CONTINUOUS
 62
     7
 10
-24.000000000000011
 20
402.49999999996447
 30
0.0
 11
-24.000000000000011
 21
400.21999999996439
 31
0.0
  0
LINE
  5
185
  8
PATTERN_FILL
  6
CONTINUOUS
 62
     7
 10
-22.500000000000011
 20
402.49999999996447
 30
0.0
 11
-22.500000000000011
 21
400.21999999996439
 31
0.0
  0
LINE
  5
186
  8
PATTERN_FILL
  6
CONTINUOUS
 62
     7
 10
-21.000000000000011
 20
402.49999999996447
 30
0.0
 11
-21.000000000000011
 21
400.21999999996439
 31
0.0
  0
LINE
  5
187
  8
PATTERN_FILL
  6
CONTINUOUS
 62
     7
 10
-19.500000000000011
 20
402.49999999996447
 30
0.0
 11
-19.500000000000011
 21
400.21999999996439
 31
0.0
  0
LINE
  5
188
  8
PATTERN_FILL
  6
CONTINUOUS
 62
     7
 10
-18.000000000000021
 20
402.49999999996447
 30
0.0
 11
-18.000000000000021
 21
400.21999999996439
 31
0.0
  0
LINE
  5
189
  8
PATTERN_FILL
  6
CONTINUOUS
 62
     7
 10
-16.500000000000021
 20
402.49999999996447
 30
0.0
 11
-16.500000000000021
 21
400.21999999996439
 31
0.0
  0
LINE
  5
18A
  8
PATTERN_FILL
  6
CONTINUOUS
 62
     7
 10
-15.000000000000011
 20
402.49999999996447
 30
0.0
 11
-15.000000000000011
 21
400.21999999996439
 31
0.0
  0
LINE
  5
18B
  8
PATTERN_FILL
  6
CONTINUOUS
 62
     7
 10
-13.500000000000011
 20
402.49999999996447
 30
0.0
 11
-13.500000000000011
 21
400.21999999996439
 31
0.0
  0
LINE
  5
18C
  8
PATTERN_FILL
  6
CONTINUOUS
 62
     7
 10
-12.000000000000011
 20
402.49999999996447
 30
0.0
 11
-12.000000000000011
 21
400.21999999996439
 31
0.0
  0
LINE
  5
18D
  8
PATTERN_FILL
  6
CONTINUOUS
 62
     7
 10
-10.500000000000011
 20
402.49999999996447
 30
0.0
 11
-10.500000000000011
 21
400.21999999996439
 31
0.0
  0
LINE
  5
18E
  8
PATTERN_FILL
  6
CONTINUOUS
 62
     7
 10
-9.0000000000000142
 20
402.49999999996447
 30
0.0
 11
-9.0000000000000142
 21
400.21999999996439
 31
0.0
  0
LINE
  5
18F
  8
PATTERN_FILL
  6
CONTINUOUS
 62
     7
 10
-7.5000000000000142
 20
402.49999999996447
 30
0.0
 11
-7.5000000000000142
 21
400.21999999996439
 31
0.0
  0
LINE
  5
190
  8
PATTERN_FILL
  6
CONTINUOUS
 62
     7
 10
-6.0000000000000142
 20
402.49999999996447
 30
0.0
 11
-6.0000000000000142
 21
400.21999999996439
 31
0.0
  0
LINE
  5
191
  8
PATTERN_FILL
  6
CONTINUOUS
 62
     7
 10
-4.5000000000000142
 20
402.49999999996447
 30
0.0
 11
-4.5000000000000142
 21
400.21999999996439
 31
0.0
  0
LINE
  5
192
  8
PATTERN_FILL
  6
CONTINUOUS
 62
     7
 10
-3.0000000000000142
 20
402.49999999996447
 30
0.0
 11
-3.0000000000000142
 21
400.21999999996439
 31
0.0
  0
LINE
  5
193
  8
PATTERN_FILL
  6
CONTINUOUS
 62
     7
 10
-1.500000000000014
 20
402.49999999996447
 30
0.0
 11
-1.500000000000014
 21
400.21999999996439
 31
0.0
  0
LINE
  5
194
  8
PATTERN_FILL
  6
CONTINUOUS
 62
     7
 10
-0.0000000000000142
 20
402.49999999996447
 30
0.0
 11
-0.0000000000000142
 21
400.21999999996439
 31
0.0
  0
LINE
  5
195
  8
PATTERN_FILL
  6
CONTINUOUS
 62
     7
 10
1.4999999999999849
 20
402.49999999996447
 30
0.0
 11
1.4999999999999849
 21
400.21999999996439
 31
0.0
  0
LINE
  5
196
  8
PATTERN_FILL
  6
CONTINUOUS
 62
     7
 10
2.9999999999999849
 20
402.49999999996447
 30
0.0
 11
2.9999999999999849
 21
400.21999999996439
 31
0.0
  0
LINE
  5
197
  8
PATTERN_FILL
  6
CONTINUOUS
 62
     7
 10
4.4999999999999849
 20
402.49999999996447
 30
0.0
 11
4.4999999999999849
 21
400.21999999996439
 31
0.0
  0
LINE
  5
198
  8
PATTERN_FILL
  6
CONTINUOUS
 62
     7
 10
5.9999999999999849
 20
402.49999999996447
 30
0.0
 11
5.9999999999999849
 21
400.21999999996439
 31
0.0
  0
LINE
  5
199
  8
PATTERN_FILL
  6
CONTINUOUS
 62
     7
 10
7.4999999999999867
 20
402.49999999996447
 30
0.0
 11
7.4999999999999867
 21
400.21999999996439
 31
0.0
  0
LINE
  5
19A
  8
PATTERN_FILL
  6
CONTINUOUS
 62
     7
 10
8.9999999999999876
 20
402.49999999996447
 30
0.0
 11
8.9999999999999876
 21
400.21999999996439
 31
0.0
  0
LINE
  5
19B
  8
PATTERN_FILL
  6
CONTINUOUS
 62
     7
 10
10.49999999999998
 20
402.49999999996447
 30
0.0
 11
10.49999999999998
 21
400.21999999996439
 31
0.0
  0
LINE
  5
19C
  8
PATTERN_FILL
  6
CONTINUOUS
 62
     7
 10
11.99999999999998
 20
402.49999999996447
 30
0.0
 11
11.99999999999998
 21
400.21999999996439
 31
0.0
  0
LINE
  5
19D
  8
PATTERN_FILL
  6
CONTINUOUS
 62
     7
 10
13.49999999999998
 20
402.49999999996447
 30
0.0
 11
13.49999999999998
 21
400.21999999996439
 31
0.0
  0
LINE
  5
19E
  8
PATTERN_FILL
  6
CONTINUOUS
 62
     7
 10
14.99999999999998
 20
402.49999999996447
 30
0.0
 11
14.99999999999998
 21
400.21999999996439
 31
0.0
  0
LINE
  5
19F
  8
PATTERN_FILL
  6
CONTINUOUS
 62
     7
 10
16.499999999999979
 20
402.49999999996447
 30
0.0
 11
16.499999999999979
 21
400.21999999996439
 31
0.0
  0
LINE
  5
1A0
  8
PATTERN_FILL
  6
CONTINUOUS
 62
     7
 10
17.999999999999979
 20
402.49999999996447
 30
0.0
 11
17.999999999999979
 21
400.21999999996439
 31
0.0
  0
LINE
  5
1A1
  8
PATTERN_FILL
  6
CONTINUOUS
 62
     7
 10
19.499999999999979
 20
402.49999999996447
 30
0.0
 11
19.499999999999979
 21
400.21999999996439
 31
0.0
  0
LINE
  5
1A2
  8
PATTERN_FILL
  6
CONTINUOUS
 62
     7
 10
20.999999999999979
 20
402.49999999996447
 30
0.0
 11
20.999999999999979
 21
400.21999999996439
 31
0.0
  0
LINE
  5
1A3
  8
PATTERN_FILL
  6
CONTINUOUS
 62
     7
 10
22.499999999999989
 20
402.49999999996447
 30
0.0
 11
22.499999999999989
 21
400.21999999996439
 31
0.0
  0
LINE
  5
1A4
  8
PATTERN_FILL
  6
CONTINUOUS
 62
     7
 10
23.999999999999989
 20
402.49999999996447
 30
0.0
 11
23.999999999999989
 21
400.21999999996439
 31
0.0
  0
LINE
  5
1A5
  8
PATTERN_FILL
  6
CONTINUOUS
 62
     7
 10
25.499999999999989
 20
402.49999999996447
 30
0.0
 11
25.499999999999989
 21
400.21999999996439
 31
0.0
  0
LINE
  5
1A6
  8
PATTERN_FILL
  6
CONTINUOUS
 62
     7
 10
26.999999999999989
 20
402.49999999996447
 30
0.0
 11
26.999999999999989
 21
400.21999999996439
 31
0.0
  0
LINE
  5
1A7
  8
PATTERN_FILL
  6
CONTINUOUS
 62
     7
 10
28.499999999999989
 20
402.49999999996447
 30
0.0
 11
28.499999999999989
 21
400.21999999996439
 31
0.0
  0
LINE
  5
1A8
  8
PATTERN_FILL
  6
CONTINUOUS
 62
     7
 10
29.999999999999989
 20
402.49999999996447
 30
0.0
 11
29.999999999999989
 21
400.21999999996439
 31
0.0
  0
LINE
  5
1A9
  8
PATTERN_FILL
  6
CONTINUOUS
 62
     7
 10
31.499999999999989
 20
402.49999999996447
 30
0.0
 11
31.499999999999989
 21
400.21999999996439
 31
0.0
  0
LINE
  5
1AA
  8
PATTERN_FILL
  6
CONTINUOUS
 62
     7
 10
32.999999999999993
 20
402.49999999996447
 30
0.0
 11
32.999999999999993
 21
400.21999999996439
 31
0.0
  0
LINE
  5
1AB
  8
PATTERN_FILL
  6
CONTINUOUS
 62
     7
 10
34.499999999999993
 20
402.49999999996447
 30
0.0
 11
34.499999999999993
 21
400.21999999996439
 31
0.0
  0
LINE
  5
1AC
  8
PATTERN_FILL
  6
CONTINUOUS
 62
     7
 10
35.999999999999993
 20
402.49999999996447
 30
0.0
 11
35.999999999999993
 21
400.21999999996439
 31
0.0
  0
LINE
  5
1AD
  8
PATTERN_FILL
  6
CONTINUOUS
 62
     7
 10
37.5
 20
402.49999999996447
 30
0.0
 11
37.5
 21
400.21999999996439
 31
0.0
  0
LINE
  5
1AE
  8
PATTERN_FILL
  6
CONTINUOUS
 62
     7
 10
39.0
 20
402.49999999996447
 30
0.0
 11
39.0
 21
400.21999999996439
 31
0.0
  0
LINE
  5
1AF
  8
PATTERN_FILL
  6
CONTINUOUS
 62
     7
 10
40.499999999999993
 20
402.49999999996447
 30
0.0
 11
40.499999999999993
 21
400.21999999996439
 31
0.0
  0
LINE
  5
1B0
  8
PATTERN_FILL
  6
CONTINUOUS
 62
     7
 10
41.999999999999993
 20
402.49999999996447
 30
0.0
 11
41.999999999999993
 21
400.21999999996439
 31
0.0
  0
LINE
  5
1B1
  8
PATTERN_FILL
  6
CONTINUOUS
 62
     7
 10
43.499999999999993
 20
402.49999999996447
 30
0.0
 11
43.499999999999993
 21
400.21999999996439
 31
0.0
  0
LINE
  5
1B2
  8
PATTERN_FILL
  6
CONTINUOUS
 62
     7
 10
44.999999999999993
 20
402.49999999996447
 30
0.0
 11
44.999999999999993
 21
400.21999999996439
 31
0.0
  0
LINE
  5
1B3
  8
PATTERN_FILL
  6
CONTINUOUS
 62
     7
 10
46.499999999999993
 20
402.49999999996447
 30
0.0
 11
46.499999999999993
 21
400.21999999996439
 31
0.0
  0
LINE
  5
1B4
  8
PATTERN_FILL
  6
CONTINUOUS
 62
     7
 10
47.999999999999993
 20
402.49999999996447
 30
0.0
 11
47.999999999999993
 21
400.21999999996439
 31
0.0
  0
LINE
  5
1B5
  8
PATTERN_FILL
  6
CONTINUOUS
 62
     7
 10
49.499999999999993
 20
402.49999999996447
 30
0.0
 11
49.499999999999993
 21
400.21999999996439
 31
0.0
  0
LINE
  5
1B6
  8
PATTERN_FILL
  6
CONTINUOUS
 62
     7
 10
-220.29999999989931
 20
-245.8299999997538
 30
0.0
 11
-220.29999999989931
 21
-248.32999999975371
 31
0.0
  0
LINE
  5
1B7
  8
PATTERN_FILL
  6
CONTINUOUS
 62
     7
 10
-218.79999999989931
 20
-245.8299999997538
 30
0.0
 11
-218.79999999989931
 21
-248.32999999975371
 31
0.0
  0
LINE
  5
1B8
  8
PATTERN_FILL
  6
CONTINUOUS
 62
     7
 10
-217.29999999989931
 20
-245.8299999997538
 30
0.0
 11
-217.29999999989931
 21
-248.32999999975371
 31
0.0
  0
LINE
  5
1B9
  8
PATTERN_FILL
  6
CONTINUOUS
 62
     7
 10
-215.79999999989931
 20
-245.8299999997538
 30
0.0
 11
-215.79999999989931
 21
-248.32999999975371
 31
0.0
  0
LINE
  5
1BA
  8
PATTERN_FILL
  6
CONTINUOUS
 62
     7
 10
-214.29999999989931
 20
-245.8299999997538
 30
0.0
 11
-214.29999999989931
 21
-248.32999999975371
 31
0.0
  0
LINE
  5
1BB
  8
PATTERN_FILL
  6
CONTINUOUS
 62
     7
 10
-212.79999999989931
 20
-245.8299999997538
 30
0.0
 11
-212.79999999989931
 21
-248.32999999975371
 31
0.0
  0
LINE
  5
1BC
  8
PATTERN_FILL
  6
CONTINUOUS
 62
     7
 10
-211.29999999989931
 20
-245.8299999997538
 30
0.0
 11
-211.29999999989931
 21
-248.32999999975371
 31
0.0
  0
LINE
  5
1BD
  8
PATTERN_FILL
  6
CONTINUOUS
 62
     7
 10
-209.79999999989931
 20
-245.8299999997538
 30
0.0
 11
-209.79999999989931
 21
-248.32999999975371
 31
0.0
  0
LINE
  5
1BE
  8
PATTERN_FILL
  6
CONTINUOUS
 62
     7
 10
-208.29999999989931
 20
-245.8299999997538
 30
0.0
 11
-208.29999999989931
 21
-248.32999999975371
 31
0.0
  0
LINE
  5
1BF
  8
PATTERN_FILL
  6
CONTINUOUS
 62
     7
 10
-206.79999999989931
 20
-245.8299999997538
 30
0.0
 11
-206.79999999989931
 21
-248.32999999975371
 31
0.0
  0
LINE
  5
1C0
  8
PATTERN_FILL
  6
CONTINUOUS
 62
     7
 10
-205.29999999989931
 20
-245.8299999997538
 30
0.0
 11
-205.29999999989931
 21
-248.32999999975371
 31
0.0
  0
LINE
  5
1C1
  8
PATTERN_FILL
  6
CONTINUOUS
 62
     7
 10
-203.79999999989931
 20
-245.8299999997538
 30
0.0
 11
-203.79999999989931
 21
-248.32999999975371
 31
0.0
  0
LINE
  5
1C2
  8
PATTERN_FILL
  6
CONTINUOUS
 62
     7
 10
-202.29999999989931
 20
-245.8299999997538
 30
0.0
 11
-202.29999999989931
 21
-248.32999999975371
 31
0.0
  0
LINE
  5
1C3
  8
PATTERN_FILL
  6
CONTINUOUS
 62
     7
 10
-200.79999999989931
 20
-245.8299999997538
 30
0.0
 11
-200.79999999989931
 21
-248.32999999975371
 31
0.0
  0
LINE
  5
1C4
  8
PATTERN_FILL
  6
CONTINUOUS
 62
     7
 10
-199.29999999989931
 20
-245.8299999997538
 30
0.0
 11
-199.29999999989931
 21
-248.32999999975371
 31
0.0
  0
LINE
  5
1C5
  8
PATTERN_FILL
  6
CONTINUOUS
 62
     7
 10
-197.7999999998992
 20
-245.8299999997538
 30
0.0
 11
-197.7999999998992
 21
-248.32999999975371
 31
0.0
  0
LINE
  5
1C6
  8
PATTERN_FILL
  6
CONTINUOUS
 62
     7
 10
-196.29999999989931
 20
-245.8299999997538
 30
0.0
 11
-196.29999999989931
 21
-248.32999999975371
 31
0.0
  0
LINE
  5
1C7
  8
PATTERN_FILL
  6
CONTINUOUS
 62
     7
 10
-194.79999999989931
 20
-245.8299999997538
 30
0.0
 11
-194.79999999989931
 21
-248.32999999975371
 31
0.0
  0
LINE
  5
1C8
  8
PATTERN_FILL
  6
CONTINUOUS
 62
     7
 10
-193.2999999998992
 20
-245.8299999997538
 30
0.0
 11
-193.2999999998992
 21
-248.32999999975371
 31
0.0
  0
LINE
  5
1C9
  8
PATTERN_FILL
  6
CONTINUOUS
 62
     7
 10
-191.79999999989931
 20
-245.8299999997538
 30
0.0
 11
-191.79999999989931
 21
-248.32999999975371
 31
0.0
  0
LINE
  5
1CA
  8
PATTERN_FILL
  6
CONTINUOUS
 62
     7
 10
-190.29999999989931
 20
-245.8299999997538
 30
0.0
 11
-190.29999999989931
 21
-248.32999999975371
 31
0.0
  0
LINE
  5
1CB
  8
PATTERN_FILL
  6
CONTINUOUS
 62
     7
 10
-188.79999999989931
 20
-245.8299999997538
 30
0.0
 11
-188.79999999989931
 21
-248.32999999975371
 31
0.0
  0
LINE
  5
1CC
  8
PATTERN_FILL
  6
CONTINUOUS
 62
     7
 10
-187.29999999989931
 20
-245.8299999997538
 30
0.0
 11
-187.29999999989931
 21
-248.32999999975371
 31
0.0
  0
LINE
  5
1CD
  8
PATTERN_FILL
  6
CONTINUOUS
 62
     7
 10
-185.79999999989931
 20
-245.8299999997538
 30
0.0
 11
-185.79999999989931
 21
-248.32999999975371
 31
0.0
  0
LINE
  5
1CE
  8
PATTERN_FILL
  6
CONTINUOUS
 62
     7
 10
-184.2999999998992
 20
-245.8299999997538
 30
0.0
 11
-184.2999999998992
 21
-248.32999999975371
 31
0.0
  0
LINE
  5
1CF
  8
PATTERN_FILL
  6
CONTINUOUS
 62
     7
 10
-182.79999999989931
 20
-245.8299999997538
 30
0.0
 11
-182.79999999989931
 21
-248.32999999975371
 31
0.0
  0
LINE
  5
1D0
  8
PATTERN_FILL
  6
CONTINUOUS
 62
     7
 10
-181.29999999989931
 20
-245.8299999997538
 30
0.0
 11
-181.29999999989931
 21
-248.32999999975371
 31
0.0
  0
LINE
  5
1D1
  8
PATTERN_FILL
  6
CONTINUOUS
 62
     7
 10
-179.79999999989931
 20
-245.8299999997538
 30
0.0
 11
-179.79999999989931
 21
-248.32999999975371
 31
0.0
  0
LINE
  5
1D2
  8
PATTERN_FILL
  6
CONTINUOUS
 62
     7
 10
-178.29999999989931
 20
-245.8299999997538
 30
0.0
 11
-178.29999999989931
 21
-248.32999999975371
 31
0.0
  0
LINE
  5
1D3
  8
PATTERN_FILL
  6
CONTINUOUS
 62
     7
 10
-176.79999999989931
 20
-245.8299999997538
 30
0.0
 11
-176.79999999989931
 21
-248.32999999975371
 31
0.0
  0
LINE
  5
1D4
  8
PATTERN_FILL
  6
CONTINUOUS
 62
     7
 10
-175.29999999989931
 20
-245.8299999997538
 30
0.0
 11
-175.29999999989931
 21
-248.32999999975371
 31
0.0
  0
LINE
  5
1D5
  8
PATTERN_FILL
  6
CONTINUOUS
 62
     7
 10
-173.79999999989931
 20
-245.8299999997538
 30
0.0
 11
-173.79999999989931
 21
-248.32999999975371
 31
0.0
  0
LINE
  5
1D6
  8
PATTERN_FILL
  6
CONTINUOUS
 62
     7
 10
-172.29999999989931
 20
-245.8299999997538
 30
0.0
 11
-172.29999999989931
 21
-248.32999999975371
 31
0.0
  0
LINE
  5
1D7
  8
PATTERN_FILL
  6
CONTINUOUS
 62
     7
 10
-170.79999999989931
 20
-245.8299999997538
 30
0.0
 11
-170.79999999989931
 21
-248.32999999975371
 31
0.0
  0
LINE
  5
1D8
  8
PATTERN_FILL
  6
CONTINUOUS
 62
     7
 10
-169.29999999989931
 20
-245.8299999997538
 30
0.0
 11
-169.29999999989931
 21
-248.32999999975371
 31
0.0
  0
LINE
  5
1D9
  8
PATTERN_FILL
  6
CONTINUOUS
 62
     7
 10
-136.82537705425921
 20
-245.8299999997538
 30
0.0
 11
-136.82537705425921
 21
-248.32999999975371
 31
0.0
  0
LINE
  5
1DA
  8
PATTERN_FILL
  6
CONTINUOUS
 62
     7
 10
-135.32537705425921
 20
-245.8299999997538
 30
0.0
 11
-135.32537705425921
 21
-248.32999999975371
 31
0.0
  0
LINE
  5
1DB
  8
PATTERN_FILL
  6
CONTINUOUS
 62
     7
 10
-133.82537705425921
 20
-245.8299999997538
 30
0.0
 11
-133.82537705425921
 21
-248.32999999975371
 31
0.0
  0
LINE
  5
1DC
  8
PATTERN_FILL
  6
CONTINUOUS
 62
     7
 10
-132.32537705425921
 20
-245.8299999997538
 30
0.0
 11
-132.32537705425921
 21
-248.32999999975371
 31
0.0
  0
LINE
  5
1DD
  8
PATTERN_FILL
  6
CONTINUOUS
 62
     7
 10
-130.82537705425921
 20
-245.8299999997538
 30
0.0
 11
-130.82537705425921
 21
-248.32999999975371
 31
0.0
  0
LINE
  5
1DE
  8
PATTERN_FILL
  6
CONTINUOUS
 62
     7
 10
-129.32537705425921
 20
-245.8299999997538
 30
0.0
 11
-129.32537705425921
 21
-248.32999999975371
 31
0.0
  0
LINE
  5
1DF
  8
PATTERN_FILL
  6
CONTINUOUS
 62
     7
 10
-127.82537705425921
 20
-245.8299999997538
 30
0.0
 11
-127.82537705425921
 21
-248.32999999975371
 31
0.0
  0
LINE
  5
1E0
  8
PATTERN_FILL
  6
CONTINUOUS
 62
     7
 10
-126.32537705425921
 20
-245.8299999997538
 30
0.0
 11
-126.32537705425921
 21
-248.32999999975371
 31
0.0
  0
LINE
  5
1E1
  8
PATTERN_FILL
  6
CONTINUOUS
 62
     7
 10
-124.82537705425921
 20
-245.8299999997538
 30
0.0
 11
-124.82537705425921
 21
-248.32999999975371
 31
0.0
  0
LINE
  5
1E2
  8
PATTERN_FILL
  6
CONTINUOUS
 62
     7
 10
-123.32537705425921
 20
-245.8299999997538
 30
0.0
 11
-123.32537705425921
 21
-248.32999999975371
 31
0.0
  0
LINE
  5
1E3
  8
PATTERN_FILL
  6
CONTINUOUS
 62
     7
 10
-121.82537705425921
 20
-245.8299999997538
 30
0.0
 11
-121.82537705425921
 21
-248.32999999975371
 31
0.0
  0
LINE
  5
1E4
  8
PATTERN_FILL
  6
CONTINUOUS
 62
     7
 10
-120.32537705425921
 20
-245.8299999997538
 30
0.0
 11
-120.32537705425921
 21
-248.32999999975371
 31
0.0
  0
LINE
  5
1E5
  8
PATTERN_FILL
  6
CONTINUOUS
 62
     7
 10
-118.82537705425921
 20
-245.8299999997538
 30
0.0
 11
-118.82537705425921
 21
-248.32999999975371
 31
0.0
  0
LINE
  5
1E6
  8
PATTERN_FILL
  6
CONTINUOUS
 62
     7
 10
-117.32537705425921
 20
-245.8299999997538
 30
0.0
 11
-117.32537705425921
 21
-248.32999999975371
 31
0.0
  0
LINE
  5
1E7
  8
PATTERN_FILL
  6
CONTINUOUS
 62
     7
 10
-115.82537705425921
 20
-245.8299999997538
 30
0.0
 11
-115.82537705425921
 21
-248.32999999975371
 31
0.0
  0
LINE
  5
1E8
  8
PATTERN_FILL
  6
CONTINUOUS
 62
     7
 10
-114.32537705425921
 20
-245.8299999997538
 30
0.0
 11
-114.32537705425921
 21
-248.32999999975371
 31
0.0
  0
LINE
  5
1E9
  8
PATTERN_FILL
  6
CONTINUOUS
 62
     7
 10
-112.82537705425921
 20
-245.8299999997538
 30
0.0
 11
-112.82537705425921
 21
-248.32999999975371
 31
0.0
  0
LINE
  5
1EA
  8
PATTERN_FILL
  6
CONTINUOUS
 62
     7
 10
-111.32537705425921
 20
-245.8299999997538
 30
0.0
 11
-111.32537705425921
 21
-248.32999999975371
 31
0.0
  0
LINE
  5
1EB
  8
PATTERN_FILL
  6
CONTINUOUS
 62
     7
 10
-109.82537705425921
 20
-245.8299999997538
 30
0.0
 11
-109.82537705425921
 21
-248.32999999975371
 31
0.0
  0
LINE
  5
1EC
  8
PATTERN_FILL
  6
CONTINUOUS
 62
     7
 10
-108.32537705425921
 20
-245.8299999997538
 30
0.0
 11
-108.32537705425921
 21
-248.32999999975371
 31
0.0
  0
LINE
  5
1ED
  8
PATTERN_FILL
  6
CONTINUOUS
 62
     7
 10
-106.82537705425921
 20
-245.8299999997538
 30
0.0
 11
-106.82537705425921
 21
-248.32999999975371
 31
0.0
  0
LINE
  5
1EE
  8
PATTERN_FILL
  6
CONTINUOUS
 62
     7
 10
-105.32537705425921
 20
-245.8299999997538
 30
0.0
 11
-105.32537705425921
 21
-248.32999999975371
 31
0.0
  0
LINE
  5
1EF
  8
PATTERN_FILL
  6
CONTINUOUS
 62
     7
 10
-103.82537705425921
 20
-245.8299999997538
 30
0.0
 11
-103.82537705425921
 21
-248.32999999975371
 31
0.0
  0
LINE
  5
1F0
  8
PATTERN_FILL
  6
CONTINUOUS
 62
     7
 10
-102.32537705425921
 20
-245.8299999997538
 30
0.0
 11
-102.32537705425921
 21
-248.32999999975371
 31
0.0
  0
LINE
  5
1F1
  8
PATTERN_FILL
  6
CONTINUOUS
 62
     7
 10
-100.82537705425921
 20
-245.8299999997538
 30
0.0
 11
-100.82537705425921
 21
-248.32999999975371
 31
0.0
  0
LINE
  5
1F2
  8
PATTERN_FILL
  6
CONTINUOUS
 62
     7
 10
-99.325377054259221
 20
-245.8299999997538
 30
0.0
 11
-99.325377054259221
 21
-248.32999999975371
 31
0.0
  0
LINE
  5
1F3
  8
PATTERN_FILL
  6
CONTINUOUS
 62
     7
 10
-97.825377054259206
 20
-245.8299999997538
 30
0.0
 11
-97.825377054259206
 21
-248.32999999975371
 31
0.0
  0
LINE
  5
1F4
  8
PATTERN_FILL
  6
CONTINUOUS
 62
     7
 10
-96.325377054259206
 20
-245.8299999997538
 30
0.0
 11
-96.325377054259206
 21
-248.32999999975371
 31
0.0
  0
LINE
  5
1F5
  8
PATTERN_FILL
  6
CONTINUOUS
 62
     7
 10
-94.825377054259206
 20
-245.8299999997538
 30
0.0
 11
-94.825377054259206
 21
-248.32999999975371
 31
0.0
  0
LINE
  5
1F6
  8
PATTERN_FILL
  6
CONTINUOUS
 62
     7
 10
-93.325377054259206
 20
-245.8299999997538
 30
0.0
 11
-93.325377054259206
 21
-248.32999999975371
 31
0.0
  0
LINE
  5
1F7
  8
PATTERN_FILL
  6
CONTINUOUS
 62
     7
 10
-91.825377054259206
 20
-245.8299999997538
 30
0.0
 11
-91.825377054259206
 21
-248.32999999975371
 31
0.0
  0
LINE
  5
1F8
  8
PATTERN_FILL
  6
CONTINUOUS
 62
     7
 10
-90.325377054259206
 20
-245.8299999997538
 30
0.0
 11
-90.325377054259206
 21
-248.32999999975371
 31
0.0
  0
LINE
  5
1F9
  8
PATTERN_FILL
  6
CONTINUOUS
 62
     7
 10
-88.825377054259192
 20
-245.8299999997538
 30
0.0
 11
-88.825377054259192
 21
-248.32999999975371
 31
0.0
  0
LINE
  5
1FA
  8
PATTERN_FILL
  6
CONTINUOUS
 62
     7
 10
-87.325377054259192
 20
-245.8299999997538
 30
0.0
 11
-87.325377054259192
 21
-248.32999999975371
 31
0.0
  0
LINE
  5
1FB
  8
PATTERN_FILL
  6
CONTINUOUS
 62
     7
 10
-85.825377054259178
 20
-245.8299999997538
 30
0.0
 11
-85.825377054259178
 21
-248.32999999975371
 31
0.0
  0
LINE
  5
1FC
  8
PATTERN_FILL
  6
CONTINUOUS
 62
     7
 10
-84.325377054259206
 20
-245.8299999997538
 30
0.0
 11
-84.325377054259206
 21
-248.32999999975371
 31
0.0
  0
LINE
  5
1FD
  8
PATTERN_FILL
  6
CONTINUOUS
 62
     7
 10
-82.825377054259192
 20
-245.8299999997538
 30
0.0
 11
-82.825377054259192
 21
-248.32999999975371
 31
0.0
  0
LINE
  5
1FE
  8
PATTERN_FILL
  6
CONTINUOUS
 62
     7
 10
-81.325377054259192
 20
-245.8299999997538
 30
0.0
 11
-81.325377054259192
 21
-248.32999999975371
 31
0.0
  0
LINE
  5
1FF
  8
PATTERN_FILL
  6
CONTINUOUS
 62
     7
 10
-79.825377054259192
 20
-245.8299999997538
 30
0.0
 11
-79.825377054259192
 21
-248.32999999975371
 31
0.0
  0
LINE
  5
200
  8
PATTERN_FILL
  6
CONTINUOUS
 62
     7
 10
-78.325377054259192
 20
-245.8299999997538
 30
0.0
 11
-78.325377054259192
 21
-248.32999999975371
 31
0.0
  0
LINE
  5
201
  8
PATTERN_FILL
  6
CONTINUOUS
 62
     7
 10
-76.825377054259192
 20
-245.8299999997538
 30
0.0
 11
-76.825377054259192
 21
-248.32999999975371
 31
0.0
  0
LINE
  5
202
  8
PATTERN_FILL
  6
CONTINUOUS
 62
     7
 10
-75.325377054259192
 20
-245.8299999997538
 30
0.0
 11
-75.325377054259192
 21
-248.32999999975371
 31
0.0
  0
LINE
  5
203
  8
PATTERN_FILL
  6
CONTINUOUS
 62
     7
 10
-73.825377054259192
 20
-245.8299999997538
 30
0.0
 11
-73.825377054259192
 21
-248.32999999975371
 31
0.0
  0
LINE
  5
204
  8
PATTERN_FILL
  6
CONTINUOUS
 62
     7
 10
-72.325377054259192
 20
-245.8299999997538
 30
0.0
 11
-72.325377054259192
 21
-248.32999999975371
 31
0.0
  0
LINE
  5
205
  8
PATTERN_FILL
  6
CONTINUOUS
 62
     7
 10
-70.825377054259192
 20
-245.8299999997538
 30
0.0
 11
-70.825377054259192
 21
-248.32999999975371
 31
0.0
  0
LINE
  5
206
  8
PATTERN_FILL
  6
CONTINUOUS
 62
     7
 10
-69.325377054259192
 20
-245.8299999997538
 30
0.0
 11
-69.325377054259192
 21
-248.32999999975371
 31
0.0
  0
LINE
  5
207
  8
PATTERN_FILL
  6
CONTINUOUS
 62
     7
 10
-67.825377054259192
 20
-245.8299999997538
 30
0.0
 11
-67.825377054259192
 21
-248.32999999975371
 31
0.0
  0
LINE
  5
208
  8
PATTERN_FILL
  6
CONTINUOUS
 62
     7
 10
-66.325377054259192
 20
-245.8299999997538
 30
0.0
 11
-66.325377054259192
 21
-248.32999999975371
 31
0.0
  0
LINE
  5
209
  8
PATTERN_FILL
  6
CONTINUOUS
 62
     7
 10
-64.825377054259192
 20
-245.8299999997538
 30
0.0
 11
-64.825377054259192
 21
-248.32999999975371
 31
0.0
  0
LINE
  5
20A
  8
PATTERN_FILL
  6
CONTINUOUS
 62
     7
 10
-63.325377054259178
 20
-245.8299999997538
 30
0.0
 11
-63.325377054259178
 21
-248.32999999975371
 31
0.0
  0
LINE
  5
20B
  8
PATTERN_FILL
  6
CONTINUOUS
 62
     7
 10
-61.825377054259178
 20
-245.8299999997538
 30
0.0
 11
-61.825377054259178
 21
-248.32999999975371
 31
0.0
  0
LINE
  5
20C
  8
PATTERN_FILL
  6
CONTINUOUS
 62
     7
 10
-60.325377054259192
 20
-245.8299999997538
 30
0.0
 11
-60.325377054259192
 21
-248.32999999975371
 31
0.0
  0
LINE
  5
20D
  8
PATTERN_FILL
  6
CONTINUOUS
 62
     7
 10
-58.825377054259178
 20
-245.8299999997538
 30
0.0
 11
-58.825377054259178
 21
-248.32999999975371
 31
0.0
  0
LINE
  5
20E
  8
PATTERN_FILL
  6
CONTINUOUS
 62
     7
 10
-57.325377054259192
 20
-245.8299999997538
 30
0.0
 11
-57.325377054259192
 21
-248.32999999975371
 31
0.0
  0
LINE
  5
20F
  8
PATTERN_FILL
  6
CONTINUOUS
 62
     7
 10
-55.825377054259178
 20
-245.8299999997538
 30
0.0
 11
-55.825377054259178
 21
-248.32999999975371
 31
0.0
  0
LINE
  5
210
  8
PATTERN_FILL
  6
CONTINUOUS
 62
     7
 10
-54.325377054259178
 20
-245.8299999997538
 30
0.0
 11
-54.325377054259178
 21
-248.32999999975371
 31
0.0
  0
LINE
  5
211
  8
PATTERN_FILL
  6
CONTINUOUS
 62
     7
 10
-52.825377054259192
 20
-245.8299999997538
 30
0.0
 11
-52.825377054259192
 21
-248.32999999975371
 31
0.0
  0
LINE
  5
212
  8
PATTERN_FILL
  6
CONTINUOUS
 62
     7
 10
-51.325377054259178
 20
-245.8299999997538
 30
0.0
 11
-51.325377054259178
 21
-248.32999999975371
 31
0.0
  0
LINE
  5
213
  8
PATTERN_FILL
  6
CONTINUOUS
 62
     7
 10
-49.825377054259192
 20
-245.8299999997538
 30
0.0
 11
-49.825377054259192
 21
-248.32999999975371
 31
0.0
  0
LINE
  5
214
  8
PATTERN_FILL
  6
CONTINUOUS
 62
     7
 10
-48.325377054259178
 20
-245.8299999997538
 30
0.0
 11
-48.325377054259178
 21
-248.32999999975371
 31
0.0
  0
LINE
  5
215
  8
PATTERN_FILL
  6
CONTINUOUS
 62
     7
 10
-46.825377054259178
 20
-245.8299999997538
 30
0.0
 11
-46.825377054259178
 21
-248.32999999975371
 31
0.0
  0
LINE
  5
216
  8
PATTERN_FILL
  6
CONTINUOUS
 62
     7
 10
-45.325377054259192
 20
-245.8299999997538
 30
0.0
 11
-45.325377054259192
 21
-248.32999999975371
 31
0.0
  0
LINE
  5
217
  8
PATTERN_FILL
  6
CONTINUOUS
 62
     7
 10
-43.825377054259178
 20
-245.8299999997538
 30
0.0
 11
-43.825377054259178
 21
-248.32999999975371
 31
0.0
  0
LINE
  5
218
  8
PATTERN_FILL
  6
CONTINUOUS
 62
     7
 10
-42.325377054259178
 20
-245.8299999997538
 30
0.0
 11
-42.325377054259178
 21
-248.32999999975371
 31
0.0
  0
LINE
  5
219
  8
PATTERN_FILL
  6
CONTINUOUS
 62
     7
 10
-40.825377054259178
 20
-245.8299999997538
 30
0.0
 11
-40.825377054259178
 21
-248.32999999975371
 31
0.0
  0
LINE
  5
21A
  8
PATTERN_FILL
  6
CONTINUOUS
 62
     7
 10
-39.325377054259178
 20
-245.8299999997538
 30
0.0
 11
-39.325377054259178
 21
-248.32999999975371
 31
0.0
  0
LINE
  5
21B
  8
PATTERN_FILL
  6
CONTINUOUS
 62
     7
 10
-37.825377054259192
 20
-245.8299999997538
 30
0.0
 11
-37.825377054259192
 21
-248.32999999975371
 31
0.0
  0
LINE
  5
21C
  8
PATTERN_FILL
  6
CONTINUOUS
 62
     7
 10
-36.325377054259192
 20
-245.8299999997538
 30
0.0
 11
-36.325377054259192
 21
-248.32999999975371
 31
0.0
  0
LINE
  5
21D
  8
PATTERN_FILL
  6
CONTINUOUS
 62
     7
 10
-34.825377054259192
 20
-245.8299999997538
 30
0.0
 11
-34.825377054259192
 21
-248.32999999975371
 31
0.0
  0
LINE
  5
21E
  8
PATTERN_FILL
  6
CONTINUOUS
 62
     7
 10
-33.325377054259192
 20
-245.8299999997538
 30
0.0
 11
-33.325377054259192
 21
-248.32999999975371
 31
0.0
  0
LINE
  5
21F
  8
PATTERN_FILL
  6
CONTINUOUS
 62
     7
 10
-31.825377054259189
 20
-245.8299999997538
 30
0.0
 11
-31.825377054259189
 21
-248.32999999975371
 31
0.0
  0
LINE
  5
220
  8
PATTERN_FILL
  6
CONTINUOUS
 62
     7
 10
-30.325377054259189
 20
-245.8299999997538
 30
0.0
 11
-30.325377054259189
 21
-248.32999999975371
 31
0.0
  0
LINE
  5
221
  8
PATTERN_FILL
  6
CONTINUOUS
 62
     7
 10
-28.825377054259189
 20
-245.8299999997538
 30
0.0
 11
-28.825377054259189
 21
-248.32999999975371
 31
0.0
  0
LINE
  5
222
  8
PATTERN_FILL
  6
CONTINUOUS
 62
     7
 10
-27.325377054259189
 20
-245.8299999997538
 30
0.0
 11
-27.325377054259189
 21
-248.32999999975371
 31
0.0
  0
LINE
  5
223
  8
PATTERN_FILL
  6
CONTINUOUS
 62
     7
 10
-25.825377054259189
 20
-245.8299999997538
 30
0.0
 11
-25.825377054259189
 21
-248.32999999975371
 31
0.0
  0
LINE
  5
224
  8
PATTERN_FILL
  6
CONTINUOUS
 62
     7
 10
-24.325377054259189
 20
-245.8299999997538
 30
0.0
 11
-24.325377054259189
 21
-248.32999999975371
 31
0.0
  0
LINE
  5
225
  8
PATTERN_FILL
  6
CONTINUOUS
 62
     7
 10
-22.825377054259189
 20
-245.8299999997538
 30
0.0
 11
-22.825377054259189
 21
-248.32999999975371
 31
0.0
  0
LINE
  5
226
  8
PATTERN_FILL
  6
CONTINUOUS
 62
     7
 10
-21.325377054259189
 20
-245.8299999997538
 30
0.0
 11
-21.325377054259189
 21
-248.32999999975371
 31
0.0
  0
LINE
  5
227
  8
PATTERN_FILL
  6
CONTINUOUS
 62
     7
 10
-19.825377054259189
 20
-245.8299999997538
 30
0.0
 11
-19.825377054259189
 21
-248.32999999975371
 31
0.0
  0
LINE
  5
228
  8
PATTERN_FILL
  6
CONTINUOUS
 62
     7
 10
-18.325377054259189
 20
-245.8299999997538
 30
0.0
 11
-18.325377054259189
 21
-248.32999999975371
 31
0.0
  0
LINE
  5
229
  8
PATTERN_FILL
  6
CONTINUOUS
 62
     7
 10
-16.825377054259189
 20
-245.8299999997538
 30
0.0
 11
-16.825377054259189
 21
-248.32999999975371
 31
0.0
  0
LINE
  5
22A
  8
PATTERN_FILL
  6
CONTINUOUS
 62
     7
 10
-15.325377054259191
 20
-245.8299999997538
 30
0.0
 11
-15.325377054259191
 21
-248.32999999975371
 31
0.0
  0
LINE
  5
22B
  8
PATTERN_FILL
  6
CONTINUOUS
 62
     7
 10
-13.825377054259191
 20
-245.8299999997538
 30
0.0
 11
-13.825377054259191
 21
-248.32999999975371
 31
0.0
  0
LINE
  5
22C
  8
PATTERN_FILL
  6
CONTINUOUS
 62
     7
 10
-12.325377054259191
 20
-245.8299999997538
 30
0.0
 11
-12.325377054259191
 21
-248.32999999975371
 31
0.0
  0
LINE
  5
22D
  8
PATTERN_FILL
  6
CONTINUOUS
 62
     7
 10
-10.825377054259191
 20
-245.8299999997538
 30
0.0
 11
-10.825377054259191
 21
-248.32999999975371
 31
0.0
  0
LINE
  5
22E
  8
PATTERN_FILL
  6
CONTINUOUS
 62
     7
 10
-9.3253770542591923
 20
-245.8299999997538
 30
0.0
 11
-9.3253770542591923
 21
-248.32999999975371
 31
0.0
  0
LINE
  5
22F
  8
PATTERN_FILL
  6
CONTINUOUS
 62
     7
 10
-7.8253770542591923
 20
-245.8299999997538
 30
0.0
 11
-7.8253770542591923
 21
-248.32999999975371
 31
0.0
  0
LINE
  5
230
  8
PATTERN_FILL
  6
CONTINUOUS
 62
     7
 10
-6.3253770542591923
 20
-245.8299999997538
 30
0.0
 11
-6.3253770542591923
 21
-248.32999999975371
 31
0.0
  0
LINE
  5
231
  8
PATTERN_FILL
  6
CONTINUOUS
 62
     7
 10
-4.8253770542591923
 20
-245.8299999997538
 30
0.0
 11
-4.8253770542591923
 21
-248.32999999975371
 31
0.0
  0
LINE
  5
232
  8
PATTERN_FILL
  6
CONTINUOUS
 62
     7
 10
-3.3253770542591918
 20
-245.8299999997538
 30
0.0
 11
-3.3253770542591918
 21
-248.32999999975371
 31
0.0
  0
LINE
  5
233
  8
PATTERN_FILL
  6
CONTINUOUS
 62
     7
 10
-1.8253770542591921
 20
-245.8299999997538
 30
0.0
 11
-1.8253770542591921
 21
-248.32999999975371
 31
0.0
  0
LINE
  5
234
  8
PATTERN_FILL
  6
CONTINUOUS
 62
     7
 10
-0.3253770542591923
 20
-245.8299999997538
 30
0.0
 11
-0.3253770542591923
 21
-248.32999999975371
 31
0.0
  0
LINE
  5
235
  8
PATTERN_FILL
  6
CONTINUOUS
 62
     7
 10
1.1746229457408071
 20
-245.8299999997538
 30
0.0
 11
1.1746229457408071
 21
-248.32999999975371
 31
0.0
  0
LINE
  5
236
  8
PATTERN_FILL
  6
CONTINUOUS
 62
     7
 10
2.6746229457408082
 20
-245.8299999997538
 30
0.0
 11
2.6746229457408082
 21
-248.32999999975371
 31
0.0
  0
LINE
  5
237
  8
PATTERN_FILL
  6
CONTINUOUS
 62
     7
 10
4.1746229457408068
 20
-245.8299999997538
 30
0.0
 11
4.1746229457408068
 21
-248.32999999975371
 31
0.0
  0
LINE
  5
238
  8
PATTERN_FILL
  6
CONTINUOUS
 62
     7
 10
5.6746229457408068
 20
-245.8299999997538
 30
0.0
 11
5.6746229457408068
 21
-248.32999999975371
 31
0.0
  0
LINE
  5
239
  8
PATTERN_FILL
  6
CONTINUOUS
 62
     7
 10
7.1746229457408068
 20
-245.8299999997538
 30
0.0
 11
7.1746229457408068
 21
-248.32999999975371
 31
0.0
  0
LINE
  5
23A
  8
PATTERN_FILL
  6
CONTINUOUS
 62
     7
 10
8.6746229457408042
 20
-245.8299999997538
 30
0.0
 11
8.6746229457408042
 21
-248.32999999975371
 31
0.0
  0
LINE
  5
23B
  8
PATTERN_FILL
  6
CONTINUOUS
 62
     7
 10
10.174622945740801
 20
-245.8299999997538
 30
0.0
 11
10.174622945740801
 21
-248.32999999975371
 31
0.0
  0
LINE
  5
23C
  8
PATTERN_FILL
  6
CONTINUOUS
 62
     7
 10
11.674622945740809
 20
-245.8299999997538
 30
0.0
 11
11.674622945740809
 21
-248.32999999975371
 31
0.0
  0
LINE
  5
23D
  8
PATTERN_FILL
  6
CONTINUOUS
 62
     7
 10
13.174622945740809
 20
-245.8299999997538
 30
0.0
 11
13.174622945740809
 21
-248.32999999975371
 31
0.0
  0
LINE
  5
23E
  8
PATTERN_FILL
  6
CONTINUOUS
 62
     7
 10
14.674622945740809
 20
-245.8299999997538
 30
0.0
 11
14.674622945740809
 21
-248.32999999975371
 31
0.0
  0
LINE
  5
23F
  8
PATTERN_FILL
  6
CONTINUOUS
 62
     7
 10
16.174622945740811
 20
-245.8299999997538
 30
0.0
 11
16.174622945740811
 21
-248.32999999975371
 31
0.0
  0
LINE
  5
240
  8
PATTERN_FILL
  6
CONTINUOUS
 62
     7
 10
17.674622945740801
 20
-245.8299999997538
 30
0.0
 11
17.674622945740801
 21
-248.32999999975371
 31
0.0
  0
LINE
  5
241
  8
PATTERN_FILL
  6
CONTINUOUS
 62
     7
 10
19.174622945740811
 20
-245.8299999997538
 30
0.0
 11
19.174622945740811
 21
-248.32999999975371
 31
0.0
  0
LINE
  5
242
  8
PATTERN_FILL
  6
CONTINUOUS
 62
     7
 10
20.674622945740811
 20
-245.8299999997538
 30
0.0
 11
20.674622945740811
 21
-248.32999999975371
 31
0.0
  0
LINE
  5
243
  8
PATTERN_FILL
  6
CONTINUOUS
 62
     7
 10
22.174622945740811
 20
-245.8299999997538
 30
0.0
 11
22.174622945740811
 21
-248.32999999975371
 31
0.0
  0
LINE
  5
244
  8
PATTERN_FILL
  6
CONTINUOUS
 62
     7
 10
23.674622945740811
 20
-245.8299999997538
 30
0.0
 11
23.674622945740811
 21
-248.32999999975371
 31
0.0
  0
LINE
  5
245
  8
PATTERN_FILL
  6
CONTINUOUS
 62
     7
 10
25.174622945740811
 20
-245.8299999997538
 30
0.0
 11
25.174622945740811
 21
-248.32999999975371
 31
0.0
  0
LINE
  5
246
  8
PATTERN_FILL
  6
CONTINUOUS
 62
     7
 10
26.674622945740811
 20
-245.8299999997538
 30
0.0
 11
26.674622945740811
 21
-248.32999999975371
 31
0.0
  0
LINE
  5
247
  8
PATTERN_FILL
  6
CONTINUOUS
 62
     7
 10
28.174622945740811
 20
-245.8299999997538
 30
0.0
 11
28.174622945740811
 21
-248.32999999975371
 31
0.0
  0
LINE
  5
248
  8
PATTERN_FILL
  6
CONTINUOUS
 62
     7
 10
29.674622945740811
 20
-245.8299999997538
 30
0.0
 11
29.674622945740811
 21
-248.32999999975371
 31
0.0
  0
LINE
  5
249
  8
PATTERN_FILL
  6
CONTINUOUS
 62
     7
 10
31.174622945740811
 20
-245.8299999997538
 30
0.0
 11
31.174622945740811
 21
-248.32999999975371
 31
0.0
  0
LINE
  5
24A
  8
PATTERN_FILL
  6
CONTINUOUS
 62
     7
 10
32.674622945740808
 20
-245.8299999997538
 30
0.0
 11
32.674622945740808
 21
-248.32999999975371
 31
0.0
  0
LINE
  5
24B
  8
PATTERN_FILL
  6
CONTINUOUS
 62
     7
 10
34.174622945740808
 20
-245.8299999997538
 30
0.0
 11
34.174622945740808
 21
-248.32999999975371
 31
0.0
  0
LINE
  5
24C
  8
PATTERN_FILL
  6
CONTINUOUS
 62
     7
 10
35.674622945740808
 20
-245.8299999997538
 30
0.0
 11
35.674622945740808
 21
-248.32999999975371
 31
0.0
  0
LINE
  5
24D
  8
PATTERN_FILL
  6
CONTINUOUS
 62
     7
 10
37.174622945740822
 20
-245.8299999997538
 30
0.0
 11
37.174622945740822
 21
-248.32999999975371
 31
0.0
  0
LINE
  5
24E
  8
PATTERN_FILL
  6
CONTINUOUS
 62
     7
 10
38.674622945740822
 20
-245.8299999997538
 30
0.0
 11
38.674622945740822
 21
-248.32999999975371
 31
0.0
  0
LINE
  5
24F
  8
PATTERN_FILL
  6
CONTINUOUS
 62
     7
 10
40.174622945740808
 20
-245.8299999997538
 30
0.0
 11
40.174622945740808
 21
-248.32999999975371
 31
0.0
  0
LINE
  5
250
  8
PATTERN_FILL
  6
CONTINUOUS
 62
     7
 10
41.674622945740822
 20
-245.8299999997538
 30
0.0
 11
41.674622945740822
 21
-248.32999999975371
 31
0.0
  0
LINE
  5
251
  8
PATTERN_FILL
  6
CONTINUOUS
 62
     7
 10
43.174622945740808
 20
-245.8299999997538
 30
0.0
 11
43.174622945740808
 21
-248.32999999975371
 31
0.0
  0
LINE
  5
252
  8
PATTERN_FILL
  6
CONTINUOUS
 62
     7
 10
44.674622945740808
 20
-245.8299999997538
 30
0.0
 11
44.674622945740808
 21
-248.32999999975371
 31
0.0
  0
LINE
  5
253
  8
PATTERN_FILL
  6
CONTINUOUS
 62
     7
 10
46.174622945740808
 20
-245.8299999997538
 30
0.0
 11
46.174622945740808
 21
-248.32999999975371
 31
0.0
  0
LINE
  5
254
  8
PATTERN_FILL
  6
CONTINUOUS
 62
     7
 10
47.674622945740808
 20
-245.8299999997538
 30
0.0
 11
47.674622945740808
 21
-248.32999999975371
 31
0.0
  0
LINE
  5
255
  8
PATTERN_FILL
  6
CONTINUOUS
 62
     7
 10
49.174622945740822
 20
-245.8299999997538
 30
0.0
 11
49.174622945740822
 21
-248.32999999975371
 31
0.0
  0
LINE
  5
256
  8
PATTERN_FILL
  6
CONTINUOUS
 62
     7
 10
50.674622945740808
 20
-245.8299999997538
 30
0.0
 11
50.674622945740808
 21
-248.32999999975371
 31
0.0
  0
LINE
  5
257
  8
PATTERN_FILL
  6
CONTINUOUS
 62
     7
 10
52.174622945740808
 20
-245.8299999997538
 30
0.0
 11
52.174622945740808
 21
-248.32999999975371
 31
0.0
  0
LINE
  5
258
  8
SPEC
  6
CONTINUOUS
 62
     7
 10
-395.0
 20
877.65907499999958
 30
0.0
 11
490.0
 21
877.65907499999958
 31
0.0
  0
LINE
  5
259
  8
SPEC
  6
CONTINUOUS
 62
     7
 10
-395.0
 20
855.15907499999969
 30
0.0
 11
490.0
 21
855.15907499999969
 31
0.0
  0
LINE
  5
25A
  8
SPEC
  6
CONTINUOUS
 62
     7
 10
-395.0
 20
765.15907499999958
 30
0.0
 11
490.0
 21
765.15907499999958
 31
0.0
  0
LINE
  5
25B
  8
SPEC
  6
CONTINUOUS
 62
     7
 10
-395.0
 20
787.65907499999969
 30
0.0
 11
490.0
 21
787.65907499999969
 31
0.0
  0
LINE
  5
25C
  8
SPEC
  6
CONTINUOUS
 62
     7
 10
-395.0
 20
810.15907499999958
 30
0.0
 11
490.0
 21
810.15907499999958
 31
0.0
  0
LINE
  5
25D
  8
SPEC
  6
CONTINUOUS
 62
     7
 10
-395.0
 20
832.65907499999969
 30
0.0
 11
490.0
 21
832.65907499999969
 31
0.0
  0
TEXT
  5
25E
  8
SPEC
 62
     7
 10
-194.71427690064891
 20
860.68651997120867
 30
0.0
 40
11.401888020833329
  1
アクティブ指向アンテナ
 41
0.7
 11
-194.71427690064891
 21
872.08840799204222
 31
0.0
 73
     3
  0
LINE
  5
25F
  8
SPEC
  6
CONTINUOUS
 62
     7
 10
-395.0
 20
877.65907499999958
 30
0.0
 11
-395.0
 21
765.15907499999958
 31
0.0
  0
TEXT
  5
260
  8
SPEC
 62
     7
 10
-387.5
 20
886.01869499999987
 30
0.0
 40
14.6595703125
  1
仕様
 41
0.7
 11
-387.5
 21
900.6782653125
 31
0.0
 73
     3
  0
LINE
  5
261
  8
SPEC
  6
CONTINUOUS
 62
     7
 10
-200.0
 20
877.65907499999958
 30
0.0
 11
-200.0
 21
765.15907499999958
 31
0.0
  0
LINE
  5
262
  8
SPEC
  6
CONTINUOUS
 62
     7
 10
490.0
 20
877.65907499999958
 30
0.0
 11
490.0
 21
765.15907499999958
 31
0.0
  0
TEXT
  5
263
  8
SPEC
 62
     7
 10
-389.60000000000002
 20
793.61303046267426
 30
0.0
 40
11.401888020833329
  1
寸法
 41
0.7
 11
-389.60000000000002
 21
805.01491848350759
 31
0.0
 73
     3
  0
TEXT
  5
264
  8
SPEC
 62
     7
 10
-389.60000000000002
 20
771.11303046267437
 30
0.0
 40
11.401888020833329
  1
質量
 41
0.7
 11
-389.60000000000002
 21
782.5149184835077
 31
0.0
 73
     3
  0
TEXT
  5
265
  8
SPEC
 62
     7
 10
-389.60000000000002
 20
860.40204438955493
 30
0.0
 40
11.401888020833329
  1
形式
 41
0.7
 11
-389.60000000000002
 21
871.80393241038837
 31
0.0
 73
     3
  0
TEXT
  5
266
  8
SPEC
 62
     7
 10
-389.60000000000002
 20
838.0738652971844
 30
0.0
 40
11.401888020833329
  1
適応周波数
 41
0.7
 11
-389.60000000000002
 21
849.47575331801772
 31
0.0
 73
     3
  0
TEXT
  5
267
  8
SPEC
 62
     7
 10
-390.4591045381473
 20
815.74568620481386
 30
0.0
 40
11.401888020833329
  1
コネクタ 
 41
0.7
 11
-390.4591045381473
 21
827.1475742256473
 31
0.0
 73
     3
  0
TEXT
  5
268
  8
SPEC
 62
     7
 10
-193.9175715713489
 20
793.38555431979046
 30
0.0
 40
11.401888020833329
  1
359(W)\U+00D7316(H)\U+00D735(D)mm
 41
0.7
 11
-193.9175715713489
 21
804.78744234062378
 31
0.0
 73
     3
  0
TEXT
  5
269
  8
SPEC
 62
     7
 10
-194.0881786785115
 20
771.28363756983686
 30
0.0
 40
11.401888020833329
  1
約338g
 41
0.7
 11
-194.0881786785115
 21
782.6855255906703
 31
0.0
 73
     3
  0
TEXT
  5
26A
  8
SPEC
 62
     7
 10
-194.14433040683781
 20
815.84855080778675
 30
0.0
 40
11.401888020833329
  1
BNC
 41
0.7
 11
-194.14433040683781
 21
827.25043882862019
 31
0.0
 73
     3
  0
TEXT
  5
26B
  8
SPEC
 62
     7
 10
-193.6857847948086
 20
837.95796616991072
 30
0.0
 40
11.401888020833329
  1
470～900MHz
 41
0.7
 11
-193.6857847948086
 21
849.35985419074416
 31
0.0
 73
     3
  0
TEXT
  5
26C
  8
DIMNSIONS
 62
     7
 10
-20.000000000000011
 20
-548.72398499999997
 30
0.0
 40
14.6595703125
  1
(単位：mm)
 41
0.7
 11
-20.000000000000011
 21
-534.06441468749995
 31
0.0
 73
     3
  0
LINE
  5
26D
  8
DIMNSIONS
  6
CONTINUOUS
 62
     7
 10
-228.57499999999999
 20
-82.855402558471127
 30
0.0
 11
-362.0
 21
-82.855402558471127
 31
0.0
  0
LINE
  5
26E
  8
DIMNSIONS
  6
CONTINUOUS
 62
     7
 10
-228.57499999999999
 20
233.13540255839959
 30
0.0
 11
-362.0
 21
233.13540255839959
 31
0.0
  0
LINE
  5
26F
  8
DIMNSIONS
  6
CONTINUOUS
 62
     7
 10
-350.0
 20
-82.855402558471127
 30
0.0
 11
-350.0
 21
233.13540255839959
 31
0.0
  0
LINE
  5
270
  8
DIMNSIONS
  6
CONTINUOUS
 62
     7
 10
-350.0
 20
-82.855402558471127
 30
0.0
 11
-354.02023877090153
 21
-67.85166720690863
 31
0.0
  0
LINE
  5
271
  8
DIMNSIONS
  6
CONTINUOUS
 62
     7
 10
-350.0
 20
-82.855402558471127
 30
0.0
 11
-345.97976122909847
 21
-67.85166720690863
 31
0.0
  0
LINE
  5
272
  8
DIMNSIONS
  6
CONTINUOUS
 62
     7
 10
-350.0
 20
233.13540255839959
 30
0.0
 11
-345.97976122909847
 21
218.13166720683699
 31
0.0
  0
LINE
  5
273
  8
DIMNSIONS
  6
CONTINUOUS
 62
     7
 10
-350.0
 20
233.13540255839959
 30
0.0
 11
-354.02023877090153
 21
218.13166720683699
 31
0.0
  0
TEXT
  5
274
  8
DIMNSIONS
 62
     7
 10
-355.96333333333331
 20
59.264999999964218
 30
0.0
 40
16.288411458333329
  1
316
 50
90.0
 41
0.7
 11
-372.25174479166662
 21
59.264999999964218
 31
0.0
 73
     3
  0
LINE
  5
275
  8
DIMNSIONS
  6
CONTINUOUS
 62
     7
 10
-299.99496033201581
 20
118.2
 30
0.0
 11
-299.99496033201581
 21
299.5
 31
0.0
  0
LINE
  5
276
  8
DIMNSIONS
  6
CONTINUOUS
 62
     7
 10
59.00000000010052
 20
130.54654800707181
 30
0.0
 11
59.00000000010052
 21
299.5
 31
0.0
  0
LINE
  5
277
  8
DIMNSIONS
  6
CONTINUOUS
 62
     7
 10
-299.99496033201581
 20
287.5
 30
0.0
 11
59.00000000010052
 21
287.5
 31
0.0
  0
LINE
  5
278
  8
DIMNSIONS
  6
CONTINUOUS
 62
     7
 10
-299.99496033201581
 20
287.5
 30
0.0
 11
-284.9912249804533
 21
291.52023877090153
 31
0.0
  0
LINE
  5
279
  8
DIMNSIONS
  6
CONTINUOUS
 62
     7
 10
-299.99496033201581
 20
287.5
 30
0.0
 11
-284.9912249804533
 21
283.47976122909847
 31
0.0
  0
LINE
  5
27A
  8
DIMNSIONS
  6
CONTINUOUS
 62
     7
 10
59.00000000010052
 20
287.5
 30
0.0
 11
43.996264648538023
 21
283.47976122909847
 31
0.0
  0
LINE
  5
27B
  8
DIMNSIONS
  6
CONTINUOUS
 62
     7
 10
59.00000000010052
 20
287.5
 30
0.0
 11
43.996264648538023
 21
291.52023877090153
 31
0.0
  0
TEXT
  5
27C
  8
DIMNSIONS
 62
     7
 10
-136.3724801659576
 20
293.46333333333331
 30
0.0
 40
16.288411458333329
  1
359
 41
0.7
 11
-136.3724801659576
 21
309.75174479166662
 31
0.0
 73
     3
  0
LINE
  5
27D
  8
DIMNSIONS
  6
CONTINUOUS
 62
     7
 10
-306.57999999999998
 20
-258.00393161830408
 30
0.0
 11
-362.0
 21
-258.00393161830408
 31
0.0
  0
LINE
  5
27E
  8
DIMNSIONS
  6
CONTINUOUS
 62
     7
 10
-306.57999999999998
 20
-223.33836969224109
 30
0.0
 11
-362.0
 21
-223.33836969224109
 31
0.0
  0
LINE
  5
27F
  8
DIMNSIONS
  6
CONTINUOUS
 62
     7
 10
-350.0
 20
-258.00393161830408
 30
0.0
 11
-350.0
 21
-223.33836969224109
 31
0.0
  0
LINE
  5
280
  8
DIMNSIONS
  6
CONTINUOUS
 62
     7
 10
-350.0
 20
-258.00393161830408
 30
0.0
 11
-354.02023877090153
 21
-243.0001962667416
 31
0.0
  0
LINE
  5
281
  8
DIMNSIONS
  6
CONTINUOUS
 62
     7
 10
-350.0
 20
-258.00393161830408
 30
0.0
 11
-345.97976122909847
 21
-243.0001962667416
 31
0.0
  0
LINE
  5
282
  8
DIMNSIONS
  6
CONTINUOUS
 62
     7
 10
-350.0
 20
-223.33836969224109
 30
0.0
 11
-345.97976122909847
 21
-238.3421050438036
 31
0.0
  0
LINE
  5
283
  8
DIMNSIONS
  6
CONTINUOUS
 62
     7
 10
-350.0
 20
-223.33836969224109
 30
0.0
 11
-354.02023877090153
 21
-238.3421050438036
 31
0.0
  0
TEXT
  5
284
  8
DIMNSIONS
 62
     7
 10
-355.96333333333331
 20
-251.2544839886059
 30
0.0
 40
16.288411458333329
  1
35
 50
90.0
 41
0.7
 11
-372.25174479166662
 21
-251.2544839886059
 31
0.0
 73
     3
  0
LINE
  5
285
  8
DIMNSIONS
  6
CONTINUOUS
 62
     7
 10
71.000000000100513
 20
-249.99999999975361
 30
0.0
 11
124.5
 21
-249.99999999975361
 31
0.0
  0
LINE
  5
286
  8
DIMNSIONS
  6
CONTINUOUS
 62
     7
 10
64.79000000010069
 20
-245.8299999997538
 30
0.0
 11
124.5
 21
-245.8299999997538
 31
0.0
  0
LINE
  5
287
  8
DIMNSIONS
  6
CONTINUOUS
 62
     7
 10
112.5
 20
-245.8299999997538
 30
0.0
 11
112.5
 21
-249.99999999975361
 31
0.0
  0
LINE
  5
288
  8
DIMNSIONS
  6
CONTINUOUS
 62
     7
 10
112.5
 20
-249.99999999975361
 30
0.0
 11
112.5
 21
-279.99999999975358
 31
0.0
  0
LINE
  5
289
  8
DIMNSIONS
  6
CONTINUOUS
 62
     7
 10
112.5
 20
-249.99999999975361
 30
0.0
 11
116.5202387709014
 21
-265.0037353513161
 31
0.0
  0
LINE
  5
28A
  8
DIMNSIONS
  6
CONTINUOUS
 62
     7
 10
112.5
 20
-249.99999999975361
 30
0.0
 11
108.4797612290985
 21
-265.0037353513161
 31
0.0
  0
LINE
  5
28B
  8
DIMNSIONS
  6
CONTINUOUS
 62
     7
 10
112.5
 20
-245.8299999997538
 30
0.0
 11
112.5
 21
-214.41666666666671
 31
0.0
  0
LINE
  5
28C
  8
DIMNSIONS
  6
CONTINUOUS
 62
     7
 10
112.5
 20
-245.8299999997538
 30
0.0
 11
108.4797612290985
 21
-230.82626464819131
 31
0.0
  0
LINE
  5
28D
  8
DIMNSIONS
  6
CONTINUOUS
 62
     7
 10
112.5
 20
-245.8299999997538
 30
0.0
 11
116.5202387709014
 21
-230.82626464819131
 31
0.0
  0
TEXT
  5
28E
  8
DIMNSIONS
 62
     7
 10
106.5366666666666
 20
-225.0
 30
0.0
 40
16.288411458333329
  1
4
 50
90.0
 41
0.7
 11
90.248255208333305
 21
-225.0
 31
0.0
 73
     3
  0
LINE
  5
28F
  8
DIMNSIONS
  6
CONTINUOUS
 62
     7
 10
-299.99999999989939
 20
-236.32999999975371
 30
0.0
 11
-299.99999999989939
 21
-188.0
 31
0.0
  0
LINE
  5
290
  8
DIMNSIONS
  6
CONTINUOUS
 62
     7
 10
-151.99999999989939
 20
-223.41509090914519
 30
0.0
 11
-151.99999999989939
 21
-188.0
 31
0.0
  0
LINE
  5
291
  8
DIMNSIONS
  6
CONTINUOUS
 62
     7
 10
-299.99999999989939
 20
-200.0
 30
0.0
 11
-151.99999999989939
 21
-200.0
 31
0.0
  0
LINE
  5
292
  8
DIMNSIONS
  6
CONTINUOUS
 62
     7
 10
-299.99999999989939
 20
-200.0
 30
0.0
 11
-284.99626464833688
 21
-195.9797612290985
 31
0.0
  0
LINE
  5
293
  8
DIMNSIONS
  6
CONTINUOUS
 62
     7
 10
-299.99999999989939
 20
-200.0
 30
0.0
 11
-284.99626464833688
 21
-204.02023877090139
 31
0.0
  0
LINE
  5
294
  8
DIMNSIONS
  6
CONTINUOUS
 62
     7
 10
-151.99999999989939
 20
-200.0
 30
0.0
 11
-167.0037353514619
 21
-204.02023877090139
 31
0.0
  0
LINE
  5
295
  8
DIMNSIONS
  6
CONTINUOUS
 62
     7
 10
-151.99999999989939
 20
-200.0
 30
0.0
 11
-167.0037353514619
 21
-195.9797612290985
 31
0.0
  0
TEXT
  5
296
  8
DIMNSIONS
 62
     7
 10
-241.87499999989939
 20
-194.0366666666666
 30
0.0
 40
16.288411458333329
  1
148
 41
0.7
 11
-241.87499999989939
 21
-177.74825520833329
 31
0.0
 73
     3
  0
TEXT
  5
297
  8
DATA
 62
     7
 10
400.11188942660732
 20
-554.8409592903721
 30
0.0
 40
14.6595703125
  1
UA870WB
 41
0.7
 11
400.11188942660732
 21
-540.18138897787196
 31
0.0
 73
     3
  0
TEXT
  5
298
  8
DATA
 62
     7
 10
400.28954335260522
 20
-507.7710560866945
 30
0.0
 40
14.6595703125
  1
SHURE
 41
0.7
 11
400.28954335260522
 21
-493.11148577419448
 31
0.0
 73
     3
  0
TEXT
  5
299
  8
DATA
 62
     7
 10
380.99418269924138
 20
-528.05908200731176
 30
0.0
 40
9.7730468749999986
  1
アクティブ指向アンテナ
 41
0.7
 11
380.99418269924138
 21
-518.28603513231178
 31
0.0
 73
     3
  0
TEXT
  5
29A
  8
DATA
 62
     7
 10
-379.99999999999989
 20
-596.91292499999997
 30
0.0
 40
9.7730468749999986
  1
仕様および外観は予告なく変更されることがありますので、ご了承ください。
 41
0.7
 11
-379.99999999999989
 21
-587.139878125
 31
0.0
 73
     3
  0
LINE
  5
29B
  8
DATA
  6
CONTINUOUS
 62
     7
 10
-298.49999999989939
 20
51.639999999964431
 30
0.0
 11
-298.49999999989939
 21
98.639999999964488
 31
0.0
  0
ARC
  5
29C
  8
DATA
  6
CONTINUOUS
 62
     7
 10
-296.49999999989939
 20
51.639999999964431
 30
0.0
 40
1.9999999999999429
 50
180.0
 51
270.00000000000171
  0
LINE
  5
29D
  8
DATA
  6
CONTINUOUS
 62
     7
 10
-236.79999999989931
 20
49.639999999964431
 30
0.0
 11
-296.49999999989939
 21
49.639999999964431
 31
0.0
  0
ARC
  5
29E
  8
DATA
  6
CONTINUOUS
 62
     7
 10
-236.79999999989931
 20
51.639999999964459
 30
0.0
 40
2.000000000000028
 50
270.0
 51
359.9999999999992
  0
LINE
  5
29F
  8
DATA
  6
CONTINUOUS
 62
     7
 10
-234.79999999989931
 20
98.639999999964488
 30
0.0
 11
-234.79999999989931
 21
51.639999999964431
 31
0.0
  0
ARC
  5
2A0
  8
DATA
  6
CONTINUOUS
 62
     7
 10
-236.79999999989931
 20
98.639999999964488
 30
0.0
 40
1.9999999999999429
 50
0.0
 51
90.000000000001606
  0
LINE
  5
2A1
  8
DATA
  6
CONTINUOUS
 62
     7
 10
-296.49999999989939
 20
100.6399999999645
 30
0.0
 11
-236.79999999989931
 21
100.6399999999645
 31
0.0
  0
ARC
  5
2A2
  8
DATA
  6
CONTINUOUS
 62
     7
 10
-296.49999999989939
 20
98.639999999964445
 30
0.0
 40
2.000000000000028
 50
90.0
 51
179.9999999999992
  0
LINE
  5
2A3
  8
DATA
  6
CONTINUOUS
 62
     7
 10
-294.93169566422461
 20
112.28445581769751
 30
0.0
 11
-243.77844435920159
 21
123.8351899833478
 31
0.0
  0
LINE
  5
2A4
  8
DATA
  6
CONTINUOUS
 62
     7
 10
-299.99999999989939
 20
105.9440893042574
 30
0.0
 11
-299.99999999989939
 21
44.335910695671451
 31
0.0
  0
ARC
  5
2A5
  8
DATA
  6
CONTINUOUS
 62
     7
 10
-293.4999999998995
 20
105.9440893042574
 30
0.0
 40
6.4999999999999911
 50
102.7243556854222
 51
180.0
  0
ARC
  5
2A6
  8
DATA
  6
CONTINUOUS
 62
     7
 10
-293.4999999998995
 20
44.335910695671451
 30
0.0
 40
6.5
 50
180.0
 51
257.27564431457802
  0
ARC
  5
2A7
  8
DATA
  6
CONTINUOUS
 62
     7
 10
-293.4999999998995
 20
105.9440893042574
 30
0.0
 40
6.4999999999999911
 50
102.7243556854222
 51
180.0
  0
ARC
  5
2A8
  8
DATA
  6
CONTINUOUS
 62
     7
 10
-245.54053133067879
 20
131.63871799988951
 30
0.0
 40
8.0000000000000409
 50
282.72435568542249
 51
355.76360520094107
  0
ARC
  5
2A9
  8
DATA
  6
CONTINUOUS
 62
     7
 10
46.000000000100499
 20
118.54654800707181
 30
0.0
 40
13.00000000000002
 50
0.0
 51
69.9452936798222
  0
LINE
  5
2AA
  8
DATA
  6
CONTINUOUS
 62
     7
 10
-294.93169566422461
 20
37.995544182231299
 30
0.0
 11
-287.99999999989961
 21
36.430322580609513
 31
0.0
  0
LINE
  5
2AB
  8
DATA
  6
CONTINUOUS
 62
     7
 10
-277.6699999998994
 20
34.097741935448227
 30
0.0
 11
-243.77844435920159
 21
26.444810016580931
 31
0.0
  0
ARC
  5
2AC
  8
DATA
  6
CONTINUOUS
 62
     7
 10
-245.54053133067879
 20
18.64128200003918
 30
0.0
 40
7.9999999999999343
 50
4.2363947990590196
 51
77.27564431457759
  0
ARC
  5
2AD
  8
DATA
  6
CONTINUOUS
 62
     7
 10
46.000000000100499
 20
31.733451992856949
 30
0.0
 40
13.00000000000014
 50
290.05470632017779
 51
359.99999999999972
  0
LINE
  5
2AE
  8
DATA
  6
CONTINUOUS
 62
     7
 10
59.00000000010052
 20
31.733451992856889
 30
0.0
 11
59.00000000010052
 21
118.54654800707181
 31
0.0
  0
CIRCLE
  5
2AF
  8
DATA
  6
CONTINUOUS
 62
     7
 10
-294.49999999989927
 20
96.639999999964544
 30
0.0
 40
3.2999999999999541
  0
CIRCLE
  5
2B0
  8
DATA
  6
CONTINUOUS
 62
     7
 10
-238.79999999989931
 20
96.639999999964544
 30
0.0
 40
3.2999999999999541
  0
CIRCLE
  5
2B1
  8
DATA
  6
CONTINUOUS
 62
     7
 10
-294.49999999989927
 20
53.639999999964459
 30
0.0
 40
3.2999999999999541
  0
CIRCLE
  5
2B2
  8
DATA
  6
CONTINUOUS
 62
     7
 10
-238.79999999989931
 20
53.639999999964459
 30
0.0
 40
3.2999999999999541
  0
POLYLINE
  5
2B3
  8
DATA
  6
CONTINUOUS
 62
     7
 66
     1
 10
0.0
 20
0.0
 30
0.0
 70
     1
  0
VERTEX
  5
5CE
  8
DATA
  6
CONTINUOUS
 62
     7
 10
-223.3899999998992
 20
75.889999999964488
 30
0.0
  0
VERTEX
  5
5CF
  8
DATA
  6
CONTINUOUS
 62
     7
 10
-221.79999999989931
 20
75.889999999964488
 30
0.0
  0
VERTEX
  5
5D0
  8
DATA
  6
CONTINUOUS
 62
     7
 10
-221.79999999989931
 20
74.389999999964488
 30
0.0
  0
VERTEX
  5
5D1
  8
DATA
  6
CONTINUOUS
 62
     7
 10
-223.3899999998992
 20
74.389999999964488
 30
0.0
  0
SEQEND
  5
5D2
  8
DATA
  6
CONTINUOUS
 62
     7
  0
POLYLINE
  5
2BA
  8
DATA
  6
CONTINUOUS
 62
     7
 66
     1
 10
0.0
 20
0.0
 30
0.0
 70
     1
  0
VERTEX
  5
5D3
  8
DATA
  6
CONTINUOUS
 62
     7
 10
51.200000000100772
 20
75.889999999964488
 30
0.0
  0
VERTEX
  5
5D4
  8
DATA
  6
CONTINUOUS
 62
     7
 10
52.79000000010069
 20
75.889999999964488
 30
0.0
  0
VERTEX
  5
5D5
  8
DATA
  6
CONTINUOUS
 62
     7
 10
52.79000000010069
 20
74.389999999964488
 30
0.0
  0
VERTEX
  5
5D6
  8
DATA
  6
CONTINUOUS
 62
     7
 10
51.200000000100772
 20
74.389999999964488
 30
0.0
  0
SEQEND
  5
5D7
  8
DATA
  6
CONTINUOUS
 62
     7
  0
TEXT
  5
2C1
  8
DATA
 62
     7
 10
-292.01071026622549
 20
87.584457075117015
 30
0.0
 40
2.4432617187500001
  1
ACTIVE DIRECTIONAL ANTENNA
 41
0.7
 11
-292.01071026622549
 21
90.02771879386701
 31
0.0
 73
     3
  0
TEXT
  5
2C2
  8
DATA
 62
     7
 10
-292.01071026622549
 20
84.409457075117004
 30
0.0
 40
2.4432617187500001
  1
    UA870WB(470-900 MHz)
 41
0.7
 11
-292.01071026622549
 21
86.852718793867027
 31
0.0
 73
     3
  0
CIRCLE
  5
2C3
  8
DATA
  6
CONTINUOUS
 62
     7
 10
-251.79999999989931
 20
61.139999999964459
 30
0.0
 40
1.49499999999989
  0
CIRCLE
  5
2C4
  8
DATA
  6
CONTINUOUS
 62
     7
 10
-251.79999999989931
 20
75.639999999964488
 30
0.0
 40
1.49499999999989
  0
TEXT
  5
2C5
  8
DATA
 62
     7
 10
-259.01791957731922
 20
74.375824483887911
 30
0.0
 40
1.954609375
  1
10dB
 41
0.7
 11
-259.01791957731922
 21
76.330433858887915
 31
0.0
 73
     3
  0
TEXT
  5
2C6
  8
DATA
 62
     7
 10
-258.03445728934548
 20
60.23349115055462
 30
0.0
 40
1.954609375
  1
3dB
 41
0.7
 11
-258.03445728934548
 21
62.18810052555461
 31
0.0
 73
     3
  0
TEXT
  5
2C7
  8
DATA
 62
     7
 10
-280.8125257668251
 20
65.874729353822545
 30
0.0
 40
1.954609375
  1
GAIN SWITCH
 41
0.7
 11
-280.8125257668251
 21
67.829338728822549
 31
0.0
 73
     3
  0
TEXT
  5
2C8
  8
DATA
 62
     7
 10
-280.8125257668251
 20
63.334729353822567
 30
0.0
 40
1.954609375
  1
    INSIDE
 41
0.7
 11
-280.8125257668251
 21
65.289338728822571
 31
0.0
 73
     3
  0
LINE
  5
2C9
  8
DATA
  6
CONTINUOUS
 62
     7
 10
-290.29999999989923
 20
46.639999999964367
 30
0.0
 11
-290.29999999989923
 21
49.639999999964367
 31
0.0
  0
LINE
  5
2CA
  8
DATA
  6
CONTINUOUS
 62
     7
 10
-274.69999999989938
 20
46.639999999964367
 30
0.0
 11
-290.29999999989923
 21
46.639999999964367
 31
0.0
  0
LINE
  5
2CB
  8
DATA
  6
CONTINUOUS
 62
     7
 10
-274.69999999989938
 20
49.639999999964367
 30
0.0
 11
-274.69999999989938
 21
46.639999999964367
 31
0.0
  0
LINE
  5
2CC
  8
DATA
  6
CONTINUOUS
 62
     7
 10
-287.32999999989943
 20
32.639999999964381
 30
0.0
 11
-277.6699999998994
 21
32.639999999964381
 31
0.0
  0
LINE
  5
2CD
  8
DATA
  6
CONTINUOUS
 62
     7
 10
-287.99999999989961
 20
36.139999999964367
 30
0.0
 11
-287.99999999989961
 21
38.139999999964367
 31
0.0
  0
LINE
  5
2CE
  8
DATA
  6
CONTINUOUS
 62
     7
 10
-287.32999999989948
 20
36.139999999964367
 30
0.0
 11
-287.99999999989961
 21
36.139999999964367
 31
0.0
  0
LINE
  5
2CF
  8
DATA
  6
CONTINUOUS
 62
     7
 10
-287.99999999989961
 20
38.139999999964367
 30
0.0
 11
-287.32999999989948
 21
38.139999999964367
 31
0.0
  0
LINE
  5
2D0
  8
DATA
  6
CONTINUOUS
 62
     7
 10
-276.99999999989927
 20
36.139999999964367
 30
0.0
 11
-277.6699999998994
 21
36.139999999964367
 31
0.0
  0
LINE
  5
2D1
  8
DATA
  6
CONTINUOUS
 62
     7
 10
-276.99999999989927
 20
38.139999999964367
 30
0.0
 11
-276.99999999989927
 21
36.139999999964367
 31
0.0
  0
LINE
  5
2D2
  8
DATA
  6
CONTINUOUS
 62
     7
 10
-277.6699999998994
 20
38.139999999964367
 30
0.0
 11
-276.99999999989927
 21
38.139999999964367
 31
0.0
  0
LINE
  5
2D3
  8
DATA
  6
CONTINUOUS
 62
     7
 10
-288.47499999989918
 20
43.639999999964367
 30
0.0
 11
-276.52499999989931
 21
43.639999999964367
 31
0.0
  0
LINE
  5
2D4
  8
DATA
  6
CONTINUOUS
 62
     7
 10
-288.47499999989918
 20
46.639999999964367
 30
0.0
 11
-288.47499999989918
 21
43.639999999964367
 31
0.0
  0
LINE
  5
2D5
  8
DATA
  6
CONTINUOUS
 62
     7
 10
-276.52499999989931
 20
46.639999999964367
 30
0.0
 11
-276.52499999989931
 21
43.639999999964367
 31
0.0
  0
LINE
  5
2D6
  8
DATA
  6
CONTINUOUS
 62
     7
 10
-287.32999999989943
 20
32.639999999964381
 30
0.0
 11
-287.32999999989943
 21
43.639999999964367
 31
0.0
  0
LINE
  5
2D7
  8
DATA
  6
CONTINUOUS
 62
     7
 10
-277.6699999998994
 20
32.639999999964381
 30
0.0
 11
-277.6699999998994
 21
43.639999999964367
 31
0.0
  0
LINE
  5
2D8
  8
DATA
  6
CONTINUOUS
 62
     7
 10
-288.47499999989918
 20
45.896673581948271
 30
0.0
 11
-280.29999999989923
 21
46.639999999964367
 31
0.0
  0
LINE
  5
2D9
  8
DATA
  6
CONTINUOUS
 62
     7
 10
-288.47499999989918
 20
44.596673581948259
 30
0.0
 11
-276.52499999989931
 21
45.626378797367749
 31
0.0
  0
LINE
  5
2DA
  8
DATA
  6
CONTINUOUS
 62
     7
 10
-276.52499999989931
 20
44.326378797367802
 30
0.0
 11
-284.49060656976519
 21
43.639999999964367
 31
0.0
  0
LINE
  5
2DB
  8
DATA
  6
CONTINUOUS
 62
     7
 10
-286.54999999989923
 20
48.439999999964641
 30
0.0
 11
-288.5499999998994
 21
49.139999999964381
 31
0.0
  0
LINE
  5
2DC
  8
DATA
  6
CONTINUOUS
 62
     7
 10
-284.69999999989949
 20
49.139999999964381
 30
0.0
 11
-286.54999999989923
 21
48.439999999964641
 31
0.0
  0
LINE
  5
2DD
  8
DATA
  6
CONTINUOUS
 62
     7
 10
-286.54999999989923
 20
47.3399999999641
 30
0.0
 11
-284.69999999989949
 21
46.639999999964367
 31
0.0
  0
LINE
  5
2DE
  8
DATA
  6
CONTINUOUS
 62
     7
 10
-288.5499999998994
 20
46.639999999964367
 30
0.0
 11
-286.54999999989923
 21
47.3399999999641
 31
0.0
  0
LINE
  5
2DF
  8
DATA
  6
CONTINUOUS
 62
     7
 10
-278.44999999989938
 20
48.439999999964641
 30
0.0
 11
-280.29999999989923
 21
49.139999999964381
 31
0.0
  0
LINE
  5
2E0
  8
DATA
  6
CONTINUOUS
 62
     7
 10
-276.44999999989909
 20
49.139999999964381
 30
0.0
 11
-278.44999999989938
 21
48.439999999964641
 31
0.0
  0
LINE
  5
2E1
  8
DATA
  6
CONTINUOUS
 62
     7
 10
-278.44999999989938
 20
47.3399999999641
 30
0.0
 11
-280.29999999989923
 21
46.639999999964367
 31
0.0
  0
LINE
  5
2E2
  8
DATA
  6
CONTINUOUS
 62
     7
 10
-276.44999999989909
 20
46.639999999964367
 30
0.0
 11
-278.44999999989938
 21
47.3399999999641
 31
0.0
  0
LINE
  5
2E3
  8
DATA
  6
CONTINUOUS
 62
     7
 10
-290.29999999989923
 20
49.139999999964381
 30
0.0
 11
-274.69999999989938
 21
49.139999999964381
 31
0.0
  0
LINE
  5
2E4
  8
DATA
  6
CONTINUOUS
 62
     7
 10
-286.54999999989923
 20
47.3399999999641
 30
0.0
 11
-286.54999999989923
 21
48.439999999964641
 31
0.0
  0
LINE
  5
2E5
  8
DATA
  6
CONTINUOUS
 62
     7
 10
-278.44999999989938
 20
47.3399999999641
 30
0.0
 11
-278.44999999989938
 21
48.439999999964641
 31
0.0
  0
ARC
  5
2E6
  8
DATA
  6
CONTINUOUS
 62
     7
 10
-238.69743276621719
 20
96.742567233647264
 30
0.0
 40
3.6040270130272201
 50
181.63080441537761
 51
268.36919558463359
  0
LINE
  5
2E7
  8
DATA
  6
CONTINUOUS
 62
     7
 10
-242.29999999989991
 20
96.639999999964473
 30
0.0
 11
-242.29999999989991
 21
99.339999999964505
 31
0.0
  0
ARC
  5
2E8
  8
DATA
  6
CONTINUOUS
 62
     7
 10
-243.59999999989981
 20
99.339999999964505
 30
0.0
 40
1.2999999999999541
 50
0.0
 51
90.000000000002487
  0
LINE
  5
2E9
  8
DATA
  6
CONTINUOUS
 62
     7
 10
-238.79999999989931
 20
93.139999999964587
 30
0.0
 11
-236.0999999998993
 21
93.139999999964587
 31
0.0
  0
ARC
  5
2EA
  8
DATA
  6
CONTINUOUS
 62
     7
 10
-236.0999999998993
 20
91.839999999964604
 30
0.0
 40
1.300000000000068
 50
0.0
 51
89.999999999997485
  0
ARC
  5
2EB
  8
DATA
  6
CONTINUOUS
 62
     7
 10
-294.60256723358151
 20
96.742567233647264
 30
0.0
 40
3.6040270130271139
 50
271.63080441536641
 51
358.36919558462228
  0
LINE
  5
2EC
  8
DATA
  6
CONTINUOUS
 62
     7
 10
-290.99999999989871
 20
96.639999999964473
 30
0.0
 11
-290.99999999989871
 21
99.339999999964505
 31
0.0
  0
ARC
  5
2ED
  8
DATA
  6
CONTINUOUS
 62
     7
 10
-289.69999999989881
 20
99.339999999964505
 30
0.0
 40
1.3000000000000109
 50
89.999999999997485
 51
180.0
  0
LINE
  5
2EE
  8
DATA
  6
CONTINUOUS
 62
     7
 10
-294.49999999989939
 20
93.139999999964587
 30
0.0
 11
-297.19999999989932
 21
93.139999999964587
 31
0.0
  0
ARC
  5
2EF
  8
DATA
  6
CONTINUOUS
 62
     7
 10
-297.19999999989932
 20
91.839999999964604
 30
0.0
 40
1.3000000000000109
 50
90.000000000002487
 51
180.0
  0
ARC
  5
2F0
  8
DATA
  6
CONTINUOUS
 62
     7
 10
-238.69743276621719
 20
53.537432766281711
 30
0.0
 40
3.6040270130271139
 50
91.630804415366427
 51
178.36919558462239
  0
LINE
  5
2F1
  8
DATA
  6
CONTINUOUS
 62
     7
 10
-242.29999999989991
 20
53.639999999964488
 30
0.0
 11
-242.29999999989991
 21
50.939999999964513
 31
0.0
  0
ARC
  5
2F2
  8
DATA
  6
CONTINUOUS
 62
     7
 10
-243.59999999989981
 20
50.939999999964513
 30
0.0
 40
1.3000000000000109
 50
269.9999999999975
 51
0.0
  0
LINE
  5
2F3
  8
DATA
  6
CONTINUOUS
 62
     7
 10
-238.79999999989931
 20
57.139999999964367
 30
0.0
 11
-236.0999999998993
 21
57.139999999964367
 31
0.0
  0
ARC
  5
2F4
  8
DATA
  6
CONTINUOUS
 62
     7
 10
-236.0999999998993
 20
58.439999999964392
 30
0.0
 40
1.3000000000000109
 50
270.0000000000025
 51
0.0
  0
ARC
  5
2F5
  8
DATA
  6
CONTINUOUS
 62
     7
 10
-294.60256723358151
 20
53.537432766281711
 30
0.0
 40
3.6040270130272201
 50
1.6308044153776431
 51
88.369195584633616
  0
LINE
  5
2F6
  8
DATA
  6
CONTINUOUS
 62
     7
 10
-290.99999999989871
 20
53.639999999964488
 30
0.0
 11
-290.99999999989871
 21
50.939999999964513
 31
0.0
  0
ARC
  5
2F7
  8
DATA
  6
CONTINUOUS
 62
     7
 10
-289.69999999989881
 20
50.939999999964513
 30
0.0
 40
1.2999999999999541
 50
180.0
 51
270.0000000000025
  0
LINE
  5
2F8
  8
DATA
  6
CONTINUOUS
 62
     7
 10
-294.49999999989939
 20
57.139999999964367
 30
0.0
 11
-297.19999999989932
 21
57.139999999964367
 31
0.0
  0
ARC
  5
2F9
  8
DATA
  6
CONTINUOUS
 62
     7
 10
-297.19999999989932
 20
58.439999999964392
 30
0.0
 40
1.300000000000068
 50
180.0
 51
269.9999999999975
  0
LINE
  5
2FA
  8
DATA
  6
CONTINUOUS
 62
     7
 10
52.79000000010069
 20
75.139999999964488
 30
0.0
 11
55.200000000100772
 21
74.644135293156125
 31
0.0
  0
CIRCLE
  5
2FB
  8
DATA
  6
CONTINUOUS
 62
     7
 10
55.200000000100772
 20
74.644135293156125
 30
0.0
 40
0.5
  0
CIRCLE
  5
2FC
  8
DATA
  6
CONTINUOUS
 62
     7
 10
-224.5999999998995
 20
75.139999999964488
 30
0.0
 40
0.5
  0
LINE
  5
2FD
  8
DATA
  6
CONTINUOUS
 62
     7
 10
-223.3899999998992
 20
75.139999999964488
 30
0.0
 11
-224.5999999998995
 21
75.139999999964488
 31
0.0
  0
LINE
  5
2FE
  8
DATA
  6
CONTINUOUS
 62
     7
 10
38.000000000100492
 20
72.27999999996446
 30
0.0
 11
53.000000000100499
 21
72.27999999996446
 31
0.0
  0
LINE
  5
2FF
  8
DATA
  6
CONTINUOUS
 62
     7
 10
53.000000000100499
 20
76.27999999996446
 30
0.0
 11
53.000000000100499
 21
72.27999999996446
 31
0.0
  0
LINE
  5
300
  8
DATA
  6
CONTINUOUS
 62
     7
 10
38.000000000100492
 20
72.27999999996446
 30
0.0
 11
38.000000000100492
 21
73.999999999964444
 31
0.0
  0
LINE
  5
301
  8
DATA
  6
CONTINUOUS
 62
     7
 10
53.000000000100499
 20
76.27999999996446
 30
0.0
 11
51.200000000100772
 21
76.27999999996446
 31
0.0
  0
LINE
  5
302
  8
DATA
  6
CONTINUOUS
 62
     7
 10
-50.999999999899721
 20
72.27999999996446
 30
0.0
 11
-35.999999999899721
 21
72.27999999996446
 31
0.0
  0
LINE
  5
303
  8
DATA
  6
CONTINUOUS
 62
     7
 10
-50.999999999899721
 20
73.999999999964444
 30
0.0
 11
-50.999999999899721
 21
72.27999999996446
 31
0.0
  0
LINE
  5
304
  8
DATA
  6
CONTINUOUS
 62
     7
 10
-35.999999999899721
 20
73.999999999964444
 30
0.0
 11
-35.999999999899721
 21
72.27999999996446
 31
0.0
  0
LINE
  5
305
  8
DATA
  6
CONTINUOUS
 62
     7
 10
-126.9999999998996
 20
72.27999999996446
 30
0.0
 11
-141.99999999989959
 21
72.27999999996446
 31
0.0
  0
LINE
  5
306
  8
DATA
  6
CONTINUOUS
 62
     7
 10
-126.9999999998996
 20
72.27999999996446
 30
0.0
 11
-126.9999999998996
 21
73.999999999964444
 31
0.0
  0
LINE
  5
307
  8
DATA
  6
CONTINUOUS
 62
     7
 10
-141.99999999989959
 20
72.27999999996446
 30
0.0
 11
-141.99999999989959
 21
73.999999999964444
 31
0.0
  0
LINE
  5
308
  8
DATA
  6
CONTINUOUS
 62
     7
 10
-206.79999999989931
 20
73.999999999964444
 30
0.0
 11
-206.79999999989931
 21
72.27999999996446
 31
0.0
  0
LINE
  5
309
  8
DATA
  6
CONTINUOUS
 62
     7
 10
-221.79999999989931
 20
72.27999999996446
 30
0.0
 11
-221.79999999989931
 21
73.999999999964444
 31
0.0
  0
LINE
  5
30A
  8
DATA
  6
CONTINUOUS
 62
     7
 10
-206.79999999989931
 20
72.27999999996446
 30
0.0
 11
-221.79999999989931
 21
72.27999999996446
 31
0.0
  0
POLYLINE
  5
30B
  8
DATA
  6
CONTINUOUS
 62
     7
 66
     1
 10
0.0
 20
0.0
 30
0.0
 70
     1
  0
VERTEX
  5
5D8
  8
DATA
  6
CONTINUOUS
 62
     7
 10
50.000000000100499
 20
73.987403181607263
 30
0.0
  0
VERTEX
  5
5D9
  8
DATA
  6
CONTINUOUS
 62
     7
 10
53.000000000100499
 20
73.987403181607263
 30
0.0
  0
VERTEX
  5
5DA
  8
DATA
  6
CONTINUOUS
 62
     7
 10
53.000000000100499
 20
27.98740318160705
 30
0.0
  0
VERTEX
  5
5DB
  8
DATA
  6
CONTINUOUS
 62
     7
 10
50.000000000100499
 20
27.98740318160705
 30
0.0
  0
SEQEND
  5
5DC
  8
DATA
  6
CONTINUOUS
 62
     7
  0
LINE
  5
312
  8
DATA
  6
CONTINUOUS
 62
     7
 10
543.79999999982965
 20
52.639999999964431
 30
0.0
 11
543.79999999982965
 21
97.639999999964502
 31
0.0
  0
ARC
  5
313
  8
DATA
  6
CONTINUOUS
 62
     7
 10
546.79999999982965
 20
52.639999999964431
 30
0.0
 40
2.9999999999999432
 50
180.0
 51
270.00000000000108
  0
LINE
  5
314
  8
DATA
  6
CONTINUOUS
 62
     7
 10
604.4999999998297
 20
49.639999999964431
 30
0.0
 11
546.79999999982965
 21
49.639999999964431
 31
0.0
  0
ARC
  5
315
  8
DATA
  6
CONTINUOUS
 62
     7
 10
604.4999999998297
 20
52.639999999964459
 30
0.0
 40
3.000000000000028
 50
270.0
 51
359.99999999999949
  0
LINE
  5
316
  8
DATA
  6
CONTINUOUS
 62
     7
 10
607.4999999998297
 20
97.639999999964502
 30
0.0
 11
607.4999999998297
 21
52.639999999964431
 31
0.0
  0
ARC
  5
317
  8
DATA
  6
CONTINUOUS
 62
     7
 10
604.4999999998297
 20
97.639999999964502
 30
0.0
 40
2.9999999999999432
 50
0.0
 51
90.000000000001151
  0
LINE
  5
318
  8
DATA
  6
CONTINUOUS
 62
     7
 10
546.79999999982965
 20
100.6399999999645
 30
0.0
 11
604.4999999998297
 21
100.6399999999645
 31
0.0
  0
ARC
  5
319
  8
DATA
  6
CONTINUOUS
 62
     7
 10
546.79999999982965
 20
97.639999999964445
 30
0.0
 40
3.000000000000028
 50
90.0
 51
179.9999999999994
  0
LINE
  5
31A
  8
DATA
  6
CONTINUOUS
 62
     7
 10
603.93169566415486
 20
112.28445581769751
 30
0.0
 11
552.77844435913187
 21
123.8351899833478
 31
0.0
  0
LINE
  5
31B
  8
DATA
  6
CONTINUOUS
 62
     7
 10
608.9999999998297
 20
100.1399999999645
 30
0.0
 11
608.9999999998297
 21
50.139999999964402
 31
0.0
  0
ARC
  5
31C
  8
DATA
  6
CONTINUOUS
 62
     7
 10
602.49999999982958
 20
105.9440893042574
 30
0.0
 40
6.5
 50
0.0
 51
77.275644314577804
  0
ARC
  5
31D
  8
DATA
  6
CONTINUOUS
 62
     7
 10
602.49999999982958
 20
44.335910695671451
 30
0.0
 40
6.5000000000000604
 50
282.72435568542221
 51
0.0
  0
ARC
  5
31E
  8
DATA
  6
CONTINUOUS
 62
     7
 10
602.49999999982958
 20
105.9440893042574
 30
0.0
 40
6.5
 50
0.0
 51
77.275644314577804
  0
ARC
  5
31F
  8
DATA
  6
CONTINUOUS
 62
     7
 10
554.54053133060916
 20
131.63871799988951
 30
0.0
 40
7.9999999999999343
 50
184.2363947990589
 51
257.27564431457739
  0
ARC
  5
320
  8
DATA
  6
CONTINUOUS
 62
     7
 10
262.99999999982907
 20
118.54654800707181
 30
0.0
 40
13.000000000000091
 50
110.0547063201781
 51
180.0
  0
ARC
  5
321
  8
DATA
  6
CONTINUOUS
 62
     7
 10
554.54053133060916
 20
18.64128200003918
 30
0.0
 40
8.0000000000000977
 50
102.7243556854224
 51
175.76360520094099
  0
ARC
  5
322
  8
DATA
  6
CONTINUOUS
 62
     7
 10
262.99999999982907
 20
31.733451992856949
 30
0.0
 40
12.99999999999997
 50
180.0000000000002
 51
249.94529367982199
  0
LINE
  5
323
  8
DATA
  6
CONTINUOUS
 62
     7
 10
249.99999999982921
 20
31.733451992856889
 30
0.0
 11
249.99999999982921
 21
118.54654800707181
 31
0.0
  0
CIRCLE
  5
324
  8
DATA
  6
CONTINUOUS
 62
     7
 10
603.4999999998297
 20
96.639999999964544
 30
0.0
 40
3.2999999999999541
  0
CIRCLE
  5
325
  8
DATA
  6
CONTINUOUS
 62
     7
 10
547.79999999982977
 20
96.639999999964544
 30
0.0
 40
3.2999999999999541
  0
CIRCLE
  5
326
  8
DATA
  6
CONTINUOUS
 62
     7
 10
603.4999999998297
 20
53.639999999964459
 30
0.0
 40
3.2999999999999541
  0
CIRCLE
  5
327
  8
DATA
  6
CONTINUOUS
 62
     7
 10
547.79999999982977
 20
53.639999999964459
 30
0.0
 40
3.2999999999999541
  0
CIRCLE
  5
328
  8
DATA
  6
CONTINUOUS
 62
     7
 10
253.79999999982891
 20
74.644135293156125
 30
0.0
 40
0.5
  0
CIRCLE
  5
329
  8
DATA
  6
CONTINUOUS
 62
     7
 10
533.59999999982972
 20
75.139999999964488
 30
0.0
 40
0.5
  0
LINE
  5
32A
  8
DATA
  6
CONTINUOUS
 62
     7
 10
270.99999999982941
 20
72.27999999996446
 30
0.0
 11
255.9999999998291
 21
72.27999999996446
 31
0.0
  0
LINE
  5
32B
  8
DATA
  6
CONTINUOUS
 62
     7
 10
255.9999999998291
 20
76.27999999996446
 30
0.0
 11
257.7999999998288
 21
76.27999999996446
 31
0.0
  0
LINE
  5
32C
  8
DATA
  6
CONTINUOUS
 62
     7
 10
515.79999999982965
 20
72.27999999996446
 30
0.0
 11
528.49999999982992
 21
72.27999999996446
 31
0.0
  0
LINE
  5
32D
  8
DATA
  6
CONTINUOUS
 62
     7
 10
255.9999999998291
 20
76.288221514211045
 30
0.0
 11
255.9999999998291
 21
122.288221514211
 31
0.0
  0
LINE
  5
32E
  8
DATA
  6
CONTINUOUS
 62
     7
 10
258.99999999982907
 20
76.288221514211045
 30
0.0
 11
255.9999999998291
 21
76.288221514211045
 31
0.0
  0
LINE
  5
32F
  8
DATA
  6
CONTINUOUS
 62
     7
 10
258.99999999982907
 20
122.288221514211
 30
0.0
 11
258.99999999982907
 21
76.288221514211045
 31
0.0
  0
LINE
  5
330
  8
DATA
  6
CONTINUOUS
 62
     7
 10
255.9999999998291
 20
122.288221514211
 30
0.0
 11
258.99999999982907
 21
122.288221514211
 31
0.0
  0
CIRCLE
  5
331
  8
DATA
  6
CONTINUOUS
 62
     7
 10
164.1204918114687
 20
37.139999999964367
 30
0.0
 40
0.9949999999999905
  0
LINE
  5
332
  8
DATA
  6
CONTINUOUS
 62
     7
 10
156.3204918114688
 20
46.639999999964367
 30
0.0
 11
156.3204918114688
 21
49.639999999964367
 31
0.0
  0
LINE
  5
333
  8
DATA
  6
CONTINUOUS
 62
     7
 10
171.92049181146871
 20
46.639999999964367
 30
0.0
 11
156.3204918114688
 21
46.639999999964367
 31
0.0
  0
LINE
  5
334
  8
DATA
  6
CONTINUOUS
 62
     7
 10
171.92049181146871
 20
49.639999999964367
 30
0.0
 11
171.92049181146871
 21
46.639999999964367
 31
0.0
  0
LINE
  5
335
  8
DATA
  6
CONTINUOUS
 62
     7
 10
159.29049181146871
 20
32.639999999964381
 30
0.0
 11
168.95049181146871
 21
32.639999999964381
 31
0.0
  0
LINE
  5
336
  8
DATA
  6
CONTINUOUS
 62
     7
 10
158.1454918114689
 20
43.639999999964367
 30
0.0
 11
170.09549181146869
 21
43.639999999964367
 31
0.0
  0
LINE
  5
337
  8
DATA
  6
CONTINUOUS
 62
     7
 10
158.1454918114689
 20
46.639999999964367
 30
0.0
 11
158.1454918114689
 21
43.639999999964367
 31
0.0
  0
LINE
  5
338
  8
DATA
  6
CONTINUOUS
 62
     7
 10
170.09549181146869
 20
46.639999999964367
 30
0.0
 11
170.09549181146869
 21
43.639999999964367
 31
0.0
  0
LINE
  5
339
  8
DATA
  6
CONTINUOUS
 62
     7
 10
159.29049181146871
 20
32.639999999964381
 30
0.0
 11
159.29049181146871
 21
43.639999999964367
 31
0.0
  0
LINE
  5
33A
  8
DATA
  6
CONTINUOUS
 62
     7
 10
168.95049181146871
 20
32.639999999964381
 30
0.0
 11
168.95049181146871
 21
43.639999999964367
 31
0.0
  0
LINE
  5
33B
  8
DATA
  6
CONTINUOUS
 62
     7
 10
158.1454918114689
 20
45.896673581948271
 30
0.0
 11
166.32049181146891
 21
46.639999999964367
 31
0.0
  0
LINE
  5
33C
  8
DATA
  6
CONTINUOUS
 62
     7
 10
158.1454918114689
 20
44.596673581948259
 30
0.0
 11
170.09549181146869
 21
45.626378797367749
 31
0.0
  0
LINE
  5
33D
  8
DATA
  6
CONTINUOUS
 62
     7
 10
170.09549181146869
 20
44.326378797367802
 30
0.0
 11
162.12988524160301
 21
43.639999999964367
 31
0.0
  0
LINE
  5
33E
  8
DATA
  6
CONTINUOUS
 62
     7
 10
160.0704918114688
 20
48.439999999964641
 30
0.0
 11
158.07049181146871
 21
49.139999999964381
 31
0.0
  0
LINE
  5
33F
  8
DATA
  6
CONTINUOUS
 62
     7
 10
161.92049181146859
 20
49.139999999964381
 30
0.0
 11
160.0704918114688
 21
48.439999999964641
 31
0.0
  0
LINE
  5
340
  8
DATA
  6
CONTINUOUS
 62
     7
 10
160.0704918114688
 20
47.3399999999641
 30
0.0
 11
161.92049181146859
 21
46.639999999964367
 31
0.0
  0
LINE
  5
341
  8
DATA
  6
CONTINUOUS
 62
     7
 10
158.07049181146871
 20
46.639999999964367
 30
0.0
 11
160.0704918114688
 21
47.3399999999641
 31
0.0
  0
LINE
  5
342
  8
DATA
  6
CONTINUOUS
 62
     7
 10
168.17049181146871
 20
48.439999999964641
 30
0.0
 11
166.32049181146891
 21
49.139999999964381
 31
0.0
  0
LINE
  5
343
  8
DATA
  6
CONTINUOUS
 62
     7
 10
170.17049181146891
 20
49.139999999964381
 30
0.0
 11
168.17049181146871
 21
48.439999999964641
 31
0.0
  0
LINE
  5
344
  8
DATA
  6
CONTINUOUS
 62
     7
 10
168.17049181146871
 20
47.3399999999641
 30
0.0
 11
166.32049181146891
 21
46.639999999964367
 31
0.0
  0
LINE
  5
345
  8
DATA
  6
CONTINUOUS
 62
     7
 10
170.17049181146891
 20
46.639999999964367
 30
0.0
 11
168.17049181146871
 21
47.3399999999641
 31
0.0
  0
LINE
  5
346
  8
DATA
  6
CONTINUOUS
 62
     7
 10
156.3204918114688
 20
49.139999999964381
 30
0.0
 11
171.92049181146871
 21
49.139999999964381
 31
0.0
  0
LINE
  5
347
  8
DATA
  6
CONTINUOUS
 62
     7
 10
160.0704918114688
 20
47.3399999999641
 30
0.0
 11
160.0704918114688
 21
48.439999999964641
 31
0.0
  0
LINE
  5
348
  8
DATA
  6
CONTINUOUS
 62
     7
 10
168.17049181146871
 20
47.3399999999641
 30
0.0
 11
168.17049181146871
 21
48.439999999964641
 31
0.0
  0
LINE
  5
349
  8
DATA
  6
CONTINUOUS
 62
     7
 10
606.99999999982958
 20
102.1399999999645
 30
0.0
 11
544.69999999982974
 21
102.1399999999645
 31
0.0
  0
LINE
  5
34A
  8
DATA
  6
CONTINUOUS
 62
     7
 10
606.99999999982958
 20
48.139999999964402
 30
0.0
 11
544.52734426520021
 21
48.139999999964402
 31
0.0
  0
LINE
  5
34B
  8
DATA
  6
CONTINUOUS
 62
     7
 10
542.69999999982974
 20
100.1399999999645
 30
0.0
 11
542.69999999982974
 21
82.753074471200364
 31
0.0
  0
LINE
  5
34C
  8
DATA
  6
CONTINUOUS
 62
     7
 10
542.5273442652001
 20
50.139999999964402
 30
0.0
 11
542.5273442652001
 21
68.025955726022033
 31
0.0
  0
LINE
  5
34D
  8
DATA
  6
CONTINUOUS
 62
     7
 10
530.26696767529688
 20
77.202733496029069
 30
0.0
 11
542.69999999982974
 21
82.753074471200364
 31
0.0
  0
LINE
  5
34E
  8
DATA
  6
CONTINUOUS
 62
     7
 10
542.5273442652001
 20
68.025955726022033
 30
0.0
 11
530.26696767529688
 21
71.744135293156162
 31
0.0
  0
LINE
  5
34F
  8
DATA
  6
CONTINUOUS
 62
     7
 10
149.9999999997309
 20
-82.860000000035939
 30
0.0
 11
149.9999999997309
 21
233.13999999996449
 31
0.0
  0
LINE
  5
350
  8
DATA
  6
CONTINUOUS
 62
     7
 10
151.66999999973089
 20
-82.860000000035939
 30
0.0
 11
149.9999999997309
 21
-82.860000000035939
 31
0.0
  0
LINE
  5
351
  8
DATA
  6
CONTINUOUS
 62
     7
 10
151.66999999973089
 20
233.13999999996449
 30
0.0
 11
151.66999999973089
 21
-82.860000000035939
 31
0.0
  0
LINE
  5
352
  8
DATA
  6
CONTINUOUS
 62
     7
 10
149.9999999997309
 20
233.13999999996449
 30
0.0
 11
151.66999999973089
 21
233.13999999996449
 31
0.0
  0
LINE
  5
353
  8
DATA
  6
CONTINUOUS
 62
     7
 10
174.66999999973081
 20
49.639999999964431
 30
0.0
 11
174.66999999973081
 21
100.6399999999645
 31
0.0
  0
LINE
  5
354
  8
DATA
  6
CONTINUOUS
 62
     7
 10
174.66999999973081
 20
100.6399999999645
 30
0.0
 11
151.66999999973089
 21
100.6399999999645
 31
0.0
  0
LINE
  5
355
  8
DATA
  6
CONTINUOUS
 62
     7
 10
174.66999999973081
 20
49.639999999964431
 30
0.0
 11
151.66999999973089
 21
49.639999999964431
 31
0.0
  0
LINE
  5
356
  8
DATA
  6
CONTINUOUS
 62
     7
 10
143.9999999997309
 20
49.639999999964431
 30
0.0
 11
143.9999999997309
 21
100.6399999999645
 31
0.0
  0
LINE
  5
357
  8
DATA
  6
CONTINUOUS
 62
     7
 10
143.9999999997309
 20
100.6399999999645
 30
0.0
 11
149.9999999997309
 21
100.6399999999645
 31
0.0
  0
LINE
  5
358
  8
DATA
  6
CONTINUOUS
 62
     7
 10
143.9999999997309
 20
49.639999999964431
 30
0.0
 11
149.9999999997309
 21
49.639999999964431
 31
0.0
  0
LINE
  5
359
  8
DATA
  6
CONTINUOUS
 62
     7
 10
172.9699999997309
 20
100.6399999999645
 30
0.0
 11
172.9699999997309
 21
49.639999999964431
 31
0.0
  0
LINE
  5
35A
  8
DATA
  6
CONTINUOUS
 62
     7
 10
145.69999999973081
 20
100.6399999999645
 30
0.0
 11
145.69999999973081
 21
49.639999999964431
 31
0.0
  0
LINE
  5
35B
  8
DATA
  6
CONTINUOUS
 62
     7
 10
152.56999999973101
 20
100.6399999999645
 30
0.0
 11
152.56999999973101
 21
49.639999999964431
 31
0.0
  0
LINE
  5
35C
  8
DATA
  6
CONTINUOUS
 62
     7
 10
149.0999999997309
 20
49.639999999964431
 30
0.0
 11
149.0999999997309
 21
100.6399999999645
 31
0.0
  0
ARC
  5
35D
  8
DATA
  6
CONTINUOUS
 62
     7
 10
171.64359311713949
 20
96.639999999964544
 30
0.0
 40
5.0264068825912833
 50
318.96403747458231
 51
41.035962525417638
  0
LINE
  5
35E
  8
DATA
  6
CONTINUOUS
 62
     7
 10
175.43499999973091
 20
99.939999999964499
 30
0.0
 11
174.66999999973081
 21
99.939999999964499
 31
0.0
  0
LINE
  5
35F
  8
DATA
  6
CONTINUOUS
 62
     7
 10
175.43499999973091
 20
93.339999999964519
 30
0.0
 11
174.66999999973081
 21
93.339999999964519
 31
0.0
  0
ARC
  5
360
  8
DATA
  6
CONTINUOUS
 62
     7
 10
171.63615616159919
 20
53.636259530971927
 30
0.0
 40
5.0264068825912833
 50
318.96403747458231
 51
41.035962525417638
  0
LINE
  5
361
  8
DATA
  6
CONTINUOUS
 62
     7
 10
175.42756304419061
 20
56.93625953097191
 30
0.0
 11
174.66256304419051
 21
56.93625953097191
 31
0.0
  0
LINE
  5
362
  8
DATA
  6
CONTINUOUS
 62
     7
 10
175.42756304419061
 20
50.33625953097193
 30
0.0
 11
174.66256304419051
 21
50.33625953097193
 31
0.0
  0
ARC
  5
363
  8
DATA
  6
CONTINUOUS
 62
     7
 10
147.02164497074281
 20
53.630787965851312
 30
0.0
 40
5.0264068825913037
 50
138.96403747458251
 51
221.03596252541749
  0
LINE
  5
364
  8
DATA
  6
CONTINUOUS
 62
     7
 10
143.2302380881514
 20
50.330787965851329
 30
0.0
 11
143.9952380881515
 21
50.330787965851329
 31
0.0
  0
LINE
  5
365
  8
DATA
  6
CONTINUOUS
 62
     7
 10
143.2302380881514
 20
56.930787965851302
 30
0.0
 11
143.9952380881515
 21
56.930787965851302
 31
0.0
  0
ARC
  5
366
  8
DATA
  6
CONTINUOUS
 62
     7
 10
147.032018493305
 20
96.634233346407541
 30
0.0
 40
5.0264068825913037
 50
138.96403747458251
 51
221.03596252541749
  0
LINE
  5
367
  8
DATA
  6
CONTINUOUS
 62
     7
 10
143.24061161071359
 20
93.334233346407572
 30
0.0
 11
144.00561161071369
 21
93.334233346407572
 31
0.0
  0
LINE
  5
368
  8
DATA
  6
CONTINUOUS
 62
     7
 10
143.24061161071359
 20
99.934233346407524
 30
0.0
 11
144.00561161071369
 21
99.934233346407524
 31
0.0
  0
POLYLINE
  5
369
  8
DATA
  6
CONTINUOUS
 62
     7
 66
     1
 10
0.0
 20
0.0
 30
0.0
 70
     1
  0
VERTEX
  5
5DD
  8
DATA
  6
CONTINUOUS
 62
     7
 10
148.4999999997309
 20
-58.600000000034179
 30
0.0
  0
VERTEX
  5
5DE
  8
DATA
  6
CONTINUOUS
 62
     7
 10
148.4999999997309
 20
-82.860000000035939
 30
0.0
  0
VERTEX
  5
5DF
  8
DATA
  6
CONTINUOUS
 62
     7
 10
149.9999999997309
 20
-82.860000000035939
 30
0.0
  0
VERTEX
  5
5E0
  8
DATA
  6
CONTINUOUS
 62
     7
 10
149.9999999997309
 20
-58.600000000034179
 30
0.0
  0
SEQEND
  5
5E1
  8
DATA
  6
CONTINUOUS
 62
     7
  0
POLYLINE
  5
370
  8
DATA
  6
CONTINUOUS
 62
     7
 66
     1
 10
0.0
 20
0.0
 30
0.0
 70
     1
  0
VERTEX
  5
5E2
  8
DATA
  6
CONTINUOUS
 62
     7
 10
151.66999999973089
 20
-58.600000000034179
 30
0.0
  0
VERTEX
  5
5E3
  8
DATA
  6
CONTINUOUS
 62
     7
 10
151.66999999973089
 20
-82.860000000035939
 30
0.0
  0
VERTEX
  5
5E4
  8
DATA
  6
CONTINUOUS
 62
     7
 10
154.169999999731
 20
-82.860000000035939
 30
0.0
  0
VERTEX
  5
5E5
  8
DATA
  6
CONTINUOUS
 62
     7
 10
154.169999999731
 20
-58.600000000034179
 30
0.0
  0
SEQEND
  5
5E6
  8
DATA
  6
CONTINUOUS
 62
     7
  0
LINE
  5
377
  8
DATA
  6
CONTINUOUS
 62
     7
 10
149.9999999997309
 20
-82.860000000035939
 30
0.0
 11
148.4999999997309
 21
-82.860000000035939
 31
0.0
  0
LINE
  5
378
  8
DATA
  6
CONTINUOUS
 62
     7
 10
151.66999999973089
 20
-82.860000000035939
 30
0.0
 11
154.169999999731
 21
-82.860000000035939
 31
0.0
  0
ARC
  5
379
  8
DATA
  6
CONTINUOUS
 62
     7
 10
151.33499999973091
 20
-85.116668144917654
 30
0.0
 40
3.551533039485776
 50
217.03698817284621
 51
322.96301182715348
  0
LINE
  5
37A
  8
DATA
  6
CONTINUOUS
 62
     7
 10
154.169999999731
 20
-87.255864706844292
 30
0.0
 11
154.169999999731
 21
-82.860000000035939
 31
0.0
  0
LINE
  5
37B
  8
DATA
  6
CONTINUOUS
 62
     7
 10
148.4999999997309
 20
-87.255864706844292
 30
0.0
 11
148.4999999997309
 21
-82.860000000035939
 31
0.0
  0
LINE
  5
37C
  8
DATA
  6
CONTINUOUS
 62
     7
 10
164.63499999973101
 20
-100.000000000036
 30
0.0
 11
163.83499999973091
 21
-88.63282896754265
 31
0.0
  0
LINE
  5
37D
  8
DATA
  6
CONTINUOUS
 62
     7
 10
137.0349999997309
 20
-100.000000000036
 30
0.0
 11
137.83499999973091
 21
-88.63282896754265
 31
0.0
  0
LINE
  5
37E
  8
DATA
  6
CONTINUOUS
 62
     7
 10
154.169999999731
 20
-60.000434945661652
 30
0.0
 11
159.169999999731
 21
-63.750434945661652
 31
0.0
  0
LINE
  5
37F
  8
DATA
  6
CONTINUOUS
 62
     7
 10
148.4999999997309
 20
-60.000434945661652
 30
0.0
 11
143.4999999997309
 21
-63.750434945661652
 31
0.0
  0
LINE
  5
380
  8
DATA
  6
CONTINUOUS
 62
     7
 10
142.4999999997309
 20
-65.750434945661652
 30
0.0
 11
142.4999999997309
 21
-74.971780181192983
 31
0.0
  0
LINE
  5
381
  8
DATA
  6
CONTINUOUS
 62
     7
 10
140.1216205228026
 20
-84.431087245711865
 30
0.0
 11
137.83030425600731
 21
-88.699550620080785
 31
0.0
  0
LINE
  5
382
  8
DATA
  6
CONTINUOUS
 62
     7
 10
160.169999999731
 20
-65.750434945661652
 30
0.0
 11
160.169999999731
 21
-75.954593629110704
 31
0.0
  0
LINE
  5
383
  8
DATA
  6
CONTINUOUS
 62
     7
 10
161.74253191877079
 20
-83.728165531730198
 30
0.0
 11
163.83969574345451
 21
-88.699550620080785
 31
0.0
  0
ARC
  5
384
  8
DATA
  6
CONTINUOUS
 62
     7
 10
157.66999999973089
 20
-65.750434945661652
 30
0.0
 40
2.5
 50
0.0
 51
53.130102354156008
  0
ARC
  5
385
  8
DATA
  6
CONTINUOUS
 62
     7
 10
144.9999999997309
 20
-65.750434945661652
 30
0.0
 40
2.499999999999992
 50
126.86989764584381
 51
180.0
  0
ARC
  5
386
  8
DATA
  6
CONTINUOUS
 62
     7
 10
180.16999999973081
 20
-75.954593629110704
 30
0.0
 40
19.999999999999851
 50
180.0
 51
202.8723026892994
  0
ARC
  5
387
  8
DATA
  6
CONTINUOUS
 62
     7
 10
122.4999999997309
 20
-74.971780181192884
 30
0.0
 40
20.00000000000005
 50
331.77304315495218
 51
359.99999999999977
  0
POLYLINE
  5
388
  8
DATA
  6
CONTINUOUS
 62
     7
 66
     1
 10
0.0
 20
0.0
 30
0.0
 70
     1
  0
VERTEX
  5
5E7
  8
DATA
  6
CONTINUOUS
 62
     7
 10
147.93499999973091
 20
-97.200000000036013
 30
0.0
  0
VERTEX
  5
5E8
  8
DATA
  6
CONTINUOUS
 62
     7
 10
153.73499999973089
 20
-97.200000000036013
 30
0.0
  0
VERTEX
  5
5E9
  8
DATA
  6
CONTINUOUS
 62
     7
 10
153.73499999973089
 20
-100.000000000036
 30
0.0
  0
VERTEX
  5
5EA
  8
DATA
  6
CONTINUOUS
 62
     7
 10
147.93499999973091
 20
-100.000000000036
 30
0.0
  0
SEQEND
  5
5EB
  8
DATA
  6
CONTINUOUS
 62
     7
  0
ARC
  5
38F
  8
DATA
  6
CONTINUOUS
 62
     7
 10
148.51555627902511
 20
-71.269771978558765
 30
0.0
 40
12.91945885026235
 50
334.6208847472472
 51
25.57337577776741
  0
ARC
  5
390
  8
DATA
  6
CONTINUOUS
 62
     7
 10
154.8463447801569
 20
-71.250000000035811
 30
0.0
 40
13.616344780425971
 50
155.91309514024471
 51
204.08690485975529
  0
LINE
  5
391
  8
DATA
  6
CONTINUOUS
 62
     7
 10
137.0349999997309
 20
-100.000000000036
 30
0.0
 11
164.63499999973101
 21
-100.000000000036
 31
0.0
  0
LINE
  5
392
  8
DATA
  6
CONTINUOUS
 62
     7
 10
-299.99999999989939
 20
404.1700000003608
 30
0.0
 11
-299.99999999989939
 21
402.50000000036079
 31
0.0
  0
LINE
  5
393
  8
DATA
  6
CONTINUOUS
 62
     7
 10
59.00000000010052
 20
404.1700000003608
 30
0.0
 11
-299.99999999989939
 21
404.1700000003608
 31
0.0
  0
LINE
  5
394
  8
DATA
  6
CONTINUOUS
 62
     7
 10
59.00000000010052
 20
402.50000000036079
 30
0.0
 11
59.00000000010052
 21
404.1700000003608
 31
0.0
  0
LINE
  5
395
  8
DATA
  6
CONTINUOUS
 62
     7
 10
-299.99999999989939
 20
402.50000000036079
 30
0.0
 11
59.00000000010052
 21
402.50000000036079
 31
0.0
  0
LINE
  5
396
  8
DATA
  6
CONTINUOUS
 62
     7
 10
-234.90271151650231
 20
379.5000000003609
 30
0.0
 11
-234.90271151650231
 21
402.50000000036079
 31
0.0
  0
LINE
  5
397
  8
DATA
  6
CONTINUOUS
 62
     7
 10
-298.47943101858812
 20
379.5000000003609
 30
0.0
 11
-298.47943101858812
 21
402.50000000036079
 31
0.0
  0
LINE
  5
398
  8
DATA
  6
CONTINUOUS
 62
     7
 10
-234.90271151650231
 20
410.1700000003608
 30
0.0
 11
-234.90271151650231
 21
404.1700000003608
 31
0.0
  0
LINE
  5
399
  8
DATA
  6
CONTINUOUS
 62
     7
 10
-298.47943101858812
 20
410.1700000003608
 30
0.0
 11
-298.47943101858812
 21
404.1700000003608
 31
0.0
  0
ARC
  5
39A
  8
DATA
  6
CONTINUOUS
 62
     7
 10
-238.90271151650231
 20
382.52640688295219
 30
0.0
 40
5.0264068825913233
 50
228.9640374745824
 51
311.0359625254178
  0
LINE
  5
39B
  8
DATA
  6
CONTINUOUS
 62
     7
 10
-235.6027115165023
 20
378.73500000036091
 30
0.0
 11
-235.6027115165023
 21
379.5000000003609
 31
0.0
  0
LINE
  5
39C
  8
DATA
  6
CONTINUOUS
 62
     7
 10
-242.20271151650229
 20
378.73500000036091
 30
0.0
 11
-242.20271151650229
 21
379.5000000003609
 31
0.0
  0
ARC
  5
39D
  8
DATA
  6
CONTINUOUS
 62
     7
 10
-294.48317148758048
 20
382.5338438384926
 30
0.0
 40
5.0264068825913233
 50
228.9640374745824
 51
311.0359625254178
  0
LINE
  5
39E
  8
DATA
  6
CONTINUOUS
 62
     7
 10
-291.18317148758052
 20
378.74243695590121
 30
0.0
 11
-291.18317148758052
 21
379.50743695590131
 31
0.0
  0
LINE
  5
39F
  8
DATA
  6
CONTINUOUS
 62
     7
 10
-297.78317148758049
 20
378.74243695590121
 30
0.0
 11
-297.78317148758049
 21
379.50743695590131
 31
0.0
  0
ARC
  5
3A0
  8
DATA
  6
CONTINUOUS
 62
     7
 10
-294.48864305270109
 20
407.14835502934892
 30
0.0
 40
5.0264068825913233
 50
48.964037474582298
 51
131.03596252541769
  0
LINE
  5
3A1
  8
DATA
  6
CONTINUOUS
 62
     7
 10
-297.7886430527011
 20
410.93976191194042
 30
0.0
 11
-297.7886430527011
 21
410.17476191194038
 31
0.0
  0
LINE
  5
3A2
  8
DATA
  6
CONTINUOUS
 62
     7
 10
-291.18864305270108
 20
410.93976191194042
 30
0.0
 11
-291.18864305270108
 21
410.17476191194038
 31
0.0
  0
ARC
  5
3A3
  8
DATA
  6
CONTINUOUS
 62
     7
 10
-238.90847817005931
 20
407.1379815067869
 30
0.0
 40
5.0264068825913233
 50
48.964037474582298
 51
131.03596252541769
  0
LINE
  5
3A4
  8
DATA
  6
CONTINUOUS
 62
     7
 10
-242.20847817005929
 20
410.92938838937829
 30
0.0
 11
-242.20847817005929
 21
410.16438838937819
 31
0.0
  0
LINE
  5
3A5
  8
DATA
  6
CONTINUOUS
 62
     7
 10
-235.60847817005919
 20
410.92938838937829
 30
0.0
 11
-235.60847817005919
 21
410.16438838937819
 31
0.0
  0
LINE
  5
3A6
  8
DATA
  6
CONTINUOUS
 62
     7
 10
-167.7499999998995
 20
406.53500000036092
 30
0.0
 11
-165.47385935554061
 21
406.53500000036092
 31
0.0
  0
ARC
  5
3A7
  8
DATA
  6
CONTINUOUS
 62
     7
 10
-152.03846375921111
 20
403.32039048408632
 30
0.0
 40
13.81461433308912
 50
3.5259600822561339
 51
166.5441341829376
  0
POLYLINE
  5
3A8
  8
DATA
  6
CONTINUOUS
 62
     7
 66
     1
 10
0.0
 20
0.0
 30
0.0
 70
   128
  0
VERTEX
  5
5EC
  8
DATA
  6
CONTINUOUS
 62
     7
 10
-151.91416573264581
 20
389.53367027787021
 30
0.0
 42
0.3417441190047342
  0
VERTEX
  5
5ED
  8
DATA
  6
CONTINUOUS
 62
     7
 10
-138.24999999989959
 20
400.00000000036079
 30
0.0
  0
SEQEND
  5
5EE
  8
DATA
  6
CONTINUOUS
 62
     7
  0
POLYLINE
  5
3AC
  8
DATA
  6
CONTINUOUS
 62
     7
 66
     1
 10
0.0
 20
0.0
 30
0.0
 70
   128
  0
VERTEX
  5
5EF
  8
DATA
  6
CONTINUOUS
 62
     7
 10
-163.92999999989939
 20
400.12734417867279
 30
0.0
  0
VERTEX
  5
5F0
  8
DATA
  6
CONTINUOUS
 62
     7
 10
-163.92999999989939
 20
400.00000000036079
 30
0.0
  0
VERTEX
  5
5F1
  8
DATA
  6
CONTINUOUS
 62
     7
 10
-164.54999999989951
 20
400.00000000036079
 30
0.0
  0
VERTEX
  5
5F2
  8
DATA
  6
CONTINUOUS
 62
     7
 10
-164.6399999998994
 20
400.00000000036079
 30
0.0
  0
VERTEX
  5
5F3
  8
DATA
  6
CONTINUOUS
 62
     7
 10
-164.7999999998994
 20
400.00000000036079
 30
0.0
  0
VERTEX
  5
5F4
  8
DATA
  6
CONTINUOUS
 62
     7
 10
-164.8599999998994
 20
400.00000000036079
 30
0.0
  0
VERTEX
  5
5F5
  8
DATA
  6
CONTINUOUS
 62
     7
 10
-165.02999999989939
 20
400.00000000036079
 30
0.0
  0
VERTEX
  5
5F6
  8
DATA
  6
CONTINUOUS
 62
     7
 10
-165.21999999989939
 20
400.00000000036079
 30
0.0
  0
VERTEX
  5
5F7
  8
DATA
  6
CONTINUOUS
 62
     7
 10
-165.2399999998994
 20
400.00000000036079
 30
0.0
  0
VERTEX
  5
5F8
  8
DATA
  6
CONTINUOUS
 62
     7
 10
-165.43885823675009
 20
400.00000000036079
 30
0.0
  0
VERTEX
  5
5F9
  8
DATA
  6
CONTINUOUS
 62
     7
 10
-165.43885823675009
 20
400.00000000036079
 30
0.0
 42
0.3389777239234681
  0
VERTEX
  5
5FA
  8
DATA
  6
CONTINUOUS
 62
     7
 10
-151.91416573264581
 20
389.53367027787021
 30
0.0
  0
SEQEND
  5
5FB
  8
DATA
  6
CONTINUOUS
 62
     7
  0
LINE
  5
3BA
  8
DATA
  6
CONTINUOUS
 62
     7
 10
-167.7499999998995
 20
406.53500000036092
 30
0.0
 11
-167.7499999998995
 21
404.1700000003608
 31
0.0
  0
LINE
  5
3BB
  8
DATA
  6
CONTINUOUS
 62
     7
 10
-164.54999999989951
 20
404.1700000003608
 30
0.0
 11
-164.54999999989951
 21
406.1700000003608
 31
0.0
  0
LINE
  5
3BC
  8
DATA
  6
CONTINUOUS
 62
     7
 10
-139.5499999998996
 20
406.1700000003608
 30
0.0
 11
-139.5499999998996
 21
404.1700000003608
 31
0.0
  0
LINE
  5
3BD
  8
DATA
  6
CONTINUOUS
 62
     7
 10
-164.54999999989951
 20
406.1700000003608
 30
0.0
 11
-139.5499999998996
 21
406.1700000003608
 31
0.0
  0
LINE
  5
3BE
  8
DATA
  6
CONTINUOUS
 62
     7
 10
59.00000000010052
 20
-248.32999999975371
 30
0.0
 11
-138.32537705425921
 21
-248.32999999975371
 31
0.0
  0
LINE
  5
3BF
  8
DATA
  6
CONTINUOUS
 62
     7
 10
59.00000000010052
 20
-249.99999999975361
 30
0.0
 11
59.00000000010052
 21
-248.32999999975371
 31
0.0
  0
LINE
  5
3C0
  8
DATA
  6
CONTINUOUS
 62
     7
 10
-138.32537705425921
 20
-249.99999999975361
 30
0.0
 11
59.00000000010052
 21
-249.99999999975361
 31
0.0
  0
POLYLINE
  5
3C1
  8
DATA
  6
CONTINUOUS
 62
     7
 66
     1
 10
0.0
 20
0.0
 30
0.0
  0
VERTEX
  5
5FC
  8
DATA
  6
CONTINUOUS
 62
     7
 10
-167.79999999989951
 20
-249.99999999975361
 30
0.0
  0
VERTEX
  5
5FD
  8
DATA
  6
CONTINUOUS
 62
     7
 10
-299.99999999989939
 20
-249.99999999975361
 30
0.0
  0
VERTEX
  5
5FE
  8
DATA
  6
CONTINUOUS
 62
     7
 10
-299.99999999989939
 20
-248.32999999975371
 30
0.0
  0
VERTEX
  5
5FF
  8
DATA
  6
CONTINUOUS
 62
     7
 10
-167.79999999989951
 20
-248.32999999975371
 30
0.0
  0
SEQEND
  5
600
  8
DATA
  6
CONTINUOUS
 62
     7
  0
LINE
  5
3C8
  8
DATA
  6
CONTINUOUS
 62
     7
 10
-234.90271151650231
 20
-225.32999999975399
 30
0.0
 11
-234.90271151650231
 21
-248.32999999975371
 31
0.0
  0
LINE
  5
3C9
  8
DATA
  6
CONTINUOUS
 62
     7
 10
-298.47943101858812
 20
-225.32999999975399
 30
0.0
 11
-298.47943101858812
 21
-248.32999999975371
 31
0.0
  0
LINE
  5
3CA
  8
DATA
  6
CONTINUOUS
 62
     7
 10
-234.90271151650231
 20
-255.9999999997535
 30
0.0
 11
-234.90271151650231
 21
-249.99999999975361
 31
0.0
  0
LINE
  5
3CB
  8
DATA
  6
CONTINUOUS
 62
     7
 10
-298.47943101858812
 20
-255.9999999997535
 30
0.0
 11
-298.47943101858812
 21
-249.99999999975361
 31
0.0
  0
LINE
  5
3CC
  8
DATA
  6
CONTINUOUS
 62
     7
 10
-234.90271151650231
 20
-247.42999999975359
 30
0.0
 11
-254.4232804978148
 21
-247.42999999975359
 31
0.0
  0
LINE
  5
3CD
  8
DATA
  6
CONTINUOUS
 62
     7
 10
-276.4999999998995
 20
-247.42999999975359
 30
0.0
 11
-298.47943101858812
 21
-247.42999999975359
 31
0.0
  0
LINE
  5
3CE
  8
DATA
  6
CONTINUOUS
 62
     7
 10
-298.47943101858812
 20
-250.8999999997537
 30
0.0
 11
-276.4999999998995
 21
-250.8999999997537
 31
0.0
  0
LINE
  5
3CF
  8
DATA
  6
CONTINUOUS
 62
     7
 10
-254.4232804978148
 20
-250.8999999997537
 30
0.0
 11
-234.90271151650231
 21
-250.8999999997537
 31
0.0
  0
ARC
  5
3D0
  8
DATA
  6
CONTINUOUS
 62
     7
 10
-238.90271151650231
 20
-228.35640688234531
 30
0.0
 40
5.0264068825913233
 50
48.964037474582298
 51
131.03596252541769
  0
LINE
  5
3D1
  8
DATA
  6
CONTINUOUS
 62
     7
 10
-235.6027115165023
 20
-224.56499999975389
 30
0.0
 11
-235.6027115165023
 21
-225.32999999975399
 31
0.0
  0
LINE
  5
3D2
  8
DATA
  6
CONTINUOUS
 62
     7
 10
-242.20271151650229
 20
-224.56499999975389
 30
0.0
 11
-242.20271151650229
 21
-225.32999999975399
 31
0.0
  0
ARC
  5
3D3
  8
DATA
  6
CONTINUOUS
 62
     7
 10
-294.48317148758048
 20
-228.3638438378857
 30
0.0
 40
5.0264068825913233
 50
48.964037474582298
 51
131.03596252541769
  0
LINE
  5
3D4
  8
DATA
  6
CONTINUOUS
 62
     7
 10
-291.18317148758052
 20
-224.57243695529431
 30
0.0
 11
-291.18317148758052
 21
-225.33743695529429
 31
0.0
  0
LINE
  5
3D5
  8
DATA
  6
CONTINUOUS
 62
     7
 10
-297.78317148758049
 20
-224.57243695529431
 30
0.0
 11
-297.78317148758049
 21
-225.33743695529429
 31
0.0
  0
ARC
  5
3D6
  8
DATA
  6
CONTINUOUS
 62
     7
 10
-294.48864305270109
 20
-252.97835502874159
 30
0.0
 40
5.0264068825913233
 50
228.9640374745824
 51
311.0359625254178
  0
LINE
  5
3D7
  8
DATA
  6
CONTINUOUS
 62
     7
 10
-297.7886430527011
 20
-256.76976191133298
 30
0.0
 11
-297.7886430527011
 21
-256.00476191133299
 31
0.0
  0
LINE
  5
3D8
  8
DATA
  6
CONTINUOUS
 62
     7
 10
-291.18864305270108
 20
-256.76976191133298
 30
0.0
 11
-291.18864305270108
 21
-256.00476191133299
 31
0.0
  0
ARC
  5
3D9
  8
DATA
  6
CONTINUOUS
 62
     7
 10
-238.90847817005931
 20
-252.9679815061794
 30
0.0
 40
5.0264068825913233
 50
228.9640374745824
 51
311.0359625254178
  0
LINE
  5
3DA
  8
DATA
  6
CONTINUOUS
 62
     7
 10
-242.20847817005929
 20
-256.75938838877079
 30
0.0
 11
-242.20847817005929
 21
-255.9943883887708
 31
0.0
  0
LINE
  5
3DB
  8
DATA
  6
CONTINUOUS
 62
     7
 10
-235.60847817005919
 20
-256.75938838877079
 30
0.0
 11
-235.60847817005919
 21
-255.9943883887708
 31
0.0
  0
LINE
  5
3DC
  8
DATA
  6
CONTINUOUS
 62
     7
 10
-276.4999999998995
 20
-250.8999999997537
 30
0.0
 11
-254.4232804978148
 21
-250.8999999997537
 31
0.0
  0
LINE
  5
3DD
  8
DATA
  6
CONTINUOUS
 62
     7
 10
-254.4232804978148
 20
-247.42999999975359
 30
0.0
 11
-276.4999999998995
 21
-247.42999999975359
 31
0.0
  0
LINE
  5
3DE
  8
DATA
  6
CONTINUOUS
 62
     7
 10
-221.79999999989931
 20
-245.8299999997538
 30
0.0
 11
-165.38942558723269
 21
-245.8299999997538
 31
0.0
  0
LINE
  5
3DF
  8
DATA
  6
CONTINUOUS
 62
     7
 10
-138.7105744125663
 20
-245.8299999997538
 30
0.0
 11
52.79000000010069
 21
-245.8299999997538
 31
0.0
  0
LINE
  5
3E0
  8
DATA
  6
CONTINUOUS
 62
     7
 10
52.79000000010069
 20
-245.8299999997538
 30
0.0
 11
52.79000000010069
 21
-248.32999999975371
 31
0.0
  0
LINE
  5
3E1
  8
DATA
  6
CONTINUOUS
 62
     7
 10
-221.79999999989931
 20
-245.8299999997538
 30
0.0
 11
-221.79999999989931
 21
-248.32999999975371
 31
0.0
  0
CIRCLE
  5
3E2
  8
DATA
  6
CONTINUOUS
 62
     7
 10
-282.49999999989927
 20
-236.32999999975391
 30
0.0
 40
4.82000000000005
  0
CIRCLE
  5
3E3
  8
DATA
  6
CONTINUOUS
 62
     7
 10
-282.49999999989927
 20
-236.32999999975391
 30
0.0
 40
2.450000000000045
  0
CIRCLE
  5
3E4
  8
DATA
  6
CONTINUOUS
 62
     7
 10
-282.49999999989927
 20
-236.32999999975391
 30
0.0
 40
0.75
  0
LINE
  5
3E5
  8
DATA
  6
CONTINUOUS
 62
     7
 10
-287.21512460058818
 20
-235.32999999975399
 30
0.0
 11
-288.11999999989928
 21
-235.32999999975399
 31
0.0
  0
LINE
  5
3E6
  8
DATA
  6
CONTINUOUS
 62
     7
 10
-287.21512460058818
 20
-237.32999999975391
 30
0.0
 11
-288.11999999989928
 21
-237.32999999975391
 31
0.0
  0
LINE
  5
3E7
  8
DATA
  6
CONTINUOUS
 62
     7
 10
-276.87999999989921
 20
-235.32999999975399
 30
0.0
 11
-277.78487539921042
 21
-235.32999999975399
 31
0.0
  0
LINE
  5
3E8
  8
DATA
  6
CONTINUOUS
 62
     7
 10
-276.87999999989921
 20
-237.32999999975391
 30
0.0
 11
-277.78487539921042
 21
-237.32999999975391
 31
0.0
  0
LINE
  5
3E9
  8
DATA
  6
CONTINUOUS
 62
     7
 10
-276.87999999989921
 20
-235.32999999975399
 30
0.0
 11
-277.78487539921042
 21
-235.32999999975399
 31
0.0
  0
LINE
  5
3EA
  8
DATA
  6
CONTINUOUS
 62
     7
 10
-276.87999999989921
 20
-237.32999999975391
 30
0.0
 11
-277.78487539921042
 21
-237.32999999975391
 31
0.0
  0
LINE
  5
3EB
  8
DATA
  6
CONTINUOUS
 62
     7
 10
-288.11999999989928
 20
-235.32999999975399
 30
0.0
 11
-288.11999999989928
 21
-237.32999999975391
 31
0.0
  0
LINE
  5
3EC
  8
DATA
  6
CONTINUOUS
 62
     7
 10
-276.87999999989921
 20
-237.32999999975391
 30
0.0
 11
-276.87999999989921
 21
-235.32999999975399
 31
0.0
  0
CIRCLE
  5
3ED
  8
DATA
  6
CONTINUOUS
 62
     7
 10
-282.49999999989927
 20
-236.32999999975391
 30
0.0
 40
8.0
  0
LINE
  5
3EE
  8
DATA
  6
CONTINUOUS
 62
     7
 10
-274.5865073784837
 20
-237.50330069898399
 30
0.0
 11
-277.52714547738009
 21
-230.06336470656231
 31
0.0
  0
LINE
  5
3EF
  8
DATA
  6
CONTINUOUS
 62
     7
 10
-279.55936190100289
 20
-243.7699359921757
 30
0.0
 11
-274.5865073784837
 21
-237.50330069898399
 31
0.0
  0
LINE
  5
3F0
  8
DATA
  6
CONTINUOUS
 62
     7
 10
-287.47285452241857
 20
-242.59663529294539
 30
0.0
 11
-279.55936190100289
 21
-243.7699359921757
 31
0.0
  0
LINE
  5
3F1
  8
DATA
  6
CONTINUOUS
 62
     7
 10
-290.41349262131507
 20
-235.15669930052371
 30
0.0
 11
-287.47285452241857
 21
-242.59663529294539
 31
0.0
  0
LINE
  5
3F2
  8
DATA
  6
CONTINUOUS
 62
     7
 10
-285.44063809879572
 20
-228.89006400733209
 30
0.0
 11
-290.41349262131507
 21
-235.15669930052371
 31
0.0
  0
LINE
  5
3F3
  8
DATA
  6
CONTINUOUS
 62
     7
 10
-277.52714547738009
 20
-230.06336470656231
 30
0.0
 11
-285.44063809879572
 21
-228.89006400733209
 31
0.0
  0
CIRCLE
  5
3F4
  8
DATA
  6
CONTINUOUS
 62
     7
 10
-152.0499999998996
 20
-249.16499999975369
 30
0.0
 40
8.6499999999999773
  0
LINE
  5
3F5
  8
DATA
  6
CONTINUOUS
 62
     7
 10
-167.79999999989951
 20
-246.10499999975369
 30
0.0
 11
-165.45518183380241
 21
-246.10499999975369
 31
0.0
  0
LINE
  5
3F6
  8
DATA
  6
CONTINUOUS
 62
     7
 10
-167.79999999989951
 20
-252.22499999975369
 30
0.0
 11
-165.45518183380241
 21
-252.22499999975369
 31
0.0
  0
LINE
  5
3F7
  8
DATA
  6
CONTINUOUS
 62
     7
 10
-167.79999999989951
 20
-252.22499999975369
 30
0.0
 11
-167.79999999989951
 21
-246.10499999975369
 31
0.0
  0
ARC
  5
3F8
  8
DATA
  6
CONTINUOUS
 62
     7
 10
-152.0499999998996
 20
-249.16499999975369
 30
0.0
 40
13.75
 50
0.0
 51
167.1414160821551
  0
ARC
  5
3F9
  8
DATA
  6
CONTINUOUS
 62
     7
 10
-152.0499999998996
 20
-249.1649999997538
 30
0.0
 40
13.749999999999931
 50
192.8585839178445
 51
0.0000000000004547
  0
ARC
  5
3FA
  8
DATA
  6
CONTINUOUS
 62
     7
 10
-152.0499999998996
 20
403.135000000361
 30
0.0
 40
13.000000000000099
 50
67.380135051959769
 51
112.6198649480401
  0
ARC
  5
3FB
  8
DATA
  6
CONTINUOUS
 62
     7
 10
-152.0499999998996
 20
422.61672506043681
 30
0.0
 40
11.446725060075931
 50
246.85087987461691
 51
293.14912012538321
  0
LINE
  5
3FC
  8
DATA
  6
CONTINUOUS
 62
     7
 10
-156.5499999998996
 20
412.09163529355283
 30
0.0
 11
-157.04999999989951
 21
415.13500000036112
 31
0.0
  0
LINE
  5
3FD
  8
DATA
  6
CONTINUOUS
 62
     7
 10
-147.5499999998996
 20
412.09163529355283
 30
0.0
 11
-147.0499999998996
 21
415.13500000036112
 31
0.0
  0
LINE
  5
3FE
  8
DATA
  6
CONTINUOUS
 62
     7
 10
-164.54999999989951
 20
406.1700000003608
 30
0.0
 11
-163.0828188843908
 21
408.18885938424972
 31
0.0
  0
LINE
  5
3FF
  8
DATA
  6
CONTINUOUS
 62
     7
 10
-159.50735928234641
 20
410.94314625182568
 30
0.0
 11
-156.5499999998996
 21
412.09163529355283
 31
0.0
  0
ARC
  5
400
  8
DATA
  6
CONTINUOUS
 62
     7
 10
-156.61128343674679
 20
403.48575094940708
 30
0.0
 40
8.0000000000000195
 50
111.2236565027669
 51
143.9926836557899
  0
LINE
  5
401
  8
DATA
  6
CONTINUOUS
 62
     7
 10
-139.5499999998996
 20
406.1700000003608
 30
0.0
 11
-141.01718111540831
 21
408.18885938424972
 31
0.0
  0
LINE
  5
402
  8
DATA
  6
CONTINUOUS
 62
     7
 10
-144.59264071745281
 20
410.94314625182568
 30
0.0
 11
-147.5499999998996
 21
412.09163529355283
 31
0.0
  0
ARC
  5
403
  8
DATA
  6
CONTINUOUS
 62
     7
 10
-147.48871656305241
 20
403.48575094940708
 30
0.0
 40
8.0000000000000231
 50
36.007316344210132
 51
68.776343497233071
  0
ARC
  5
404
  8
DATA
  6
CONTINUOUS
 62
     7
 10
-152.0499999998996
 20
403.5350000003607
 30
0.0
 40
12.999999999999989
 50
247.38013505195971
 51
292.61986494804052
  0
ARC
  5
405
  8
DATA
  6
CONTINUOUS
 62
     7
 10
-152.0499999998996
 20
384.05327494028489
 30
0.0
 40
11.44672506007605
 50
66.850879874617007
 51
113.14912012538279
  0
LINE
  5
406
  8
DATA
  6
CONTINUOUS
 62
     7
 10
-156.5499999998996
 20
394.57836470716921
 30
0.0
 11
-157.04999999989951
 21
391.53500000036081
 31
0.0
  0
LINE
  5
407
  8
DATA
  6
CONTINUOUS
 62
     7
 10
-147.5499999998996
 20
394.57836470716921
 30
0.0
 11
-147.0499999998996
 21
391.53500000036081
 31
0.0
  0
LINE
  5
408
  8
DATA
  6
CONTINUOUS
 62
     7
 10
-159.50735928234641
 20
395.72685374889602
 30
0.0
 11
-156.5499999998996
 21
394.57836470716921
 31
0.0
  0
POLYLINE
  5
409
  8
DATA
  6
CONTINUOUS
 62
     7
 66
     1
 10
0.0
 20
0.0
 30
0.0
 70
   128
  0
VERTEX
  5
601
  8
DATA
  6
CONTINUOUS
 62
     7
 10
-161.4933485092906
 20
396.84662799705092
 30
0.0
 42
0.0716129721557832
  0
VERTEX
  5
602
  8
DATA
  6
CONTINUOUS
 62
     7
 10
-159.50735928234641
 20
395.72685374889602
 30
0.0
  0
SEQEND
  5
603
  8
DATA
  6
CONTINUOUS
 62
     7
  0
POLYLINE
  5
40D
  8
DATA
  6
CONTINUOUS
 62
     7
 66
     1
 10
0.0
 20
0.0
 30
0.0
 70
   128
  0
VERTEX
  5
604
  8
DATA
  6
CONTINUOUS
 62
     7
 10
-163.0828188843908
 20
398.48114061647209
 30
0.0
 42
0.0716129721558102
  0
VERTEX
  5
605
  8
DATA
  6
CONTINUOUS
 62
     7
 10
-161.4933485092906
 20
396.84662799705092
 30
0.0
  0
SEQEND
  5
606
  8
DATA
  6
CONTINUOUS
 62
     7
  0
LINE
  5
411
  8
DATA
  6
CONTINUOUS
 62
     7
 10
-144.59264071745281
 20
395.72685374889602
 30
0.0
 11
-147.5499999998996
 21
394.57836470716921
 31
0.0
  0
POLYLINE
  5
412
  8
DATA
  6
CONTINUOUS
 62
     7
 66
     1
 10
0.0
 20
0.0
 30
0.0
 70
   128
  0
VERTEX
  5
607
  8
DATA
  6
CONTINUOUS
 62
     7
 10
-142.6066514905086
 20
396.84662799705092
 30
0.0
 42
0.0716129721557877
  0
VERTEX
  5
608
  8
DATA
  6
CONTINUOUS
 62
     7
 10
-141.01718111540831
 20
398.48114061647209
 30
0.0
  0
SEQEND
  5
609
  8
DATA
  6
CONTINUOUS
 62
     7
  0
POLYLINE
  5
416
  8
DATA
  6
CONTINUOUS
 62
     7
 66
     1
 10
0.0
 20
0.0
 30
0.0
 70
   128
  0
VERTEX
  5
60A
  8
DATA
  6
CONTINUOUS
 62
     7
 10
-144.59264071745281
 20
395.72685374889602
 30
0.0
 42
0.0716129721557891
  0
VERTEX
  5
60B
  8
DATA
  6
CONTINUOUS
 62
     7
 10
-142.6066514905088
 20
396.8466279970508
 30
0.0
  0
SEQEND
  5
60C
  8
DATA
  6
CONTINUOUS
 62
     7
  0
LINE
  5
41A
  8
DATA
  6
CONTINUOUS
 62
     7
 10
-141.01718111540831
 20
398.48114061647209
 30
0.0
 11
-140.14026724125901
 21
400.00000000036079
 31
0.0
  0
LINE
  5
41B
  8
DATA
  6
CONTINUOUS
 62
     7
 10
-163.0828188843908
 20
398.48114061647209
 30
0.0
 11
-163.92999999989939
 21
400.00000000036079
 31
0.0
  0
ARC
  5
41C
  8
DATA
  6
CONTINUOUS
 62
     7
 10
-216.45974021369929
 20
218.38168802160561
 30
0.0
 40
14.754164749369769
 50
67.492363326460591
 51
184.22719609069841
  0
LINE
  5
41D
  8
DATA
  6
CONTINUOUS
 62
     7
 10
-237.56238929502521
 20
131.04774451576699
 30
0.0
 11
-231.1737677559594
 21
217.29413529315599
 31
0.0
  0
LINE
  5
41E
  8
DATA
  6
CONTINUOUS
 62
     7
 10
-210.8117490372876
 20
232.01200618086801
 30
0.0
 11
50.457923741596922
 21
130.75830119467781
 31
0.0
  0
ARC
  5
41F
  8
DATA
  6
CONTINUOUS
 62
     7
 10
-216.45974021369929
 20
-68.101688021676921
 30
0.0
 40
14.754164749369769
 50
175.77280390930159
 51
292.50763667353942
  0
LINE
  5
420
  8
DATA
  6
CONTINUOUS
 62
     7
 10
-231.1737677559594
 20
-67.014135293227355
 30
0.0
 11
-237.56238929502521
 21
19.232255484161691
 31
0.0
  0
LINE
  5
421
  8
DATA
  6
CONTINUOUS
 62
     7
 10
-210.8117490372876
 20
-81.732006180939408
 30
0.0
 11
-182.5238068555494
 21
-70.769161079662879
 31
0.0
  0
POLYLINE
  5
422
  8
DATA
  6
CONTINUOUS
 62
     7
 66
     1
 10
0.0
 20
0.0
 30
0.0
 70
     1
  0
VERTEX
  5
60D
  8
DATA
  6
CONTINUOUS
 62
     7
 10
-219.49999999989959
 20
72.27999999996446
 30
0.0
  0
VERTEX
  5
60E
  8
DATA
  6
CONTINUOUS
 62
     7
 10
-209.99999999989959
 20
72.27999999996446
 30
0.0
  0
VERTEX
  5
60F
  8
DATA
  6
CONTINUOUS
 62
     7
 10
-209.99999999989959
 20
-77.720000000035952
 30
0.0
  0
VERTEX
  5
610
  8
DATA
  6
CONTINUOUS
 62
     7
 10
-219.49999999989959
 20
-77.720000000035952
 30
0.0
  0
SEQEND
  5
611
  8
DATA
  6
CONTINUOUS
 62
     7
  0
LINE
  5
429
  8
DATA
  6
CONTINUOUS
 62
     7
 10
38.000000000100492
 20
72.27999999996446
 30
0.0
 11
-206.79999999989931
 21
72.27999999996446
 31
0.0
  0
POLYLINE
  5
42A
  8
DATA
  6
CONTINUOUS
 62
     7
 66
     1
 10
0.0
 20
0.0
 30
0.0
 70
     1
  0
VERTEX
  5
612
  8
DATA
  6
CONTINUOUS
 62
     7
 10
17.500000000100439
 20
72.27999999996446
 30
0.0
  0
VERTEX
  5
613
  8
DATA
  6
CONTINUOUS
 62
     7
 10
21.500000000100471
 20
72.27999999996446
 30
0.0
  0
VERTEX
  5
614
  8
DATA
  6
CONTINUOUS
 62
     7
 10
21.500000000100471
 20
14.27999999996416
 30
0.0
  0
VERTEX
  5
615
  8
DATA
  6
CONTINUOUS
 62
     7
 10
17.500000000100439
 20
14.27999999996416
 30
0.0
  0
SEQEND
  5
616
  8
DATA
  6
CONTINUOUS
 62
     7
  0
POLYLINE
  5
431
  8
DATA
  6
CONTINUOUS
 62
     7
 66
     1
 10
0.0
 20
0.0
 30
0.0
 70
     1
  0
VERTEX
  5
617
  8
DATA
  6
CONTINUOUS
 62
     7
 10
-22.999999999899561
 20
72.27999999996446
 30
0.0
  0
VERTEX
  5
618
  8
DATA
  6
CONTINUOUS
 62
     7
 10
-17.999999999899469
 20
72.27999999996446
 30
0.0
  0
VERTEX
  5
619
  8
DATA
  6
CONTINUOUS
 62
     7
 10
-17.999999999899469
 20
-0.7200000000359524
 30
0.0
  0
VERTEX
  5
61A
  8
DATA
  6
CONTINUOUS
 62
     7
 10
-22.999999999899561
 20
-0.7200000000359524
 30
0.0
  0
SEQEND
  5
61B
  8
DATA
  6
CONTINUOUS
 62
     7
  0
POLYLINE
  5
438
  8
DATA
  6
CONTINUOUS
 62
     7
 66
     1
 10
0.0
 20
0.0
 30
0.0
 70
     1
  0
VERTEX
  5
61C
  8
DATA
  6
CONTINUOUS
 62
     7
 10
-73.4999999998997
 20
72.27999999996446
 30
0.0
  0
VERTEX
  5
61D
  8
DATA
  6
CONTINUOUS
 62
     7
 10
-67.499999999899714
 20
72.27999999996446
 30
0.0
  0
VERTEX
  5
61E
  8
DATA
  6
CONTINUOUS
 62
     7
 10
-67.499999999899714
 20
-20.720000000035949
 30
0.0
  0
VERTEX
  5
61F
  8
DATA
  6
CONTINUOUS
 62
     7
 10
-73.4999999998997
 20
-20.720000000035949
 30
0.0
  0
SEQEND
  5
620
  8
DATA
  6
CONTINUOUS
 62
     7
  0
POLYLINE
  5
43F
  8
DATA
  6
CONTINUOUS
 62
     7
 66
     1
 10
0.0
 20
0.0
 30
0.0
 70
     1
  0
VERTEX
  5
621
  8
DATA
  6
CONTINUOUS
 62
     7
 10
-137.99999999989959
 20
72.27999999996446
 30
0.0
  0
VERTEX
  5
622
  8
DATA
  6
CONTINUOUS
 62
     7
 10
-129.99999999989959
 20
72.27999999996446
 30
0.0
  0
VERTEX
  5
623
  8
DATA
  6
CONTINUOUS
 62
     7
 10
-129.99999999989959
 20
-45.720000000035952
 30
0.0
  0
VERTEX
  5
624
  8
DATA
  6
CONTINUOUS
 62
     7
 10
-137.99999999989959
 20
-45.720000000035952
 30
0.0
  0
SEQEND
  5
625
  8
DATA
  6
CONTINUOUS
 62
     7
  0
ARC
  5
446
  8
DATA
  6
CONTINUOUS
 62
     7
 10
-151.9999999998995
 20
-71.495907292320112
 30
0.0
 40
11.49590729228408
 50
16.890400724071689
 51
163.10959927592839
  0
LINE
  5
447
  8
DATA
  6
CONTINUOUS
 62
     7
 10
-165.4184200488549
 20
-96.160408428552842
 30
0.0
 11
-162.9999999998995
 21
-68.155864706844341
 31
0.0
  0
LINE
  5
448
  8
DATA
  6
CONTINUOUS
 62
     7
 10
-140.99999999989959
 20
-68.155864706844341
 30
0.0
 11
-138.24999999989959
 21
-100.000000000036
 31
0.0
  0
LINE
  5
449
  8
DATA
  6
CONTINUOUS
 62
     7
 10
-151.44272076525729
 20
-76.807127392364933
 30
0.0
 11
-154.29594572186241
 21
-66.158746888891073
 31
0.0
  0
LINE
  5
44A
  8
DATA
  6
CONTINUOUS
 62
     7
 10
-152.55727923454211
 20
-65.692872607706704
 30
0.0
 11
-149.7040542779369
 21
-76.341253111180563
 31
0.0
  0
ARC
  5
44B
  8
DATA
  6
CONTINUOUS
 62
     7
 10
-151.99999999990609
 20
-71.250000000037403
 30
0.0
 40
5.584999999993447
 50
114.2734161467978
 51
275.7265838532021
  0
ARC
  5
44C
  8
DATA
  6
CONTINUOUS
 62
     7
 10
-151.99999999989299
 20
-71.250000000034163
 30
0.0
 40
5.5849999999933591
 50
294.27341614679437
 51
95.726583853205724
  0
ARC
  5
44D
  8
DATA
  6
CONTINUOUS
 62
     7
 10
-151.99999999989299
 20
-71.250000000034163
 30
0.0
 40
7.6000000000000218
 50
0.0
 51
180.0
  0
LINE
  5
44E
  8
DATA
  6
CONTINUOUS
 62
     7
 10
-144.39999999989291
 20
-71.250000000034163
 30
0.0
 11
-144.39999999989291
 21
-85.700000000035971
 31
0.0
  0
LINE
  5
44F
  8
DATA
  6
CONTINUOUS
 62
     7
 10
-159.5999999998929
 20
-71.250000000034163
 30
0.0
 11
-159.5999999998929
 21
-85.700000000035971
 31
0.0
  0
ARC
  5
450
  8
DATA
  6
CONTINUOUS
 62
     7
 10
-151.99999999989299
 20
-77.573333333369192
 30
0.0
 40
11.12666666666674
 50
226.91804816292361
 51
313.08195183707647
  0
ARC
  5
451
  8
DATA
  6
CONTINUOUS
 62
     7
 10
-152.1999999998994
 20
-71.250000000035982
 30
0.0
 40
12.65158092888189
 50
89.094213339860445
 51
204.32413970553441
  0
ARC
  5
452
  8
DATA
  6
CONTINUOUS
 62
     7
 10
-152.1999999998994
 20
-71.250000000035982
 30
0.0
 40
12.651580928881859
 50
340.42904478721277
 51
89.094213339860474
  0
LINE
  5
453
  8
DATA
  6
CONTINUOUS
 62
     7
 10
-167.7499999998995
 20
-100.000000000036
 30
0.0
 11
-167.7499999998995
 21
-98.577350269225562
 31
0.0
  0
LINE
  5
454
  8
DATA
  6
CONTINUOUS
 62
     7
 10
-167.2499999998995
 20
-97.711324865441156
 30
0.0
 11
-165.91471191333369
 21
-96.940395929216606
 31
0.0
  0
ARC
  5
455
  8
DATA
  6
CONTINUOUS
 62
     7
 10
-166.7499999998995
 20
-98.577350269225562
 30
0.0
 40
0.9999999999999836
 50
120.0000000000005
 51
180.0
  0
ARC
  5
456
  8
DATA
  6
CONTINUOUS
 62
     7
 10
-166.41471191333369
 20
-96.074370525432187
 30
0.0
 40
0.9999999999999836
 50
300.00000000000051
 51
355.06428900177627
  0
LINE
  5
457
  8
DATA
  6
CONTINUOUS
 62
     7
 10
-140.35006709621419
 20
-76.197420269287008
 30
0.0
 11
-131.43815377764469
 21
-56.976047075617089
 31
0.0
  0
LINE
  5
458
  8
DATA
  6
CONTINUOUS
 62
     7
 10
-163.75438687908681
 20
-76.891427559298563
 30
0.0
 11
-166.4968442490127
 21
-74.148970189372676
 31
0.0
  0
LINE
  5
459
  8
DATA
  6
CONTINUOUS
 62
     7
 10
-120.5206915222527
 20
-46.7401756968261
 30
0.0
 11
50.457923741596922
 21
19.5216988052509
 31
0.0
  0
ARC
  5
45A
  8
DATA
  6
CONTINUOUS
 62
     7
 10
-113.29354367060159
 20
-65.388723466836893
 30
0.0
 40
20.0
 50
111.1835815704701
 51
155.12539036719809
  0
ARC
  5
45B
  8
DATA
  6
CONTINUOUS
 62
     7
 10
-177.1034459668108
 20
-84.755571907170861
 30
0.0
 40
14.99999999999992
 50
45.000000000000149
 51
111.18358157047081
  0
POLYLINE
  5
45C
  8
DATA
  6
CONTINUOUS
 62
     7
 66
     1
 10
0.0
 20
0.0
 30
0.0
 70
     1
  0
VERTEX
  5
626
  8
DATA
  6
CONTINUOUS
 62
     7
 10
35.700000000100538
 20
127.7799999999645
 30
0.0
  0
VERTEX
  5
627
  8
DATA
  6
CONTINUOUS
 62
     7
 10
39.000000000100563
 20
127.7799999999645
 30
0.0
  0
VERTEX
  5
628
  8
DATA
  6
CONTINUOUS
 62
     7
 10
39.000000000100563
 20
76.27999999996446
 30
0.0
  0
VERTEX
  5
629
  8
DATA
  6
CONTINUOUS
 62
     7
 10
35.700000000100538
 20
76.27999999996446
 30
0.0
  0
SEQEND
  5
62A
  8
DATA
  6
CONTINUOUS
 62
     7
  0
POLYLINE
  5
463
  8
DATA
  6
CONTINUOUS
 62
     7
 66
     1
 10
0.0
 20
0.0
 30
0.0
 70
     1
  0
VERTEX
  5
62B
  8
DATA
  6
CONTINUOUS
 62
     7
 10
-1.4999999998993869
 20
141.2799999999645
 30
0.0
  0
VERTEX
  5
62C
  8
DATA
  6
CONTINUOUS
 62
     7
 10
3.0000000001004992
 20
141.2799999999645
 30
0.0
  0
VERTEX
  5
62D
  8
DATA
  6
CONTINUOUS
 62
     7
 10
3.0000000001004992
 20
76.27999999996446
 30
0.0
  0
VERTEX
  5
62E
  8
DATA
  6
CONTINUOUS
 62
     7
 10
-1.4999999998993869
 20
76.27999999996446
 30
0.0
  0
SEQEND
  5
62F
  8
DATA
  6
CONTINUOUS
 62
     7
  0
POLYLINE
  5
46A
  8
DATA
  6
CONTINUOUS
 62
     7
 66
     1
 10
0.0
 20
0.0
 30
0.0
 70
     1
  0
VERTEX
  5
630
  8
DATA
  6
CONTINUOUS
 62
     7
 10
-46.4999999998996
 20
159.2799999999645
 30
0.0
  0
VERTEX
  5
631
  8
DATA
  6
CONTINUOUS
 62
     7
 10
-40.9999999998996
 20
159.2799999999645
 30
0.0
  0
VERTEX
  5
632
  8
DATA
  6
CONTINUOUS
 62
     7
 10
-40.9999999998996
 20
76.27999999996446
 30
0.0
  0
VERTEX
  5
633
  8
DATA
  6
CONTINUOUS
 62
     7
 10
-46.4999999998996
 20
76.27999999996446
 30
0.0
  0
SEQEND
  5
634
  8
DATA
  6
CONTINUOUS
 62
     7
  0
POLYLINE
  5
471
  8
DATA
  6
CONTINUOUS
 62
     7
 66
     1
 10
0.0
 20
0.0
 30
0.0
 70
     1
  0
VERTEX
  5
635
  8
DATA
  6
CONTINUOUS
 62
     7
 10
-103.9999999998997
 20
181.27999999996439
 30
0.0
  0
VERTEX
  5
636
  8
DATA
  6
CONTINUOUS
 62
     7
 10
-96.999999999899714
 20
181.27999999996439
 30
0.0
  0
VERTEX
  5
637
  8
DATA
  6
CONTINUOUS
 62
     7
 10
-96.999999999899714
 20
76.27999999996446
 30
0.0
  0
VERTEX
  5
638
  8
DATA
  6
CONTINUOUS
 62
     7
 10
-103.9999999998997
 20
76.27999999996446
 30
0.0
  0
SEQEND
  5
639
  8
DATA
  6
CONTINUOUS
 62
     7
  0
POLYLINE
  5
478
  8
DATA
  6
CONTINUOUS
 62
     7
 66
     1
 10
0.0
 20
0.0
 30
0.0
 70
     1
  0
VERTEX
  5
63A
  8
DATA
  6
CONTINUOUS
 62
     7
 10
-175.9999999998995
 20
209.2799999999645
 30
0.0
  0
VERTEX
  5
63B
  8
DATA
  6
CONTINUOUS
 62
     7
 10
-167.4999999998995
 20
209.2799999999645
 30
0.0
  0
VERTEX
  5
63C
  8
DATA
  6
CONTINUOUS
 62
     7
 10
-167.4999999998995
 20
76.27999999996446
 30
0.0
  0
VERTEX
  5
63D
  8
DATA
  6
CONTINUOUS
 62
     7
 10
-175.9999999998995
 20
76.27999999996446
 30
0.0
  0
SEQEND
  5
63E
  8
DATA
  6
CONTINUOUS
 62
     7
  0
CIRCLE
  5
47F
  8
DATA
  6
CONTINUOUS
 62
     7
 10
-224.59999999989941
 20
78.139999999964516
 30
0.0
 40
0.3999999999999773
  0
CIRCLE
  5
480
  8
DATA
  6
CONTINUOUS
 62
     7
 10
-224.59999999989941
 20
72.139999999964516
 30
0.0
 40
0.3999999999999773
  0
CIRCLE
  5
481
  8
DATA
  6
CONTINUOUS
 62
     7
 10
-228.09999999989941
 20
78.139999999964516
 30
0.0
 40
0.3999999999999773
  0
CIRCLE
  5
482
  8
DATA
  6
CONTINUOUS
 62
     7
 10
-228.09999999989941
 20
72.139999999964516
 30
0.0
 40
0.3999999999999773
  0
LINE
  5
483
  8
DATA
  6
CONTINUOUS
 62
     7
 10
-219.49999999989959
 20
72.27999999996446
 30
0.0
 11
-234.79999999989931
 21
67.639999999964488
 31
0.0
  0
LINE
  5
484
  8
DATA
  6
CONTINUOUS
 62
     7
 10
-219.1999999998994
 20
76.27999999996446
 30
0.0
 11
-234.79999999989931
 21
83.244135293156134
 31
0.0
  0
CIRCLE
  5
485
  8
DATA
  6
CONTINUOUS
 62
     7
 10
-233.7999999998994
 20
81.206204652381331
 30
0.0
 40
0.3999999999999773
  0
CIRCLE
  5
486
  8
DATA
  6
CONTINUOUS
 62
     7
 10
-230.99999999989939
 20
79.6999988582117
 30
0.0
 40
0.3999999999999773
  0
CIRCLE
  5
487
  8
DATA
  6
CONTINUOUS
 62
     7
 10
-233.7999999998994
 20
74.544135293156131
 30
0.0
 40
0.3999999999999773
  0
CIRCLE
  5
488
  8
DATA
  6
CONTINUOUS
 62
     7
 10
-231.09999999989941
 20
73.044135293156131
 30
0.0
 40
0.3999999999999773
  0
ARC
  5
489
  8
DATA
  6
CONTINUOUS
 62
     7
 10
525.45974021362963
 20
218.38168802160561
 30
0.0
 40
14.754164749369769
 50
355.77280390930162
 51
112.5076366735392
  0
LINE
  5
48A
  8
DATA
  6
CONTINUOUS
 62
     7
 10
546.56238929495555
 20
131.04774451576699
 30
0.0
 11
540.17376775588957
 21
217.29413529315599
 31
0.0
  0
LINE
  5
48B
  8
DATA
  6
CONTINUOUS
 62
     7
 10
519.81174903721796
 20
232.01200618086801
 30
0.0
 11
258.54207625833271
 21
130.75830119467781
 31
0.0
  0
ARC
  5
48C
  8
DATA
  6
CONTINUOUS
 62
     7
 10
525.45974021362963
 20
-68.101688021676921
 30
0.0
 40
14.754164749369769
 50
247.4923633264608
 51
4.2271960906984116
  0
LINE
  5
48D
  8
DATA
  6
CONTINUOUS
 62
     7
 10
540.17376775588957
 20
-67.014135293227355
 30
0.0
 11
546.56238929495555
 21
19.232255484161691
 31
0.0
  0
LINE
  5
48E
  8
DATA
  6
CONTINUOUS
 62
     7
 10
519.81174903721796
 20
-81.732006180939408
 30
0.0
 11
491.52380685547968
 21
-70.769161079662879
 31
0.0
  0
LINE
  5
48F
  8
DATA
  6
CONTINUOUS
 62
     7
 10
518.99999999982992
 20
76.284445826377862
 30
0.0
 11
518.99999999982992
 21
226.284445826378
 31
0.0
  0
LINE
  5
490
  8
DATA
  6
CONTINUOUS
 62
     7
 10
528.49999999982992
 20
76.284445826377862
 30
0.0
 11
518.99999999982992
 21
76.284445826377862
 31
0.0
  0
LINE
  5
491
  8
DATA
  6
CONTINUOUS
 62
     7
 10
528.49999999982992
 20
226.284445826378
 30
0.0
 11
528.49999999982992
 21
76.284445826377862
 31
0.0
  0
LINE
  5
492
  8
DATA
  6
CONTINUOUS
 62
     7
 10
518.99999999982992
 20
226.284445826378
 30
0.0
 11
528.49999999982992
 21
226.284445826378
 31
0.0
  0
LINE
  5
493
  8
DATA
  6
CONTINUOUS
 62
     7
 10
270.99999999982941
 20
72.27999999996446
 30
0.0
 11
515.79999999982965
 21
72.27999999996446
 31
0.0
  0
LINE
  5
494
  8
DATA
  6
CONTINUOUS
 62
     7
 10
287.49999999982941
 20
76.288595268634012
 30
0.0
 11
287.49999999982941
 21
134.288595268634
 31
0.0
  0
LINE
  5
495
  8
DATA
  6
CONTINUOUS
 62
     7
 10
291.4999999998293
 20
76.288595268634012
 30
0.0
 11
287.49999999982941
 21
76.288595268634012
 31
0.0
  0
LINE
  5
496
  8
DATA
  6
CONTINUOUS
 62
     7
 10
291.4999999998293
 20
134.288595268634
 30
0.0
 11
291.4999999998293
 21
76.288595268634012
 31
0.0
  0
LINE
  5
497
  8
DATA
  6
CONTINUOUS
 62
     7
 10
287.49999999982941
 20
134.288595268634
 30
0.0
 11
291.4999999998293
 21
134.288595268634
 31
0.0
  0
LINE
  5
498
  8
DATA
  6
CONTINUOUS
 62
     7
 10
326.99999999982941
 20
76.26853738013709
 30
0.0
 11
326.99999999982941
 21
149.26853738013691
 31
0.0
  0
LINE
  5
499
  8
DATA
  6
CONTINUOUS
 62
     7
 10
331.99999999982941
 20
76.26853738013709
 30
0.0
 11
326.99999999982941
 21
76.26853738013709
 31
0.0
  0
LINE
  5
49A
  8
DATA
  6
CONTINUOUS
 62
     7
 10
331.99999999982941
 20
149.26853738013691
 30
0.0
 11
331.99999999982941
 21
76.26853738013709
 31
0.0
  0
LINE
  5
49B
  8
DATA
  6
CONTINUOUS
 62
     7
 10
326.99999999982941
 20
149.26853738013691
 30
0.0
 11
331.99999999982941
 21
149.26853738013691
 31
0.0
  0
LINE
  5
49C
  8
DATA
  6
CONTINUOUS
 62
     7
 10
376.4999999998297
 20
76.273456436518885
 30
0.0
 11
376.4999999998297
 21
169.27345643651881
 31
0.0
  0
LINE
  5
49D
  8
DATA
  6
CONTINUOUS
 62
     7
 10
382.49999999982992
 20
76.273456436518885
 30
0.0
 11
376.4999999998297
 21
76.273456436518885
 31
0.0
  0
LINE
  5
49E
  8
DATA
  6
CONTINUOUS
 62
     7
 10
382.49999999982992
 20
169.27345643651881
 30
0.0
 11
382.49999999982992
 21
76.273456436518885
 31
0.0
  0
LINE
  5
49F
  8
DATA
  6
CONTINUOUS
 62
     7
 10
376.4999999998297
 20
169.27345643651881
 30
0.0
 11
382.49999999982992
 21
169.27345643651881
 31
0.0
  0
LINE
  5
4A0
  8
DATA
  6
CONTINUOUS
 62
     7
 10
438.99999999982998
 20
76.261696634488544
 30
0.0
 11
438.99999999982998
 21
194.2616966344886
 31
0.0
  0
LINE
  5
4A1
  8
DATA
  6
CONTINUOUS
 62
     7
 10
446.99999999982998
 20
76.261696634488544
 30
0.0
 11
438.99999999982998
 21
76.261696634488544
 31
0.0
  0
LINE
  5
4A2
  8
DATA
  6
CONTINUOUS
 62
     7
 10
446.99999999982998
 20
194.2616966344886
 30
0.0
 11
446.99999999982998
 21
76.261696634488544
 31
0.0
  0
LINE
  5
4A3
  8
DATA
  6
CONTINUOUS
 62
     7
 10
438.99999999982998
 20
194.2616966344886
 30
0.0
 11
446.99999999982998
 21
194.2616966344886
 31
0.0
  0
ARC
  5
4A4
  8
DATA
  6
CONTINUOUS
 62
     7
 10
460.99999999982998
 20
-71.495907292320112
 30
0.0
 40
11.495907292284141
 50
16.890400724071611
 51
163.10959927592839
  0
LINE
  5
4A5
  8
DATA
  6
CONTINUOUS
 62
     7
 10
474.41842004878521
 20
-96.160408428552842
 30
0.0
 11
471.99999999982998
 21
-68.155864706844341
 31
0.0
  0
LINE
  5
4A6
  8
DATA
  6
CONTINUOUS
 62
     7
 10
449.99999999982998
 20
-68.155864706844341
 30
0.0
 11
447.24999999982998
 21
-100.000000000036
 31
0.0
  0
LINE
  5
4A7
  8
DATA
  6
CONTINUOUS
 62
     7
 10
460.44272076518769
 20
-76.807127392364933
 30
0.0
 11
463.2959457217928
 21
-66.158746888891073
 31
0.0
  0
LINE
  5
4A8
  8
DATA
  6
CONTINUOUS
 62
     7
 10
461.5572792344725
 20
-65.692872607706704
 30
0.0
 11
458.70405427786721
 21
-76.341253111180563
 31
0.0
  0
ARC
  5
4A9
  8
DATA
  6
CONTINUOUS
 62
     7
 10
460.99999999983652
 20
-71.250000000037403
 30
0.0
 40
5.5849999999935074
 50
264.27341614679841
 51
65.726583853201674
  0
ARC
  5
4AA
  8
DATA
  6
CONTINUOUS
 62
     7
 10
460.99999999982327
 20
-71.250000000034163
 30
0.0
 40
5.5849999999934852
 50
84.273416146794844
 51
245.72658385320511
  0
ARC
  5
4AB
  8
DATA
  6
CONTINUOUS
 62
     7
 10
460.99999999982327
 20
-71.250000000034163
 30
0.0
 40
7.5999999999999091
 50
0.0
 51
180.0
  0
LINE
  5
4AC
  8
DATA
  6
CONTINUOUS
 62
     7
 10
453.39999999982319
 20
-71.250000000034163
 30
0.0
 11
453.39999999982319
 21
-85.700000000035971
 31
0.0
  0
LINE
  5
4AD
  8
DATA
  6
CONTINUOUS
 62
     7
 10
468.5999999998233
 20
-71.250000000034163
 30
0.0
 11
468.5999999998233
 21
-85.700000000035971
 31
0.0
  0
ARC
  5
4AE
  8
DATA
  6
CONTINUOUS
 62
     7
 10
460.99999999982327
 20
-77.573333333369192
 30
0.0
 40
11.126666666666839
 50
226.91804816292299
 51
313.08195183707608
  0
LINE
  5
4AF
  8
DATA
  6
CONTINUOUS
 62
     7
 10
447.24999999982998
 20
-100.000000000036
 30
0.0
 11
474.74999999982998
 21
-100.000000000036
 31
0.0
  0
ARC
  5
4B0
  8
DATA
  6
CONTINUOUS
 62
     7
 10
461.1999999998298
 20
-71.250000000035982
 30
0.0
 40
12.651580928881909
 50
335.67586029446568
 51
90.905786660139569
  0
ARC
  5
4B1
  8
DATA
  6
CONTINUOUS
 62
     7
 10
461.1999999998298
 20
-71.250000000035982
 30
0.0
 40
12.65158092888189
 50
90.905786660139569
 51
199.5709552127872
  0
LINE
  5
4B2
  8
DATA
  6
CONTINUOUS
 62
     7
 10
474.74999999982998
 20
-100.000000000036
 30
0.0
 11
476.74999999982998
 21
-100.000000000036
 31
0.0
  0
LINE
  5
4B3
  8
DATA
  6
CONTINUOUS
 62
     7
 10
476.74999999982998
 20
-100.000000000036
 30
0.0
 11
476.74999999982998
 21
-98.577350269225562
 31
0.0
  0
LINE
  5
4B4
  8
DATA
  6
CONTINUOUS
 62
     7
 10
476.24999999982998
 20
-97.711324865441156
 30
0.0
 11
474.914711913264
 21
-96.940395929216606
 31
0.0
  0
ARC
  5
4B5
  8
DATA
  6
CONTINUOUS
 62
     7
 10
475.74999999982998
 20
-98.577350269225562
 30
0.0
 40
1.0
 50
0.0
 51
59.999999999999503
  0
ARC
  5
4B6
  8
DATA
  6
CONTINUOUS
 62
     7
 10
475.414711913264
 20
-96.074370525432187
 30
0.0
 40
0.9999999999999568
 50
184.9357109982239
 51
239.99999999999949
  0
LINE
  5
4B7
  8
DATA
  6
CONTINUOUS
 62
     7
 10
449.35006709614458
 20
-76.197420269287008
 30
0.0
 11
440.43815377757511
 21
-56.976047075617089
 31
0.0
  0
LINE
  5
4B8
  8
DATA
  6
CONTINUOUS
 62
     7
 10
472.7543868790172
 20
-76.891427559298563
 30
0.0
 11
475.49684424894298
 21
-74.148970189372676
 31
0.0
  0
LINE
  5
4B9
  8
DATA
  6
CONTINUOUS
 62
     7
 10
429.52069152218309
 20
-46.7401756968261
 30
0.0
 11
258.54207625833271
 21
19.5216988052509
 31
0.0
  0
ARC
  5
4BA
  8
DATA
  6
CONTINUOUS
 62
     7
 10
422.29354367053179
 20
-65.388723466836893
 30
0.0
 40
20.000000000000082
 50
24.874609632801761
 51
68.816418429529548
  0
ARC
  5
4BB
  8
DATA
  6
CONTINUOUS
 62
     7
 10
486.10344596674122
 20
-84.755571907170861
 30
0.0
 40
14.99999999999997
 50
68.816418429529094
 51
135.0
  0
LINE
  5
4BC
  8
DATA
  6
CONTINUOUS
 62
     7
 10
269.9999999998293
 20
20.80448368258692
 30
0.0
 11
269.9999999998293
 21
72.304483682587176
 31
0.0
  0
LINE
  5
4BD
  8
DATA
  6
CONTINUOUS
 62
     7
 10
273.29999999982931
 20
20.80448368258692
 30
0.0
 11
269.9999999998293
 21
20.80448368258692
 31
0.0
  0
LINE
  5
4BE
  8
DATA
  6
CONTINUOUS
 62
     7
 10
273.29999999982931
 20
72.304483682587176
 30
0.0
 11
273.29999999982931
 21
20.80448368258692
 31
0.0
  0
LINE
  5
4BF
  8
DATA
  6
CONTINUOUS
 62
     7
 10
269.9999999998293
 20
72.304483682587176
 30
0.0
 11
273.29999999982931
 21
72.304483682587176
 31
0.0
  0
LINE
  5
4C0
  8
DATA
  6
CONTINUOUS
 62
     7
 10
305.9999999998293
 20
7.304483682586806
 30
0.0
 11
305.9999999998293
 21
72.304483682587176
 31
0.0
  0
LINE
  5
4C1
  8
DATA
  6
CONTINUOUS
 62
     7
 10
310.49999999982941
 20
7.304483682586806
 30
0.0
 11
305.9999999998293
 21
7.304483682586806
 31
0.0
  0
LINE
  5
4C2
  8
DATA
  6
CONTINUOUS
 62
     7
 10
310.49999999982941
 20
72.304483682587176
 30
0.0
 11
310.49999999982941
 21
7.304483682586806
 31
0.0
  0
LINE
  5
4C3
  8
DATA
  6
CONTINUOUS
 62
     7
 10
305.9999999998293
 20
72.304483682587176
 30
0.0
 11
310.49999999982941
 21
72.304483682587176
 31
0.0
  0
LINE
  5
4C4
  8
DATA
  6
CONTINUOUS
 62
     7
 10
349.99999999982941
 20
-10.695516317413279
 30
0.0
 11
349.99999999982941
 21
72.304483682587176
 31
0.0
  0
LINE
  5
4C5
  8
DATA
  6
CONTINUOUS
 62
     7
 10
355.49999999982941
 20
-10.695516317413279
 30
0.0
 11
349.99999999982941
 21
-10.695516317413279
 31
0.0
  0
LINE
  5
4C6
  8
DATA
  6
CONTINUOUS
 62
     7
 10
355.49999999982941
 20
72.304483682587176
 30
0.0
 11
355.49999999982941
 21
-10.695516317413279
 31
0.0
  0
LINE
  5
4C7
  8
DATA
  6
CONTINUOUS
 62
     7
 10
349.99999999982941
 20
72.304483682587176
 30
0.0
 11
355.49999999982941
 21
72.304483682587176
 31
0.0
  0
LINE
  5
4C8
  8
DATA
  6
CONTINUOUS
 62
     7
 10
405.9999999998301
 20
-32.774387280138399
 30
0.0
 11
405.9999999998301
 21
72.22561271986217
 31
0.0
  0
LINE
  5
4C9
  8
DATA
  6
CONTINUOUS
 62
     7
 10
412.99999999982998
 20
-32.774387280138399
 30
0.0
 11
405.9999999998301
 21
-32.774387280138399
 31
0.0
  0
LINE
  5
4CA
  8
DATA
  6
CONTINUOUS
 62
     7
 10
412.99999999982998
 20
72.22561271986217
 30
0.0
 11
412.99999999982998
 21
-32.774387280138399
 31
0.0
  0
LINE
  5
4CB
  8
DATA
  6
CONTINUOUS
 62
     7
 10
405.9999999998301
 20
72.22561271986217
 30
0.0
 11
412.99999999982998
 21
72.22561271986217
 31
0.0
  0
LINE
  5
4CC
  8
DATA
  6
CONTINUOUS
 62
     7
 10
476.49999999982998
 20
-60.776702314524762
 30
0.0
 11
476.49999999982998
 21
72.223297685475401
 31
0.0
  0
LINE
  5
4CD
  8
DATA
  6
CONTINUOUS
 62
     7
 10
484.99999999982998
 20
-60.776702314524762
 30
0.0
 11
476.49999999982998
 21
-60.776702314524762
 31
0.0
  0
LINE
  5
4CE
  8
DATA
  6
CONTINUOUS
 62
     7
 10
484.99999999982998
 20
72.223297685475401
 30
0.0
 11
484.99999999982998
 21
-60.776702314524762
 31
0.0
  0
LINE
  5
4CF
  8
DATA
  6
CONTINUOUS
 62
     7
 10
476.49999999982998
 20
72.223297685475401
 30
0.0
 11
484.99999999982998
 21
72.223297685475401
 31
0.0
  0
CIRCLE
  5
4D0
  8
DATA
  6
CONTINUOUS
 62
     7
 10
533.59999999982972
 20
77.81794650889411
 30
0.0
 40
0.400000000000091
  0
CIRCLE
  5
4D1
  8
DATA
  6
CONTINUOUS
 62
     7
 10
533.59999999982972
 20
72.381540118267282
 30
0.0
 40
0.400000000000091
  0
CIRCLE
  5
4D2
  8
DATA
  6
CONTINUOUS
 62
     7
 10
537.09999999982961
 20
78.139999999964516
 30
0.0
 40
0.400000000000091
  0
CIRCLE
  5
4D3
  8
DATA
  6
CONTINUOUS
 62
     7
 10
537.09999999982961
 20
72.139999999964516
 30
0.0
 40
0.400000000000091
  0
CIRCLE
  5
4D4
  8
DATA
  6
CONTINUOUS
 62
     7
 10
542.79999999982977
 20
81.206204652381331
 30
0.0
 40
0.3999999999999773
  0
CIRCLE
  5
4D5
  8
DATA
  6
CONTINUOUS
 62
     7
 10
539.99999999982958
 20
79.6999988582117
 30
0.0
 40
0.3999999999998636
  0
CIRCLE
  5
4D6
  8
DATA
  6
CONTINUOUS
 62
     7
 10
542.79999999982977
 20
74.544135293156131
 30
0.0
 40
0.3999999999999773
  0
CIRCLE
  5
4D7
  8
DATA
  6
CONTINUOUS
 62
     7
 10
540.09999999982972
 20
73.044135293156131
 30
0.0
 40
0.400000000000091
  0
LINE
  5
4D8
  8
DATA
  6
CONTINUOUS
 62
     7
 10
586.66999999982966
 20
32.639999999964317
 30
0.0
 11
596.32999999982974
 21
32.639999999964317
 31
0.0
  0
LINE
  5
4D9
  8
DATA
  6
CONTINUOUS
 62
     7
 10
596.32999999982974
 20
32.639999999964317
 30
0.0
 11
596.32999999982985
 21
36.139999999964317
 31
0.0
  0
LINE
  5
4DA
  8
DATA
  6
CONTINUOUS
 62
     7
 10
586.66999999982966
 20
34.097741935448227
 30
0.0
 11
586.66999999982966
 21
32.639999999964317
 31
0.0
  0
LINE
  5
4DB
  8
DATA
  6
CONTINUOUS
 62
     7
 10
596.32999999982985
 20
36.139999999964317
 30
0.0
 11
596.32999999982974
 21
36.27903225802882
 31
0.0
  0
LINE
  5
4DC
  8
DATA
  6
CONTINUOUS
 62
     7
 10
249.99999999982921
 20
76.27999999996446
 30
0.0
 11
360.99999999982919
 21
76.27999999996446
 31
0.0
  0
LINE
  5
4DD
  8
DATA
  6
CONTINUOUS
 62
     7
 10
249.99999999982921
 20
72.27999999996446
 30
0.0
 11
366.49999999982919
 21
72.27999999996446
 31
0.0
  0
LINE
  5
4DE
  8
DATA
  6
CONTINUOUS
 62
     7
 10
360.99999999982919
 20
76.27999999996446
 30
0.0
 11
490.99999999982981
 21
76.27999999996446
 31
0.0
  0
LINE
  5
4DF
  8
DATA
  6
CONTINUOUS
 62
     7
 10
490.99999999982981
 20
76.27999999996446
 30
0.0
 11
528.49999999982992
 21
76.27999999996446
 31
0.0
  0
LINE
  5
4E0
  8
DATA
  6
CONTINUOUS
 62
     7
 10
530.26696767529688
 20
71.744135293156162
 30
0.0
 11
530.26696767529688
 21
77.202733496029069
 31
0.0
  0
LINE
  5
4E1
  8
DATA
  6
CONTINUOUS
 62
     7
 10
530.37128129194014
 20
71.7125003139912
 30
0.0
 11
530.26696767529688
 21
71.744135293156162
 31
0.0
  0
LINE
  5
4E2
  8
DATA
  6
CONTINUOUS
 62
     7
 10
528.49999999982992
 20
76.27999999996446
 30
0.0
 11
528.49999999982992
 21
72.27999999996446
 31
0.0
  0
ARC
  5
4E3
  8
DATA
  6
CONTINUOUS
 62
     7
 10
544.69999999982974
 20
100.1399999999645
 30
0.0
 40
2.0
 50
90.0
 51
180.0
  0
ARC
  5
4E4
  8
DATA
  6
CONTINUOUS
 62
     7
 10
544.52734426520021
 20
50.139999999964402
 30
0.0
 40
2.0
 50
180.0
 51
270.0
  0
ARC
  5
4E5
  8
DATA
  6
CONTINUOUS
 62
     7
 10
606.99999999982958
 20
50.139999999964402
 30
0.0
 40
2.0
 50
270.0
 51
0.0
  0
ARC
  5
4E6
  8
DATA
  6
CONTINUOUS
 62
     7
 10
606.99999999982958
 20
100.1399999999645
 30
0.0
 40
2.0
 50
0.0
 51
90.0
  0
LINE
  5
4E7
  8
DATA
  6
CONTINUOUS
 62
     7
 10
608.9999999998297
 20
105.9440893042574
 30
0.0
 11
608.9999999998297
 21
44.335910695671451
 31
0.0
  0
LINE
  5
4E8
  8
DATA
  6
CONTINUOUS
 62
     7
 10
-298.47943101858812
 20
379.5000000003609
 30
0.0
 11
-234.90271151650231
 21
379.5000000003609
 31
0.0
  0
LINE
  5
4E9
  8
DATA
  6
CONTINUOUS
 62
     7
 10
-298.47943101858812
 20
410.1700000003608
 30
0.0
 11
-234.90271151650231
 21
410.1700000003608
 31
0.0
  0
LINE
  5
4EA
  8
DATA
  6
CONTINUOUS
 62
     7
 10
-298.47943101858812
 20
408.47000000036081
 30
0.0
 11
-234.90271151650231
 21
408.47000000036081
 31
0.0
  0
LINE
  5
4EB
  8
DATA
  6
CONTINUOUS
 62
     7
 10
-298.47943101858812
 20
405.07000000036072
 30
0.0
 11
-234.90271151650231
 21
405.07000000036072
 31
0.0
  0
LINE
  5
4EC
  8
DATA
  6
CONTINUOUS
 62
     7
 10
-298.47943101858812
 20
401.60000000036081
 30
0.0
 11
-234.90271151650231
 21
401.60000000036081
 31
0.0
  0
LINE
  5
4ED
  8
DATA
  6
CONTINUOUS
 62
     7
 10
-234.90271151650231
 20
381.20000000036089
 30
0.0
 11
-298.47943101858812
 21
381.20000000036089
 31
0.0
  0
LINE
  5
4EE
  8
DATA
  6
CONTINUOUS
 62
     7
 10
552.77844435913187
 20
26.444810016580931
 30
0.0
 11
603.93169566415486
 21
37.995544182231299
 31
0.0
  0
LINE
  5
4EF
  8
DATA
  6
CONTINUOUS
 62
     7
 10
-298.47943101858812
 20
-225.32999999975399
 30
0.0
 11
-234.90271151650231
 21
-225.32999999975399
 31
0.0
  0
LINE
  5
4F0
  8
DATA
  6
CONTINUOUS
 62
     7
 10
-234.90271151650231
 20
-227.02999999975401
 30
0.0
 11
-298.47943101858812
 21
-227.02999999975401
 31
0.0
  0
LINE
  5
4F1
  8
DATA
  6
CONTINUOUS
 62
     7
 10
-298.47943101858812
 20
-254.2999999997536
 30
0.0
 11
-234.90271151650231
 21
-254.2999999997536
 31
0.0
  0
LINE
  5
4F2
  8
DATA
  6
CONTINUOUS
 62
     7
 10
-234.90271151650231
 20
-255.9999999997535
 30
0.0
 11
-298.47943101858812
 21
-255.9999999997535
 31
0.0
  0
LINE
  5
4F3
  8
DATA
  6
CONTINUOUS
 62
     7
 10
-167.7499999998995
 20
-100.000000000036
 30
0.0
 11
-138.24999999989959
 21
-100.000000000036
 31
0.0
  0
TEXT
  5
4F4
  8
DATA
 62
     7
 10
-110.96790021388161
 20
-321.17009910935451
 30
0.0
 40
18.520833333333329
  1
5
 41
0.7
 11
-110.96790021388161
 21
-302.6492657760212
 31
0.0
 73
     3
  0
TEXT
  5
4F5
  8
DATA
 62
     7
 10
-88.674994451159137
 20
-321.35929639511062
 30
0.0
 40
18.520833333333329
  1
8
 41
0.7
 11
-88.674994451159137
 21
-302.8384630617773
 31
0.0
 73
     3
  0
LINE
  5
4F6
  8
DATA
  6
CONTINUOUS
 62
     7
 10
-148.0
 20
-256.80829771741639
 30
0.0
 11
-125.0
 21
-325.0
 31
0.0
  0
LINE
  5
4F7
  8
DATA
  6
CONTINUOUS
 62
     7
 10
-148.0
 20
-256.80829771741639
 30
0.0
 11
-136.97159127420429
 21
-273.15858603908629
 31
0.0
  0
LINE
  5
4F8
  8
DATA
  6
CONTINUOUS
 62
     7
 10
-148.0
 20
-256.80829771741639
 30
0.0
 11
-146.6242620409779
 21
-276.48226712608039
 31
0.0
  0
LINE
  5
4F9
  8
DATA
  6
CONTINUOUS
 62
     7
 10
-125.0
 20
-325.0
 30
0.0
 11
50.0
 21
-325.0
 31
0.0
  0
TEXT
  5
4FA
  8
DATA
 62
     7
 10
-67.62763073841792
 20
-320.0094707460467
 30
0.0
 40
18.520833333333329
  1
インチネジ
 41
0.7
 11
-67.62763073841792
 21
-301.48863741271327
 31
0.0
 73
     3
  0
LINE
  5
4FB
  8
DATA
  6
CONTINUOUS
 62
     7
 10
-98.829364571859983
 20
-322.81838911981572
 30
0.0
 11
-89.729364571859989
 21
-302.75172245314911
 31
0.0
  0
LINE
  5
4FC
  8
DATA
  6
CONTINUOUS
 62
     7
 10
-238.79999999989931
 20
94.461330681355264
 30
0.0
 11
-238.79999999989931
 21
98.818669318573754
 31
0.0
  0
LINE
  5
4FD
  8
DATA
  6
CONTINUOUS
 62
     7
 10
-236.62133068129
 20
96.639999999964544
 30
0.0
 11
-240.97866931850851
 21
96.639999999964544
 31
0.0
  0
LINE
  5
4FE
  8
DATA
  6
CONTINUOUS
 62
     7
 10
-294.49999999989927
 20
94.461330681355264
 30
0.0
 11
-294.49999999989927
 21
98.818669318573754
 31
0.0
  0
LINE
  5
4FF
  8
DATA
  6
CONTINUOUS
 62
     7
 10
-292.32133068129002
 20
96.639999999964544
 30
0.0
 11
-296.67866931850853
 21
96.639999999964544
 31
0.0
  0
LINE
  5
500
  8
DATA
  6
CONTINUOUS
 62
     7
 10
-238.79999999989931
 20
51.461330681355257
 30
0.0
 11
-238.79999999989931
 21
55.818669318573761
 31
0.0
  0
LINE
  5
501
  8
DATA
  6
CONTINUOUS
 62
     7
 10
-236.62133068129
 20
53.639999999964523
 30
0.0
 11
-240.97866931850851
 21
53.639999999964523
 31
0.0
  0
LINE
  5
502
  8
DATA
  6
CONTINUOUS
 62
     7
 10
-294.49999999989927
 20
51.461330681355257
 30
0.0
 11
-294.49999999989927
 21
55.818669318573761
 31
0.0
  0
LINE
  5
503
  8
DATA
  6
CONTINUOUS
 62
     7
 10
-292.32133068129002
 20
53.639999999964523
 30
0.0
 11
-296.67866931850853
 21
53.639999999964523
 31
0.0
  0
LINE
  5
504
  8
DATA
  6
CONTINUOUS
 62
     7
 10
603.50000000010061
 20
94.461330681355264
 30
0.0
 11
603.50000000010061
 21
98.818669318573754
 31
0.0
  0
LINE
  5
505
  8
DATA
  6
CONTINUOUS
 62
     7
 10
605.67866931870992
 20
96.639999999964544
 30
0.0
 11
601.32133068149142
 21
96.639999999964544
 31
0.0
  0
LINE
  5
506
  8
DATA
  6
CONTINUOUS
 62
     7
 10
547.80000000010068
 20
94.461330681355264
 30
0.0
 11
547.80000000010068
 21
98.818669318573754
 31
0.0
  0
LINE
  5
507
  8
DATA
  6
CONTINUOUS
 62
     7
 10
549.97866931870965
 20
96.639999999964544
 30
0.0
 11
545.62133068149126
 21
96.639999999964544
 31
0.0
  0
LINE
  5
508
  8
DATA
  6
CONTINUOUS
 62
     7
 10
603.50000000010061
 20
51.461330681355257
 30
0.0
 11
603.50000000010061
 21
55.818669318573761
 31
0.0
  0
LINE
  5
509
  8
DATA
  6
CONTINUOUS
 62
     7
 10
605.67866931870992
 20
53.639999999964523
 30
0.0
 11
601.32133068149142
 21
53.639999999964523
 31
0.0
  0
LINE
  5
50A
  8
DATA
  6
CONTINUOUS
 62
     7
 10
547.80000000010068
 20
51.461330681355257
 30
0.0
 11
547.80000000010068
 21
55.818669318573761
 31
0.0
  0
LINE
  5
50B
  8
DATA
  6
CONTINUOUS
 62
     7
 10
549.97866931870965
 20
53.639999999964523
 30
0.0
 11
545.62133068149126
 21
53.639999999964523
 31
0.0
  0
POLYLINE
  5
50C
  8
DATA
  6
CONTINUOUS
 62
     7
 66
     1
 10
0.0
 20
0.0
 30
0.0
 70
     1
  0
VERTEX
  5
63F
  8
DATA
  6
CONTINUOUS
 62
     7
 10
-221.79999999989931
 20
402.49999999996447
 30
0.0
  0
VERTEX
  5
640
  8
DATA
  6
CONTINUOUS
 62
     7
 10
52.79000000010069
 20
402.49999999996447
 30
0.0
  0
VERTEX
  5
641
  8
DATA
  6
CONTINUOUS
 62
     7
 10
52.79000000010069
 20
400.21999999996439
 30
0.0
  0
VERTEX
  5
642
  8
DATA
  6
CONTINUOUS
 62
     7
 10
-221.79999999989931
 20
400.21999999996439
 30
0.0
  0
SEQEND
  5
643
  8
DATA
  6
CONTINUOUS
 62
     7
  0
POLYLINE
  5
513
  8
DATA
  6
CONTINUOUS
 62
     7
 66
     1
 10
0.0
 20
0.0
 30
0.0
 70
     1
  0
VERTEX
  5
644
  8
DATA
  6
CONTINUOUS
 62
     7
 10
-221.79999999989931
 20
76.285322463664826
 30
0.0
  0
VERTEX
  5
645
  8
DATA
  6
CONTINUOUS
 62
     7
 10
51.200000000100772
 20
76.285322463664826
 30
0.0
  0
VERTEX
  5
646
  8
DATA
  6
CONTINUOUS
 62
     7
 10
51.200000000100772
 20
73.999999999964444
 30
0.0
  0
VERTEX
  5
647
  8
DATA
  6
CONTINUOUS
 62
     7
 10
-221.79999999989931
 20
73.999999999964444
 30
0.0
  0
SEQEND
  5
648
  8
DATA
  6
CONTINUOUS
 62
     7
  0
POLYLINE
  5
51A
  8
DATA
  6
CONTINUOUS
 62
     7
 66
     1
 10
0.0
 20
0.0
 30
0.0
 70
     1
  0
VERTEX
  5
649
  8
DATA
  6
CONTINUOUS
 62
     7
 10
-221.79999999989931
 20
-245.8299999997538
 30
0.0
  0
VERTEX
  5
64A
  8
DATA
  6
CONTINUOUS
 62
     7
 10
-167.79999999989951
 20
-245.8299999997538
 30
0.0
  0
VERTEX
  5
64B
  8
DATA
  6
CONTINUOUS
 62
     7
 10
-167.79999999989951
 20
-248.32999999975371
 30
0.0
  0
VERTEX
  5
64C
  8
DATA
  6
CONTINUOUS
 62
     7
 10
-221.79999999989931
 20
-248.32999999975371
 30
0.0
  0
SEQEND
  5
64D
  8
DATA
  6
CONTINUOUS
 62
     7
  0
POLYLINE
  5
521
  8
DATA
  6
CONTINUOUS
 62
     7
 66
     1
 10
0.0
 20
0.0
 30
0.0
 70
     1
  0
VERTEX
  5
64E
  8
DATA
  6
CONTINUOUS
 62
     7
 10
-138.32537705425921
 20
-245.8299999997538
 30
0.0
  0
VERTEX
  5
64F
  8
DATA
  6
CONTINUOUS
 62
     7
 10
52.79000000010069
 20
-245.8299999997538
 30
0.0
  0
VERTEX
  5
650
  8
DATA
  6
CONTINUOUS
 62
     7
 10
52.79000000010069
 20
-248.32999999975371
 30
0.0
  0
VERTEX
  5
651
  8
DATA
  6
CONTINUOUS
 62
     7
 10
-138.32537705425921
 20
-248.32999999975371
 30
0.0
  0
SEQEND
  5
652
  8
DATA
  6
CONTINUOUS
 62
     7
  0
ENDSEC
  0
EOF
