  0
SECTION
  2
HEADER
  9
$ACADVER
  1
AC1009
  9
$INSBASE
 10
0.0
 20
0.0
 30
0.0
  9
$EXTMIN
 10
-2150.1373186243418
 20
-3215.2330881773942
 30
-0.0007739125091746
  9
$EXTMAX
 10
2350.137339579102
 20
3475.0113211989778
 30
25.362274030607871
  9
$LIMMIN
 10
0.0
 20
0.0
  9
$LIMMAX
 10
0.0
 20
0.0
  9
$ORTHOMODE
 70
     0
  9
$REGENMODE
 70
     1
  9
$FILLMODE
 70
     1
  9
$QTEXTMODE
 70
     0
  9
$MIRRTEXT
 70
     1
  9
$DRAGMODE
 70
     2
  9
$LTSCALE
 40
127.0
  9
$OSMODE
 70
   231
  9
$ATTMODE
 70
     1
  9
$TEXTSIZE
 40
0.0
  9
$TRACEWID
 40
1.0
  9
$TEXTSTYLE
  7
STANDARD
  9
$CLAYER
  8
DATA
  9
$CELTYPE
  6
BYLAYER
  9
$CECOLOR
 62
   256
  9
$DIMSCALE
 40
1.0
  9
$DIMASZ
 40
0.18
  9
$DIMEXO
 40
0.0625
  9
$DIMDLI
 40
0.38
  9
$DIMRND
 40
0.0
  9
$DIMDLE
 40
0.0
  9
$DIMEXE
 40
0.18
  9
$DIMTP
 40
0.0
  9
$DIMTM
 40
0.0
  9
$DIMTXT
 40
0.18
  9
$DIMCEN
 40
0.09
  9
$DIMTSZ
 40
0.0
  9
$DIMTOL
 70
     0
  9
$DIMLIM
 70
     0
  9
$DIMTIH
 70
     1
  9
$DIMTOH
 70
     1
  9
$DIMSE1
 70
     0
  9
$DIMSE2
 70
     0
  9
$DIMTAD
 70
     0
  9
$DIMZIN
 70
     0
  9
$DIMBLK
  1

  9
$DIMASO
 70
     1
  9
$DIMSHO
 70
     1
  9
$DIMPOST
  1

  9
$DIMAPOST
  1

  9
$DIMALT
 70
     0
  9
$DIMALTD
 70
     2
  9
$DIMALTF
 40
25.399999999999999
  9
$DIMLFAC
 40
1.0
  9
$DIMTOFL
 70
     0
  9
$DIMTVP
 40
0.0
  9
$DIMTIX
 70
     0
  9
$DIMSOXD
 70
     0
  9
$DIMSAH
 70
     0
  9
$DIMBLK1
  1

  9
$DIMBLK2
  1

  9
$DIMSTYLE
  2
STANDARD
  9
$DIMCLRD
 70
     0
  9
$DIMCLRE
 70
     0
  9
$DIMCLRT
 70
     0
  9
$DIMTFAC
 40
1.0
  9
$DIMGAP
 40
0.09
  9
$LUNITS
 70
     2
  9
$LUPREC
 70
     4
  9
$SKETCHINC
 40
0.1
  9
$FILLETRAD
 40
0.0
  9
$AUNITS
 70
     0
  9
$AUPREC
 70
     0
  9
$MENU
  1
acad
  9
$ELEVATION
 40
0.0
  9
$PELEVATION
 40
0.0
  9
$THICKNESS
 40
0.0
  9
$LIMCHECK
 70
     0
  9
$BLIPMODE
 70
     0
  9
$CHAMFERA
 40
0.0
  9
$CHAMFERB
 40
0.0
  9
$SKPOLY
 70
     0
  9
$TDCREATE
 40
2456232.6920833332
  9
$TDUPDATE
 40
2456232.6948188771
  9
$TDINDWG
 40
0.0004081829
  9
$TDUSRTIMER
 40
0.0004080093
  9
$USRTIMER
 70
     1
  9
$ANGBASE
 50
0.0
  9
$ANGDIR
 70
     0
  9
$PDMODE
 70
     1
  9
$PDSIZE
 40
-2.0
  9
$PLINEWID
 40
0.0
  9
$COORDS
 70
     2
  9
$SPLFRAME
 70
     0
  9
$SPLINETYPE
 70
     6
  9
$SPLINESEGS
 70
     8
  9
$ATTDIA
 70
     0
  9
$ATTREQ
 70
     1
  9
$HANDLING
 70
     1
  9
$HANDSEED
  5
6AF
  9
$SURFTAB1
 70
     6
  9
$SURFTAB2
 70
     6
  9
$SURFTYPE
 70
     6
  9
$SURFU
 70
     6
  9
$SURFV
 70
     6
  9
$UCSNAME
  2

  9
$UCSORG
 10
0.0
 20
0.0
 30
0.0
  9
$UCSXDIR
 10
1.0
 20
0.0
 30
0.0
  9
$UCSYDIR
 10
0.0
 20
1.0
 30
0.0
  9
$PUCSNAME
  2

  9
$PUCSORG
 10
0.0
 20
0.0
 30
0.0
  9
$PUCSXDIR
 10
1.0
 20
0.0
 30
0.0
  9
$PUCSYDIR
 10
0.0
 20
1.0
 30
0.0
  9
$USERI1
 70
     0
  9
$USERI2
 70
     0
  9
$USERI3
 70
     0
  9
$USERI4
 70
     0
  9
$USERI5
 70
     0
  9
$USERR1
 40
0.0
  9
$USERR2
 40
0.0
  9
$USERR3
 40
0.0
  9
$USERR4
 40
0.0
  9
$USERR5
 40
0.0
  9
$WORLDVIEW
 70
     1
  9
$SHADEDGE
 70
     3
  9
$SHADEDIF
 70
    70
  9
$TILEMODE
 70
     1
  9
$MAXACTVP
 70
    64
  9
$PLIMCHECK
 70
     0
  9
$PEXTMIN
 10
1.0000000000000000E+020
 20
1.0000000000000000E+020
 30
1.0000000000000000E+020
  9
$PEXTMAX
 10
-1.0000000000000000E+020
 20
-1.0000000000000000E+020
 30
-1.0000000000000000E+020
  9
$PLIMMIN
 10
0.0
 20
0.0
  9
$PLIMMAX
 10
12.0
 20
9.0
  9
$UNITMODE
 70
     0
  9
$VISRETAIN
 70
     0
  9
$PLINEGEN
 70
     1
  9
$PSLTSCALE
 70
     0
  0
ENDSEC
  0
SECTION
  2
TABLES
  0
TABLE
  2
VPORT
 70
     1
  0
VPORT
  2
*ACTIVE
 70
     0
 10
0.0
 20
0.0
 11
1.0
 21
1.0
 12
100.0000104773798
 22
136.46636765049601
 13
0.0
 23
0.0
 14
1.0
 24
1.0
 15
0.0
 25
0.0
 16
0.0
 26
0.0
 36
1.0
 17
0.0
 27
0.0
 37
0.0
 40
6730.4354988980031
 41
2.2333333333333329
 42
50.0
 43
0.0
 44
0.0
 50
0.0
 51
0.0
 71
     0
 72
  2000
 73
     1
 74
     1
 75
     0
 76
     0
 77
     0
 78
     0
  0
ENDTAB
  0
TABLE
  2
LTYPE
 70
    12
  0
LTYPE
  2
CONTINUOUS
 70
     0
  3
Solid line
 72
    65
 73
     0
 40
0.0
  0
LTYPE
  2
PHANTOM2
 70
     0
  3
___ _ _ ___ _ _ ___ _ _ ___ _ _
 72
    65
 73
     6
 40
1.25
 49
0.625
 49
-0.125
 49
0.125
 49
-0.125
 49
0.125
 49
-0.125
  0
ENDTAB
  0
TABLE
  2
LAYER
 70
     5
  0
LAYER
  2
0
 70
     0
 62
     7
  6
CONTINUOUS
  0
LAYER
  2
DATA
 70
     0
 62
     7
  6
CONTINUOUS
  0
LAYER
  2
HIBINO-BASE
 70
     0
 62
     7
  6
CONTINUOUS
  0
LAYER
  2
SPEC
 70
     0
 62
     7
  6
CONTINUOUS
  0
LAYER
  2
DIMNSIONS
 70
     0
 62
     7
  6
CONTINUOUS
  0
ENDTAB
  0
TABLE
  2
STYLE
 70
     3
  0
STYLE
  2
STANDARD
 70
     0
 40
0.0
 41
1.0
 50
0.0
 71
     0
 42
0.0
  3
txt
  4
BIGFONT.SHX
  0
ENDTAB
  0
TABLE
  2
VIEW
 70
     0
  0
ENDTAB
  0
TABLE
  2
UCS
 70
     0
  0
ENDTAB
  0
TABLE
  2
APPID
 70
     4
  0
APPID
  2
ACAD
 70
     0
  0
APPID
  2
ACADANNOTATIVE
 70
     0
  0
APPID
  2
ACAD_NAV_VCDISPLAY
 70
     0
  0
APPID
  2
ACAD_MLEADERVER
 70
     0
  0
ENDTAB
  0
TABLE
  2
DIMSTYLE
 70
     2
  0
DIMSTYLE
  2
STANDARD
 70
     0
  3

  4

  5

  6

  7

 40
1.0
 41
0.18
 42
0.0625
 43
0.38
 44
0.18
 45
0.0
 46
0.0
 47
0.0
 48
0.0
140
0.18
141
0.09
142
0.0
143
25.399999999999999
144
1.0
145
0.0
146
1.0
147
0.09
 71
     0
 72
     0
 73
     1
 74
     1
 75
     0
 76
     0
 77
     0
 78
     0
170
     0
171
     2
172
     0
173
     0
174
     0
175
     0
176
     0
177
     0
178
     0
  0
ENDTAB
  0
ENDSEC
  0
SECTION
  2
BLOCKS
  0
BLOCK
  8
0
  2
$MODEL_SPACE
 70
     0
 10
0.0
 20
0.0
 30
0.0
  3
$MODEL_SPACE
  1

  0
ENDBLK
  5
62E
  8
0
  0
BLOCK
 67
     1
  8
0
  2
$PAPER_SPACE
 70
     0
 10
0.0
 20
0.0
 30
0.0
  3
$PAPER_SPACE
  1

  0
ENDBLK
  5
62A
 67
     1
  8
0
  0
ENDSEC
  0
SECTION
  2
ENTITIES
  0
LINE
  5
2C
  8
HIBINO-BASE
  6
CONTINUOUS
 62
     7
 10
-2150.0
 20
3474.8075494767818
 30
0.0
 11
2350.0
 21
3474.8075494767818
 31
0.0
  0
LINE
  5
2D
  8
HIBINO-BASE
  6
CONTINUOUS
 62
     7
 10
2350.0
 20
-3025.1924505232182
 30
0.0
 11
-2150.0
 21
-3025.1924505232182
 31
0.0
  0
LINE
  5
2E
  8
HIBINO-BASE
  6
CONTINUOUS
 62
     7
 10
-2150.0
 20
-3025.1924505232182
 30
0.0
 11
-2150.0
 21
3474.8075494767818
 31
0.0
  0
LINE
  5
2F
  8
HIBINO-BASE
  6
CONTINUOUS
 62
     7
 10
2350.0
 20
3474.8075494767818
 30
0.0
 11
2350.0
 21
-3025.1924505232182
 31
0.0
  0
LINE
  5
30
  8
HIBINO-BASE
  6
CONTINUOUS
 62
     7
 10
100.0
 20
-2462.6924505232182
 30
0.0
 11
2350.0
 21
-2462.6924505232182
 31
0.0
  0
LINE
  5
31
  8
HIBINO-BASE
  6
CONTINUOUS
 62
     7
 10
100.0
 20
-3025.1924505232182
 30
0.0
 11
100.0
 21
-2462.6924505232182
 31
0.0
  0
TEXT
  5
32
  8
HIBINO-BASE
 62
     7
 10
122.5
 20
-2525.4097838565522
 30
0.0
 40
40.721028645833329
  1
NOTE
 41
0.7
 11
122.5
 21
-2484.6887552107191
 31
0.0
 73
     3
  0
LINE
  5
33
  8
HIBINO-BASE
  6
CONTINUOUS
 62
     7
 10
975.0
 20
-3025.1924505232182
 30
0.0
 11
975.0
 21
-2462.6924505232182
 31
0.0
  0
TEXT
  5
34
  8
HIBINO-BASE
 62
     7
 10
997.49999999999989
 20
-2525.4097838565522
 30
0.0
 40
40.721028645833329
  1
TITLE
 41
0.7
 11
997.49999999999989
 21
-2484.6887552107191
 31
0.0
 73
     3
  0
LINE
  5
35
  8
HIBINO-BASE
  6
CONTINUOUS
 62
     7
 10
100.0
 20
-2775.1924505232182
 30
0.0
 11
2350.0
 21
-2775.1924505232182
 31
0.0
  0
TEXT
  5
36
  8
HIBINO-BASE
 62
     7
 10
1310.0
 20
-2836.5017838565509
 30
0.0
 40
40.721028645833329
  1
DRAWN
 41
0.7
 11
1310.0
 21
-2795.7807552107179
 31
0.0
 73
     3
  0
TEXT
  5
37
  8
HIBINO-BASE
 62
     7
 10
685.0
 20
-2836.5017838565509
 30
0.0
 40
40.721028645833329
  1
DATE
 41
0.7
 11
685.0
 21
-2795.7807552107179
 31
0.0
 73
     3
  0
TEXT
  5
38
  8
HIBINO-BASE
 62
     7
 10
435.0
 20
-2836.5017838565509
 30
0.0
 40
40.721028645833329
  1
SCALE
 41
0.7
 11
435.0
 21
-2795.7807552107179
 31
0.0
 73
     3
  0
TEXT
  5
39
  8
HIBINO-BASE
 62
     7
 10
997.49999999999989
 20
-2836.5017838565509
 30
0.0
 40
40.721028645833329
  1
DESIGN
 41
0.7
 11
997.49999999999989
 21
-2795.7807552107179
 31
0.0
 73
     3
  0
TEXT
  5
3A
  8
HIBINO-BASE
 62
     7
 10
1935.0
 20
-2836.5017838565509
 30
0.0
 40
40.721028645833329
  1
DRAWING NO.
 41
0.7
 11
1935.0
 21
-2795.7807552107179
 31
0.0
 73
     3
  0
TEXT
  5
3B
  8
HIBINO-BASE
 62
     7
 10
1622.5
 20
-2836.5017838565509
 30
0.0
 40
40.721028645833329
  1
CHECK
 41
0.7
 11
1622.5
 21
-2795.7807552107179
 31
0.0
 73
     3
  0
LINE
  5
3C
  8
HIBINO-BASE
  6
CONTINUOUS
 62
     7
 10
459.375
 20
-2993.9424505232182
 30
0.0
 11
553.125
 21
-2900.1924505232182
 31
0.0
  0
TEXT
  5
3D
  8
HIBINO-BASE
 62
     7
 10
443.75
 20
-2927.9160338565521
 30
0.0
 40
40.721028645833329
  1
1
 41
0.7
 11
443.75
 21
-2887.195005210719
 31
0.0
 73
     3
  0
LINE
  5
3E
  8
HIBINO-BASE
  6
CONTINUOUS
 62
     7
 10
412.5
 20
-3025.1924505232182
 30
0.0
 11
412.5
 21
-2775.1924505232182
 31
0.0
  0
LINE
  5
3F
  8
HIBINO-BASE
  6
CONTINUOUS
 62
     7
 10
662.49999999999989
 20
-3025.1924505232182
 30
0.0
 11
662.49999999999989
 21
-2775.1924505232182
 31
0.0
  0
LINE
  5
40
  8
HIBINO-BASE
  6
CONTINUOUS
 62
     7
 10
1287.5
 20
-2775.1924505232182
 30
0.0
 11
1287.5
 21
-3025.1924505232182
 31
0.0
  0
LINE
  5
41
  8
HIBINO-BASE
  6
CONTINUOUS
 62
     7
 10
1912.5
 20
-2775.1924505232182
 30
0.0
 11
1912.5
 21
-3025.1924505232182
 31
0.0
  0
LINE
  5
42
  8
HIBINO-BASE
  6
CONTINUOUS
 62
     7
 10
1600.0
 20
-3025.1924505232182
 30
0.0
 11
1600.0
 21
-2775.1924505232182
 31
0.0
  0
TEXT
  5
43
  8
HIBINO-BASE
 62
     7
 10
537.5
 20
-2974.7910338565521
 30
0.0
 40
40.721028645833329
  1
25
 41
0.7
 11
537.5
 21
-2934.070005210719
 31
0.0
 73
     3
  0
TEXT
  5
44
  8
HIBINO-BASE
 62
     7
 10
1325.145250275865
 20
-2953.6012838565512
 30
0.0
 40
40.721028645833329
  1
N.Sasaki
 41
0.7
 11
1325.145250275865
 21
-2912.8802552107181
 31
0.0
 73
     3
  0
TEXT
  5
45
  8
HIBINO-BASE
 62
     7
 10
197.08333333333371
 20
-2975.7924505232172
 30
0.0
 40
81.442057291666657
  1
A4
 41
0.7
 11
197.08333333333371
 21
-2894.3503932315512
 31
0.0
 73
     3
  0
TEXT
  5
46
  8
HIBINO-BASE
 62
     7
 10
123.9583333333333
 20
-2840.6788255232191
 30
0.0
 40
40.721028645833329
  1
PAPER SIZE
 41
0.7
 11
123.9583333333333
 21
-2799.9577968773851
 31
0.0
 73
     3
  0
TEXT
  5
47
  8
HIBINO-BASE
 62
     7
 10
-2081.0091185777451
 20
-3185.823456377625
 30
0.0
 40
88.228895399305543
  1
Hibino-Intersound Corporation
 41
0.7
 11
-2081.0091185777451
 21
-3097.5945609783189
 31
0.0
 73
     3
  0
TEXT
  5
48
  8
HIBINO-BASE
 62
     7
 10
604.51524200534732
 20
-3177.0462500453891
 30
0.0
 40
88.228895399305543
  1
ヒビノインターサウンド株式会社
 41
0.7
 11
604.51524200534732
 21
-3088.8173546460839
 31
0.0
 73
     3
  0
TEXT
  5
49
  8
HIBINO-BASE
 62
     7
 10
691.64641842911146
 20
-2904.5278640065299
 30
0.0
 40
33.93419053819445
  1
'11.05.
 41
0.7
 11
691.64641842911146
 21
-2870.5936734683351
 31
0.0
 73
     3
  0
TEXT
  5
4A
  8
HIBINO-BASE
 62
     7
 10
691.64641842911146
 20
-2980.9870876449431
 30
0.0
 40
33.93419053819445
  1
'12.10.修正
 41
0.7
 11
691.64641842911146
 21
-2947.0528971067479
 31
0.0
 73
     3
  0
LINE
  5
4B
  8
SPEC
  6
CONTINUOUS
 62
     7
 10
-1962.4999999999991
 20
3224.8075494767818
 30
0.0
 11
1725.0
 21
3224.8075494767818
 31
0.0
  0
LINE
  5
4C
  8
SPEC
  6
CONTINUOUS
 62
     7
 10
-769.27843945098573
 20
3131.0575494767818
 30
0.0
 11
1725.0
 21
3131.0575494767818
 31
0.0
  0
LINE
  5
4D
  8
SPEC
  6
CONTINUOUS
 62
     7
 10
-1962.4999999999991
 20
2943.5575494767818
 30
0.0
 11
1725.0
 21
2943.5575494767818
 31
0.0
  0
LINE
  5
4E
  8
SPEC
  6
CONTINUOUS
 62
     7
 10
-1962.4999999999991
 20
3037.3075494767818
 30
0.0
 11
1725.0
 21
3037.3075494767818
 31
0.0
  0
LINE
  5
4F
  8
SPEC
  6
CONTINUOUS
 62
     7
 10
-1962.4999999999991
 20
3224.8075494767818
 30
0.0
 11
-1962.4999999999991
 21
1724.8075494767811
 31
0.0
  0
TEXT
  5
50
  8
SPEC
 62
     7
 10
-1931.2499999999991
 20
3259.6392994767821
 30
0.0
 40
61.08154296875
  1
仕様
 41
0.7
 11
-1931.2499999999991
 21
3320.720842445533
 31
0.0
 73
     3
  0
LINE
  5
51
  8
SPEC
  6
CONTINUOUS
 62
     7
 10
-769.27843945098573
 20
3224.8075494767818
 30
0.0
 11
-769.27843945098584
 21
1724.8075494767811
 31
0.0
  0
LINE
  5
52
  8
SPEC
  6
CONTINUOUS
 62
     7
 10
1725.0
 20
3224.8075494767818
 30
0.0
 11
1725.0
 21
1724.8075494767811
 31
0.0
  0
LINE
  5
53
  8
SPEC
  6
CONTINUOUS
 62
     7
 10
-1962.4999999999991
 20
2849.8075494767818
 30
0.0
 11
1725.0
 21
2849.8075494767818
 31
0.0
  0
LINE
  5
54
  8
SPEC
  6
CONTINUOUS
 62
     7
 10
-1962.4999999999991
 20
2756.0575494767818
 30
0.0
 11
1725.0
 21
2756.0575494767818
 31
0.0
  0
LINE
  5
55
  8
SPEC
  6
CONTINUOUS
 62
     7
 10
-1962.4999999999991
 20
2662.3075494767818
 30
0.0
 11
1725.0
 21
2662.3075494767818
 31
0.0
  0
LINE
  5
56
  8
SPEC
  6
CONTINUOUS
 62
     7
 10
-769.27843945098573
 20
2568.5575494767818
 30
0.0
 11
1725.0
 21
2568.5575494767818
 31
0.0
  0
LINE
  5
57
  8
SPEC
  6
CONTINUOUS
 62
     7
 10
-1962.4999999999991
 20
2474.8075494767818
 30
0.0
 11
1725.0
 21
2474.8075494767818
 31
0.0
  0
LINE
  5
58
  8
SPEC
  6
CONTINUOUS
 62
     7
 10
-1962.4999999999991
 20
2381.0575494767818
 30
0.0
 11
1725.0
 21
2381.0575494767818
 31
0.0
  0
LINE
  5
59
  8
SPEC
  6
CONTINUOUS
 62
     7
 10
-1962.4999999999991
 20
2287.3075494767818
 30
0.0
 11
1725.0
 21
2287.3075494767818
 31
0.0
  0
LINE
  5
5A
  8
SPEC
  6
CONTINUOUS
 62
     7
 10
-1962.4999999999991
 20
2193.5575494767818
 30
0.0
 11
1725.0
 21
2193.5575494767818
 31
0.0
  0
LINE
  5
5B
  8
SPEC
  6
CONTINUOUS
 62
     7
 10
-1962.4999999999991
 20
2099.8075494767818
 30
0.0
 11
1725.0
 21
2099.8075494767818
 31
0.0
  0
LINE
  5
5C
  8
SPEC
  6
CONTINUOUS
 62
     7
 10
-1962.4999999999991
 20
2006.057549476782
 30
0.0
 11
1725.0
 21
2006.057549476782
 31
0.0
  0
TEXT
  5
5D
  8
SPEC
 62
     7
 10
-1944.3496892072269
 20
2121.2941737241972
 30
0.0
 40
47.507866753472221
  1
エンクロージャー
 41
0.7
 11
-1944.3496892072269
 21
2168.8020404776698
 31
0.0
 73
     3
  0
TEXT
  5
5E
  8
SPEC
 62
     7
 10
-747.69435756150835
 20
1842.945806307511
 30
0.0
 40
47.507866753472221
  1
760(W)\U+00D7540(H)\U+00D7780(D)mm(突起部含まず）
 41
0.7
 11
-747.69435756150835
 21
1890.453673060983
 31
0.0
 73
     3
  0
TEXT
  5
5F
  8
SPEC
 62
     7
 10
-1939.0527690022091
 20
2026.8266561277489
 30
0.0
 40
47.507866753472221
  1
仕上げ
 41
0.7
 11
-1939.0527690022091
 21
2074.3345228812209
 31
0.0
 73
     3
  0
TEXT
  5
60
  8
SPEC
 62
     7
 10
-1940.8676608339599
 20
2405.589782487546
 30
0.0
 40
47.507866753472221
  1
入力コネクター
 41
0.7
 11
-1940.8676608339599
 21
2453.0976492410182
 31
0.0
 73
     3
  0
TEXT
  5
61
  8
SPEC
 62
     7
 10
-746.98699876986814
 20
2402.8891464146468
 30
0.0
 40
47.507866753472221
  1
2\U+00D7Neutrik NL4MP
 41
0.7
 11
-746.98699876986814
 21
2450.397013168119
 31
0.0
 73
     3
  0
TEXT
  5
62
  8
SPEC
 62
     7
 10
-1940.8754155886691
 20
2216.7911629680129
 30
0.0
 40
47.507866753472221
  1
公称インピーダンス
 41
0.7
 11
-1940.8754155886691
 21
2264.2990297214851
 31
0.0
 73
     3
  0
TEXT
  5
63
  8
SPEC
 62
     7
 10
-745.94872708378739
 20
2215.9186948946999
 30
0.0
 40
47.507866753472221
  1
4\U+03A9(+1/-1)
 41
0.7
 11
-745.94872708378739
 21
2263.426561648173
 31
0.0
 73
     3
  0
TEXT
  5
64
  8
SPEC
 62
     7
 10
-1941.249448741383
 20
3151.9884425182199
 30
0.0
 40
47.507866753472221
  1
形式
 41
0.7
 11
-1941.249448741383
 21
3199.496309271693
 31
0.0
 73
     3
  0
TEXT
  5
65
  8
SPEC
 62
     7
 10
-1939.9542677456591
 20
2964.9661901333811
 30
0.0
 40
47.507866753472221
  1
周波数特性
 41
0.7
 11
-1939.9542677456591
 21
3012.4740568868528
 31
0.0
 73
     3
  0
TEXT
  5
66
  8
SPEC
 62
     7
 10
-1941.1688468725399
 20
2873.6848736963188
 30
0.0
 40
47.507866753472221
  1
許容入力(AES/ピーク）
 41
0.7
 11
-1941.1688468725399
 21
2921.1927404497919
 31
0.0
 73
     3
  0
TEXT
  5
67
  8
SPEC
 62
     7
 10
-1940.692928312742
 20
2778.2708610840809
 30
0.0
 40
47.507866753472221
  1
感度(1W/1m)
 41
0.7
 11
-1940.692928312742
 21
2825.7787278375531
 31
0.0
 73
     3
  0
TEXT
  5
68
  8
SPEC
 62
     7
 10
-1940.1477698829831
 20
2686.4096411707019
 30
0.0
 40
47.507866753472221
  1
最大音圧
 41
0.7
 11
-1940.1477698829831
 21
2733.9175079241741
 31
0.0
 73
     3
  0
TEXT
  5
69
  8
SPEC
 62
     7
 10
-1939.8630746710801
 20
2308.9829326044519
 30
0.0
 40
47.507866753472221
  1
加速度センサーへの出力コネクター
 41
0.7
 11
-1939.8630746710801
 21
2356.4907993579241
 31
0.0
 73
     3
  0
TEXT
  5
6A
  8
SPEC
 62
     7
 10
-1959.2056210560499
 20
2591.2796709637928
 30
0.0
 40
47.507866753472221
  1
ドライバー構成
 41
0.7
 11
-1959.2056210560499
 21
2638.787537717265
 31
0.0
 73
     3
  0
TEXT
  5
6B
  8
SPEC
 62
     7
 10
-1942.0307655852339
 20
1844.312743879123
 30
0.0
 40
47.507866753472221
  1
寸法
 41
0.7
 11
-1942.0307655852339
 21
1891.8206106325961
 31
0.0
 73
     3
  0
TEXT
  5
6C
  8
SPEC
 62
     7
 10
-746.29278154343694
 20
1747.280018148711
 30
0.0
 40
47.507866753472221
  1
約70kg
 41
0.7
 11
-746.29278154343694
 21
1794.7878849021829
 31
0.0
 73
     3
  0
TEXT
  5
6D
  8
SPEC
 62
     7
 10
-1941.388235598007
 20
1749.4060683224341
 30
0.0
 40
47.507866753472221
  1
重量
 41
0.7
 11
-1941.388235598007
 21
1796.913935075906
 31
0.0
 73
     3
  0
TEXT
  5
6E
  8
SPEC
 62
     7
 10
-745.78696488606647
 20
2964.961536295255
 30
0.0
 40
47.507866753472221
  1
20Hz(-6dB)、25Hz(-3dB)～150Hz
 41
0.7
 11
-745.78696488606647
 21
3012.4694030487271
 31
0.0
 73
     3
  0
TEXT
  5
6F
  8
SPEC
 62
     7
 10
-745.84987597845475
 20
2869.8804658124409
 30
0.0
 40
47.507866753472221
  1
3000W/12000W
 41
0.7
 11
-745.84987597845475
 21
2917.3883325659131
 31
0.0
 73
     3
  0
TEXT
  5
70
  8
SPEC
 62
     7
 10
-746.01864267208055
 20
2498.2928057481222
 30
0.0
 40
47.507866753472221
  1
4インチ(101.6mm）ボイスコイル、2\U+00D71500W
 41
0.7
 11
-746.01864267208055
 21
2545.8006725015939
 31
0.0
 73
     3
  0
TEXT
  5
71
  8
SPEC
 62
     7
 10
-748.75066167320813
 20
2123.2873430331319
 30
0.0
 40
47.507866753472221
  1
合板
 41
0.7
 11
-748.75066167320813
 21
2170.7952097866041
 31
0.0
 73
     3
  0
TEXT
  5
72
  8
SPEC
 62
     7
 10
-749.52631938711954
 20
2776.5174502853779
 30
0.0
 40
47.507866753472221
  1
103dB@50Hz(*1)
 41
0.7
 11
-749.52631938711954
 21
2824.0253170388501
 31
0.0
 73
     3
  0
TEXT
  5
73
  8
SPEC
 62
     7
 10
-746.94397264656925
 20
2590.5950942012951
 30
0.0
 40
47.507866753472221
  1
2\U+00D718インチネオジム磁石採用、超低歪率
 41
0.7
 11
-746.94397264656925
 21
2638.1029609547682
 31
0.0
 73
     3
  0
TEXT
  5
74
  8
SPEC
 62
     7
 10
-746.74160957651645
 20
2030.5165187354021
 30
0.0
 40
47.507866753472221
  1
黒
 41
0.7
 11
-746.74160957651645
 21
2078.024385488874
 31
0.0
 73
     3
  0
TEXT
  5
75
  8
SPEC
 62
     7
 10
-1947.3306676818961
 20
1934.940573557684
 30
0.0
 40
47.507866753472221
  1
フライング金具
 41
0.7
 11
-1947.3306676818961
 21
1982.448440311156
 31
0.0
 73
     3
  0
TEXT
  5
76
  8
SPEC
 62
     7
 10
-749.86134640240164
 20
2309.874767333607
 30
0.0
 40
47.507866753472221
  1
1\U+00D7Neutrik XLR(3ピン)
 41
0.7
 11
-749.86134640240164
 21
2357.3826340870792
 31
0.0
 73
     3
  0
TEXT
  5
77
  8
SPEC
 62
     7
 10
-747.74480239384445
 20
3154.158223790299
 30
0.0
 40
47.507866753472221
  1
高出力サブウ-ファー
 41
0.7
 11
-747.74480239384445
 21
3201.6660905437711
 31
0.0
 73
     3
  0
TEXT
  5
78
  8
SPEC
 62
     7
 10
-747.16417579122049
 20
3061.3327457435571
 30
0.0
 40
47.507866753472221
  1
センサーコントロール
 41
0.7
 11
-747.16417579122049
 21
3108.8406124970288
 31
0.0
 73
     3
  0
TEXT
  5
79
  8
SPEC
 62
     7
 10
-749.5992759163762
 20
2685.8286875695749
 30
0.0
 40
47.507866753472221
  1
144dB(*2)
 41
0.7
 11
-749.5992759163762
 21
2733.336554323047
 31
0.0
 73
     3
  0
TEXT
  5
7A
  8
SPEC
 62
     7
 10
-751.20178548479805
 20
1935.549593215032
 30
0.0
 40
47.507866753472221
  1
なし
 41
0.7
 11
-751.20178548479805
 21
1983.057459968504
 31
0.0
 73
     3
  0
LINE
  5
7B
  8
SPEC
  6
CONTINUOUS
 62
     7
 10
-1962.4999999999991
 20
1912.3075494767811
 30
0.0
 11
1725.0
 21
1912.3075494767811
 31
0.0
  0
LINE
  5
7C
  8
SPEC
  6
CONTINUOUS
 62
     7
 10
-1962.4999999999991
 20
1818.5575494767811
 30
0.0
 11
1725.0
 21
1818.5575494767811
 31
0.0
  0
LINE
  5
7D
  8
SPEC
  6
CONTINUOUS
 62
     7
 10
-1962.4999999999991
 20
1724.8075494767811
 30
0.0
 11
1725.0
 21
1724.8075494767811
 31
0.0
  0
TEXT
  5
7E
  8
SPEC
 62
     7
 10
-1916.103701050368
 20
1648.6324237597221
 30
0.0
 40
47.507866753472221
  1
*1.半空間　　*2.ピンクノイズ、クレストファクター6dB
 41
0.7
 11
-1916.103701050368
 21
1696.1402905131949
 31
0.0
 73
     3
  0
TEXT
  5
7F
  8
DIMNSIONS
 62
     7
 10
-400.0
 20
-2718.4552005232181
 30
0.0
 40
61.08154296875
  1
(単位：mm)
 41
0.7
 11
-400.0
 21
-2657.3736575544681
 31
0.0
 73
     3
  0
LINE
  5
80
  8
DIMNSIONS
  6
CONTINUOUS
 62
     7
 10
-650.0
 20
-1000.0
 30
0.0
 11
-950.0
 21
-1000.0
 31
0.0
  0
LINE
  5
81
  8
DIMNSIONS
  6
CONTINUOUS
 62
     7
 10
-650.0
 20
-459.9998915570431
 30
0.0
 11
-950.0
 21
-459.9998915570431
 31
0.0
  0
LINE
  5
82
  8
DIMNSIONS
  6
CONTINUOUS
 62
     7
 10
-900.0
 20
-1000.0
 30
0.0
 11
-900.0
 21
-459.9998915570431
 31
0.0
  0
LINE
  5
83
  8
DIMNSIONS
  6
CONTINUOUS
 62
     7
 10
-900.0
 20
-1000.0
 30
0.0
 11
-916.75099487875593
 21
-937.48443603515614
 31
0.0
  0
LINE
  5
84
  8
DIMNSIONS
  6
CONTINUOUS
 62
     7
 10
-900.0
 20
-1000.0
 30
0.0
 11
-883.24900512124384
 21
-937.48443603515614
 31
0.0
  0
LINE
  5
85
  8
DIMNSIONS
  6
CONTINUOUS
 62
     7
 10
-900.0
 20
-459.9998915570431
 30
0.0
 11
-883.24900512124384
 21
-522.51545552188679
 31
0.0
  0
LINE
  5
86
  8
DIMNSIONS
  6
CONTINUOUS
 62
     7
 10
-900.0
 20
-459.9998915570431
 30
0.0
 11
-916.75099487875593
 21
-522.51545552188679
 31
0.0
  0
TEXT
  5
87
  8
DIMNSIONS
 62
     7
 10
-924.8472222222224
 20
-796.14577911185472
 30
0.0
 40
67.8683810763889
  1
540
 50
90.0
 41
0.7
 11
-992.71560329861131
 21
-796.14577911185472
 31
0.0
 73
     3
  0
LINE
  5
88
  8
DIMNSIONS
  6
CONTINUOUS
 62
     7
 10
-572.59239352639361
 20
-1005.002224900358
 30
0.0
 11
-947.39103834952334
 21
-1005.002224900358
 31
0.0
  0
LINE
  5
89
  8
DIMNSIONS
  6
CONTINUOUS
 62
     7
 10
-650.0
 20
-1000.0
 30
0.0
 11
-947.39103834952334
 21
-1000.0
 31
0.0
  0
LINE
  5
8A
  8
DIMNSIONS
  6
CONTINUOUS
 62
     7
 10
-897.391038349523
 20
-1000.0
 30
0.0
 11
-897.391038349523
 21
-1005.002224900358
 31
0.0
  0
LINE
  5
8B
  8
DIMNSIONS
  6
CONTINUOUS
 62
     7
 10
-897.391038349523
 20
-1005.002224900358
 30
0.0
 11
-897.391038349523
 21
-1119.097222222324
 31
0.0
  0
LINE
  5
8C
  8
DIMNSIONS
  6
CONTINUOUS
 62
     7
 10
-897.391038349523
 20
-1005.002224900358
 30
0.0
 11
-880.64004347076695
 21
-1067.5177888652011
 31
0.0
  0
LINE
  5
8D
  8
DIMNSIONS
  6
CONTINUOUS
 62
     7
 10
-897.391038349523
 20
-1005.002224900358
 30
0.0
 11
-914.14203322827927
 21
-1067.5177888652011
 31
0.0
  0
LINE
  5
8E
  8
DIMNSIONS
  6
CONTINUOUS
 62
     7
 10
-897.391038349523
 20
-1000.0
 30
0.0
 11
-897.391038349523
 21
-875.0
 31
0.0
  0
LINE
  5
8F
  8
DIMNSIONS
  6
CONTINUOUS
 62
     7
 10
-897.391038349523
 20
-1000.0
 30
0.0
 11
-914.14203322827927
 21
-937.48443603515614
 31
0.0
  0
LINE
  5
90
  8
DIMNSIONS
  6
CONTINUOUS
 62
     7
 10
-897.391038349523
 20
-1000.0
 30
0.0
 11
-880.64004347076695
 21
-937.48443603515614
 31
0.0
  0
TEXT
  5
91
  8
DIMNSIONS
 62
     7
 10
-922.2382605717454
 20
-1119.097222222324
 30
0.0
 40
67.8683810763889
  1
5
 50
90.0
 41
0.7
 11
-990.10664164813431
 21
-1119.097222222324
 31
0.0
 73
     3
  0
LINE
  5
92
  8
DIMNSIONS
  6
CONTINUOUS
 62
     7
 10
-650.0
 20
-200.0
 30
0.0
 11
-949.99999999929992
 21
-200.0
 31
0.0
  0
LINE
  5
93
  8
DIMNSIONS
  6
CONTINUOUS
 62
     7
 10
-650.0
 20
579.99999999999829
 30
0.0
 11
-949.99999999929992
 21
579.99999999999829
 31
0.0
  0
LINE
  5
94
  8
DIMNSIONS
  6
CONTINUOUS
 62
     7
 10
-899.99999999929992
 20
-200.0
 30
0.0
 11
-899.99999999929992
 21
579.99999999999829
 31
0.0
  0
LINE
  5
95
  8
DIMNSIONS
  6
CONTINUOUS
 62
     7
 10
-899.99999999929992
 20
-200.0
 30
0.0
 11
-916.75099487805596
 21
-137.48443603515619
 31
0.0
  0
LINE
  5
96
  8
DIMNSIONS
  6
CONTINUOUS
 62
     7
 10
-899.99999999929992
 20
-200.0
 30
0.0
 11
-883.24900512054376
 21
-137.48443603515619
 31
0.0
  0
LINE
  5
97
  8
DIMNSIONS
  6
CONTINUOUS
 62
     7
 10
-899.99999999929992
 20
579.99999999999829
 30
0.0
 11
-883.24900512054376
 21
517.48443603515454
 31
0.0
  0
LINE
  5
98
  8
DIMNSIONS
  6
CONTINUOUS
 62
     7
 10
-899.99999999929992
 20
579.99999999999829
 30
0.0
 11
-916.75099487805596
 21
517.48443603515454
 31
0.0
  0
TEXT
  5
99
  8
DIMNSIONS
 62
     7
 10
-924.84722222152209
 20
123.8541666666658
 30
0.0
 40
67.8683810763889
  1
780
 50
90.0
 41
0.7
 11
-992.71560329791112
 21
123.8541666666658
 31
0.0
 73
     3
  0
LINE
  5
9A
  8
DIMNSIONS
  6
CONTINUOUS
 62
     7
 10
-600.0
 20
-1050.0
 30
0.0
 11
-600.0
 21
-1250.0
 31
0.0
  0
LINE
  5
9B
  8
DIMNSIONS
  6
CONTINUOUS
 62
     7
 10
160.0000000000089
 20
-1050.0
 30
0.0
 11
160.0000000000089
 21
-1250.0
 31
0.0
  0
LINE
  5
9C
  8
DIMNSIONS
  6
CONTINUOUS
 62
     7
 10
-600.0
 20
-1200.0
 30
0.0
 11
160.0000000000089
 21
-1200.0
 31
0.0
  0
LINE
  5
9D
  8
DIMNSIONS
  6
CONTINUOUS
 62
     7
 10
-600.0
 20
-1200.0
 30
0.0
 11
-537.48443603515625
 21
-1183.249005121244
 31
0.0
  0
LINE
  5
9E
  8
DIMNSIONS
  6
CONTINUOUS
 62
     7
 10
-600.0
 20
-1200.0
 30
0.0
 11
-537.48443603515625
 21
-1216.750994878756
 31
0.0
  0
LINE
  5
9F
  8
DIMNSIONS
  6
CONTINUOUS
 62
     7
 10
160.0000000000089
 20
-1200.0
 30
0.0
 11
97.484436035165231
 21
-1216.750994878756
 31
0.0
  0
LINE
  5
A0
  8
DIMNSIONS
  6
CONTINUOUS
 62
     7
 10
160.0000000000089
 20
-1200.0
 30
0.0
 11
97.484436035165231
 21
-1183.249005121244
 31
0.0
  0
TEXT
  5
A1
  8
DIMNSIONS
 62
     7
 10
-286.14583333332882
 20
-1175.1527777777769
 30
0.0
 40
67.8683810763889
  1
760
 41
0.7
 11
-286.14583333332882
 21
-1107.2843967013889
 31
0.0
 73
     3
  0
POLYLINE
  5
A2
  8
DATA
  6
CONTINUOUS
 62
     7
 66
     1
 10
0.0
 20
0.0
 30
0.0
 70
     8
  0
VERTEX
  5
A3
  8
DATA
  6
CONTINUOUS
 62
     7
 10
1169.9999094197419
 20
-1005.002224900578
 30
25.361499999999999
 70
    32
  0
VERTEX
  5
A4
  8
DATA
  6
CONTINUOUS
 62
     7
 10
1170.1169094197419
 20
-1005.002224900578
 30
25.361499999999999
 70
    32
  0
VERTEX
  5
A5
  8
DATA
  6
CONTINUOUS
 62
     7
 10
1170.2329094197421
 20
-1005.002224900578
 30
25.361499999999999
 70
    32
  0
VERTEX
  5
A6
  8
DATA
  6
CONTINUOUS
 62
     7
 10
1170.3499094197421
 20
-1005.002224900578
 30
25.361499999999999
 70
    32
  0
VERTEX
  5
A7
  8
DATA
  6
CONTINUOUS
 62
     7
 10
1170.465909419742
 20
-1005.002224900578
 30
25.361499999999999
 70
    32
  0
VERTEX
  5
A8
  8
DATA
  6
CONTINUOUS
 62
     7
 10
1170.581909419742
 20
-1005.002224900578
 30
25.361499999999999
 70
    32
  0
VERTEX
  5
A9
  8
DATA
  6
CONTINUOUS
 62
     7
 10
1170.697909419742
 20
-1005.002224900578
 30
25.361499999999999
 70
    32
  0
VERTEX
  5
AA
  8
DATA
  6
CONTINUOUS
 62
     7
 10
1170.813909419742
 20
-1005.002224900578
 30
25.361499999999999
 70
    32
  0
VERTEX
  5
AB
  8
DATA
  6
CONTINUOUS
 62
     7
 10
1170.929909419742
 20
-1005.002224900578
 30
25.361499999999999
 70
    32
  0
VERTEX
  5
AC
  8
DATA
  6
CONTINUOUS
 62
     7
 10
1171.044909419742
 20
-1005.002224900578
 30
25.361499999999999
 70
    32
  0
VERTEX
  5
AD
  8
DATA
  6
CONTINUOUS
 62
     7
 10
1171.160909419742
 20
-1005.002224900578
 30
25.361499999999999
 70
    32
  0
VERTEX
  5
AE
  8
DATA
  6
CONTINUOUS
 62
     7
 10
1171.275909419742
 20
-1005.002224900578
 30
25.361499999999999
 70
    32
  0
VERTEX
  5
AF
  8
DATA
  6
CONTINUOUS
 62
     7
 10
1171.390909419742
 20
-1005.002224900578
 30
25.361499999999999
 70
    32
  0
VERTEX
  5
B0
  8
DATA
  6
CONTINUOUS
 62
     7
 10
1171.505909419742
 20
-1005.002224900578
 30
25.361499999999999
 70
    32
  0
VERTEX
  5
B1
  8
DATA
  6
CONTINUOUS
 62
     7
 10
1171.620909419742
 20
-1005.002224900578
 30
25.361499999999999
 70
    32
  0
VERTEX
  5
B2
  8
DATA
  6
CONTINUOUS
 62
     7
 10
1171.7349094197421
 20
-1005.002224900578
 30
25.361499999999999
 70
    32
  0
VERTEX
  5
B3
  8
DATA
  6
CONTINUOUS
 62
     7
 10
1171.8499094197421
 20
-1005.002224900578
 30
25.361499999999999
 70
    32
  0
VERTEX
  5
B4
  8
DATA
  6
CONTINUOUS
 62
     7
 10
1171.9639094197421
 20
-1005.002224900578
 30
25.361499999999999
 70
    32
  0
VERTEX
  5
B5
  8
DATA
  6
CONTINUOUS
 62
     7
 10
1172.0779094197419
 20
-1005.002224900578
 30
25.361499999999999
 70
    32
  0
VERTEX
  5
B6
  8
DATA
  6
CONTINUOUS
 62
     7
 10
1172.1919094197419
 20
-1005.002224900578
 30
25.361499999999999
 70
    32
  0
VERTEX
  5
B7
  8
DATA
  6
CONTINUOUS
 62
     7
 10
1172.305909419742
 20
-1005.002224900578
 30
25.361499999999999
 70
    32
  0
VERTEX
  5
B8
  8
DATA
  6
CONTINUOUS
 62
     7
 10
1172.4189094197429
 20
-1005.002224900578
 30
25.361499999999999
 70
    32
  0
VERTEX
  5
B9
  8
DATA
  6
CONTINUOUS
 62
     7
 10
1172.5319094197421
 20
-1005.002224900578
 30
25.361499999999999
 70
    32
  0
VERTEX
  5
BA
  8
DATA
  6
CONTINUOUS
 62
     7
 10
1172.6449094197419
 20
-1005.002224900578
 30
25.361499999999999
 70
    32
  0
VERTEX
  5
BB
  8
DATA
  6
CONTINUOUS
 62
     7
 10
1172.757909419742
 20
-1005.002224900578
 30
25.361499999999999
 70
    32
  0
VERTEX
  5
BC
  8
DATA
  6
CONTINUOUS
 62
     7
 10
1172.870909419742
 20
-1005.002224900578
 30
25.361499999999999
 70
    32
  0
VERTEX
  5
BD
  8
DATA
  6
CONTINUOUS
 62
     7
 10
1172.9829094197421
 20
-1005.002224900578
 30
25.361499999999999
 70
    32
  0
VERTEX
  5
BE
  8
DATA
  6
CONTINUOUS
 62
     7
 10
1173.094909419742
 20
-1005.002224900578
 30
25.361499999999999
 70
    32
  0
VERTEX
  5
BF
  8
DATA
  6
CONTINUOUS
 62
     7
 10
1173.206909419742
 20
-1005.002224900578
 30
25.361499999999999
 70
    32
  0
VERTEX
  5
C0
  8
DATA
  6
CONTINUOUS
 62
     7
 10
1173.3189094197421
 20
-1005.002224900578
 30
25.361499999999999
 70
    32
  0
VERTEX
  5
C1
  8
DATA
  6
CONTINUOUS
 62
     7
 10
1173.429909419742
 20
-1005.002224900578
 30
25.361499999999999
 70
    32
  0
VERTEX
  5
C2
  8
DATA
  6
CONTINUOUS
 62
     7
 10
1173.5409094197421
 20
-1005.002224900578
 30
25.361499999999999
 70
    32
  0
VERTEX
  5
C3
  8
DATA
  6
CONTINUOUS
 62
     7
 10
1173.651909419742
 20
-1005.002224900578
 30
25.361499999999999
 70
    32
  0
VERTEX
  5
C4
  8
DATA
  6
CONTINUOUS
 62
     7
 10
1173.7619094197421
 20
-1005.002224900578
 30
25.361499999999999
 70
    32
  0
VERTEX
  5
C5
  8
DATA
  6
CONTINUOUS
 62
     7
 10
1173.872909419742
 20
-1005.002224900578
 30
25.361499999999999
 70
    32
  0
VERTEX
  5
C6
  8
DATA
  6
CONTINUOUS
 62
     7
 10
1173.9829094197421
 20
-1005.002224900578
 30
25.361499999999999
 70
    32
  0
VERTEX
  5
C7
  8
DATA
  6
CONTINUOUS
 62
     7
 10
1174.091909419742
 20
-1005.002224900578
 30
25.361499999999999
 70
    32
  0
VERTEX
  5
C8
  8
DATA
  6
CONTINUOUS
 62
     7
 10
1174.2019094197419
 20
-1005.002224900578
 30
25.361499999999999
 70
    32
  0
VERTEX
  5
C9
  8
DATA
  6
CONTINUOUS
 62
     7
 10
1174.3109094197421
 20
-1005.002224900578
 30
25.361499999999999
 70
    32
  0
VERTEX
  5
CA
  8
DATA
  6
CONTINUOUS
 62
     7
 10
1174.419909419742
 20
-1005.002224900578
 30
25.361499999999999
 70
    32
  0
VERTEX
  5
CB
  8
DATA
  6
CONTINUOUS
 62
     7
 10
1174.5279094197419
 20
-1005.002224900578
 30
25.361499999999999
 70
    32
  0
VERTEX
  5
CC
  8
DATA
  6
CONTINUOUS
 62
     7
 10
1174.6359094197419
 20
-1005.002224900578
 30
25.361499999999999
 70
    32
  0
VERTEX
  5
CD
  8
DATA
  6
CONTINUOUS
 62
     7
 10
1174.7439094197421
 20
-1005.002224900578
 30
25.361499999999999
 70
    32
  0
VERTEX
  5
CE
  8
DATA
  6
CONTINUOUS
 62
     7
 10
1174.851909419742
 20
-1005.002224900578
 30
25.361499999999999
 70
    32
  0
VERTEX
  5
CF
  8
DATA
  6
CONTINUOUS
 62
     7
 10
1174.9589094197429
 20
-1005.002224900578
 30
25.361499999999999
 70
    32
  0
VERTEX
  5
D0
  8
DATA
  6
CONTINUOUS
 62
     7
 10
1175.065909419742
 20
-1005.002224900578
 30
25.361499999999999
 70
    32
  0
VERTEX
  5
D1
  8
DATA
  6
CONTINUOUS
 62
     7
 10
1175.171909419742
 20
-1005.002224900578
 30
25.361499999999999
 70
    32
  0
VERTEX
  5
D2
  8
DATA
  6
CONTINUOUS
 62
     7
 10
1175.2779094197419
 20
-1005.002224900578
 30
25.361499999999999
 70
    32
  0
VERTEX
  5
D3
  8
DATA
  6
CONTINUOUS
 62
     7
 10
1175.3839094197419
 20
-1005.002224900578
 30
25.361499999999999
 70
    32
  0
VERTEX
  5
D4
  8
DATA
  6
CONTINUOUS
 62
     7
 10
1175.4899094197419
 20
-1005.002224900578
 30
25.361499999999999
 70
    32
  0
VERTEX
  5
D5
  8
DATA
  6
CONTINUOUS
 62
     7
 10
1175.594909419742
 20
-1005.002224900578
 30
25.361499999999999
 70
    32
  0
VERTEX
  5
D6
  8
DATA
  6
CONTINUOUS
 62
     7
 10
1175.698909419742
 20
-1005.002224900578
 30
25.361499999999999
 70
    32
  0
VERTEX
  5
D7
  8
DATA
  6
CONTINUOUS
 62
     7
 10
1175.803909419742
 20
-1005.002224900578
 30
25.361499999999999
 70
    32
  0
VERTEX
  5
D8
  8
DATA
  6
CONTINUOUS
 62
     7
 10
1175.9079094197421
 20
-1005.002224900578
 30
25.361499999999999
 70
    32
  0
VERTEX
  5
D9
  8
DATA
  6
CONTINUOUS
 62
     7
 10
1176.0109094197419
 20
-1005.002224900578
 30
25.361499999999999
 70
    32
  0
VERTEX
  5
DA
  8
DATA
  6
CONTINUOUS
 62
     7
 10
1176.113909419742
 20
-1005.002224900578
 30
25.361499999999999
 70
    32
  0
VERTEX
  5
DB
  8
DATA
  6
CONTINUOUS
 62
     7
 10
1176.216909419742
 20
-1005.002224900578
 30
25.361499999999999
 70
    32
  0
VERTEX
  5
DC
  8
DATA
  6
CONTINUOUS
 62
     7
 10
1176.3189094197421
 20
-1005.002224900578
 30
25.361499999999999
 70
    32
  0
VERTEX
  5
DD
  8
DATA
  6
CONTINUOUS
 62
     7
 10
1176.420909419742
 20
-1005.002224900578
 30
25.361499999999999
 70
    32
  0
VERTEX
  5
DE
  8
DATA
  6
CONTINUOUS
 62
     7
 10
1176.5229094197421
 20
-1005.002224900578
 30
25.361499999999999
 70
    32
  0
VERTEX
  5
DF
  8
DATA
  6
CONTINUOUS
 62
     7
 10
1176.6239094197419
 20
-1005.002224900578
 30
25.361499999999999
 70
    32
  0
VERTEX
  5
E0
  8
DATA
  6
CONTINUOUS
 62
     7
 10
1176.7249094197421
 20
-1005.002224900578
 30
25.361499999999999
 70
    32
  0
VERTEX
  5
E1
  8
DATA
  6
CONTINUOUS
 62
     7
 10
1176.824909419742
 20
-1005.002224900578
 30
25.361499999999999
 70
    32
  0
VERTEX
  5
E2
  8
DATA
  6
CONTINUOUS
 62
     7
 10
1176.9249094197421
 20
-1005.002224900578
 30
25.361499999999999
 70
    32
  0
VERTEX
  5
E3
  8
DATA
  6
CONTINUOUS
 62
     7
 10
1177.023909419742
 20
-1005.002224900578
 30
25.361499999999999
 70
    32
  0
VERTEX
  5
E4
  8
DATA
  6
CONTINUOUS
 62
     7
 10
1177.122909419742
 20
-1005.002224900578
 30
25.361499999999999
 70
    32
  0
VERTEX
  5
E5
  8
DATA
  6
CONTINUOUS
 62
     7
 10
1177.2219094197419
 20
-1005.002224900578
 30
25.361499999999999
 70
    32
  0
VERTEX
  5
E6
  8
DATA
  6
CONTINUOUS
 62
     7
 10
1177.3199094197421
 20
-1005.002224900578
 30
25.361499999999999
 70
    32
  0
VERTEX
  5
E7
  8
DATA
  6
CONTINUOUS
 62
     7
 10
1177.4169094197421
 20
-1005.002224900578
 30
25.361499999999999
 70
    32
  0
VERTEX
  5
E8
  8
DATA
  6
CONTINUOUS
 62
     7
 10
1177.5149094197429
 20
-1005.002224900578
 30
25.361499999999999
 70
    32
  0
VERTEX
  5
E9
  8
DATA
  6
CONTINUOUS
 62
     7
 10
1177.610909419742
 20
-1005.002224900578
 30
25.361499999999999
 70
    32
  0
VERTEX
  5
EA
  8
DATA
  6
CONTINUOUS
 62
     7
 10
1177.706909419742
 20
-1005.002224900578
 30
25.361499999999999
 70
    32
  0
VERTEX
  5
EB
  8
DATA
  6
CONTINUOUS
 62
     7
 10
1177.802909419742
 20
-1005.002224900578
 30
25.361499999999999
 70
    32
  0
VERTEX
  5
EC
  8
DATA
  6
CONTINUOUS
 62
     7
 10
1177.8979094197421
 20
-1005.002224900578
 30
25.361499999999999
 70
    32
  0
VERTEX
  5
ED
  8
DATA
  6
CONTINUOUS
 62
     7
 10
1177.9929094197421
 20
-1005.002224900578
 30
25.361499999999999
 70
    32
  0
VERTEX
  5
EE
  8
DATA
  6
CONTINUOUS
 62
     7
 10
1178.0869094197419
 20
-1005.002224900578
 30
25.361499999999999
 70
    32
  0
VERTEX
  5
EF
  8
DATA
  6
CONTINUOUS
 62
     7
 10
1178.180909419742
 20
-1005.002224900578
 30
25.361499999999999
 70
    32
  0
VERTEX
  5
F0
  8
DATA
  6
CONTINUOUS
 62
     7
 10
1178.273909419742
 20
-1005.002224900578
 30
25.361499999999999
 70
    32
  0
VERTEX
  5
F1
  8
DATA
  6
CONTINUOUS
 62
     7
 10
1178.3669094197419
 20
-1005.002224900578
 30
25.361499999999999
 70
    32
  0
VERTEX
  5
F2
  8
DATA
  6
CONTINUOUS
 62
     7
 10
1178.4589094197429
 20
-1005.002224900578
 30
25.361499999999999
 70
    32
  0
VERTEX
  5
F3
  8
DATA
  6
CONTINUOUS
 62
     7
 10
1178.5509094197421
 20
-1005.002224900578
 30
25.361499999999999
 70
    32
  0
VERTEX
  5
F4
  8
DATA
  6
CONTINUOUS
 62
     7
 10
1178.641909419742
 20
-1005.002224900578
 30
25.361499999999999
 70
    32
  0
VERTEX
  5
F5
  8
DATA
  6
CONTINUOUS
 62
     7
 10
1178.7319094197419
 20
-1005.002224900578
 30
25.361499999999999
 70
    32
  0
VERTEX
  5
F6
  8
DATA
  6
CONTINUOUS
 62
     7
 10
1178.821909419742
 20
-1005.002224900578
 30
25.361499999999999
 70
    32
  0
VERTEX
  5
F7
  8
DATA
  6
CONTINUOUS
 62
     7
 10
1178.911909419742
 20
-1005.002224900578
 30
25.361499999999999
 70
    32
  0
VERTEX
  5
F8
  8
DATA
  6
CONTINUOUS
 62
     7
 10
1179.0009094197419
 20
-1005.002224900578
 30
25.361499999999999
 70
    32
  0
VERTEX
  5
F9
  8
DATA
  6
CONTINUOUS
 62
     7
 10
1179.0889094197421
 20
-1005.002224900578
 30
25.361499999999999
 70
    32
  0
VERTEX
  5
FA
  8
DATA
  6
CONTINUOUS
 62
     7
 10
1179.1769094197421
 20
-1005.002224900578
 30
25.361499999999999
 70
    32
  0
VERTEX
  5
FB
  8
DATA
  6
CONTINUOUS
 62
     7
 10
1179.263909419742
 20
-1005.002224900578
 30
25.361499999999999
 70
    32
  0
VERTEX
  5
FC
  8
DATA
  6
CONTINUOUS
 62
     7
 10
1179.350909419742
 20
-1005.002224900578
 30
25.361499999999999
 70
    32
  0
VERTEX
  5
FD
  8
DATA
  6
CONTINUOUS
 62
     7
 10
1179.4369094197421
 20
-1005.002224900578
 30
25.361499999999999
 70
    32
  0
VERTEX
  5
FE
  8
DATA
  6
CONTINUOUS
 62
     7
 10
1179.5219094197421
 20
-1005.002224900578
 30
25.361499999999999
 70
    32
  0
VERTEX
  5
FF
  8
DATA
  6
CONTINUOUS
 62
     7
 10
1179.6069094197419
 20
-1005.002224900578
 30
25.361499999999999
 70
    32
  0
VERTEX
  5
100
  8
DATA
  6
CONTINUOUS
 62
     7
 10
1179.690909419742
 20
-1005.002224900578
 30
25.361499999999999
 70
    32
  0
VERTEX
  5
101
  8
DATA
  6
CONTINUOUS
 62
     7
 10
1179.774909419742
 20
-1005.002224900578
 30
25.361499999999999
 70
    32
  0
VERTEX
  5
102
  8
DATA
  6
CONTINUOUS
 62
     7
 10
1179.8579094197421
 20
-1005.002224900578
 30
25.361499999999999
 70
    32
  0
VERTEX
  5
103
  8
DATA
  6
CONTINUOUS
 62
     7
 10
1179.940909419742
 20
-1005.002224900578
 30
25.361499999999999
 70
    32
  0
VERTEX
  5
104
  8
DATA
  6
CONTINUOUS
 62
     7
 10
1180.0219094197421
 20
-1005.002224900578
 30
25.361499999999999
 70
    32
  0
VERTEX
  5
105
  8
DATA
  6
CONTINUOUS
 62
     7
 10
1180.102909419742
 20
-1005.002224900578
 30
25.361499999999999
 70
    32
  0
VERTEX
  5
106
  8
DATA
  6
CONTINUOUS
 62
     7
 10
1180.1839094197419
 20
-1005.002224900578
 30
25.361499999999999
 70
    32
  0
VERTEX
  5
107
  8
DATA
  6
CONTINUOUS
 62
     7
 10
1180.2629094197421
 20
-1005.002224900578
 30
25.361499999999999
 70
    32
  0
VERTEX
  5
108
  8
DATA
  6
CONTINUOUS
 62
     7
 10
1180.341909419742
 20
-1005.002224900578
 30
25.361499999999999
 70
    32
  0
VERTEX
  5
109
  8
DATA
  6
CONTINUOUS
 62
     7
 10
1180.419909419742
 20
-1005.002224900578
 30
25.361499999999999
 70
    32
  0
VERTEX
  5
10A
  8
DATA
  6
CONTINUOUS
 62
     7
 10
1180.496909419742
 20
-1005.002224900578
 30
25.361499999999999
 70
    32
  0
VERTEX
  5
10B
  8
DATA
  6
CONTINUOUS
 62
     7
 10
1180.5729094197429
 20
-1005.002224900578
 30
25.361499999999999
 70
    32
  0
VERTEX
  5
10C
  8
DATA
  6
CONTINUOUS
 62
     7
 10
1180.648909419742
 20
-1005.002224900578
 30
25.361499999999999
 70
    32
  0
VERTEX
  5
10D
  8
DATA
  6
CONTINUOUS
 62
     7
 10
1180.7229094197421
 20
-1005.002224900578
 30
25.361499999999999
 70
    32
  0
VERTEX
  5
10E
  8
DATA
  6
CONTINUOUS
 62
     7
 10
1180.796909419742
 20
-1005.002224900578
 30
25.361499999999999
 70
    32
  0
VERTEX
  5
10F
  8
DATA
  6
CONTINUOUS
 62
     7
 10
1180.870909419742
 20
-1005.002224900578
 30
25.361499999999999
 70
    32
  0
VERTEX
  5
110
  8
DATA
  6
CONTINUOUS
 62
     7
 10
1180.9429094197419
 20
-1005.002224900578
 30
25.361499999999999
 70
    32
  0
VERTEX
  5
111
  8
DATA
  6
CONTINUOUS
 62
     7
 10
1181.0149094197429
 20
-1005.002224900578
 30
25.361499999999999
 70
    32
  0
VERTEX
  5
112
  8
DATA
  6
CONTINUOUS
 62
     7
 10
1181.0859094197419
 20
-1005.002224900578
 30
25.361499999999999
 70
    32
  0
VERTEX
  5
113
  8
DATA
  6
CONTINUOUS
 62
     7
 10
1181.1559094197421
 20
-1005.002224900578
 30
25.361499999999999
 70
    32
  0
VERTEX
  5
114
  8
DATA
  6
CONTINUOUS
 62
     7
 10
1181.224909419743
 20
-1005.002224900578
 30
25.361499999999999
 70
    32
  0
VERTEX
  5
115
  8
DATA
  6
CONTINUOUS
 62
     7
 10
1181.292909419742
 20
-1005.002224900578
 30
25.361499999999999
 70
    32
  0
VERTEX
  5
116
  8
DATA
  6
CONTINUOUS
 62
     7
 10
1181.3609094197429
 20
-1005.002224900578
 30
25.361499999999999
 70
    32
  0
VERTEX
  5
117
  8
DATA
  6
CONTINUOUS
 62
     7
 10
1181.4279094197429
 20
-1005.002224900578
 30
25.361499999999999
 70
    32
  0
VERTEX
  5
118
  8
DATA
  6
CONTINUOUS
 62
     7
 10
1181.4939094197421
 20
-1005.002224900578
 30
25.361499999999999
 70
    32
  0
VERTEX
  5
119
  8
DATA
  6
CONTINUOUS
 62
     7
 10
1181.5589094197419
 20
-1005.002224900578
 30
25.361499999999999
 70
    32
  0
VERTEX
  5
11A
  8
DATA
  6
CONTINUOUS
 62
     7
 10
1181.6239094197419
 20
-1005.002224900578
 30
25.361499999999999
 70
    32
  0
VERTEX
  5
11B
  8
DATA
  6
CONTINUOUS
 62
     7
 10
1181.687909419742
 20
-1005.002224900578
 30
25.361499999999999
 70
    32
  0
VERTEX
  5
11C
  8
DATA
  6
CONTINUOUS
 62
     7
 10
1181.7499094197419
 20
-1005.002224900578
 30
25.361499999999999
 70
    32
  0
VERTEX
  5
11D
  8
DATA
  6
CONTINUOUS
 62
     7
 10
1181.811909419743
 20
-1005.002224900578
 30
25.361499999999999
 70
    32
  0
VERTEX
  5
11E
  8
DATA
  6
CONTINUOUS
 62
     7
 10
1181.8739094197419
 20
-1005.002224900578
 30
25.361499999999999
 70
    32
  0
VERTEX
  5
11F
  8
DATA
  6
CONTINUOUS
 62
     7
 10
1181.9339094197419
 20
-1005.002224900578
 30
25.361499999999999
 70
    32
  0
VERTEX
  5
120
  8
DATA
  6
CONTINUOUS
 62
     7
 10
1181.9939094197421
 20
-1005.002224900578
 30
25.361499999999999
 70
    32
  0
VERTEX
  5
121
  8
DATA
  6
CONTINUOUS
 62
     7
 10
1182.0519094197421
 20
-1005.002224900578
 30
25.361499999999999
 70
    32
  0
VERTEX
  5
122
  8
DATA
  6
CONTINUOUS
 62
     7
 10
1182.1099094197421
 20
-1005.002224900578
 30
25.361499999999999
 70
    32
  0
VERTEX
  5
123
  8
DATA
  6
CONTINUOUS
 62
     7
 10
1182.167909419742
 20
-1005.002224900578
 30
25.361499999999999
 70
    32
  0
VERTEX
  5
124
  8
DATA
  6
CONTINUOUS
 62
     7
 10
1182.2239094197421
 20
-1005.002224900578
 30
25.361499999999999
 70
    32
  0
VERTEX
  5
125
  8
DATA
  6
CONTINUOUS
 62
     7
 10
1182.2789094197419
 20
-1005.002224900578
 30
25.361499999999999
 70
    32
  0
VERTEX
  5
126
  8
DATA
  6
CONTINUOUS
 62
     7
 10
1182.333909419742
 20
-1005.002224900578
 30
25.361499999999999
 70
    32
  0
VERTEX
  5
127
  8
DATA
  6
CONTINUOUS
 62
     7
 10
1182.3879094197421
 20
-1005.002224900578
 30
25.361499999999999
 70
    32
  0
VERTEX
  5
128
  8
DATA
  6
CONTINUOUS
 62
     7
 10
1182.440909419742
 20
-1005.002224900578
 30
25.361499999999999
 70
    32
  0
VERTEX
  5
129
  8
DATA
  6
CONTINUOUS
 62
     7
 10
1182.4929094197421
 20
-1005.002224900578
 30
25.361499999999999
 70
    32
  0
VERTEX
  5
12A
  8
DATA
  6
CONTINUOUS
 62
     7
 10
1182.543909419742
 20
-1005.002224900578
 30
25.361499999999999
 70
    32
  0
VERTEX
  5
12B
  8
DATA
  6
CONTINUOUS
 62
     7
 10
1182.593909419742
 20
-1005.002224900578
 30
25.361499999999999
 70
    32
  0
VERTEX
  5
12C
  8
DATA
  6
CONTINUOUS
 62
     7
 10
1182.6439094197419
 20
-1005.002224900578
 30
25.361499999999999
 70
    32
  0
VERTEX
  5
12D
  8
DATA
  6
CONTINUOUS
 62
     7
 10
1182.6929094197419
 20
-1005.002224900578
 30
25.361499999999999
 70
    32
  0
VERTEX
  5
12E
  8
DATA
  6
CONTINUOUS
 62
     7
 10
1182.7409094197419
 20
-1005.002224900578
 30
25.361499999999999
 70
    32
  0
VERTEX
  5
12F
  8
DATA
  6
CONTINUOUS
 62
     7
 10
1182.7879094197419
 20
-1005.002224900578
 30
25.361499999999999
 70
    32
  0
VERTEX
  5
130
  8
DATA
  6
CONTINUOUS
 62
     7
 10
1182.833909419742
 20
-1005.002224900578
 30
25.361499999999999
 70
    32
  0
VERTEX
  5
131
  8
DATA
  6
CONTINUOUS
 62
     7
 10
1182.8789094197421
 20
-1005.002224900578
 30
25.361499999999999
 70
    32
  0
VERTEX
  5
132
  8
DATA
  6
CONTINUOUS
 62
     7
 10
1182.9229094197419
 20
-1005.002224900578
 30
25.361499999999999
 70
    32
  0
VERTEX
  5
133
  8
DATA
  6
CONTINUOUS
 62
     7
 10
1182.966909419742
 20
-1005.002224900578
 30
25.361499999999999
 70
    32
  0
VERTEX
  5
134
  8
DATA
  6
CONTINUOUS
 62
     7
 10
1183.0099094197419
 20
-1005.002224900578
 30
25.361499999999999
 70
    32
  0
VERTEX
  5
135
  8
DATA
  6
CONTINUOUS
 62
     7
 10
1183.0519094197421
 20
-1005.002224900578
 30
25.361499999999999
 70
    32
  0
VERTEX
  5
136
  8
DATA
  6
CONTINUOUS
 62
     7
 10
1183.091909419742
 20
-1005.002224900578
 30
25.361499999999999
 70
    32
  0
VERTEX
  5
137
  8
DATA
  6
CONTINUOUS
 62
     7
 10
1183.132909419742
 20
-1005.002224900578
 30
25.361499999999999
 70
    32
  0
VERTEX
  5
138
  8
DATA
  6
CONTINUOUS
 62
     7
 10
1183.171909419742
 20
-1005.002224900578
 30
25.361499999999999
 70
    32
  0
VERTEX
  5
139
  8
DATA
  6
CONTINUOUS
 62
     7
 10
1183.209909419742
 20
-1005.002224900578
 30
25.361499999999999
 70
    32
  0
VERTEX
  5
13A
  8
DATA
  6
CONTINUOUS
 62
     7
 10
1183.247909419742
 20
-1005.002224900578
 30
25.361499999999999
 70
    32
  0
VERTEX
  5
13B
  8
DATA
  6
CONTINUOUS
 62
     7
 10
1183.283909419742
 20
-1005.002224900578
 30
25.361499999999999
 70
    32
  0
VERTEX
  5
13C
  8
DATA
  6
CONTINUOUS
 62
     7
 10
1183.3199094197421
 20
-1005.002224900578
 30
25.361499999999999
 70
    32
  0
VERTEX
  5
13D
  8
DATA
  6
CONTINUOUS
 62
     7
 10
1183.3549094197419
 20
-1005.002224900578
 30
25.361499999999999
 70
    32
  0
VERTEX
  5
13E
  8
DATA
  6
CONTINUOUS
 62
     7
 10
1183.388909419742
 20
-1005.002224900578
 30
25.361499999999999
 70
    32
  0
VERTEX
  5
13F
  8
DATA
  6
CONTINUOUS
 62
     7
 10
1183.421909419742
 20
-1005.002224900578
 30
25.361499999999999
 70
    32
  0
VERTEX
  5
140
  8
DATA
  6
CONTINUOUS
 62
     7
 10
1183.4539094197421
 20
-1005.002224900578
 30
25.361499999999999
 70
    32
  0
VERTEX
  5
141
  8
DATA
  6
CONTINUOUS
 62
     7
 10
1183.4849094197421
 20
-1005.002224900578
 30
25.361499999999999
 70
    32
  0
VERTEX
  5
142
  8
DATA
  6
CONTINUOUS
 62
     7
 10
1183.5149094197429
 20
-1005.002224900578
 30
25.361499999999999
 70
    32
  0
VERTEX
  5
143
  8
DATA
  6
CONTINUOUS
 62
     7
 10
1183.544909419742
 20
-1005.002224900578
 30
25.361499999999999
 70
    32
  0
VERTEX
  5
144
  8
DATA
  6
CONTINUOUS
 62
     7
 10
1183.572909419742
 20
-1005.002224900578
 30
25.361499999999999
 70
    32
  0
VERTEX
  5
145
  8
DATA
  6
CONTINUOUS
 62
     7
 10
1183.600909419742
 20
-1005.002224900578
 30
25.361499999999999
 70
    32
  0
VERTEX
  5
146
  8
DATA
  6
CONTINUOUS
 62
     7
 10
1183.6279094197421
 20
-1005.002224900578
 30
25.361499999999999
 70
    32
  0
VERTEX
  5
147
  8
DATA
  6
CONTINUOUS
 62
     7
 10
1183.6539094197419
 20
-1005.002224900578
 30
25.361499999999999
 70
    32
  0
VERTEX
  5
148
  8
DATA
  6
CONTINUOUS
 62
     7
 10
1183.678909419742
 20
-1005.002224900578
 30
25.361499999999999
 70
    32
  0
VERTEX
  5
149
  8
DATA
  6
CONTINUOUS
 62
     7
 10
1183.7029094197419
 20
-1005.002224900578
 30
25.361499999999999
 70
    32
  0
VERTEX
  5
14A
  8
DATA
  6
CONTINUOUS
 62
     7
 10
1183.725909419742
 20
-1005.002224900578
 30
25.361499999999999
 70
    32
  0
VERTEX
  5
14B
  8
DATA
  6
CONTINUOUS
 62
     7
 10
1183.747909419742
 20
-1005.002224900578
 30
25.361499999999999
 70
    32
  0
VERTEX
  5
14C
  8
DATA
  6
CONTINUOUS
 62
     7
 10
1183.7689094197419
 20
-1005.002224900578
 30
25.361499999999999
 70
    32
  0
VERTEX
  5
14D
  8
DATA
  6
CONTINUOUS
 62
     7
 10
1183.7899094197419
 20
-1005.002224900578
 30
25.361499999999999
 70
    32
  0
VERTEX
  5
14E
  8
DATA
  6
CONTINUOUS
 62
     7
 10
1183.8089094197419
 20
-1005.002224900578
 30
25.361499999999999
 70
    32
  0
VERTEX
  5
14F
  8
DATA
  6
CONTINUOUS
 62
     7
 10
1183.8269094197419
 20
-1005.002224900578
 30
25.361499999999999
 70
    32
  0
VERTEX
  5
150
  8
DATA
  6
CONTINUOUS
 62
     7
 10
1183.844909419742
 20
-1005.002224900578
 30
25.361499999999999
 70
    32
  0
VERTEX
  5
151
  8
DATA
  6
CONTINUOUS
 62
     7
 10
1183.861909419742
 20
-1005.002224900578
 30
25.361499999999999
 70
    32
  0
VERTEX
  5
152
  8
DATA
  6
CONTINUOUS
 62
     7
 10
1183.8769094197421
 20
-1005.002224900578
 30
25.361499999999999
 70
    32
  0
VERTEX
  5
153
  8
DATA
  6
CONTINUOUS
 62
     7
 10
1183.8919094197429
 20
-1005.002224900578
 30
25.361499999999999
 70
    32
  0
VERTEX
  5
154
  8
DATA
  6
CONTINUOUS
 62
     7
 10
1183.9059094197421
 20
-1005.002224900578
 30
25.361499999999999
 70
    32
  0
VERTEX
  5
155
  8
DATA
  6
CONTINUOUS
 62
     7
 10
1183.9189094197429
 20
-1005.002224900578
 30
25.361499999999999
 70
    32
  0
VERTEX
  5
156
  8
DATA
  6
CONTINUOUS
 62
     7
 10
1183.930909419742
 20
-1005.002224900578
 30
25.361499999999999
 70
    32
  0
VERTEX
  5
157
  8
DATA
  6
CONTINUOUS
 62
     7
 10
1183.9419094197419
 20
-1005.002224900578
 30
25.361499999999999
 70
    32
  0
VERTEX
  5
158
  8
DATA
  6
CONTINUOUS
 62
     7
 10
1183.9519094197419
 20
-1005.002224900578
 30
25.361499999999999
 70
    32
  0
VERTEX
  5
159
  8
DATA
  6
CONTINUOUS
 62
     7
 10
1183.9609094197419
 20
-1005.002224900578
 30
25.361499999999999
 70
    32
  0
VERTEX
  5
15A
  8
DATA
  6
CONTINUOUS
 62
     7
 10
1183.968909419742
 20
-1005.002224900578
 30
25.361499999999999
 70
    32
  0
VERTEX
  5
15B
  8
DATA
  6
CONTINUOUS
 62
     7
 10
1183.975909419742
 20
-1005.002224900578
 30
25.361499999999999
 70
    32
  0
VERTEX
  5
15C
  8
DATA
  6
CONTINUOUS
 62
     7
 10
1183.9829094197421
 20
-1005.002224900578
 30
25.361499999999999
 70
    32
  0
VERTEX
  5
15D
  8
DATA
  6
CONTINUOUS
 62
     7
 10
1183.987909419742
 20
-1005.002224900578
 30
25.361499999999999
 70
    32
  0
VERTEX
  5
15E
  8
DATA
  6
CONTINUOUS
 62
     7
 10
1183.9919094197419
 20
-1005.002224900578
 30
25.361499999999999
 70
    32
  0
VERTEX
  5
15F
  8
DATA
  6
CONTINUOUS
 62
     7
 10
1183.995909419742
 20
-1005.002224900578
 30
25.361499999999999
 70
    32
  0
VERTEX
  5
160
  8
DATA
  6
CONTINUOUS
 62
     7
 10
1183.997909419742
 20
-1005.002224900578
 30
25.361499999999999
 70
    32
  0
VERTEX
  5
161
  8
DATA
  6
CONTINUOUS
 62
     7
 10
1183.9999094197419
 20
-1005.002224900578
 30
25.361499999999999
 70
    32
  0
VERTEX
  5
162
  8
DATA
  6
CONTINUOUS
 62
     7
 10
1183.9999094197419
 20
-1005.002224900578
 30
25.361499999999999
 70
    32
  0
SEQEND
  5
163
  8
DATA
  6
CONTINUOUS
 62
     7
  0
LINE
  5
164
  8
DATA
  6
CONTINUOUS
 62
     7
 10
160.000000000005
 20
579.99999999999829
 30
0.0
 11
160.000000000005
 21
-200.0
 31
0.0
  0
LINE
  5
165
  8
DATA
  6
CONTINUOUS
 62
     7
 10
-600.0
 20
-200.0
 30
0.0
 11
-600.0
 21
579.99999999999829
 31
0.0
  0
LINE
  5
166
  8
DATA
  6
CONTINUOUS
 62
     7
 10
-488.00000000000068
 20
-89.999999999999091
 30
0.0
 11
-488.00000000000068
 21
469.99999999999659
 31
0.0
  0
LINE
  5
167
  8
DATA
  6
CONTINUOUS
 62
     7
 10
-530.00000000000057
 20
469.99999999999659
 30
0.0
 11
-530.00000000000057
 21
-90.000000000000895
 31
0.0
  0
LINE
  5
168
  8
DATA
  6
CONTINUOUS
 62
     7
 10
48.000000000004761
 20
469.99999999999659
 30
0.0
 11
48.000000000004761
 21
-89.999999999999091
 31
0.0
  0
LINE
  5
169
  8
DATA
  6
CONTINUOUS
 62
     7
 10
90.000000000004775
 20
-90.000000000000895
 30
0.0
 11
90.000000000004775
 21
469.99999999999659
 31
0.0
  0
LINE
  5
16A
  8
DATA
  6
CONTINUOUS
 62
     7
 10
-369.14800251599593
 20
-199.9995631740511
 30
0.0
 11
-600.0
 21
-200.0
 31
0.0
  0
LINE
  5
16B
  8
DATA
  6
CONTINUOUS
 62
     7
 10
160.000000000005
 20
-200.0
 30
0.0
 11
-70.851997484000506
 21
-199.9995631740511
 31
0.0
  0
LINE
  5
16C
  8
DATA
  6
CONTINUOUS
 62
     7
 10
-600.0000000007002
 20
-2180.0
 30
0.0
 11
-600.0000000007002
 21
-1400.0
 31
0.0
  0
LINE
  5
16D
  8
DATA
  6
CONTINUOUS
 62
     7
 10
159.9999999993048
 20
-1400.0
 30
0.0
 11
159.9999999993048
 21
-2180.0
 31
0.0
  0
LINE
  5
16E
  8
DATA
  6
CONTINUOUS
 62
     7
 10
119.9999999999967
 20
-919.99994577851589
 30
0.0
 11
119.9999999999967
 21
-960.99994577851533
 31
0.0
  0
LINE
  5
16F
  8
DATA
  6
CONTINUOUS
 62
     7
 10
78.999999999997812
 20
-960.99994577851533
 30
0.0
 11
78.999999999997812
 21
-919.99994577851589
 31
0.0
  0
LINE
  5
170
  8
DATA
  6
CONTINUOUS
 62
     7
 10
-250.9999999999942
 20
-894.81899157289445
 30
0.0
 11
-250.9999999999942
 21
-981.99994577851533
 31
0.0
  0
LINE
  5
171
  8
DATA
  6
CONTINUOUS
 62
     7
 10
-189.00000000000099
 20
-894.81899157289786
 30
0.0
 11
-189.00000000000099
 21
-981.99994577851533
 31
0.0
  0
LINE
  5
172
  8
DATA
  6
CONTINUOUS
 62
     7
 10
-370.99855914112487
 20
-981.99994577851533
 30
0.0
 11
-370.99855914112487
 21
-477.9999457785151
 31
0.0
  0
LINE
  5
173
  8
DATA
  6
CONTINUOUS
 62
     7
 10
-370.99855914112487
 20
-981.99994577851533
 30
0.0
 11
-370.99855914112487
 21
-477.9999457785151
 31
0.0
  0
LINE
  5
174
  8
DATA
  6
CONTINUOUS
 62
     7
 10
-375.65367565953193
 20
-477.9999457785151
 30
0.0
 11
-375.65367565953193
 21
-981.99994577851533
 31
0.0
  0
LINE
  5
175
  8
DATA
  6
CONTINUOUS
 62
     7
 10
-64.346324340460583
 20
-477.9999457785151
 30
0.0
 11
-64.346324340460583
 21
-981.99994577851533
 31
0.0
  0
LINE
  5
176
  8
DATA
  6
CONTINUOUS
 62
     7
 10
-69.001440858866786
 20
-981.99994577851533
 30
0.0
 11
-69.001440858866786
 21
-477.9999457785151
 31
0.0
  0
LINE
  5
177
  8
DATA
  6
CONTINUOUS
 62
     7
 10
-69.001440858866786
 20
-981.99994577851533
 30
0.0
 11
-69.001440858866786
 21
-477.9999457785151
 31
0.0
  0
LINE
  5
178
  8
DATA
  6
CONTINUOUS
 62
     7
 10
141.99999999999801
 20
-477.9999457785151
 30
0.0
 11
141.99999999999801
 21
-981.99994577851533
 31
0.0
  0
LINE
  5
179
  8
DATA
  6
CONTINUOUS
 62
     7
 10
141.99999999999801
 20
-477.9999457785151
 30
0.0
 11
141.99999999999801
 21
-981.99994577851533
 31
0.0
  0
LINE
  5
17A
  8
DATA
  6
CONTINUOUS
 62
     7
 10
159.9999999999981
 20
-459.9998915570431
 30
0.0
 11
159.9999999999981
 21
-1000.0
 31
0.0
  0
LINE
  5
17B
  8
DATA
  6
CONTINUOUS
 62
     7
 10
-599.99999999998886
 20
-459.9998915570431
 30
0.0
 11
-599.99999999998886
 21
-1000.0
 31
0.0
  0
LINE
  5
17C
  8
DATA
  6
CONTINUOUS
 62
     7
 10
-581.99999999998909
 20
-477.9999457785151
 30
0.0
 11
-581.99999999998909
 21
-981.99994577851533
 31
0.0
  0
LINE
  5
17D
  8
DATA
  6
CONTINUOUS
 62
     7
 10
-581.99999999998909
 20
-477.9999457785151
 30
0.0
 11
-581.99999999998909
 21
-981.99994577851533
 31
0.0
  0
LINE
  5
17E
  8
DATA
  6
CONTINUOUS
 62
     7
 10
1280.000000000002
 20
-981.99994577873565
 30
0.0
 11
1280.000000000002
 21
-477.9999457787352
 31
0.0
  0
LINE
  5
17F
  8
DATA
  6
CONTINUOUS
 62
     7
 10
500.0
 20
-477.9999457787352
 30
0.0
 11
500.0
 21
-981.99994577873565
 31
0.0
  0
LINE
  5
180
  8
DATA
  6
CONTINUOUS
 62
     7
 10
-600.0
 20
579.99999999999829
 30
0.0
 11
160.000000000005
 21
579.99999999999829
 31
0.0
  0
LINE
  5
181
  8
DATA
  6
CONTINUOUS
 62
     7
 10
500.0
 20
-981.99994577873565
 30
0.0
 11
1280.000000000002
 21
-981.99994577873565
 31
0.0
  0
LINE
  5
182
  8
DATA
  6
CONTINUOUS
 62
     7
 10
500.0
 20
-1000.00000000022
 30
0.0
 11
1280.000000000002
 21
-1000.00000000022
 31
0.0
  0
LINE
  5
183
  8
DATA
  6
CONTINUOUS
 62
     7
 10
1280.000000000002
 20
-982.00000000022044
 30
0.0
 11
500.0
 21
-982.00000000022044
 31
0.0
  0
LINE
  5
184
  8
DATA
  6
CONTINUOUS
 62
     7
 10
610.0
 20
-1004.999945778735
 30
0.0
 11
1170.000000000003
 21
-1004.999945778735
 31
0.0
  0
LINE
  5
185
  8
DATA
  6
CONTINUOUS
 62
     7
 10
610.0
 20
-1000.00000000022
 30
0.0
 11
610.0
 21
-1004.999945778735
 31
0.0
  0
LINE
  5
186
  8
DATA
  6
CONTINUOUS
 62
     7
 10
500.0
 20
-982.00000000022044
 30
0.0
 11
500.0
 21
-1000.00000000022
 31
0.0
  0
LINE
  5
187
  8
DATA
  6
CONTINUOUS
 62
     7
 10
512.0
 20
-981.99994577873565
 30
0.0
 11
512.0
 21
-982.00000000022044
 31
0.0
  0
LINE
  5
188
  8
DATA
  6
CONTINUOUS
 62
     7
 10
518.0
 20
-981.99994577873565
 30
0.0
 11
518.0
 21
-982.00000000022044
 31
0.0
  0
LINE
  5
189
  8
DATA
  6
CONTINUOUS
 62
     7
 10
518.0
 20
-981.99994577873565
 30
0.0
 11
518.0
 21
-982.00000000022044
 31
0.0
  0
LINE
  5
18A
  8
DATA
  6
CONTINUOUS
 62
     7
 10
1170.000000000003
 20
-1000.00000000022
 30
0.0
 11
1170.000000000003
 21
-1004.999945778735
 31
0.0
  0
LINE
  5
18B
  8
DATA
  6
CONTINUOUS
 62
     7
 10
1280.000000000002
 20
-982.00000000022044
 30
0.0
 11
1280.000000000002
 21
-1000.00000000022
 31
0.0
  0
LINE
  5
18C
  8
DATA
  6
CONTINUOUS
 62
     7
 10
1262.000000000002
 20
-982.00000000022044
 30
0.0
 11
1262.000000000002
 21
-981.99994577873565
 31
0.0
  0
LINE
  5
18D
  8
DATA
  6
CONTINUOUS
 62
     7
 10
1268.000000000002
 20
-982.00000000022044
 30
0.0
 11
1268.000000000002
 21
-981.99994577873565
 31
0.0
  0
LINE
  5
18E
  8
DATA
  6
CONTINUOUS
 62
     7
 10
1264.000000000002
 20
-982.00000000022044
 30
0.0
 11
1264.000000000002
 21
-981.99994577873565
 31
0.0
  0
LINE
  5
18F
  8
DATA
  6
CONTINUOUS
 62
     7
 10
159.9999999999981
 20
-1000.0
 30
0.0
 11
-599.99999999998886
 21
-1000.0
 31
0.0
  0
LINE
  5
190
  8
DATA
  6
CONTINUOUS
 62
     7
 10
159.9999999999981
 20
-981.99994577851533
 30
0.0
 11
-599.99999999998886
 21
-981.99994577851533
 31
0.0
  0
LINE
  5
191
  8
DATA
  6
CONTINUOUS
 62
     7
 10
-303.16777686435103
 20
-982.00000000000023
 30
0.0
 11
-303.16777686435103
 21
-1000.0
 31
0.0
  0
LINE
  5
192
  8
DATA
  6
CONTINUOUS
 62
     7
 10
-136.83222313564141
 20
-982.00000000000023
 30
0.0
 11
-136.83222313564141
 21
-1000.0
 31
0.0
  0
LINE
  5
193
  8
DATA
  6
CONTINUOUS
 62
     7
 10
119.9999999999967
 20
-960.99994577851533
 30
0.0
 11
78.999999999997812
 21
-960.99994577851533
 31
0.0
  0
LINE
  5
194
  8
DATA
  6
CONTINUOUS
 62
     7
 10
-303.16777686435103
 20
-459.9998915570431
 30
0.0
 11
-219.99999999999801
 21
-459.9998915570431
 31
0.0
  0
LINE
  5
195
  8
DATA
  6
CONTINUOUS
 62
     7
 10
159.9999999993048
 20
-2180.0
 30
0.0
 11
-600.0000000007002
 21
-2180.0
 31
0.0
  0
LINE
  5
196
  8
DATA
  6
CONTINUOUS
 62
     7
 10
-250.9999999999942
 20
-477.9999457785151
 30
0.0
 11
-250.9999999999942
 21
-566.63199329503846
 31
0.0
  0
LINE
  5
197
  8
DATA
  6
CONTINUOUS
 62
     7
 10
1280.000000000002
 20
-477.9999457787352
 30
0.0
 11
500.0
 21
-477.9999457787352
 31
0.0
  0
LINE
  5
198
  8
DATA
  6
CONTINUOUS
 62
     7
 10
500.0
 20
-477.99989155726422
 30
0.0
 11
1280.000000000002
 21
-477.99989155726422
 31
0.0
  0
LINE
  5
199
  8
DATA
  6
CONTINUOUS
 62
     7
 10
1280.000000000002
 20
-459.9998915572632
 30
0.0
 11
500.0
 21
-459.9998915572632
 31
0.0
  0
LINE
  5
19A
  8
DATA
  6
CONTINUOUS
 62
     7
 10
500.0
 20
-477.99989155726422
 30
0.0
 11
500.0
 21
-459.9998915572632
 31
0.0
  0
LINE
  5
19B
  8
DATA
  6
CONTINUOUS
 62
     7
 10
512.0
 20
-477.99989155726422
 30
0.0
 11
512.0
 21
-477.9999457787352
 31
0.0
  0
LINE
  5
19C
  8
DATA
  6
CONTINUOUS
 62
     7
 10
518.0
 20
-477.99989155726422
 30
0.0
 11
518.0
 21
-477.9999457787352
 31
0.0
  0
LINE
  5
19D
  8
DATA
  6
CONTINUOUS
 62
     7
 10
518.0
 20
-477.99989155726422
 30
0.0
 11
518.0
 21
-477.9999457787352
 31
0.0
  0
LINE
  5
19E
  8
DATA
  6
CONTINUOUS
 62
     7
 10
1280.000000000002
 20
-477.99989155726422
 30
0.0
 11
1280.000000000002
 21
-459.9998915572632
 31
0.0
  0
LINE
  5
19F
  8
DATA
  6
CONTINUOUS
 62
     7
 10
1262.000000000002
 20
-477.9999457787352
 30
0.0
 11
1262.000000000002
 21
-477.99989155726422
 31
0.0
  0
LINE
  5
1A0
  8
DATA
  6
CONTINUOUS
 62
     7
 10
1268.000000000002
 20
-477.9999457787352
 30
0.0
 11
1268.000000000002
 21
-477.99989155726422
 31
0.0
  0
LINE
  5
1A1
  8
DATA
  6
CONTINUOUS
 62
     7
 10
1264.000000000002
 20
-477.9999457787352
 30
0.0
 11
1264.000000000002
 21
-477.99989155726422
 31
0.0
  0
LINE
  5
1A2
  8
DATA
  6
CONTINUOUS
 62
     7
 10
-303.16777686435103
 20
-459.9998915570431
 30
0.0
 11
-303.16777686435103
 21
-477.99989155704418
 31
0.0
  0
LINE
  5
1A3
  8
DATA
  6
CONTINUOUS
 62
     7
 10
159.9999999999981
 20
-477.9999457785151
 30
0.0
 11
-599.99999999998886
 21
-477.9999457785151
 31
0.0
  0
LINE
  5
1A4
  8
DATA
  6
CONTINUOUS
 62
     7
 10
-599.99999999998886
 20
-459.9998915570431
 30
0.0
 11
-369.1480025159961
 21
-459.9998915570431
 31
0.0
  0
LINE
  5
1A5
  8
DATA
  6
CONTINUOUS
 62
     7
 10
-369.1480025159961
 20
-459.9998915570431
 30
0.0
 11
-303.16777686435103
 21
-459.9998915570431
 31
0.0
  0
LINE
  5
1A6
  8
DATA
  6
CONTINUOUS
 62
     7
 10
-189.00000000000099
 20
-477.9999457785151
 30
0.0
 11
-189.00000000000099
 21
-566.63199329503527
 31
0.0
  0
LINE
  5
1A7
  8
DATA
  6
CONTINUOUS
 62
     7
 10
78.999999999997812
 20
-919.99994577851589
 30
0.0
 11
119.9999999999967
 21
-919.99994577851589
 31
0.0
  0
LINE
  5
1A8
  8
DATA
  6
CONTINUOUS
 62
     7
 10
-136.83222313564141
 20
-459.9998915570431
 30
0.0
 11
-136.83222313564141
 21
-477.99989155704418
 31
0.0
  0
LINE
  5
1A9
  8
DATA
  6
CONTINUOUS
 62
     7
 10
159.9999999999981
 20
-459.9998915570431
 30
0.0
 11
-70.851997483996712
 21
-459.9998915570431
 31
0.0
  0
LINE
  5
1AA
  8
DATA
  6
CONTINUOUS
 62
     7
 10
-70.851997483996712
 20
-459.9998915570431
 30
0.0
 11
-136.83222313564141
 21
-459.9998915570431
 31
0.0
  0
LINE
  5
1AB
  8
DATA
  6
CONTINUOUS
 62
     7
 10
-136.83222313564141
 20
-459.9998915570431
 30
0.0
 11
-219.99999999999801
 21
-459.9998915570431
 31
0.0
  0
LINE
  5
1AC
  8
DATA
  6
CONTINUOUS
 62
     7
 10
-488.00000000070082
 20
-2070.0
 30
0.0
 11
-488.00000000070082
 21
-1509.9999999999991
 31
0.0
  0
LINE
  5
1AD
  8
DATA
  6
CONTINUOUS
 62
     7
 10
-530.00000000070054
 20
-1509.9999999999991
 30
0.0
 11
-530.00000000070054
 21
-2069.9999999999982
 31
0.0
  0
LINE
  5
1AE
  8
DATA
  6
CONTINUOUS
 62
     7
 10
47.99999999930467
 20
-1509.9999999999991
 30
0.0
 11
47.99999999930467
 21
-2070.0
 31
0.0
  0
LINE
  5
1AF
  8
DATA
  6
CONTINUOUS
 62
     7
 10
89.999999999308756
 20
-2069.9999999999982
 30
0.0
 11
89.999999999304677
 21
-1509.9999999999991
 31
0.0
  0
LINE
  5
1B0
  8
DATA
  6
CONTINUOUS
 62
     7
 10
-600.0000000007002
 20
-1400.0
 30
0.0
 11
-369.14800251669601
 21
-1400.0004368259511
 31
0.0
  0
LINE
  5
1B1
  8
DATA
  6
CONTINUOUS
 62
     7
 10
-70.85199748470059
 20
-1400.0004368259511
 30
0.0
 11
159.9999999993048
 21
-1400.0
 31
0.0
  0
LINE
  5
1B2
  8
DATA
  6
CONTINUOUS
 62
     7
 10
-582.00000000000341
 20
818.00005422147217
 30
0.0
 11
142.00000000000031
 21
818.00005422147217
 31
0.0
  0
LINE
  5
1B3
  8
DATA
  6
CONTINUOUS
 62
     7
 10
160.00000000000509
 20
818.00000000000125
 30
0.0
 11
-600.0
 21
818.00000000000125
 31
0.0
  0
LINE
  5
1B4
  8
DATA
  6
CONTINUOUS
 62
     7
 10
-600.0
 20
800.0
 30
0.0
 11
160.00000000000509
 21
800.0
 31
0.0
  0
LINE
  5
1B5
  8
DATA
  6
CONTINUOUS
 62
     7
 10
142.00000000000031
 20
1322.000054221475
 30
0.0
 11
-582.00000000000341
 21
1322.000054221475
 31
0.0
  0
LINE
  5
1B6
  8
DATA
  6
CONTINUOUS
 62
     7
 10
-600.0
 20
1322.00010844296
 30
0.0
 11
160.00000000000509
 21
1322.00010844296
 31
0.0
  0
LINE
  5
1B7
  8
DATA
  6
CONTINUOUS
 62
     7
 10
160.00000000000509
 20
1340.00010844296
 30
0.0
 11
-600.0
 21
1340.00010844296
 31
0.0
  0
LINE
  5
1B8
  8
DATA
  6
CONTINUOUS
 62
     7
 10
142.00000000000031
 20
818.00005422147217
 30
0.0
 11
142.00000000000031
 21
1322.000054221475
 31
0.0
  0
LINE
  5
1B9
  8
DATA
  6
CONTINUOUS
 62
     7
 10
159.99999999999741
 20
1322.000054221475
 30
0.0
 11
159.99999999999741
 21
818.00005422147217
 31
0.0
  0
LINE
  5
1BA
  8
DATA
  6
CONTINUOUS
 62
     7
 10
141.99999999999761
 20
1322.000054221475
 30
0.0
 11
141.99999999999761
 21
818.00005422147217
 31
0.0
  0
LINE
  5
1BB
  8
DATA
  6
CONTINUOUS
 62
     7
 10
159.99999999999741
 20
1322.000054221475
 30
0.0
 11
141.99999999999761
 21
1322.000054221475
 31
0.0
  0
LINE
  5
1BC
  8
DATA
  6
CONTINUOUS
 62
     7
 10
160.00000000000509
 20
1322.00010844296
 30
0.0
 11
160.00000000000509
 21
1340.00010844296
 31
0.0
  0
LINE
  5
1BD
  8
DATA
  6
CONTINUOUS
 62
     7
 10
148.00000000000159
 20
1322.000054221475
 30
0.0
 11
148.00000000000159
 21
1322.00010844296
 31
0.0
  0
LINE
  5
1BE
  8
DATA
  6
CONTINUOUS
 62
     7
 10
160.00000000000509
 20
818.00000000000125
 30
0.0
 11
160.00000000000509
 21
800.0
 31
0.0
  0
LINE
  5
1BF
  8
DATA
  6
CONTINUOUS
 62
     7
 10
141.99999999999761
 20
818.00005422147217
 30
0.0
 11
159.99999999999741
 21
818.00005422147217
 31
0.0
  0
LINE
  5
1C0
  8
DATA
  6
CONTINUOUS
 62
     7
 10
148.00000000000159
 20
818.00000000000125
 30
0.0
 11
148.00000000000159
 21
818.00005422147217
 31
0.0
  0
LINE
  5
1C1
  8
DATA
  6
CONTINUOUS
 62
     7
 10
-501.49990946510093
 20
1261.4996042214671
 30
0.0
 11
-501.49990946510093
 21
1266.4996042214659
 31
0.0
  0
LINE
  5
1C2
  8
DATA
  6
CONTINUOUS
 62
     7
 10
-551.99999999997522
 20
1131.000054221475
 30
0.0
 11
-551.99999999997522
 21
1282.000054221475
 31
0.0
  0
LINE
  5
1C3
  8
DATA
  6
CONTINUOUS
 62
     7
 10
-471.00000000003507
 20
1282.000054221475
 30
0.0
 11
-471.00000000003507
 21
1131.000054221475
 31
0.0
  0
LINE
  5
1C4
  8
DATA
  6
CONTINUOUS
 62
     7
 10
-582.00000000000341
 20
1322.000054221475
 30
0.0
 11
-582.00000000000341
 21
818.00005422147217
 31
0.0
  0
LINE
  5
1C5
  8
DATA
  6
CONTINUOUS
 62
     7
 10
-599.99999999999329
 20
818.00005422147217
 30
0.0
 11
-599.99999999999329
 21
1322.000054221475
 31
0.0
  0
LINE
  5
1C6
  8
DATA
  6
CONTINUOUS
 62
     7
 10
-581.99999999999261
 20
818.00005422147217
 30
0.0
 11
-581.99999999999261
 21
1322.000054221475
 31
0.0
  0
LINE
  5
1C7
  8
DATA
  6
CONTINUOUS
 62
     7
 10
-502.85410123220402
 20
1266.4996042214659
 30
0.0
 11
-501.49990946510093
 21
1266.499604221468
 31
0.0
  0
LINE
  5
1C8
  8
DATA
  6
CONTINUOUS
 62
     7
 10
-520.37402913974995
 20
1262.4996042214659
 30
0.0
 11
-521.49990946510218
 21
1262.499604221468
 31
0.0
  0
LINE
  5
1C9
  8
DATA
  6
CONTINUOUS
 62
     7
 10
-521.49990946510218
 20
1265.4996042214671
 30
0.0
 11
-521.49990946510218
 21
1262.4996042214659
 31
0.0
  0
LINE
  5
1CA
  8
DATA
  6
CONTINUOUS
 62
     7
 10
-521.49990946510218
 20
1265.4996042214671
 30
0.0
 11
-520.37402913974995
 21
1265.4996042214671
 31
0.0
  0
LINE
  5
1CB
  8
DATA
  6
CONTINUOUS
 62
     7
 10
-532.49999999998022
 20
1301.500054221475
 30
0.0
 11
-490.50000000003428
 21
1301.500054221475
 31
0.0
  0
LINE
  5
1CC
  8
DATA
  6
CONTINUOUS
 62
     7
 10
-600.0
 20
1322.00010844296
 30
0.0
 11
-600.0
 21
1340.00010844296
 31
0.0
  0
LINE
  5
1CD
  8
DATA
  6
CONTINUOUS
 62
     7
 10
-581.99999999999261
 20
1322.000054221475
 30
0.0
 11
-599.99999999999329
 21
1322.000054221475
 31
0.0
  0
LINE
  5
1CE
  8
DATA
  6
CONTINUOUS
 62
     7
 10
-588.00000000000352
 20
1322.00010844296
 30
0.0
 11
-588.00000000000352
 21
1322.000054221475
 31
0.0
  0
LINE
  5
1CF
  8
DATA
  6
CONTINUOUS
 62
     7
 10
-501.49990946510093
 20
1221.4996042214659
 30
0.0
 11
-501.49990946510093
 21
1226.4996042214659
 31
0.0
  0
LINE
  5
1D0
  8
DATA
  6
CONTINUOUS
 62
     7
 10
-501.49990946510093
 20
1221.4996042214659
 30
0.0
 11
-502.85410123220402
 21
1221.4996042214659
 31
0.0
  0
LINE
  5
1D1
  8
DATA
  6
CONTINUOUS
 62
     7
 10
-502.85410123220402
 20
1226.4996042214659
 30
0.0
 11
-501.49990946510093
 21
1226.499604221468
 31
0.0
  0
LINE
  5
1D2
  8
DATA
  6
CONTINUOUS
 62
     7
 10
-520.37402913974995
 20
1222.4996042214659
 30
0.0
 11
-521.49990946510218
 21
1222.499604221468
 31
0.0
  0
LINE
  5
1D3
  8
DATA
  6
CONTINUOUS
 62
     7
 10
-521.49990946510218
 20
1225.4996042214659
 30
0.0
 11
-521.49990946510218
 21
1222.499604221468
 31
0.0
  0
LINE
  5
1D4
  8
DATA
  6
CONTINUOUS
 62
     7
 10
-521.49990946510218
 20
1225.4996042214659
 30
0.0
 11
-520.37402913974995
 21
1225.4996042214659
 31
0.0
  0
LINE
  5
1D5
  8
DATA
  6
CONTINUOUS
 62
     7
 10
-501.49990946510093
 20
1261.4996042214671
 30
0.0
 11
-502.85410123220402
 21
1261.4996042214671
 31
0.0
  0
LINE
  5
1D6
  8
DATA
  6
CONTINUOUS
 62
     7
 10
-490.50000000003428
 20
1111.500054221475
 30
0.0
 11
-532.49999999997692
 21
1111.500054221475
 31
0.0
  0
LINE
  5
1D7
  8
DATA
  6
CONTINUOUS
 62
     7
 10
-211.00000000000239
 20
818.00005422147217
 30
0.0
 11
-211.00000000000239
 21
818.00000000000125
 31
0.0
  0
LINE
  5
1D8
  8
DATA
  6
CONTINUOUS
 62
     7
 10
-229.0000000000033
 20
818.00000000000125
 30
0.0
 11
-229.0000000000033
 21
818.00005422147217
 31
0.0
  0
LINE
  5
1D9
  8
DATA
  6
CONTINUOUS
 62
     7
 10
-600.0
 20
818.00000000000125
 30
0.0
 11
-600.0
 21
800.0
 31
0.0
  0
LINE
  5
1DA
  8
DATA
  6
CONTINUOUS
 62
     7
 10
-599.99999999999329
 20
818.00005422147217
 30
0.0
 11
-581.99999999999261
 21
818.00005422147217
 31
0.0
  0
LINE
  5
1DB
  8
DATA
  6
CONTINUOUS
 62
     7
 10
-588.00000000000352
 20
818.00005422147217
 30
0.0
 11
-588.00000000000352
 21
818.00000000000125
 31
0.0
  0
TEXT
  5
1DC
  8
DATA
 62
     7
 10
-1899.9999999999991
 20
-2919.2424505232188
 30
0.0
 40
40.721028645833329
  1
仕様および外観は予告なく変更されることがありますので、ご了承ください。
 41
0.7
 11
-1899.9999999999991
 21
-2878.5214218773849
 31
0.0
 73
     3
  0
TEXT
  5
1DD
  8
DATA
 62
     7
 10
1454.1002363961211
 20
-2749.2266672258338
 30
0.0
 40
61.08154296875
  1
SC4
 41
0.7
 11
1454.1002363961211
 21
-2688.1451242570829
 31
0.0
 73
     3
  0
TEXT
  5
1DE
  8
DATA
 62
     7
 10
1454.1002363961211
 20
-2550.775523636436
 30
0.0
 40
61.08154296875
  1
CODA
 41
0.7
 11
1454.1002363961211
 21
-2489.693980667686
 31
0.0
 73
     3
  0
TEXT
  5
1DF
  8
DATA
 62
     7
 10
1404.317963290234
 20
-2643.1065434763609
 30
0.0
 40
40.721028645833329
  1
高出力サブウ-ファー
 41
0.7
 11
1404.317963290234
 21
-2602.385514830527
 31
0.0
 73
     3
  0
ARC
  5
1E0
  8
DATA
  6
CONTINUOUS
 62
     7
 10
-219.99999999999801
 20
-280.20322784514332
 30
0.0
 40
130.1127869636521
 50
50.267989914730968
 51
129.7320100852692
  0
CIRCLE
  5
1E1
  8
DATA
  6
CONTINUOUS
 62
     7
 10
-220.03124999999801
 20
189.99999999999841
 30
0.0
 40
53.499999999999829
  0
ARC
  5
1E2
  8
DATA
  6
CONTINUOUS
 62
     7
 10
-509.00000000000051
 20
-90.000000000000895
 30
0.0
 40
21.000000000000679
 50
180.0
 51
0.0
  0
ARC
  5
1E3
  8
DATA
  6
CONTINUOUS
 62
     7
 10
-372.28515273574283
 20
-70.037421423082492
 30
0.0
 40
129.9999999999996
 50
271.38279167434303
 51
302.11850314849772
  0
CIRCLE
  5
1E4
  8
DATA
  6
CONTINUOUS
 62
     7
 10
-310.0000000000008
 20
-172.5000000000002
 30
0.0
 40
7.2499999999999423
  0
CIRCLE
  5
1E5
  8
DATA
  6
CONTINUOUS
 62
     7
 10
-248.3155212474569
 20
161.71572875253639
 30
0.0
 40
6.499999999996362
  0
CIRCLE
  5
1E6
  8
DATA
  6
CONTINUOUS
 62
     7
 10
-248.3155212474569
 20
161.71572875253639
 30
0.0
 40
4.0000000000256932
  0
CIRCLE
  5
1E7
  8
DATA
  6
CONTINUOUS
 62
     7
 10
-248.3155212474569
 20
218.2842712474602
 30
0.0
 40
3.9999999999915872
  0
CIRCLE
  5
1E8
  8
DATA
  6
CONTINUOUS
 62
     7
 10
-248.3155212474569
 20
218.2842712474602
 30
0.0
 40
6.4999999999358797
  0
ARC
  5
1E9
  8
DATA
  6
CONTINUOUS
 62
     7
 10
69.000000000004761
 20
-90.000000000000895
 30
0.0
 40
21.000000000000679
 50
180.0
 51
0.0
  0
ARC
  5
1EA
  8
DATA
  6
CONTINUOUS
 62
     7
 10
-67.714847264249528
 20
-70.037421423082492
 30
0.0
 40
130.00000000000011
 50
237.8814968515025
 51
268.61720832565697
  0
CIRCLE
  5
1EB
  8
DATA
  6
CONTINUOUS
 62
     7
 10
-129.99999999999039
 20
-172.5000000000002
 30
0.0
 40
7.25
  0
CIRCLE
  5
1EC
  8
DATA
  6
CONTINUOUS
 62
     7
 10
-191.74697875253389
 20
161.71572875253679
 30
0.0
 40
6.5000000000517284
  0
CIRCLE
  5
1ED
  8
DATA
  6
CONTINUOUS
 62
     7
 10
-191.74697875253389
 20
161.71572875253679
 30
0.0
 40
4.000000000031946
  0
CIRCLE
  5
1EE
  8
DATA
  6
CONTINUOUS
 62
     7
 10
-220.03124999999801
 20
189.9999999999981
 30
0.0
 40
10.25
  0
CIRCLE
  5
1EF
  8
DATA
  6
CONTINUOUS
 62
     7
 10
-191.74697875253389
 20
218.28427124746059
 30
0.0
 40
3.9999999999976121
  0
CIRCLE
  5
1F0
  8
DATA
  6
CONTINUOUS
 62
     7
 10
-191.74697875253389
 20
218.28427124746059
 30
0.0
 40
6.499999999941906
  0
ARC
  5
1F1
  8
DATA
  6
CONTINUOUS
 62
     7
 10
-509.00000000000051
 20
469.99999999999659
 30
0.0
 40
21.000000000000679
 50
0.0
 51
180.0
  0
ARC
  5
1F2
  8
DATA
  6
CONTINUOUS
 62
     7
 10
596.0
 20
-998.9999457787352
 30
0.0
 40
5.9999999999994564
 50
189.59459334902081
 51
270.0
  0
ARC
  5
1F3
  8
DATA
  6
CONTINUOUS
 62
     7
 10
1184.000000000003
 20
-998.9999457787352
 30
0.0
 40
5.9999999999997717
 50
270.0
 51
350.40540665097978
  0
ARC
  5
1F4
  8
DATA
  6
CONTINUOUS
 62
     7
 10
-494.99999999999761
 20
-998.99994577851487
 30
0.0
 40
6.0
 50
270.0
 51
350.40540665097973
  0
ARC
  5
1F5
  8
DATA
  6
CONTINUOUS
 62
     7
 10
-523.00000000000045
 20
-998.99994577851487
 30
0.0
 40
6.0000000000001288
 50
189.59459334901979
 51
270.0
  0
ARC
  5
1F6
  8
DATA
  6
CONTINUOUS
 62
     7
 10
69.000000000004761
 20
469.99999999999659
 30
0.0
 40
21.000000000000679
 50
0.0
 51
180.0
  0
ARC
  5
1F7
  8
DATA
  6
CONTINUOUS
 62
     7
 10
83.000000000007844
 20
-998.99994577851487
 30
0.0
 40
6.0
 50
270.0
 51
350.4054066509803
  0
ARC
  5
1F8
  8
DATA
  6
CONTINUOUS
 62
     7
 10
55.000000000004647
 20
-998.99994577851487
 30
0.0
 40
5.999999999999905
 50
189.5945933490201
 51
270.0
  0
ARC
  5
1F9
  8
DATA
  6
CONTINUOUS
 62
     7
 10
805.00000000010164
 20
-729.99996789942895
 30
0.0
 40
120.0000000001
 50
163.4371694965271
 51
196.56283526848731
  0
ARC
  5
1FA
  8
DATA
  6
CONTINUOUS
 62
     7
 10
475.0
 20
-729.99994577873383
 30
0.0
 40
120.00000000000369
 50
343.43716711399537
 51
16.562832886004621
  0
ARC
  5
1FB
  8
DATA
  6
CONTINUOUS
 62
     7
 10
674.99999999999625
 20
-764.99994577870325
 30
0.0
 40
15.00000000002265
 50
266.97336985126361
 51
3.0265272403262879
  0
ARC
  5
1FC
  8
DATA
  6
CONTINUOUS
 62
     7
 10
604.99999999998886
 20
-764.99994577874816
 30
0.0
 40
14.999999999986599
 50
176.97336985136761
 51
273.02663014873679
  0
ARC
  5
1FD
  8
DATA
  6
CONTINUOUS
 62
     7
 10
640.00000000000728
 20
-894.99994577875657
 30
0.0
 40
120.000000000021
 50
73.437167114002051
 51
106.56283288599769
  0
ARC
  5
1FE
  8
DATA
  6
CONTINUOUS
 62
     7
 10
639.99999999998897
 20
-564.99994577876657
 30
0.0
 40
119.9999999999707
 50
253.43716711400211
 51
286.56283288599781
  0
ARC
  5
1FF
  8
DATA
  6
CONTINUOUS
 62
     7
 10
604.99999999998886
 20
-694.99994577871598
 30
0.0
 40
14.999999999984251
 50
86.973369851471546
 51
183.0266301487388
  0
ARC
  5
200
  8
DATA
  6
CONTINUOUS
 62
     7
 10
674.99999999996362
 20
-694.9999457787959
 30
0.0
 40
15.000000000062251
 50
356.97326694356917
 51
93.026630148528298
  0
ARC
  5
201
  8
DATA
  6
CONTINUOUS
 62
     7
 10
1304.999999999998
 20
-729.99994577873383
 30
0.0
 40
120.0000000000033
 50
163.4371671139952
 51
196.5628328860046
  0
ARC
  5
202
  8
DATA
  6
CONTINUOUS
 62
     7
 10
974.99999999989529
 20
-729.99996789942895
 30
0.0
 40
120.0000000001003
 50
343.43716473151278
 51
16.56283050347275
  0
ARC
  5
203
  8
DATA
  6
CONTINUOUS
 62
     7
 10
1139.9999999999909
 20
-894.99994577875657
 30
0.0
 40
120.000000000021
 50
73.437167114002051
 51
106.56283288599791
  0
ARC
  5
204
  8
DATA
  6
CONTINUOUS
 62
     7
 10
1105.000000000005
 20
-764.99994577870325
 30
0.0
 40
15.00000000002292
 50
176.97347275967201
 51
273.02663014873821
  0
ARC
  5
205
  8
DATA
  6
CONTINUOUS
 62
     7
 10
1175.000000000013
 20
-764.99994577874816
 30
0.0
 40
14.999999999986249
 50
266.97336985126151
 51
3.0266301486324769
  0
ARC
  5
206
  8
DATA
  6
CONTINUOUS
 62
     7
 10
1140.0000000000091
 20
-564.99994577876657
 30
0.0
 40
119.9999999999703
 50
253.43716711400211
 51
286.56283288599809
  0
ARC
  5
207
  8
DATA
  6
CONTINUOUS
 62
     7
 10
1105.0000000000341
 20
-694.9999457787959
 30
0.0
 40
15.00000000006303
 50
86.973369851471787
 51
183.02673305643069
  0
ARC
  5
208
  8
DATA
  6
CONTINUOUS
 62
     7
 10
1175.00000000001
 20
-694.99994577871598
 30
0.0
 40
14.999999999983981
 50
356.97336985126111
 51
93.026630148528525
  0
ARC
  5
209
  8
DATA
  6
CONTINUOUS
 62
     7
 10
-220.00000000069801
 20
-1319.796772154855
 30
0.0
 40
130.11278696365511
 50
230.26798991473169
 51
309.7320100852682
  0
CIRCLE
  5
20A
  8
DATA
  6
CONTINUOUS
 62
     7
 10
-509.00000000070048
 20
-2060.0
 30
0.0
 40
3.4999999999997722
  0
ARC
  5
20B
  8
DATA
  6
CONTINUOUS
 62
     7
 10
-509.00000000070048
 20
-2070.0
 30
0.0
 40
21.000000000000909
 50
180.0
 51
0.0
  0
CIRCLE
  5
20C
  8
DATA
  6
CONTINUOUS
 62
     7
 10
-509.00000000070048
 20
-1879.999999999998
 30
0.0
 40
3.4999999999997722
  0
CIRCLE
  5
20D
  8
DATA
  6
CONTINUOUS
 62
     7
 10
-509.00000000070048
 20
-1700.0
 30
0.0
 40
3.4999999999997722
  0
CIRCLE
  5
20E
  8
DATA
  6
CONTINUOUS
 62
     7
 10
-509.00000000070048
 20
-1520.0
 30
0.0
 40
3.4999999999997722
  0
ARC
  5
20F
  8
DATA
  6
CONTINUOUS
 62
     7
 10
-509.00000000070048
 20
-1509.9999999999991
 30
0.0
 40
21.000000000000231
 50
0.0
 51
180.0
  0
CIRCLE
  5
210
  8
DATA
  6
CONTINUOUS
 62
     7
 10
-310.00000000070099
 20
-1427.5
 30
0.0
 40
7.2499999999999423
  0
CIRCLE
  5
211
  8
DATA
  6
CONTINUOUS
 62
     7
 10
68.999999999304677
 20
-2060.0
 30
0.0
 40
3.5
  0
ARC
  5
212
  8
DATA
  6
CONTINUOUS
 62
     7
 10
68.999999999304677
 20
-2070.0
 30
0.0
 40
21.000000000000909
 50
180.0
 51
0.0
  0
CIRCLE
  5
213
  8
DATA
  6
CONTINUOUS
 62
     7
 10
68.999999999304677
 20
-1879.999999999998
 30
0.0
 40
3.5
  0
CIRCLE
  5
214
  8
DATA
  6
CONTINUOUS
 62
     7
 10
68.999999999304677
 20
-1700.0
 30
0.0
 40
3.5
  0
CIRCLE
  5
215
  8
DATA
  6
CONTINUOUS
 62
     7
 10
68.999999999304677
 20
-1520.0
 30
0.0
 40
3.5
  0
CIRCLE
  5
216
  8
DATA
  6
CONTINUOUS
 62
     7
 10
-130.00000000069039
 20
-1427.5
 30
0.0
 40
7.25
  0
ARC
  5
217
  8
DATA
  6
CONTINUOUS
 62
     7
 10
68.999999999304677
 20
-1509.9999999999991
 30
0.0
 40
21.000000000000909
 50
0.0
 51
180.0
  0
ARC
  5
218
  8
DATA
  6
CONTINUOUS
 62
     7
 10
-372.2851527364428
 20
-1529.962578576921
 30
0.0
 40
130.0000000000002
 50
57.88149685150244
 51
88.617208325656989
  0
ARC
  5
219
  8
DATA
  6
CONTINUOUS
 62
     7
 10
-67.714847264949597
 20
-1529.962578576921
 30
0.0
 40
130.00000000000111
 50
91.382791674343054
 51
122.1185031484973
  0
ARC
  5
21A
  8
DATA
  6
CONTINUOUS
 62
     7
 10
83.000000000004647
 20
1339.000054221475
 30
0.0
 40
5.999999999999905
 50
9.5945933490201405
 51
90.000000000000028
  0
ARC
  5
21B
  8
DATA
  6
CONTINUOUS
 62
     7
 10
55.000000000004881
 20
1339.000054221475
 30
0.0
 40
6.0
 50
90.0
 51
170.40540665097981
  0
CIRCLE
  5
21C
  8
DATA
  6
CONTINUOUS
 62
     7
 10
-511.49998153341829
 20
1263.999504221395
 30
0.0
 40
12.0
  0
CIRCLE
  5
21D
  8
DATA
  6
CONTINUOUS
 62
     7
 10
-511.49990946510081
 20
1263.999604221468
 30
0.0
 40
6.0
  0
ARC
  5
21E
  8
DATA
  6
CONTINUOUS
 62
     7
 10
-511.49990946510081
 20
1263.999604221468
 30
0.0
 40
9.0000000000001013
 50
189.59406822678841
 51
343.87237978681992
  0
CIRCLE
  5
21F
  8
DATA
  6
CONTINUOUS
 62
     7
 10
-511.49990946510081
 20
1263.999604221468
 30
0.0
 40
2.75
  0
ARC
  5
220
  8
DATA
  6
CONTINUOUS
 62
     7
 10
-511.49990946510081
 20
1263.999604221468
 30
0.0
 40
9.0000000000000835
 50
16.127620213180201
 51
170.40593177321159
  0
CIRCLE
  5
221
  8
DATA
  6
CONTINUOUS
 62
     7
 10
-511.50000000000512
 20
1294.000054221475
 30
0.0
 40
2.6999999999998181
  0
CIRCLE
  5
222
  8
DATA
  6
CONTINUOUS
 62
     7
 10
-499.49998153341431
 20
1273.499504221395
 30
0.0
 40
1.749999999999545
  0
ARC
  5
223
  8
DATA
  6
CONTINUOUS
 62
     7
 10
-495.00000000000199
 20
1339.000054221475
 30
0.0
 40
5.999999999999905
 50
9.5945933490201405
 51
90.000000000000028
  0
ARC
  5
224
  8
DATA
  6
CONTINUOUS
 62
     7
 10
-523.00000000000205
 20
1339.000054221475
 30
0.0
 40
6.0000000000002274
 50
90.0
 51
170.40540665097981
  0
ARC
  5
225
  8
DATA
  6
CONTINUOUS
 62
     7
 10
-490.50000000003428
 20
1282.000054221475
 30
0.0
 40
19.500000000000451
 50
0.0
 51
90.0
  0
ARC
  5
226
  8
DATA
  6
CONTINUOUS
 62
     7
 10
-532.49999999997692
 20
1282.000054221475
 30
0.0
 40
19.5
 50
90.0
 51
180.0
  0
ARC
  5
227
  8
DATA
  6
CONTINUOUS
 62
     7
 10
-511.49990946510081
 20
1223.999604221468
 30
0.0
 40
9.0000000000001013
 50
189.59406822678841
 51
343.87237978681992
  0
ARC
  5
228
  8
DATA
  6
CONTINUOUS
 62
     7
 10
-511.49990946510081
 20
1223.999604221468
 30
0.0
 40
9.0000000000000835
 50
16.127620213180201
 51
170.40593177321159
  0
CIRCLE
  5
229
  8
DATA
  6
CONTINUOUS
 62
     7
 10
-499.49990946510218
 20
1233.499604221468
 30
0.0
 40
1.75
  0
CIRCLE
  5
22A
  8
DATA
  6
CONTINUOUS
 62
     7
 10
-511.49990946510081
 20
1223.999604221468
 30
0.0
 40
6.0
  0
CIRCLE
  5
22B
  8
DATA
  6
CONTINUOUS
 62
     7
 10
-511.49990946510081
 20
1223.999604221468
 30
0.0
 40
2.75
  0
CIRCLE
  5
22C
  8
DATA
  6
CONTINUOUS
 62
     7
 10
-523.49990946510081
 20
1214.499604221468
 30
0.0
 40
1.749999999999545
  0
CIRCLE
  5
22D
  8
DATA
  6
CONTINUOUS
 62
     7
 10
-544.49999999998067
 20
1246.500054221475
 30
0.0
 40
2.6999999999998181
  0
CIRCLE
  5
22E
  8
DATA
  6
CONTINUOUS
 62
     7
 10
-523.49998153341505
 20
1254.499504221395
 30
0.0
 40
1.75
  0
CIRCLE
  5
22F
  8
DATA
  6
CONTINUOUS
 62
     7
 10
-511.49990946510081
 20
1223.999604221468
 30
0.0
 40
12.000000000000449
  0
CIRCLE
  5
230
  8
DATA
  6
CONTINUOUS
 62
     7
 10
-478.50000000003507
 20
1246.500054221475
 30
0.0
 40
2.6999999999998181
  0
ARC
  5
231
  8
DATA
  6
CONTINUOUS
 62
     7
 10
-532.49999999997692
 20
1131.000054221475
 30
0.0
 40
19.499999999999542
 50
180.0
 51
270.0
  0
CIRCLE
  5
232
  8
DATA
  6
CONTINUOUS
 62
     7
 10
-544.49999999998067
 20
1161.500054221475
 30
0.0
 40
2.6999999999998181
  0
CIRCLE
  5
233
  8
DATA
  6
CONTINUOUS
 62
     7
 10
-511.50000000000512
 20
1119.000054221475
 30
0.0
 40
2.6999999999998181
  0
CIRCLE
  5
234
  8
DATA
  6
CONTINUOUS
 62
     7
 10
-511.49988153341729
 20
1144.000004221394
 30
0.0
 40
11.24999999999954
  0
CIRCLE
  5
235
  8
DATA
  6
CONTINUOUS
 62
     7
 10
-501.5998815334151
 20
1134.100004221395
 30
0.0
 40
1.5999999999999091
  0
CIRCLE
  5
236
  8
DATA
  6
CONTINUOUS
 62
     7
 10
-521.39988153341505
 20
1153.9000042213941
 30
0.0
 40
1.5999999999994541
  0
CIRCLE
  5
237
  8
DATA
  6
CONTINUOUS
 62
     7
 10
-478.50000000003507
 20
1161.500054221475
 30
0.0
 40
2.6999999999998181
  0
ARC
  5
238
  8
DATA
  6
CONTINUOUS
 62
     7
 10
-490.50000000003428
 20
1131.000054221475
 30
0.0
 40
19.500000000000679
 50
270.0
 51
0.0
  0
CIRCLE
  5
239
  8
DATA
  6
CONTINUOUS
 62
     7
 10
-310.0023935263938
 20
-172.50002567029671
 30
0.0
 40
3.5014523972202611
  0
CIRCLE
  5
23A
  8
DATA
  6
CONTINUOUS
 62
     7
 10
-130.00239352639429
 20
-172.50002567029671
 30
0.0
 40
3.5008494412067841
  0
CIRCLE
  5
23B
  8
DATA
  6
CONTINUOUS
 62
     7
 10
-310.00000000070099
 20
-1427.5
 30
0.0
 40
3.4964672362390812
  0
CIRCLE
  5
23C
  8
DATA
  6
CONTINUOUS
 62
     7
 10
-130.00000000069039
 20
-1427.5
 30
0.0
 40
3.4966896363235098
  0
LINE
  5
23D
  8
DATA
  6
CONTINUOUS
 62
     7
 10
-495.00239352639369
 20
-1005.002224900358
 30
0.0
 11
-523.00239352639335
 21
-1005.002224900358
 31
0.0
  0
LINE
  5
23E
  8
DATA
  6
CONTINUOUS
 62
     7
 10
-494.99546193487117
 20
1345.002333343318
 30
0.0
 11
-522.99546193487117
 21
1345.002333343318
 31
0.0
  0
LINE
  5
23F
  8
DATA
  6
CONTINUOUS
 62
     7
 10
595.99990941973999
 20
-1005.002224900578
 30
0.0
 11
609.99990941974011
 21
-1005.002224900578
 31
0.0
  0
LINE
  5
240
  8
DATA
  6
CONTINUOUS
 62
     7
 10
-369.15239352639401
 20
-1000.002224900358
 30
0.0
 11
-369.15239352639401
 21
-982.00222490035833
 31
0.0
  0
LINE
  5
241
  8
DATA
  6
CONTINUOUS
 62
     7
 10
-70.852393526394735
 20
-1000.002224900358
 30
0.0
 11
-70.852393526394735
 21
-982.00222490035833
 31
0.0
  0
LINE
  5
242
  8
DATA
  6
CONTINUOUS
 62
     7
 10
54.997606473604812
 20
-1005.002224900358
 30
0.0
 11
82.997606473604833
 21
-1005.002224900358
 31
0.0
  0
LINE
  5
243
  8
DATA
  6
CONTINUOUS
 62
     7
 10
-369.15239352639401
 20
-478.0022249003581
 30
0.0
 11
-369.15239352639401
 21
-460.0022249003581
 31
0.0
  0
LINE
  5
244
  8
DATA
  6
CONTINUOUS
 62
     7
 10
-70.852393526394735
 20
-478.0022249003581
 30
0.0
 11
-70.852393526394735
 21
-460.0022249003581
 31
0.0
  0
LINE
  5
245
  8
DATA
  6
CONTINUOUS
 62
     7
 10
83.004538065128713
 20
1345.002333343318
 30
0.0
 11
55.004538065128934
 21
1345.002333343318
 31
0.0
  0
POLYLINE
  5
246
  8
DATA
  6
CONTINUOUS
 62
     7
 66
     1
 10
0.0
 20
0.0
 30
0.0
  0
VERTEX
  5
65E
  8
DATA
  6
CONTINUOUS
 62
     7
 10
-241.98012764872021
 20
-815.73263485866755
 30
0.0
  0
VERTEX
  5
65F
  8
DATA
  6
CONTINUOUS
 62
     7
 10
-241.95738500494971
 20
-815.57490367039554
 30
0.0
  0
VERTEX
  5
660
  8
DATA
  6
CONTINUOUS
 62
     7
 10
-241.92467936681771
 20
-815.45674207386435
 30
0.0
  0
VERTEX
  5
661
  8
DATA
  6
CONTINUOUS
 62
     7
 10
-241.8852973992185
 20
-815.39002440003981
 30
0.0
  0
VERTEX
  5
662
  8
DATA
  6
CONTINUOUS
 62
     7
 10
-241.84319668677989
 20
-815.3814552616177
 30
0.0
  0
VERTEX
  5
663
  8
DATA
  6
CONTINUOUS
 62
     7
 10
-241.80260802704711
 20
-815.43189579105126
 30
0.0
  0
VERTEX
  5
664
  8
DATA
  6
CONTINUOUS
 62
     7
 10
-241.76761026791851
 20
-815.53627710337332
 30
0.0
  0
VERTEX
  5
665
  8
DATA
  6
CONTINUOUS
 62
     7
 10
-241.74172041480841
 20
-815.68410968011437
 30
0.0
  0
VERTEX
  5
666
  8
DATA
  6
CONTINUOUS
 62
     7
 10
-241.72754019868859
 20
-815.86053748517452
 30
0.0
  0
SEQEND
  5
667
  8
DATA
  6
CONTINUOUS
 62
     7
  0
LINE
  5
252
  8
DATA
  6
CONTINUOUS
 62
     7
 10
-306.5484595201379
 20
-935.82283670906349
 30
0.0
 11
-303.38264746446669
 21
-935.82283670906349
 31
0.0
  0
LINE
  5
253
  8
DATA
  6
CONTINUOUS
 62
     7
 10
-303.3696656040666
 20
-928.77224377756465
 30
0.0
 11
-303.4108365010398
 21
-928.73219977004658
 31
0.0
  0
LINE
  5
254
  8
DATA
  6
CONTINUOUS
 62
     7
 10
-312.68429917362681
 20
-936.76683873404329
 30
0.0
 11
-313.14792161520762
 21
-941.74251484068952
 31
0.0
  0
LINE
  5
255
  8
DATA
  6
CONTINUOUS
 62
     7
 10
-303.38264746446669
 20
-935.82283670906349
 30
0.0
 11
-303.9342299167584
 21
-941.74251484068952
 31
0.0
  0
LINE
  5
256
  8
DATA
  6
CONTINUOUS
 62
     7
 10
-313.14792161520762
 20
-941.74251484068952
 30
0.0
 11
-303.9342299167584
 21
-941.74251484068952
 31
0.0
  0
LINE
  5
257
  8
DATA
  6
CONTINUOUS
 62
     7
 10
-306.08483707856811
 20
-930.84716060241749
 30
0.0
 11
-306.63641953085983
 21
-936.76683873404465
 31
0.0
  0
LINE
  5
258
  8
DATA
  6
CONTINUOUS
 62
     7
 10
-306.63641953085983
 20
-936.76683873404465
 30
0.0
 11
-315.85011122929802
 21
-936.76683873404465
 31
0.0
  0
LINE
  5
259
  8
DATA
  6
CONTINUOUS
 62
     7
 10
-303.41830758939989
 20
-928.73126583815485
 30
0.0
 11
-305.76629184201749
 21
-928.73126583815485
 31
0.0
  0
LINE
  5
25A
  8
DATA
  6
CONTINUOUS
 62
     7
 10
-268.33445430549961
 20
-930.84716060241749
 30
0.0
 11
-265.63226469139829
 21
-930.84716060241749
 31
0.0
  0
LINE
  5
25B
  8
DATA
  6
CONTINUOUS
 62
     7
 10
-266.71581174602812
 20
-926.94368675168778
 30
0.0
 11
-273.92503531179011
 21
-926.94368675168778
 31
0.0
  0
LINE
  5
25C
  8
DATA
  6
CONTINUOUS
 62
     7
 10
-273.29485633258872
 20
-925.82083160096181
 30
0.0
 11
-266.74458357670721
 21
-925.82083160096181
 31
0.0
  0
LINE
  5
25D
  8
DATA
  6
CONTINUOUS
 62
     7
 10
-268.2464942947887
 20
-936.76683873404329
 30
0.0
 11
-265.08068223911022
 21
-936.76683873404329
 31
0.0
  0
LINE
  5
25E
  8
DATA
  6
CONTINUOUS
 62
     7
 10
-265.63226469139829
 20
-930.84716060241749
 30
0.0
 11
-265.08068223911022
 21
-936.76683873404329
 31
0.0
  0
LINE
  5
25F
  8
DATA
  6
CONTINUOUS
 62
     7
 10
-268.33445430549961
 20
-935.82283670906349
 30
0.0
 11
-267.78287185321881
 21
-941.74251484068952
 31
0.0
  0
LINE
  5
260
  8
DATA
  6
CONTINUOUS
 62
     7
 10
-268.29879418057737
 20
-928.73126583815485
 30
0.0
 11
-275.03273574783867
 21
-928.73126583815485
 31
0.0
  0
LINE
  5
261
  8
DATA
  6
CONTINUOUS
 62
     7
 10
-340.08134382805628
 20
-820.67735000371044
 30
0.0
 11
-341.41298166514719
 21
-823.12936097071349
 31
0.0
  0
LINE
  5
262
  8
DATA
  6
CONTINUOUS
 62
     7
 10
-340.08134382805628
 20
-820.67735000371044
 30
0.0
 11
-330.86765212961848
 21
-820.67735000371044
 31
0.0
  0
LINE
  5
263
  8
DATA
  6
CONTINUOUS
 62
     7
 10
-330.86765212961848
 20
-820.67735000371044
 30
0.0
 11
-332.19928996669847
 21
-823.12936097071349
 31
0.0
  0
LINE
  5
264
  8
DATA
  6
CONTINUOUS
 62
     7
 10
-341.41298166514719
 20
-823.12936097071349
 30
0.0
 11
-332.19928996669847
 21
-823.12936097071349
 31
0.0
  0
LINE
  5
265
  8
DATA
  6
CONTINUOUS
 62
     7
 10
-331.98693571587881
 20
-808.66500526507093
 30
0.0
 11
-333.31857355295881
 21
-811.11701623207296
 31
0.0
  0
LINE
  5
266
  8
DATA
  6
CONTINUOUS
 62
     7
 10
-329.8588586302468
 20
-815.37765800559453
 30
0.0
 11
-339.07255032868869
 21
-815.37765800559453
 31
0.0
  0
LINE
  5
267
  8
DATA
  6
CONTINUOUS
 62
     7
 10
-332.39398877073847
 20
-809.41453229626563
 30
0.0
 11
-330.51993635159681
 21
-809.4141644669761
 31
0.0
  0
LINE
  5
268
  8
DATA
  6
CONTINUOUS
 62
     7
 10
-240.84944964035881
 20
-808.66500526507093
 30
0.0
 11
-239.73016605408759
 21
-808.66500526506979
 31
0.0
  0
LINE
  5
269
  8
DATA
  6
CONTINUOUS
 62
     7
 10
-246.60861181022901
 20
-808.60729555376179
 30
0.0
 11
-241.31620436778809
 21
-808.60729555376179
 31
0.0
  0
LINE
  5
26A
  8
DATA
  6
CONTINUOUS
 62
     7
 10
-241.98012764872021
 20
-815.73263485866755
 30
0.0
 11
-247.28915349398869
 21
-815.73263485866755
 31
0.0
  0
LINE
  5
26B
  8
DATA
  6
CONTINUOUS
 62
     7
 10
-246.8389595701889
 20
-811.11701623207296
 30
0.0
 11
-238.39852821700759
 21
-811.11701623207296
 31
0.0
  0
LINE
  5
26C
  8
DATA
  6
CONTINUOUS
 62
     7
 10
-239.73016605408759
 20
-808.66500526506979
 30
0.0
 11
-238.39852821700759
 21
-811.11701623207296
 31
0.0
  0
LINE
  5
26D
  8
DATA
  6
CONTINUOUS
 62
     7
 10
-240.84944964035881
 20
-820.67735000371044
 30
0.0
 11
-239.51781180326051
 21
-823.12936097071349
 31
0.0
  0
LINE
  5
26E
  8
DATA
  6
CONTINUOUS
 62
     7
 10
-246.6795732031101
 20
-809.41453229626563
 30
0.0
 11
-241.19247562745721
 21
-809.41453229626563
 31
0.0
  0
LINE
  5
26F
  8
DATA
  6
CONTINUOUS
 62
     7
 10
-241.85824313973049
 20
-815.37765800559453
 30
0.0
 11
-247.25453009130851
 21
-815.37765800559453
 31
0.0
  0
LINE
  5
270
  8
DATA
  6
CONTINUOUS
 62
     7
 10
-331.98693571587881
 20
-652.86136495230062
 30
0.0
 11
-333.31857355295881
 21
-650.40935398529746
 31
0.0
  0
LINE
  5
271
  8
DATA
  6
CONTINUOUS
 62
     7
 10
-342.53226525140752
 20
-650.40935398529746
 30
0.0
 11
-333.31857355295881
 21
-650.40935398529746
 31
0.0
  0
LINE
  5
272
  8
DATA
  6
CONTINUOUS
 62
     7
 10
-330.51861333328651
 20
-652.11183792110501
 30
0.0
 11
-332.39398877073847
 21
-652.11183792110501
 31
0.0
  0
LINE
  5
273
  8
DATA
  6
CONTINUOUS
 62
     7
 10
-339.20325326973767
 20
-645.66583273219692
 30
0.0
 11
-329.98956157128862
 21
-645.66583273219692
 31
0.0
  0
LINE
  5
274
  8
DATA
  6
CONTINUOUS
 62
     7
 10
-341.41298166514719
 20
-638.39700924665897
 30
0.0
 11
-340.08134382805628
 21
-640.84902021366111
 31
0.0
  0
LINE
  5
275
  8
DATA
  6
CONTINUOUS
 62
     7
 10
-330.86765212961848
 20
-640.84902021366111
 30
0.0
 11
-340.08134382805628
 21
-640.84902021366111
 31
0.0
  0
LINE
  5
276
  8
DATA
  6
CONTINUOUS
 62
     7
 10
-332.19928996669847
 20
-638.39700924665897
 30
0.0
 11
-330.86765212961848
 21
-640.84902021366111
 31
0.0
  0
LINE
  5
277
  8
DATA
  6
CONTINUOUS
 62
     7
 10
-332.19928996669847
 20
-638.39700924665897
 30
0.0
 11
-341.41298166514719
 21
-638.39700924665897
 31
0.0
  0
LINE
  5
278
  8
DATA
  6
CONTINUOUS
 62
     7
 10
-339.07255032868869
 20
-646.14871221177532
 30
0.0
 11
-329.8588586302468
 21
-646.14871221177532
 31
0.0
  0
LINE
  5
279
  8
DATA
  6
CONTINUOUS
 62
     7
 10
-239.73016605408759
 20
-652.86136495230062
 30
0.0
 11
-240.84944964035881
 21
-652.86136495230062
 31
0.0
  0
LINE
  5
27A
  8
DATA
  6
CONTINUOUS
 62
     7
 10
-241.31620436778809
 20
-652.91907466360794
 30
0.0
 11
-246.60942115521959
 21
-652.91907466360965
 31
0.0
  0
LINE
  5
27B
  8
DATA
  6
CONTINUOUS
 62
     7
 10
-238.39852821700759
 20
-650.40935398529746
 30
0.0
 11
-246.84156540403691
 21
-650.40935398529746
 31
0.0
  0
LINE
  5
27C
  8
DATA
  6
CONTINUOUS
 62
     7
 10
-239.73016605408759
 20
-652.86136495230062
 30
0.0
 11
-238.39852821700759
 21
-650.40935398529746
 31
0.0
  0
LINE
  5
27D
  8
DATA
  6
CONTINUOUS
 62
     7
 10
-241.19247562745721
 20
-652.11183792110398
 30
0.0
 11
-246.68408897335809
 21
-652.11183792110398
 31
0.0
  0
LINE
  5
27E
  8
DATA
  6
CONTINUOUS
 62
     7
 10
-240.84944964035881
 20
-640.84902021365929
 30
0.0
 11
-239.51781180326779
 21
-638.39700924665635
 31
0.0
  0
LINE
  5
27F
  8
DATA
  6
CONTINUOUS
 62
     7
 10
-247.25484755753919
 20
-646.14871221177532
 30
0.0
 11
-241.85824313973049
 21
-646.14871221177532
 31
0.0
  0
LINE
  5
280
  8
DATA
  6
CONTINUOUS
 62
     7
 10
-306.00340817328657
 20
-531.86970713389996
 30
0.0
 11
-303.52792714623882
 21
-531.86970713389996
 31
0.0
  0
LINE
  5
281
  8
DATA
  6
CONTINUOUS
 62
     7
 10
-303.38264746446669
 20
-525.70353350830442
 30
0.0
 11
-306.5484595201379
 21
-525.70353350830442
 31
0.0
  0
LINE
  5
282
  8
DATA
  6
CONTINUOUS
 62
     7
 10
-313.14792161520762
 20
-519.7838553766785
 30
0.0
 11
-312.68429917362681
 21
-524.75953148332405
 31
0.0
  0
LINE
  5
283
  8
DATA
  6
CONTINUOUS
 62
     7
 10
-303.9342299167584
 20
-519.78385537667759
 30
0.0
 11
-313.14792161520762
 21
-519.7838553766785
 31
0.0
  0
LINE
  5
284
  8
DATA
  6
CONTINUOUS
 62
     7
 10
-303.38264746446669
 20
-525.70353350830442
 30
0.0
 11
-303.9342299167584
 21
-519.78385537667759
 31
0.0
  0
LINE
  5
285
  8
DATA
  6
CONTINUOUS
 62
     7
 10
-315.85011122930888
 20
-524.75953148332405
 30
0.0
 11
-306.63641953085983
 21
-524.75953148332405
 31
0.0
  0
LINE
  5
286
  8
DATA
  6
CONTINUOUS
 62
     7
 10
-305.79909304419073
 20
-532.7951043792126
 30
0.0
 11
-303.41142061004768
 21
-532.7951043792126
 31
0.0
  0
LINE
  5
287
  8
DATA
  6
CONTINUOUS
 62
     7
 10
-265.63226469139829
 20
-530.67920961494997
 30
0.0
 11
-268.33445430549961
 21
-530.67920961494997
 31
0.0
  0
LINE
  5
288
  8
DATA
  6
CONTINUOUS
 62
     7
 10
-266.74458357670721
 20
-535.70553861640553
 30
0.0
 11
-273.28508334532728
 21
-535.70553861640553
 31
0.0
  0
LINE
  5
289
  8
DATA
  6
CONTINUOUS
 62
     7
 10
-273.94251332294942
 20
-534.58268346567888
 30
0.0
 11
-266.71581174602812
 21
-534.58268346567888
 31
0.0
  0
LINE
  5
28A
  8
DATA
  6
CONTINUOUS
 62
     7
 10
-265.08068223911738
 20
-524.75953148332405
 30
0.0
 11
-268.2464942947887
 21
-524.75953148332405
 31
0.0
  0
LINE
  5
28B
  8
DATA
  6
CONTINUOUS
 62
     7
 10
-265.63226469139829
 20
-530.67920961494997
 30
0.0
 11
-265.08068223911738
 21
-524.75953148332405
 31
0.0
  0
LINE
  5
28C
  8
DATA
  6
CONTINUOUS
 62
     7
 10
-268.33445430549961
 20
-525.70353350830521
 30
0.0
 11
-267.78287185320789
 21
-519.7838553766785
 31
0.0
  0
LINE
  5
28D
  8
DATA
  6
CONTINUOUS
 62
     7
 10
-275.02317902934789
 20
-532.7951043792126
 30
0.0
 11
-268.2987941805701
 21
-532.7951043792126
 31
0.0
  0
LINE
  5
28E
  8
DATA
  6
CONTINUOUS
 62
     7
 10
-285.85855088498658
 20
-505.00000000010158
 30
0.0
 11
-295.07224258342842
 21
-505.00000000010158
 31
0.0
  0
LINE
  5
28F
  8
DATA
  6
CONTINUOUS
 62
     7
 10
-269.40177440738643
 20
-531.02323046926006
 30
0.0
 11
-268.37904748585572
 21
-532.70223046926014
 31
0.0
  0
LINE
  5
290
  8
DATA
  6
CONTINUOUS
 62
     7
 10
-268.30626526893741
 20
-532.79417044732224
 30
0.0
 11
-268.30518061004852
 21
-532.7951043792126
 31
0.0
  0
LINE
  5
291
  8
DATA
  6
CONTINUOUS
 62
     7
 10
-239.51781180326779
 20
-638.39700924665635
 30
0.0
 11
-240.68676225214099
 21
-626.08002840202755
 31
0.0
  0
LINE
  5
292
  8
DATA
  6
CONTINUOUS
 62
     7
 10
-241.73922640276641
 20
-645.81123046925995
 30
0.0
 11
-241.72754019868859
 21
-645.66583273219692
 31
0.0
  0
LINE
  5
293
  8
DATA
  6
CONTINUOUS
 62
     7
 10
-258.97367756627779
 20
-574.28323046926005
 30
0.0
 11
-258.09489172183572
 21
-577.96323046926011
 31
0.0
  0
LINE
  5
294
  8
DATA
  6
CONTINUOUS
 62
     7
 10
-258.09489172183572
 20
-577.96323046926011
 30
0.0
 11
-257.17142061004881
 21
-581.76323046925995
 31
0.0
  0
LINE
  5
295
  8
DATA
  6
CONTINUOUS
 62
     7
 10
-238.39852821700759
 20
-650.40935398529746
 30
0.0
 11
-239.73016605408759
 21
-652.86136495230062
 31
0.0
  0
LINE
  5
296
  8
DATA
  6
CONTINUOUS
 62
     7
 10
-246.60942115521959
 20
-652.91907466360965
 30
0.0
 11
-246.68408897335809
 21
-652.11183792110398
 31
0.0
  0
LINE
  5
297
  8
DATA
  6
CONTINUOUS
 62
     7
 10
-246.68408897335809
 20
-652.11183792110398
 30
0.0
 11
-246.84156540403691
 21
-650.40935398529746
 31
0.0
  0
LINE
  5
298
  8
DATA
  6
CONTINUOUS
 62
     7
 10
-306.63641953085983
 20
-524.75953148332405
 30
0.0
 11
-306.08483707857528
 21
-530.67920961495099
 31
0.0
  0
LINE
  5
299
  8
DATA
  6
CONTINUOUS
 62
     7
 10
-304.97251819326277
 20
-535.70553861640462
 30
0.0
 11
-305.78699625193002
 21
-537.37323046926019
 31
0.0
  0
LINE
  5
29A
  8
DATA
  6
CONTINUOUS
 62
     7
 10
-305.78699625193002
 20
-537.37323046926019
 30
0.0
 11
-306.3974792806718
 21
-538.62323046926019
 31
0.0
  0
LINE
  5
29B
  8
DATA
  6
CONTINUOUS
 62
     7
 10
-307.5027111873207
 20
-541.05123046926008
 30
0.0
 11
-308.09225325120639
 21
-542.39323046926006
 31
0.0
  0
LINE
  5
29C
  8
DATA
  6
CONTINUOUS
 62
     7
 10
-308.09225325120639
 20
-542.39323046926006
 30
0.0
 11
-308.44369412386561
 21
-543.19323046926013
 31
0.0
  0
LINE
  5
29D
  8
DATA
  6
CONTINUOUS
 62
     7
 10
-308.44369412386561
 20
-543.19323046926013
 30
0.0
 11
-308.72060403292079
 21
-543.86323046926009
 31
0.0
  0
LINE
  5
29E
  8
DATA
  6
CONTINUOUS
 62
     7
 10
-308.72060403292079
 20
-543.86323046926009
 30
0.0
 11
-309.09037107778403
 21
-544.79323046926015
 31
0.0
  0
LINE
  5
29F
  8
DATA
  6
CONTINUOUS
 62
     7
 10
-309.09037107778403
 20
-544.79323046926015
 30
0.0
 11
-309.9054489723755
 21
-546.84323046926022
 31
0.0
  0
LINE
  5
2A0
  8
DATA
  6
CONTINUOUS
 62
     7
 10
-339.38129076539923
 20
-650.40935398529746
 30
0.0
 11
-338.97810088925701
 21
-646.14871221177532
 31
0.0
  0
LINE
  5
2A1
  8
DATA
  6
CONTINUOUS
 62
     7
 10
-332.6911307572301
 20
-651.56469560556093
 30
0.0
 11
-332.16031376648982
 21
-646.14871221177532
 31
0.0
  0
LINE
  5
2A2
  8
DATA
  6
CONTINUOUS
 62
     7
 10
-340.82107819828849
 20
-650.40935398529746
 30
0.0
 11
-339.94178266208797
 21
-641.14535383037685
 31
0.0
  0
LINE
  5
2A3
  8
DATA
  6
CONTINUOUS
 62
     7
 10
-341.39693392944861
 20
-650.40935398529746
 30
0.0
 11
-340.42344011596617
 21
-640.21910130750734
 31
0.0
  0
LINE
  5
2A4
  8
DATA
  6
CONTINUOUS
 62
     7
 10
-307.46152774064842
 20
-541.0693178333521
 30
0.0
 11
-308.44534562909092
 21
-542.77334040152982
 31
0.0
  0
LINE
  5
2A5
  8
DATA
  6
CONTINUOUS
 62
     7
 10
-251.66079358119859
 20
-633.56323046926025
 30
0.0
 11
-250.88256057980621
 21
-640.31323046926025
 31
0.0
  0
LINE
  5
2A6
  8
DATA
  6
CONTINUOUS
 62
     7
 10
-328.09722008100442
 20
-830.77616492527409
 30
0.0
 11
-329.62501082315259
 21
-816.81323046926013
 31
0.0
  0
LINE
  5
2A7
  8
DATA
  6
CONTINUOUS
 62
     7
 10
-329.62501082315259
 20
-816.81323046926013
 30
0.0
 11
-329.75419057363632
 21
-815.61323046926009
 31
0.0
  0
LINE
  5
2A8
  8
DATA
  6
CONTINUOUS
 62
     7
 10
-336.4562760246601
 20
-749.96323046926011
 30
0.0
 11
-336.35816497776312
 21
-754.26323046926007
 31
0.0
  0
LINE
  5
2A9
  8
DATA
  6
CONTINUOUS
 62
     7
 10
-336.35816497776312
 20
-754.26323046926007
 30
0.0
 11
-336.16907198958972
 21
-761.26323046925995
 31
0.0
  0
LINE
  5
2AA
  8
DATA
  6
CONTINUOUS
 62
     7
 10
-336.16907198958972
 20
-761.26323046925995
 30
0.0
 11
-336.0649143930965
 21
-764.51323046926007
 31
0.0
  0
LINE
  5
2AB
  8
DATA
  6
CONTINUOUS
 62
     7
 10
-342.53226525140792
 20
-811.11701623207296
 30
0.0
 11
-333.31857355295881
 21
-811.11701623207296
 31
0.0
  0
LINE
  5
2AC
  8
DATA
  6
CONTINUOUS
 62
     7
 10
-341.39693392944861
 20
-811.11701623207296
 30
0.0
 11
-340.42344011596617
 21
-821.30726890986432
 31
0.0
  0
LINE
  5
2AD
  8
DATA
  6
CONTINUOUS
 62
     7
 10
-340.82107819828849
 20
-811.11701623207296
 30
0.0
 11
-339.94178266207712
 21
-820.38101638698902
 31
0.0
  0
LINE
  5
2AE
  8
DATA
  6
CONTINUOUS
 62
     7
 10
-339.38129076539923
 20
-811.11701623207296
 30
0.0
 11
-338.97810088925701
 21
-815.37765800559453
 31
0.0
  0
LINE
  5
2AF
  8
DATA
  6
CONTINUOUS
 62
     7
 10
-332.69615708888892
 20
-809.97092984623384
 30
0.0
 11
-332.16191465909662
 21
-815.37765800559384
 31
0.0
  0
LINE
  5
2B0
  8
DATA
  6
CONTINUOUS
 62
     7
 10
-330.39909899267252
 20
-808.6812304692603
 30
0.0
 11
-330.92626514621691
 21
-802.28323046926005
 31
0.0
  0
LINE
  5
2B1
  8
DATA
  6
CONTINUOUS
 62
     7
 10
-241.11097843071511
 20
-652.23223046926
 30
0.0
 11
-241.04519800998119
 21
-652.40723046926007
 31
0.0
  0
LINE
  5
2B2
  8
DATA
  6
CONTINUOUS
 62
     7
 10
-241.04519800998119
 20
-652.40723046926007
 30
0.0
 11
-240.9643820645075
 21
-652.6222304692601
 31
0.0
  0
LINE
  5
2B3
  8
DATA
  6
CONTINUOUS
 62
     7
 10
-238.84518777665119
 20
-689.86323046926009
 30
0.0
 11
-238.79852196385411
 21
-691.37323046926008
 31
0.0
  0
LINE
  5
2B4
  8
DATA
  6
CONTINUOUS
 62
     7
 10
-238.79852196385411
 20
-691.37323046926008
 30
0.0
 11
-238.72178804213311
 21
-693.17323046926015
 31
0.0
  0
LINE
  5
2B5
  8
DATA
  6
CONTINUOUS
 62
     7
 10
-238.72178804213311
 20
-693.17323046926015
 30
0.0
 11
-238.65144861388961
 21
-694.82323046926012
 31
0.0
  0
LINE
  5
2B6
  8
DATA
  6
CONTINUOUS
 62
     7
 10
-246.60861181022901
 20
-808.60729555376179
 30
0.0
 11
-246.6795732031101
 21
-809.41453229626563
 31
0.0
  0
LINE
  5
2B7
  8
DATA
  6
CONTINUOUS
 62
     7
 10
-246.6795732031101
 20
-809.41453229626563
 30
0.0
 11
-246.8389595701889
 21
-811.11701623207296
 31
0.0
  0
LINE
  5
2B8
  8
DATA
  6
CONTINUOUS
 62
     7
 10
-246.8389595701889
 20
-811.11701623207296
 30
0.0
 11
-247.28915349398869
 21
-815.73263485866755
 31
0.0
  0
LINE
  5
2B9
  8
DATA
  6
CONTINUOUS
 62
     7
 10
-241.98012764872021
 20
-815.73263485866755
 30
0.0
 11
-242.26097945064299
 21
-818.44323046926013
 31
0.0
  0
LINE
  5
2BA
  8
DATA
  6
CONTINUOUS
 62
     7
 10
-242.26097945064299
 20
-818.44323046926013
 30
0.0
 11
-242.59461195512239
 21
-821.66323046926016
 31
0.0
  0
LINE
  5
2BB
  8
DATA
  6
CONTINUOUS
 62
     7
 10
-268.30626526893741
 20
-928.73219977004567
 30
0.0
 11
-268.30626526893741
 21
-928.73126583815485
 31
0.0
  0
LINE
  5
2BC
  8
DATA
  6
CONTINUOUS
 62
     7
 10
-303.34804964519037
 20
-928.80773046925992
 30
0.0
 11
-301.56142061004869
 21
-931.74082051202345
 31
0.0
  0
LINE
  5
2BD
  8
DATA
  6
CONTINUOUS
 62
     7
 10
-301.56142061004869
 20
-931.74082051202345
 30
0.0
 11
-300.42518557271131
 21
-933.38323046926041
 31
0.0
  0
LINE
  5
2BE
  8
DATA
  6
CONTINUOUS
 62
     7
 10
-300.42518557271131
 20
-933.38323046926041
 30
0.0
 11
-299.8814446252855
 21
-934.16323046926016
 31
0.0
  0
LINE
  5
2BF
  8
DATA
  6
CONTINUOUS
 62
     7
 10
-268.35321206897157
 20
-928.78172601670485
 30
0.0
 11
-268.30626526893741
 21
-928.73126583815485
 31
0.0
  0
LINE
  5
2C0
  8
DATA
  6
CONTINUOUS
 62
     7
 10
-266.74458357670721
 20
-925.82083160096181
 30
0.0
 11
-265.95945301039649
 21
-924.21323046926011
 31
0.0
  0
LINE
  5
2C1
  8
DATA
  6
CONTINUOUS
 62
     7
 10
-265.95945301039649
 20
-924.21323046926011
 30
0.0
 11
-265.2757120182074
 21
-922.81323046925979
 31
0.0
  0
LINE
  5
2C2
  8
DATA
  6
CONTINUOUS
 62
     7
 10
-239.51781180326051
 20
-823.12936097071349
 30
0.0
 11
-240.1064738003966
 21
-828.66323046926004
 31
0.0
  0
LINE
  5
2C3
  8
DATA
  6
CONTINUOUS
 62
     7
 10
-240.1064738003966
 20
-828.66323046926004
 30
0.0
 11
-240.26763100258501
 21
-830.17823046926037
 31
0.0
  0
LINE
  5
2C4
  8
DATA
  6
CONTINUOUS
 62
     7
 10
-241.5895017118284
 20
-840.81323046926013
 30
0.0
 11
-242.9204487114645
 21
-851.23706006833561
 31
0.0
  0
LINE
  5
2C5
  8
DATA
  6
CONTINUOUS
 62
     7
 10
-242.9204487114645
 20
-851.23706006833561
 30
0.0
 11
-244.79421628661581
 21
-863.56323046926013
 31
0.0
  0
LINE
  5
2C6
  8
DATA
  6
CONTINUOUS
 62
     7
 10
-244.79421628661581
 20
-863.56323046926013
 30
0.0
 11
-246.2793314738953
 21
-872.16323046926016
 31
0.0
  0
LINE
  5
2C7
  8
DATA
  6
CONTINUOUS
 62
     7
 10
-246.2793314738953
 20
-872.16323046926016
 30
0.0
 11
-248.42178831866809
 21
-883.83745415319936
 31
0.0
  0
LINE
  5
2C8
  8
DATA
  6
CONTINUOUS
 62
     7
 10
-248.52541360787711
 20
-883.81843681070472
 30
0.0
 11
-251.42861064175
 21
-896.7243422413178
 31
0.0
  0
LINE
  5
2C9
  8
DATA
  6
CONTINUOUS
 62
     7
 10
-251.42861064175
 20
-896.7243422413178
 30
0.0
 11
-253.76133776323749
 21
-905.66054489774444
 31
0.0
  0
LINE
  5
2CA
  8
DATA
  6
CONTINUOUS
 62
     7
 10
-253.76133776323749
 20
-905.66054489774444
 30
0.0
 11
-255.58192967834441
 21
-912.26323046926007
 31
0.0
  0
LINE
  5
2CB
  8
DATA
  6
CONTINUOUS
 62
     7
 10
-255.58192967834441
 20
-912.26323046926007
 30
0.0
 11
-257.25593339770973
 21
-917.26323046925995
 31
0.0
  0
LINE
  5
2CC
  8
DATA
  6
CONTINUOUS
 62
     7
 10
-257.25593339770973
 20
-917.26323046925995
 30
0.0
 11
-259.34482339515409
 21
-923.66323046926016
 31
0.0
  0
LINE
  5
2CD
  8
DATA
  6
CONTINUOUS
 62
     7
 10
-259.34482339515409
 20
-923.66323046926016
 30
0.0
 11
-261.40525172754923
 21
-928.63244435804654
 31
0.0
  0
LINE
  5
2CE
  8
DATA
  6
CONTINUOUS
 62
     7
 10
-261.40525172754923
 20
-928.63244435804654
 30
0.0
 11
-263.05185060321048
 21
-932.46323046926011
 31
0.0
  0
LINE
  5
2CF
  8
DATA
  6
CONTINUOUS
 62
     7
 10
-265.08068223911022
 20
-936.76683873404329
 30
0.0
 11
-263.05185060321048
 21
-932.46323046926011
 31
0.0
  0
ARC
  5
2D0
  8
DATA
  6
CONTINUOUS
 62
     7
 10
-329.80126726358878
 20
-933.36048097142464
 30
0.0
 40
26.533123974927321
 50
354.67511286281041
 51
8.0242509262211001
  0
ARC
  5
2D1
  8
DATA
  6
CONTINUOUS
 62
     7
 10
-298.89463419665861
 20
-930.74093009531362
 30
0.0
 40
7.1909875819414326
 50
148.12580702006349
 51
180.84644578326879
  0
ARC
  5
2D2
  8
DATA
  6
CONTINUOUS
 62
     7
 10
-306.43841148463991
 20
-926.34506602239469
 30
0.0
 40
1.5568124069099389
 50
337.38624595640277
 51
19.67812371475053
  0
ARC
  5
2D3
  8
DATA
  6
CONTINUOUS
 62
     7
 10
-272.82246757330779
 20
-930.74093009531362
 30
0.0
 40
7.1909875819430713
 50
359.15355421673121
 51
31.874192979958082
  0
ARC
  5
2D4
  8
DATA
  6
CONTINUOUS
 62
     7
 10
-265.27869028533729
 20
-926.34506602239242
 30
0.0
 40
1.556812406902423
 50
160.32187628520651
 51
202.61375404368479
  0
ARC
  5
2D5
  8
DATA
  6
CONTINUOUS
 62
     7
 10
-241.91583450643941
 20
-933.36048097142464
 30
0.0
 40
26.533123974877899
 50
171.9757490737519
 51
185.32488713719039
  0
ARC
  5
2D6
  8
DATA
  6
CONTINUOUS
 62
     7
 10
-342.83033418383599
 20
-819.20165591988075
 30
0.0
 40
3.1200354173010161
 50
331.7725131193468
 51
337.79040332957248
  0
ARC
  5
2D7
  8
DATA
  6
CONTINUOUS
 62
     7
 10
-342.95899608787619
 20
-815.98469115225964
 30
0.0
 40
12.97002875143802
 50
338.78873313200972
 51
0.5484636858155909
  0
ARC
  5
2D8
  8
DATA
  6
CONTINUOUS
 62
     7
 10
-354.04184447094627
 20
-815.75686303590555
 30
0.0
 40
14.83895337374622
 50
341.84295637682311
 51
359.5996916653242
  0
ARC
  5
2D9
  8
DATA
  6
CONTINUOUS
 62
     7
 10
-627.84337189521693
 20
-1012.915494453672
 30
0.0
 40
332.66180902464492
 50
29.48655405500751
 51
32.099003482826262
  0
ARC
  5
2DA
  8
DATA
  6
CONTINUOUS
 62
     7
 10
-228.75810568210051
 20
-815.98469115225851
 30
0.0
 40
12.9700287514412
 50
179.45153631418461
 51
201.2112668679892
  0
ARC
  5
2DB
  8
DATA
  6
CONTINUOUS
 62
     7
 10
-342.83033418409798
 20
-642.32471429762438
 30
0.0
 40
3.1200354175951119
 50
22.20959667092675
 51
28.227486880583609
  0
ARC
  5
2DC
  8
DATA
  6
CONTINUOUS
 62
     7
 10
-342.95899608786891
 20
-645.541679065111
 30
0.0
 40
12.970028751433469
 50
359.4515363141864
 51
21.211266867995111
  0
ARC
  5
2DD
  8
DATA
  6
CONTINUOUS
 62
     7
 10
-354.0418444709573
 20
-645.76950718146725
 30
0.0
 40
14.83895337375046
 50
0.400308334677403
 51
18.157043623178371
  0
ARC
  5
2DE
  8
DATA
  6
CONTINUOUS
 62
     7
 10
-628.99101592772649
 20
-447.73049766380592
 30
0.0
 40
334.09377584153958
 50
327.8664218131504
 51
330.1910614161755
  0
ARC
  5
2DF
  8
DATA
  6
CONTINUOUS
 62
     7
 10
-228.75810568208959
 20
-645.541679065111
 30
0.0
 40
12.97002875144449
 50
158.7887331320305
 51
180.5484636858132
  0
ARC
  5
2E0
  8
DATA
  6
CONTINUOUS
 62
     7
 10
-329.8012672635378
 20
-528.1658892459435
 30
0.0
 40
26.533123974877899
 50
351.9757490737519
 51
5.3248871371913529
  0
ARC
  5
2E1
  8
DATA
  6
CONTINUOUS
 62
     7
 10
-298.89463419666947
 20
-530.78544012205555
 30
0.0
 40
7.1909875819394271
 50
179.15355421673439
 51
211.87419297996101
  0
ARC
  5
2E2
  8
DATA
  6
CONTINUOUS
 62
     7
 10
-306.43841148463991
 20
-535.18130419497254
 30
0.0
 40
1.5568124069131579
 50
340.32187628529448
 51
22.613754043545772
  0
ARC
  5
2E3
  8
DATA
  6
CONTINUOUS
 62
     7
 10
-272.82246757330779
 20
-530.78544012205555
 30
0.0
 40
7.1909875819385851
 50
328.12580702004522
 51
0.8464457832656078
  0
ARC
  5
2E4
  8
DATA
  6
CONTINUOUS
 62
     7
 10
-265.27869028533729
 20
-535.18130419497254
 30
0.0
 40
1.5568124069028719
 50
157.38624595633061
 51
199.67812371484061
  0
ARC
  5
2E5
  8
DATA
  6
CONTINUOUS
 62
     7
 10
-241.9158345064285
 20
-528.1658892459435
 30
0.0
 40
26.533123974883491
 50
174.6751128628101
 51
188.02425092624699
  0
ARC
  5
2E6
  8
DATA
  6
CONTINUOUS
 62
     7
 10
-666.66587833757524
 20
-730.7565337259241
 30
0.0
 40
353.0263153202726
 50
343.54563914140749
 51
16.45476343487201
  0
ARC
  5
2E7
  8
DATA
  6
CONTINUOUS
 62
     7
 10
-252.62487655912869
 20
-556.29091923573185
 30
0.0
 40
70.681006603395232
 50
143.71649245334601
 51
148.90192344903679
  0
ARC
  5
2E8
  8
DATA
  6
CONTINUOUS
 62
     7
 10
-276.6138293888572
 20
-539.55951239995215
 30
0.0
 40
41.448277586510251
 50
135.7228424006212
 51
142.73629918123041
  0
ARC
  5
2E9
  8
DATA
  6
CONTINUOUS
 62
     7
 10
-287.18814541662522
 20
-529.36480161709721
 30
0.0
 40
26.760269405744701
 50
126.53545846233651
 51
135.5448593002051
  0
ARC
  5
2EA
  8
DATA
  6
CONTINUOUS
 62
     7
 10
-291.91107617916037
 20
-524.14683715347485
 30
0.0
 40
19.768030797640151
 50
113.9047334668207
 51
124.53961367362599
  0
ARC
  5
2EB
  8
DATA
  6
CONTINUOUS
 62
     7
 10
-293.87551756587362
 20
-520.40566040289934
 30
0.0
 40
15.55426451359261
 50
101.7440003969991
 51
112.87347555224081
  0
ARC
  5
2EC
  8
DATA
  6
CONTINUOUS
 62
     7
 10
-294.405353778208
 20
-523.46204098491285
 30
0.0
 40
18.47408179053501
 50
92.068747874359048
 51
98.203535314447734
  0
ARC
  5
2ED
  8
DATA
  6
CONTINUOUS
 62
     7
 10
-242.15838325493871
 20
-557.02954664596382
 30
0.0
 40
72.135267025995333
 50
143.36215501426989
 51
148.91352205801579
  0
ARC
  5
2EE
  8
DATA
  6
CONTINUOUS
 62
     7
 10
-270.13920472097669
 20
-537.38931024479734
 30
0.0
 40
37.9739734874071
 50
134.96921050107639
 51
141.94687822753411
  0
ARC
  5
2EF
  8
DATA
  6
CONTINUOUS
 62
     7
 10
-277.26002002920728
 20
-530.0512145811548
 30
0.0
 40
27.750293849476112
 50
127.1965918724169
 51
135.27508814941601
  0
ARC
  5
2F0
  8
DATA
  6
CONTINUOUS
 62
     7
 10
-283.06271002919601
 20
-523.33255045760438
 30
0.0
 40
18.898720821089771
 50
111.4082102183695
 51
125.49722651940991
  0
ARC
  5
2F1
  8
DATA
  6
CONTINUOUS
 62
     7
 10
-285.75170139208979
 20
-517.35198883925796
 30
0.0
 40
12.35344574053361
 50
90.879959976475718
 51
109.92157720824029
  0
ARC
  5
2F2
  8
DATA
  6
CONTINUOUS
 62
     7
 10
-633.5252444921216
 20
-748.7241258988679
 30
0.0
 40
431.4871152309363
 50
32.044939235317933
 51
32.547724034007359
  0
ARC
  5
2F3
  8
DATA
  6
CONTINUOUS
 62
     7
 10
-382.01589984142601
 20
-596.44959332685619
 30
0.0
 40
137.730577118756
 50
35.441671860481158
 51
36.946904917632096
  0
ARC
  5
2F4
  8
DATA
  6
CONTINUOUS
 62
     7
 10
-304.13941049283278
 20
-538.95936670677042
 30
0.0
 40
40.945435918915599
 50
38.155737932681248
 51
44.592480202873993
  0
ARC
  5
2F5
  8
DATA
  6
CONTINUOUS
 62
     7
 10
-292.96056783258172
 20
-529.34625880187764
 30
0.0
 40
26.254952066729299
 50
46.78085023280569
 51
57.906947550160773
  0
ARC
  5
2F6
  8
DATA
  6
CONTINUOUS
 62
     7
 10
-286.88409721059048
 20
-519.33891504488815
 30
0.0
 40
14.549444417112239
 50
57.241578008637823
 51
68.70102824821879
  0
ARC
  5
2F7
  8
DATA
  6
CONTINUOUS
 62
     7
 10
-286.00444413058642
 20
-517.76636742693802
 30
0.0
 40
12.767201029047021
 50
69.815704179341353
 51
89.345255929929792
  0
ARC
  5
2F8
  8
DATA
  6
CONTINUOUS
 62
     7
 10
-301.35685948698028
 20
-532.18659002305446
 30
0.0
 40
2.1940714542903419
 50
171.69590764969169
 51
181.7405101416544
  0
ARC
  5
2F9
  8
DATA
  6
CONTINUOUS
 62
     7
 10
-301.39448662156201
 20
-532.21585194120121
 30
0.0
 40
2.1557561287706961
 50
180.99349791832211
 51
187.3167020855966
  0
ARC
  5
2FA
  8
DATA
  6
CONTINUOUS
 62
     7
 10
-302.77160506066741
 20
-532.43201590355454
 30
0.0
 40
0.7633198929945451
 50
184.3863360344541
 51
196.61119711696981
  0
ARC
  5
2FB
  8
DATA
  6
CONTINUOUS
 62
     7
 10
-303.37854571365841
 20
-532.69641556846625
 30
0.0
 40
0.1040203834793306
 50
194.12611923379069
 51
251.57622002479249
  0
ARC
  5
2FC
  8
DATA
  6
CONTINUOUS
 62
     7
 10
-303.22586678384789
 20
-532.59833143932258
 30
0.0
 40
0.2820188673534816
 50
190.60439806244031
 51
205.9643160291474
  0
ARC
  5
2FD
  8
DATA
  6
CONTINUOUS
 62
     7
 10
-303.4730703571264
 20
-532.69052319135346
 30
0.0
 40
0.1213998194759217
 50
300.51899869250559
 51
328.40473536128923
  0
ARC
  5
2FE
  8
DATA
  6
CONTINUOUS
 62
     7
 10
-243.29757947816611
 20
-567.85070699058554
 30
0.0
 40
69.573166507462673
 50
145.46921540589341
 51
149.70477268646169
  0
ARC
  5
2FF
  8
DATA
  6
CONTINUOUS
 62
     7
 10
-275.12861373425551
 20
-544.85631909301731
 30
0.0
 40
30.32907682500284
 50
138.83603115033409
 51
147.16947722634421
  0
ARC
  5
300
  8
DATA
  6
CONTINUOUS
 62
     7
 10
-282.99706288535259
 20
-536.30738944025347
 30
0.0
 40
18.82044310648028
 50
116.18311100462719
 51
142.66482568794271
  0
ARC
  5
301
  8
DATA
  6
CONTINUOUS
 62
     7
 10
-285.92178290342918
 20
-529.27871569951708
 30
0.0
 40
11.232606122203039
 50
97.672327501465489
 51
118.6155747910767
  0
ARC
  5
302
  8
DATA
  6
CONTINUOUS
 62
     7
 10
-285.90635298867898
 20
-529.61669209552235
 30
0.0
 40
11.56965535169236
 50
84.825391875515365
 51
97.524598783520617
  0
ARC
  5
303
  8
DATA
  6
CONTINUOUS
 62
     7
 10
-285.07451981058932
 20
-524.85904406221459
 30
0.0
 40
6.7681648507969161
 50
70.555316870053701
 51
88.208003839180378
  0
ARC
  5
304
  8
DATA
  6
CONTINUOUS
 62
     7
 10
-285.09605398461338
 20
-527.52500736498689
 30
0.0
 40
9.3296287297091656
 50
67.104990670583021
 51
75.888628877055297
  0
ARC
  5
305
  8
DATA
  6
CONTINUOUS
 62
     7
 10
-277.48691767673978
 20
-511.2218723983716
 30
0.0
 40
8.6751040664254351
 50
242.6950177682435
 51
249.7014080321724
  0
ARC
  5
306
  8
DATA
  6
CONTINUOUS
 62
     7
 10
-289.5848109401565
 20
-537.0570016925775
 30
0.0
 40
19.895862424326261
 50
52.166914696302932
 51
62.819318946124177
  0
ARC
  5
307
  8
DATA
  6
CONTINUOUS
 62
     7
 10
-294.4556669855034
 20
-542.81536736942121
 30
0.0
 40
27.433238094490068
 50
41.733162573440538
 51
51.508928596023608
  0
ARC
  5
308
  8
DATA
  6
CONTINUOUS
 62
     7
 10
-320.38063558745051
 20
-562.27184020827997
 30
0.0
 40
59.793978775774789
 50
31.507127188051019
 51
39.108806697494728
  0
ARC
  5
309
  8
DATA
  6
CONTINUOUS
 62
     7
 10
-268.16423784625943
 20
-532.60695943877818
 30
0.0
 40
0.2349888306124077
 50
203.91794496382229
 51
232.8142682332527
  0
ARC
  5
30A
  8
DATA
  6
CONTINUOUS
 62
     7
 10
-269.70693230551939
 20
-529.6454702138119
 30
0.0
 40
3.447477801467838
 50
293.99156166568088
 51
294.727886419318
  0
ARC
  5
30B
  8
DATA
  6
CONTINUOUS
 62
     7
 10
-268.73813497381491
 20
-532.4818289605945
 30
0.0
 40
0.5577206980761692
 50
328.06604968419572
 51
337.8918557456592
  0
ARC
  5
30C
  8
DATA
  6
CONTINUOUS
 62
     7
 10
-269.21416369619158
 20
-532.40852741272317
 30
0.0
 40
1.032348200132442
 50
344.07796864351002
 51
354.51355627684518
  0
ARC
  5
30D
  8
DATA
  6
CONTINUOUS
 62
     7
 10
-270.6736345375063
 20
-532.19872262129275
 30
0.0
 40
2.5061508841484321
 50
352.92893808578651
 51
7.5437493514747871
  0
ARC
  5
30E
  8
DATA
  6
CONTINUOUS
 62
     7
 10
-394.31397535252398
 20
-587.79669742949136
 30
0.0
 40
143.78778925715579
 50
20.426812786915239
 51
26.0021049589397
  0
ARC
  5
30F
  8
DATA
  6
CONTINUOUS
 62
     7
 10
-478.88572802229692
 20
-617.7125254161665
 30
0.0
 40
233.48720947603269
 50
14.627063723192901
 51
20.06319977278072
  0
ARC
  5
310
  8
DATA
  6
CONTINUOUS
 62
     7
 10
-632.4059092155311
 20
-657.58235439559439
 30
0.0
 40
392.10003286004979
 50
10.583914168199129
 51
14.599262579427689
  0
ARC
  5
311
  8
DATA
  6
CONTINUOUS
 62
     7
 10
493.00660285163519
 20
-464.21895971661399
 30
0.0
 40
749.86646048560794
 50
189.31261948512429
 51
190.42944512534629
  0
ARC
  5
312
  8
DATA
  6
CONTINUOUS
 62
     7
 10
466.13544355770352
 20
-503.15221068768761
 30
0.0
 40
717.1707456866045
 50
187.75805299198589
 51
189.22221325077609
  0
ARC
  5
313
  8
DATA
  6
CONTINUOUS
 62
     7
 10
-355.63567646110693
 20
-637.5256940144169
 30
0.0
 40
115.5173412918201
 50
5.6862986561658388
 51
9.6866506245066226
  0
ARC
  5
314
  8
DATA
  6
CONTINUOUS
 62
     7
 10
-242.28928680564709
 20
-645.80697264135802
 30
0.0
 40
0.5500768818228102
 50
321.5919537597286
 51
359.55650198566849
  0
ARC
  5
315
  8
DATA
  6
CONTINUOUS
 62
     7
 10
-299.3824236651277
 20
-542.19341673922679
 30
0.0
 40
25.091810335155969
 50
50.379604293782393
 51
68.379070150426173
  0
ARC
  5
316
  8
DATA
  6
CONTINUOUS
 62
     7
 10
-301.14818843819478
 20
-545.35862551404921
 30
0.0
 40
28.663512824623869
 50
33.550410500658423
 51
51.695609667685211
  0
ARC
  5
317
  8
DATA
  6
CONTINUOUS
 62
     7
 10
-296.19174361099721
 20
-544.83812642824023
 30
0.0
 40
24.35451716870654
 50
29.63600920266418
 51
38.982393415478342
  0
ARC
  5
318
  8
DATA
  6
CONTINUOUS
 62
     7
 10
-377.6201000806015
 20
-596.03964203227508
 30
0.0
 40
120.523855531371
 50
30.039627478800011
 51
31.651216350103109
  0
ARC
  5
319
  8
DATA
  6
CONTINUOUS
 62
     7
 10
-356.33059108631647
 20
-582.14186239485571
 30
0.0
 40
95.146668475652689
 50
23.498366427530851
 51
29.212488757912709
  0
ARC
  5
31A
  8
DATA
  6
CONTINUOUS
 62
     7
 10
-335.23873415871151
 20
-577.70213881672737
 30
0.0
 40
74.160708144637624
 50
17.360322412343489
 51
26.851977228486209
  0
ARC
  5
31B
  8
DATA
  6
CONTINUOUS
 62
     7
 10
-377.30821498627398
 20
-600.02887190053707
 30
0.0
 40
121.1028521510224
 50
12.23563119791412
 51
21.504421185922041
  0
ARC
  5
31C
  8
DATA
  6
CONTINUOUS
 62
     7
 10
-491.45551151920432
 20
-641.92004865109288
 30
0.0
 40
241.88401771694529
 50
10.4342290500133
 51
14.40066253013943
  0
ARC
  5
31D
  8
DATA
  6
CONTINUOUS
 62
     7
 10
210.52511233191569
 20
-524.64316946102736
 30
0.0
 40
469.87598550394722
 50
188.9957114109431
 51
190.41220552565881
  0
ARC
  5
31E
  8
DATA
  6
CONTINUOUS
 62
     7
 10
-1010.234098438695
 20
-718.49310888443358
 30
0.0
 40
766.40136286746008
 50
5.4164948817172434
 51
8.1712135809543316
  0
ARC
  5
31F
  8
DATA
  6
CONTINUOUS
 62
     7
 10
-343.5404255353788
 20
-575.97205832149325
 30
0.0
 40
86.712132664939844
 50
21.13027120636411
 51
27.669462118316819
  0
ARC
  5
320
  8
DATA
  6
CONTINUOUS
 62
     7
 10
-405.83745340374531
 20
-602.74181095941492
 30
0.0
 40
154.4911576602729
 50
18.15144014844736
 51
22.06208230521209
  0
ARC
  5
321
  8
DATA
  6
CONTINUOUS
 62
     7
 10
-381.50021146682877
 20
-601.41071176454977
 30
0.0
 40
131.10261931492201
 50
9.8588002879085153
 51
20.913190559411639
  0
ARC
  5
322
  8
DATA
  6
CONTINUOUS
 62
     7
 10
-459.40496995681269
 20
-634.69828198648224
 30
0.0
 40
214.44099042678349
 50
7.6738266397651742
 51
15.06463717889876
  0
ARC
  5
323
  8
DATA
  6
CONTINUOUS
 62
     7
 10
-1033.0135441781649
 20
-723.25613402242982
 30
0.0
 40
794.81641421474228
 50
5.6023477650146356
 51
8.4789767413619082
  0
ARC
  5
324
  8
DATA
  6
CONTINUOUS
 62
     7
 10
-239.18363991053971
 20
-645.43347042273433
 30
0.0
 40
2.8193871880907841
 50
184.67438300411661
 51
191.16143248482129
  0
ARC
  5
325
  8
DATA
  6
CONTINUOUS
 62
     7
 10
-241.7320719232267
 20
-645.9712093273032
 30
0.0
 40
0.2177761462370849
 50
182.1107984640085
 51
234.5943206817721
  0
ARC
  5
326
  8
DATA
  6
CONTINUOUS
 62
     7
 10
-519.38111910957025
 20
-674.69531932563052
 30
0.0
 40
273.61947380718931
 50
5.0921698822029731
 51
5.9885426716338657
  0
ARC
  5
327
  8
DATA
  6
CONTINUOUS
 62
     7
 10
473.73001413551111
 20
-720.87395792878362
 30
0.0
 40
810.13856239200572
 50
172.8660454072394
 51
174.15682377188179
  0
ARC
  5
328
  8
DATA
  6
CONTINUOUS
 62
     7
 10
208.13900137905961
 20
-686.89947435042643
 30
0.0
 40
542.38483168655443
 50
171.30591293967149
 51
172.94293288885191
  0
ARC
  5
329
  8
DATA
  6
CONTINUOUS
 62
     7
 10
197.6533428692245
 20
-684.05242820441515
 30
0.0
 40
531.59072407615122
 50
168.4601423411018
 51
171.4384126695081
  0
ARC
  5
32A
  8
DATA
  6
CONTINUOUS
 62
     7
 10
-4339.5203898425552
 20
304.9767692700143
 30
0.0
 40
4112.1805072590923
 50
347.60493204374927
 51
347.90355342164821
  0
ARC
  5
32B
  8
DATA
  6
CONTINUOUS
 62
     7
 10
-72.775641373444742
 20
-630.77062159264301
 30
0.0
 40
256.7668490801683
 50
155.61480684479801
 51
163.2481023221556
  0
ARC
  5
32C
  8
DATA
  6
CONTINUOUS
 62
     7
 10
-275.22124238903558
 20
-554.28028669891876
 30
0.0
 40
34.88697688969485
 50
153.3336832480725
 51
157.71601396588269
  0
ARC
  5
32D
  8
DATA
  6
CONTINUOUS
 62
     7
 10
47.101620855133987
 20
-668.17166548854698
 30
0.0
 40
377.06052173497773
 50
161.22973102649169
 51
174.30562139482811
  0
ARC
  5
32E
  8
DATA
  6
CONTINUOUS
 62
     7
 10
-327.62737414195368
 20
-645.53656192873166
 30
0.0
 40
2.3657219599809811
 50
183.1323893740005
 51
190.64011734492291
  0
ARC
  5
32F
  8
DATA
  6
CONTINUOUS
 62
     7
 10
-329.65695276935332
 20
-645.92807661395568
 30
0.0
 40
0.2990753144082731
 50
187.71583215671359
 51
227.53805358144729
  0
ARC
  5
330
  8
DATA
  6
CONTINUOUS
 62
     7
 10
19.74227200037727
 20
-659.94532813057469
 30
0.0
 40
361.79752251353591
 50
158.05907484045619
 51
176.5854967294637
  0
ARC
  5
331
  8
DATA
  6
CONTINUOUS
 62
     7
 10
72.139339510927911
 20
-677.73944489888072
 30
0.0
 40
421.47455180147091
 50
165.38097929194521
 51
172.87105547245761
  0
ARC
  5
332
  8
DATA
  6
CONTINUOUS
 62
     7
 10
-211.4685019636901
 20
-600.50561736237637
 30
0.0
 40
127.59427289333129
 50
146.6515150370571
 51
166.7971755515712
  0
ARC
  5
333
  8
DATA
  6
CONTINUOUS
 62
     7
 10
340.11366705051881
 20
-715.74656511393005
 30
0.0
 40
692.10840858720098
 50
172.50208728881279
 51
175.46004528404791
  0
ARC
  5
334
  8
DATA
  6
CONTINUOUS
 62
     7
 10
493.12982450682591
 20
-728.36522701536319
 30
0.0
 40
845.64340927063006
 50
175.4283914404422
 51
178.7158752889606
  0
ARC
  5
335
  8
DATA
  6
CONTINUOUS
 62
     7
 10
548.45157345709083
 20
-730.83912416737235
 30
0.0
 40
901.00754974256563
 50
178.63743619911389
 51
182.96284769495489
  0
ARC
  5
336
  8
DATA
  6
CONTINUOUS
 62
     7
 10
400.21496680473888
 20
-739.42382473618284
 30
0.0
 40
752.5259188295787
 50
182.8934775200604
 51
187.3245634872209
  0
ARC
  5
337
  8
DATA
  6
CONTINUOUS
 62
     7
 10
128.49449495981241
 20
-774.24997919433076
 30
0.0
 40
478.58274909138942
 50
187.3364911061044
 51
192.63848073476399
  0
ARC
  5
338
  8
DATA
  6
CONTINUOUS
 62
     7
 10
-145.11409535774109
 20
-837.91621456925998
 30
0.0
 40
197.68650128195389
 50
191.9839054552167
 51
203.63271309611409
  0
ARC
  5
339
  8
DATA
  6
CONTINUOUS
 62
     7
 10
-271.6916593828779
 20
-893.68522480224453
 30
0.0
 40
59.369281700157707
 50
203.29448704744189
 51
216.68555750404431
  0
ARC
  5
33A
  8
DATA
  6
CONTINUOUS
 62
     7
 10
-337.7633204807932
 20
-645.63481737571988
 30
0.0
 40
1.440266777029567
 50
181.2339286229342
 51
197.9308366916533
  0
ARC
  5
33B
  8
DATA
  6
CONTINUOUS
 62
     7
 10
-338.99779394248361
 20
-646.02221780237119
 30
0.0
 40
0.1469331578946875
 50
202.4087701591107
 51
239.41752015057889
  0
ARC
  5
33C
  8
DATA
  6
CONTINUOUS
 62
     7
 10
-272.65200272212508
 20
-560.53204583111369
 30
0.0
 40
39.893285175307653
 50
136.2748173797367
 51
151.6221919736081
  0
ARC
  5
33D
  8
DATA
  6
CONTINUOUS
 62
     7
 10
-292.52914100734648
 20
-541.58440303903797
 30
0.0
 40
12.432278064959011
 50
114.5406407724103
 51
136.06138342119689
  0
ARC
  5
33E
  8
DATA
  6
CONTINUOUS
 62
     7
 10
-295.21756612551701
 20
-536.34020038144479
 30
0.0
 40
6.5506558947465088
 50
87.671498335302587
 51
112.2007058528648
  0
ARC
  5
33F
  8
DATA
  6
CONTINUOUS
 62
     7
 10
-295.08214025767268
 20
-540.30097495325992
 30
0.0
 40
10.5068348411126
 50
71.057497941618792
 51
89.287142374066278
  0
ARC
  5
340
  8
DATA
  6
CONTINUOUS
 62
     7
 10
-296.3595315153936
 20
-548.52990718461535
 30
0.0
 40
18.761924883324959
 50
52.209207323684304
 51
75.529963627272124
  0
ARC
  5
341
  8
DATA
  6
CONTINUOUS
 62
     7
 10
-303.67400089284291
 20
-558.51959609744085
 30
0.0
 40
31.140341779144141
 50
36.75995068944242
 51
52.836996031485981
  0
ARC
  5
342
  8
DATA
  6
CONTINUOUS
 62
     7
 10
-326.79039719959081
 20
-576.3039899729788
 30
0.0
 40
60.304773723112348
 50
28.571170594764649
 51
37.152954613615172
  0
ARC
  5
343
  8
DATA
  6
CONTINUOUS
 62
     7
 10
-361.13703171759772
 20
-594.56875935899654
 30
0.0
 40
99.204679379611449
 50
23.35446945933046
 51
28.348394129295261
  0
ARC
  5
344
  8
DATA
  6
CONTINUOUS
 62
     7
 10
-423.01998851697323
 20
-620.38254457672588
 30
0.0
 40
166.25270774538129
 50
15.3177600732614
 51
23.067498913137491
  0
ARC
  5
345
  8
DATA
  6
CONTINUOUS
 62
     7
 10
-556.58277139329289
 20
-658.92075385536157
 30
0.0
 40
305.2572906646455
 50
10.791976791537531
 51
15.671685278634801
  0
ARC
  5
346
  8
DATA
  6
CONTINUOUS
 62
     7
 10
-747.0654456617259
 20
-696.14511181032071
 30
0.0
 40
499.34182798481322
 50
7.1997404001843686
 51
10.89516442565526
  0
ARC
  5
347
  8
DATA
  6
CONTINUOUS
 62
     7
 10
-698.21697492717897
 20
-699.71579088341525
 30
0.0
 40
451.26127957455452
 50
2.6104221986567842
 51
7.5641830803133301
  0
ARC
  5
348
  8
DATA
  6
CONTINUOUS
 62
     7
 10
-1093.5623167446381
 20
-730.51877232075014
 30
0.0
 40
847.69540293769785
 50
359.54057861807013
 51
3.4732507616834019
  0
ARC
  5
349
  8
DATA
  6
CONTINUOUS
 62
     7
 10
-2317.6693253788671
 20
-691.43912975771195
 30
0.0
 40
2072.2830383472278
 50
357.5572199626136
 51
358.73146741441872
  0
ARC
  5
34A
  8
DATA
  6
CONTINUOUS
 62
     7
 10
1184.468612400899
 20
-884.54571903902172
 30
0.0
 40
1435.5671738845649
 50
175.8142411804682
 51
176.85213478300861
  0
ARC
  5
34B
  8
DATA
  6
CONTINUOUS
 62
     7
 10
-747.93048281013
 20
-757.6250695063361
 30
0.0
 40
501.30986222396598
 50
352.03816458750009
 51
354.49529679840202
  0
ARC
  5
34C
  8
DATA
  6
CONTINUOUS
 62
     7
 10
-553.88637474460995
 20
-793.64207880307185
 30
0.0
 40
304.27444371601399
 50
348.66123117185361
 51
353.69397456347122
  0
ARC
  5
34D
  8
DATA
  6
CONTINUOUS
 62
     7
 10
-422.73780734005931
 20
-829.42693532821181
 30
0.0
 40
168.90015154043621
 50
345.02970838161252
 51
351.75798620220309
  0
ARC
  5
34E
  8
DATA
  6
CONTINUOUS
 62
     7
 10
-399.26049889697663
 20
-845.18334209251304
 30
0.0
 40
142.4441332539659
 50
340.40137473060622
 51
348.71550766797668
  0
ARC
  5
34F
  8
DATA
  6
CONTINUOUS
 62
     7
 10
-334.3482112412421
 20
-877.31537752409076
 30
0.0
 40
71.024592932603156
 50
324.05916651853607
 51
347.27240718527497
  0
ARC
  5
350
  8
DATA
  6
CONTINUOUS
 62
     7
 10
-307.76895389021558
 20
-898.98564584106452
 30
0.0
 40
36.837381905188487
 50
309.61489673581292
 51
327.08433255434431
  0
ARC
  5
351
  8
DATA
  6
CONTINUOUS
 62
     7
 10
-296.09318745708441
 20
-913.40890557811281
 30
0.0
 40
18.282826016983499
 50
286.88987701502401
 51
310.24864950103353
  0
ARC
  5
352
  8
DATA
  6
CONTINUOUS
 62
     7
 10
-295.95331445374688
 20
-916.58754333047352
 30
0.0
 40
15.221158510860221
 50
278.43173878455218
 51
289.86366558585132
  0
ARC
  5
353
  8
DATA
  6
CONTINUOUS
 62
     7
 10
-294.97887435246332
 20
-922.68624014814452
 30
0.0
 40
9.0457659350632866
 50
261.20851041074991
 51
277.9905749133809
  0
ARC
  5
354
  8
DATA
  6
CONTINUOUS
 62
     7
 10
-295.08267276139168
 20
-924.51385443222853
 30
0.0
 40
7.2259217406013176
 50
230.0619228734391
 51
259.80686913452399
  0
ARC
  5
355
  8
DATA
  6
CONTINUOUS
 62
     7
 10
-285.90036225064529
 20
-912.06211808333637
 30
0.0
 40
22.687846995031581
 50
214.3486806052627
 51
232.46952363352989
  0
ARC
  5
356
  8
DATA
  6
CONTINUOUS
 62
     7
 10
-250.73233116204131
 20
-886.40833238183723
 30
0.0
 40
66.211336105052169
 50
210.08920025829559
 51
215.50614344323111
  0
ARC
  5
357
  8
DATA
  6
CONTINUOUS
 62
     7
 10
68.703448142000852
 20
-767.50743009874463
 30
0.0
 40
406.2693185887864
 50
200.12063705581571
 51
201.985495261685
  0
ARC
  5
358
  8
DATA
  6
CONTINUOUS
 62
     7
 10
-46.766931654258897
 20
-823.67553253634389
 30
0.0
 40
278.82842643883248
 50
194.8132116523382
 51
197.44450023409129
  0
ARC
  5
359
  8
DATA
  6
CONTINUOUS
 62
     7
 10
-173.86563393214291
 20
-850.86554324466852
 30
0.0
 40
149.13158631328531
 50
192.5864734488276
 51
197.19930689460509
  0
ARC
  5
35A
  8
DATA
  6
CONTINUOUS
 62
     7
 10
-803.60957166897003
 20
-983.81302173839356
 30
0.0
 40
494.5059816627994
 50
11.720146509977861
 51
13.763443084250991
  0
ARC
  5
35B
  8
DATA
  6
CONTINUOUS
 62
     7
 10
-1749.39848170204
 20
-1077.7874761785231
 30
0.0
 40
1441.712178119933
 50
8.4407596715647966
 51
9.3941678418191472
  0
ARC
  5
35C
  8
DATA
  6
CONTINUOUS
 62
     7
 10
-329.93249656742108
 20
-651.5400101075727
 30
0.0
 40
2.4426827138212959
 50
212.74793216036969
 51
225.39888583429001
  0
ARC
  5
35D
  8
DATA
  6
CONTINUOUS
 62
     7
 10
-331.39163361085519
 20
-652.81443791531387
 30
0.0
 40
0.5306462828011556
 50
241.15155240494971
 51
258.94115640573938
  0
ARC
  5
35E
  8
DATA
  6
CONTINUOUS
 62
     7
 10
-331.42742061004873
 20
-652.96094541773243
 30
0.0
 40
0.3800596003223565
 50
259.99948825211618
 51
303.90428961554278
  0
ARC
  5
35F
  8
DATA
  6
CONTINUOUS
 62
     7
 10
-331.82295775430168
 20
-652.4307204816688
 30
0.0
 40
1.041272122620756
 50
305.6940340671228
 51
332.39424147369073
  0
ARC
  5
360
  8
DATA
  6
CONTINUOUS
 62
     7
 10
-332.94102521960002
 20
-651.6475420356262
 30
0.0
 40
2.4014212294567119
 50
328.19310501071419
 51
341.08464160570168
  0
ARC
  5
361
  8
DATA
  6
CONTINUOUS
 62
     7
 10
-327.40036472081749
 20
-653.45464090215364
 30
0.0
 40
3.426938940767533
 50
157.77158983460839
 51
162.53282642537241
  0
ARC
  5
362
  8
DATA
  6
CONTINUOUS
 62
     7
 10
-330.48728460709219
 20
-652.20294774040849
 30
0.0
 40
0.0963456706728506
 50
108.9758775069549
 51
152.345829980616
  0
ARC
  5
363
  8
DATA
  6
CONTINUOUS
 62
     7
 10
626.55500802376378
 20
-730.76318510868543
 30
0.0
 40
972.41291712940142
 50
175.2600474823717
 51
184.7399525176283
  0
ARC
  5
364
  8
DATA
  6
CONTINUOUS
 62
     7
 10
597.03778951814672
 20
-728.70941744783204
 30
0.0
 40
933.64546924682895
 50
175.18924589679591
 51
176.6169020696359
  0
ARC
  5
365
  8
DATA
  6
CONTINUOUS
 62
     7
 10
555.4153025982489
 20
-726.95121743364257
 30
0.0
 40
891.99203948775607
 50
176.57186886323831
 51
178.5874913463372
  0
ARC
  5
366
  8
DATA
  6
CONTINUOUS
 62
     7
 10
488.80468709998547
 20
-728.6919308689038
 30
0.0
 40
825.45150314613841
 50
178.3527297537639
 51
180.14376889535029
  0
ARC
  5
367
  8
DATA
  6
CONTINUOUS
 62
     7
 10
-1266.484610533289
 20
-749.46595451247822
 30
0.0
 40
930.02846745262116
 50
359.96936457761069
 51
1.152289450494379
  0
ARC
  5
368
  8
DATA
  6
CONTINUOUS
 62
     7
 10
-1636.1967872519019
 20
-815.09045841292425
 30
0.0
 40
1301.1152688404709
 50
1.6792071076316011
 51
2.2277749470056198
  0
ARC
  5
369
  8
DATA
  6
CONTINUOUS
 62
     7
 10
157.7423313868606
 20
-755.27534894573819
 30
0.0
 40
493.85904316873922
 50
182.51696076054691
 51
184.38830547138139
  0
ARC
  5
36A
  8
DATA
  6
CONTINUOUS
 62
     7
 10
450.51681074934402
 20
-742.62325582964183
 30
0.0
 40
786.8041731762147
 50
183.6756043837465
 51
184.646693682094
  0
ARC
  5
36B
  8
DATA
  6
CONTINUOUS
 62
     7
 10
-59775.102773590719
 20
-5595.1476511848268
 30
0.0
 40
59633.989116945908
 50
4.6013965455144978
 51
4.6060943903034941
  0
ARC
  5
36C
  8
DATA
  6
CONTINUOUS
 62
     7
 10
-326.45668445119787
 20
-812.16174150417544
 30
0.0
 40
6.5429995702557218
 50
144.85447822990281
 51
147.69514060511571
  0
ARC
  5
36D
  8
DATA
  6
CONTINUOUS
 62
     7
 10
-331.34862094671251
 20
-808.73193553039926
 30
0.0
 40
0.568631078034207
 50
117.8250438519963
 51
143.69150172811459
  0
ARC
  5
36E
  8
DATA
  6
CONTINUOUS
 62
     7
 10
-331.45642061004872
 20
-808.71219857857955
 30
0.0
 40
0.5082086746416057
 50
87.406078914345926
 51
108.0684114413413
  0
ARC
  5
36F
  8
DATA
  6
CONTINUOUS
 62
     7
 10
-331.41533549112512
 20
-808.64117845156295
 30
0.0
 40
0.4370421732791746
 50
34.883394568856978
 51
92.37161766826172
  0
ARC
  5
370
  8
DATA
  6
CONTINUOUS
 62
     7
 10
-332.26748076372422
 20
-809.42656621094579
 30
0.0
 40
1.592989187425129
 50
22.333676843203801
 51
40.536526894676328
  0
ARC
  5
371
  8
DATA
  6
CONTINUOUS
 62
     7
 10
-336.50233545205998
 20
-811.35990883682825
 30
0.0
 40
6.2474096445861473
 50
19.395446781892009
 51
23.976188988545971
  0
ARC
  5
372
  8
DATA
  6
CONTINUOUS
 62
     7
 10
-329.66462231357087
 20
-808.91973314227766
 30
0.0
 40
1.0130792975339371
 50
201.1480199874315
 51
207.22676607258481
  0
ARC
  5
373
  8
DATA
  6
CONTINUOUS
 62
     7
 10
-330.4452307677185
 20
-809.25527937254685
 30
0.0
 40
0.1755716306649549
 50
226.7832630404836
 51
244.81773639334551
  0
ARC
  5
374
  8
DATA
  6
CONTINUOUS
 62
     7
 10
-330.5652421875144
 20
-809.3244660437648
 30
0.0
 40
0.1004909244401016
 50
296.7979144572717
 51
341.57322160622817
  0
ARC
  5
375
  8
DATA
  6
CONTINUOUS
 62
     7
 10
-330.919051770507
 20
-809.13608941264908
 30
0.0
 40
0.5001961296417785
 50
333.88913364350338
 51
354.2468483102009
  0
ARC
  5
376
  8
DATA
  6
CONTINUOUS
 62
     7
 10
-332.46187229856389
 20
-808.84323046925999
 30
0.0
 40
2.06912486609653
 50
350.45799887546252
 51
4.4905097938626559
  0
ARC
  5
377
  8
DATA
  6
CONTINUOUS
 62
     7
 10
-72.828909274027552
 20
-778.26428690258911
 30
0.0
 40
259.21256674450518
 50
183.23969651075799
 51
185.31672172170201
  0
ARC
  5
378
  8
DATA
  6
CONTINUOUS
 62
     7
 10
8.2645330030485287
 20
-763.13864237198777
 30
0.0
 40
341.19338603253527
 50
180.48302691262921
 51
185.0063424604206
  0
ARC
  5
379
  8
DATA
  6
CONTINUOUS
 62
     7
 10
284.2529592144341
 20
-737.61033594950436
 30
0.0
 40
617.96402392535992
 50
179.6989366879325
 51
182.6349564793106
  0
ARC
  5
37A
  8
DATA
  6
CONTINUOUS
 62
     7
 10
178.35898880375439
 20
-727.21574332375303
 30
0.0
 40
512.11140326985128
 50
178.3380458978622
 51
180.79969737355961
  0
ARC
  5
37B
  8
DATA
  6
CONTINUOUS
 62
     7
 10
328.74088815892662
 20
-722.61759918445193
 30
0.0
 40
662.35725920315599
 50
177.34736273140899
 51
179.11293261552541
  0
ARC
  5
37C
  8
DATA
  6
CONTINUOUS
 62
     7
 10
-5.0382549519641913
 20
-698.07597945987766
 30
0.0
 40
327.92536058867051
 50
174.7487634236152
 51
178.93190632198781
  0
ARC
  5
37D
  8
DATA
  6
CONTINUOUS
 62
     7
 10
-3191.2675504977042
 20
-450.85156020426632
 30
0.0
 40
2867.9177220775291
 50
355.65634639363151
 51
355.87270175694363
  0
ARC
  5
37E
  8
DATA
  6
CONTINUOUS
 62
     7
 10
-614.85244820828404
 20
-629.82628252968175
 30
0.0
 40
285.38692536323168
 50
354.4830931145753
 51
355.2813121392652
  0
ARC
  5
37F
  8
DATA
  6
CONTINUOUS
 62
     7
 10
-333.85742378436652
 20
-652.76907710751561
 30
0.0
 40
3.466019790373188
 50
351.13473264951079
 51
6.46651965065581
  0
ARC
  5
380
  8
DATA
  6
CONTINUOUS
 62
     7
 10
-330.84606774047109
 20
-652.39502094360637
 30
0.0
 40
0.432919176077716
 50
2.157248229978646
 51
40.85329520950237
  0
ARC
  5
381
  8
DATA
  6
CONTINUOUS
 62
     7
 10
-642.82764895898481
 20
-865.5757286395891
 30
0.0
 40
316.65085099467819
 50
4.1857688673546036
 51
6.3139259372717236
  0
ARC
  5
382
  8
DATA
  6
CONTINUOUS
 62
     7
 10
-338.09309948356128
 20
-815.82579194700975
 30
0.0
 40
1.1106973851450039
 50
161.38398606709501
 51
181.79265528078221
  0
ARC
  5
383
  8
DATA
  6
CONTINUOUS
 62
     7
 10
-338.99084852311
 20
-815.50117705018909
 30
0.0
 40
0.1577051742861021
 50
135.5460477267147
 51
169.0536554141035
  0
ARC
  5
384
  8
DATA
  6
CONTINUOUS
 62
     7
 10
-339.0557802946156
 20
-815.46024591607909
 30
0.0
 40
0.0842733469195144
 50
101.47823673825999
 51
124.42361471795761
  0
ARC
  5
385
  8
DATA
  6
CONTINUOUS
 62
     7
 10
-328.74764174488212
 20
-815.85301311546891
 30
0.0
 40
1.2419426199952639
 50
164.5053659137651
 51
180.34713138763991
  0
ARC
  5
386
  8
DATA
  6
CONTINUOUS
 62
     7
 10
-329.70543861053699
 20
-815.55631448616396
 30
0.0
 40
0.2415692125731519
 50
143.82589862507331
 51
171.64918121313869
  0
ARC
  5
387
  8
DATA
  6
CONTINUOUS
 62
     7
 10
-329.81999287629122
 20
-815.46446093523559
 30
0.0
 40
0.0951067580396463
 50
114.1203071167953
 51
147.7641604785058
  0
ARC
  5
388
  8
DATA
  6
CONTINUOUS
 62
     7
 10
-330.05923928717181
 20
-815.595249859967
 30
0.0
 40
0.295801661183498
 50
21.626571608768131
 51
47.357983239215301
  0
ARC
  5
389
  8
DATA
  6
CONTINUOUS
 62
     7
 10
-330.82779835496029
 20
-815.80036896847378
 30
0.0
 40
1.089795616621452
 50
9.8877743080015748
 51
16.753484779510909
  0
ARC
  5
38A
  8
DATA
  6
CONTINUOUS
 62
     7
 10
47.057222601471359
 20
-786.00475578765406
 30
0.0
 40
390.24010033945302
 50
185.4589591455196
 51
187.9477473940039
  0
ARC
  5
38B
  8
DATA
  6
CONTINUOUS
 62
     7
 10
-733.65547334731411
 20
-892.94922855432219
 30
0.0
 40
397.76591758310479
 50
6.3296524515151011
 51
7.6550674716227913
  0
ARC
  5
38C
  8
DATA
  6
CONTINUOUS
 62
     7
 10
198.13105431817519
 20
-775.66946700089909
 30
0.0
 40
541.44723442084978
 50
187.79399352279319
 51
191.52178766986179
  0
ARC
  5
38D
  8
DATA
  6
CONTINUOUS
 62
     7
 10
30.958196581563119
 20
-808.28617880750687
 30
0.0
 40
371.13098857931089
 50
191.7428243788097
 51
195.67292650609571
  0
ARC
  5
38E
  8
DATA
  6
CONTINUOUS
 62
     7
 10
-156.67356669199631
 20
-861.3363387455247
 30
0.0
 40
176.14463562468671
 50
195.5461179197961
 51
205.35531359671211
  0
ARC
  5
38F
  8
DATA
  6
CONTINUOUS
 62
     7
 10
787.35821609529251
 20
-705.95008010490551
 30
0.0
 40
1125.673128951727
 50
185.97514772966949
 51
186.7758565060073
  0
ARC
  5
390
  8
DATA
  6
CONTINUOUS
 62
     7
 10
-570.1250186014596
 20
-871.1650354030478
 30
0.0
 40
241.8528942194346
 50
6.3625077912983459
 51
7.6992489263642074
  0
ARC
  5
391
  8
DATA
  6
CONTINUOUS
 62
     7
 10
830.42938747746962
 20
-684.78995814275493
 30
0.0
 40
1171.1136486614539
 50
187.8313538626638
 51
188.1277692909604
  0
ARC
  5
392
  8
DATA
  6
CONTINUOUS
 62
     7
 10
1099.0284134773699
 20
-649.33227784960968
 30
0.0
 40
1442.0305714787501
 50
188.0136054494684
 51
188.2122707310545
  0
ARC
  5
393
  8
DATA
  6
CONTINUOUS
 62
     7
 10
79.246773936880672
 20
-794.21449674928635
 30
0.0
 40
412.01726330278092
 50
188.5279400930547
 51
190.06979690613369
  0
ARC
  5
394
  8
DATA
  6
CONTINUOUS
 62
     7
 10
67.748439527826903
 20
-801.17392098257665
 30
0.0
 40
399.55279098838997
 50
189.3754188154424
 51
191.2412899897123
  0
ARC
  5
395
  8
DATA
  6
CONTINUOUS
 62
     7
 10
220.11534454274201
 20
-766.98050614966724
 30
0.0
 40
555.67546436681096
 50
191.63670208366241
 51
194.3352696158465
  0
ARC
  5
396
  8
DATA
  6
CONTINUOUS
 62
     7
 10
-120.568116675308
 20
-851.75739948669957
 30
0.0
 40
204.62130155002291
 50
194.9553450629891
 51
199.23935609473159
  0
ARC
  5
397
  8
DATA
  6
CONTINUOUS
 62
     7
 10
-479.6823028640602
 20
-987.23901784812233
 30
0.0
 40
179.26651382321481
 50
18.90278406517545
 51
22.303601247944218
  0
ARC
  5
398
  8
DATA
  6
CONTINUOUS
 62
     7
 10
-188.36685472364849
 20
-878.56319173148916
 30
0.0
 40
131.81560789256051
 50
202.57359759610881
 51
206.2030445532821
  0
ARC
  5
399
  8
DATA
  6
CONTINUOUS
 62
     7
 10
-310.85270553736029
 20
-926.08767105181767
 30
0.0
 40
5.8862387391418727
 50
2.598266299402618
 51
25.35192819147893
  0
ARC
  5
39A
  8
DATA
  6
CONTINUOUS
 62
     7
 10
-238.62138163155959
 20
-652.71138280077992
 30
0.0
 40
2.7028143646169358
 50
172.93020463412839
 51
184.4071134352688
  0
ARC
  5
39B
  8
DATA
  6
CONTINUOUS
 62
     7
 10
-240.6440922660037
 20
-652.44198654153888
 30
0.0
 40
0.6625810687006868
 50
154.16347841643901
 51
174.52119309068681
  0
ARC
  5
39C
  8
DATA
  6
CONTINUOUS
 62
     7
 10
-241.1451409770408
 20
-652.21466838996082
 30
0.0
 40
0.1133887060321039
 50
114.9216876686111
 51
147.19138653474451
  0
ARC
  5
39D
  8
DATA
  6
CONTINUOUS
 62
     7
 10
-241.22025197948469
 20
-652.18862210533621
 30
0.0
 40
0.0815034643648014
 50
24.18573383400517
 51
70.406787230031313
  0
ARC
  5
39E
  8
DATA
  6
CONTINUOUS
 62
     7
 10
-241.5859649066166
 20
-652.40124617400727
 30
0.0
 40
0.5041611456076967
 50
19.587220004372391
 51
29.20726747902258
  0
ARC
  5
39F
  8
DATA
  6
CONTINUOUS
 62
     7
 10
-224.91877989006349
 20
-644.65162744225961
 30
0.0
 40
17.916245749446279
 50
206.41574579243499
 51
207.2728659298252
  0
ARC
  5
3A0
  8
DATA
  6
CONTINUOUS
 62
     7
 10
-239.60992865093121
 20
-652.2451566368195
 30
0.0
 40
1.3787862946610141
 50
206.54629856757569
 51
221.52566051320341
  0
ARC
  5
3A1
  8
DATA
  6
CONTINUOUS
 62
     7
 10
-240.05918213466171
 20
-652.5957179922666
 30
0.0
 40
0.8108145904831898
 50
224.0268571716739
 51
244.4132743706862
  0
ARC
  5
3A2
  8
DATA
  6
CONTINUOUS
 62
     7
 10
-240.27718263535519
 20
-653.03300471324724
 30
0.0
 40
0.32235568225877
 50
245.7940583619847
 51
298.89455967680527
  0
ARC
  5
3A3
  8
DATA
  6
CONTINUOUS
 62
     7
 10
-240.8535235476426
 20
-652.30120952217248
 30
0.0
 40
1.2506850892076451
 50
305.8285345677628
 51
322.11488380486952
  0
ARC
  5
3A4
  8
DATA
  6
CONTINUOUS
 62
     7
 10
-238.8184931037155
 20
-653.60758947339616
 30
0.0
 40
1.178133525677225
 50
140.69891398139961
 51
152.808933598267
  0
ARC
  5
3A5
  8
DATA
  6
CONTINUOUS
 62
     7
 10
-1109.010149039002
 20
-728.74997066239553
 30
0.0
 40
871.00120918806465
 50
3.916176438212553
 51
4.9945944907950119
  0
ARC
  5
3A6
  8
DATA
  6
CONTINUOUS
 62
     7
 10
226.22197270081
 20
-640.99431943255536
 30
0.0
 40
467.12083315454828
 50
183.4695082218274
 51
184.47773476348931
  0
ARC
  5
3A7
  8
DATA
  6
CONTINUOUS
 62
     7
 10
-553.84926182681977
 20
-699.59827758847302
 30
0.0
 40
315.1544665883975
 50
1.7701346914230029
 51
4.0275165062177507
  0
ARC
  5
3A8
  8
DATA
  6
CONTINUOUS
 62
     7
 10
-295.86395017341158
 20
-698.44323046926013
 30
0.0
 40
57.326911086315611
 50
359.8400866809277
 51
3.62044295320328
  0
ARC
  5
3A9
  8
DATA
  6
CONTINUOUS
 62
     7
 10
-265.9018548422261
 20
-700.84777083547942
 30
0.0
 40
27.45649072107674
 50
358.33981485554858
 51
4.6891047907898837
  0
ARC
  5
3AA
  8
DATA
  6
CONTINUOUS
 62
     7
 10
-457.5835374987073
 20
-710.11306140605609
 30
0.0
 40
219.29027778630859
 50
1.267258649719005
 51
2.2135331763975392
  0
ARC
  5
3AB
  8
DATA
  6
CONTINUOUS
 62
     7
 10
-1021.879766641476
 20
-734.33602397162383
 30
0.0
 40
784.07205475023545
 50
354.67783555853248
 51
2.1249709008894802
  0
ARC
  5
3AC
  8
DATA
  6
CONTINUOUS
 62
     7
 10
-238.74768208900571
 20
-808.81614711801956
 30
0.0
 40
2.576999354383815
 50
175.35139519380311
 51
187.0677917937121
  0
ARC
  5
3AD
  8
DATA
  6
CONTINUOUS
 62
     7
 10
-240.67306506677929
 20
-809.08905390457437
 30
0.0
 40
0.6335764321101719
 50
183.9982328943855
 51
205.4413896302008
  0
ARC
  5
3AE
  8
DATA
  6
CONTINUOUS
 62
     7
 10
-241.14283183337531
 20
-809.31757906842654
 30
0.0
 40
0.111264832391683
 50
202.42878150902229
 51
240.61864493520159
  0
ARC
  5
3AF
  8
DATA
  6
CONTINUOUS
 62
     7
 10
-241.28495098342651
 20
-809.25075016768449
 30
0.0
 40
0.1857044746534351
 50
298.12146317219441
 51
317.23992976951882
  0
ARC
  5
3B0
  8
DATA
  6
CONTINUOUS
 62
     7
 10
-226.9953452848641
 20
-815.02480645713683
 30
0.0
 40
15.23858347439503
 50
155.33269485497769
 51
158.24511975165959
  0
ARC
  5
3B1
  8
DATA
  6
CONTINUOUS
 62
     7
 10
-239.95859283540639
 20
-809.01238795708923
 30
0.0
 40
0.9505144263410851
 50
123.6594454122549
 51
158.56360739701319
  0
ARC
  5
3B2
  8
DATA
  6
CONTINUOUS
 62
     7
 10
-240.2207097137385
 20
-808.75594312304224
 30
0.0
 40
0.5966485403820685
 50
98.744821397683992
 51
116.3378311792313
  0
ARC
  5
3B3
  8
DATA
  6
CONTINUOUS
 62
     7
 10
-240.28192061004859
 20
-808.3862304692592
 30
0.0
 40
0.2219690293702917
 50
69.564799904650727
 51
97.637286840612958
  0
ARC
  5
3B4
  8
DATA
  6
CONTINUOUS
 62
     7
 10
-240.3875741788566
 20
-808.69546056493789
 30
0.0
 40
0.5487004662309334
 50
40.352102493087799
 51
70.50071011823421
  0
ARC
  5
3B5
  8
DATA
  6
CONTINUOUS
 62
     7
 10
-249.33943471019899
 20
-815.49245865020066
 30
0.0
 40
11.78779724254964
 50
35.394063338645893
 51
37.355037165507717
  0
ARC
  5
3B6
  8
DATA
  6
CONTINUOUS
 62
     7
 10
-724.66650164283874
 20
-697.55737675063267
 30
0.0
 40
480.13659537423138
 50
4.5087458066539563
 51
5.3344925726923789
  0
ARC
  5
3B7
  8
DATA
  6
CONTINUOUS
 62
     7
 10
-495.96058688386859
 20
-682.44171683976811
 30
0.0
 40
250.96705640463571
 50
3.6617957543797268
 51
5.1731090535247031
  0
ARC
  5
3B8
  8
DATA
  6
CONTINUOUS
 62
     7
 10
-187.0117144490292
 20
-665.77297251946516
 30
0.0
 40
58.497687788781178
 50
180.62711556929821
 51
187.25781004092201
  0
ARC
  5
3B9
  8
DATA
  6
CONTINUOUS
 62
     7
 10
646.73717911977235
 20
-622.73891411158763
 30
0.0
 40
893.2023306701193
 50
183.23626260891001
 51
183.69575160043581
  0
ARC
  5
3BA
  8
DATA
  6
CONTINUOUS
 62
     7
 10
-1149.5716460693229
 20
-730.90719752024052
 30
0.0
 40
906.3771767395682
 50
2.1968453845157092
 51
3.1999131952682358
  0
ARC
  5
3BB
  8
DATA
  6
CONTINUOUS
 62
     7
 10
-2206.3284985365549
 20
-757.2078417349951
 30
0.0
 40
1963.4170664057101
 50
1.1077019645130239
 51
1.781670530069422
  0
ARC
  5
3BC
  8
DATA
  6
CONTINUOUS
 62
     7
 10
-1335.8649462391761
 20
-730.8603144424377
 30
0.0
 40
1092.6482674643539
 50
359.5640217483222
 51
0.6087557001583832
  0
ARC
  5
3BD
  8
DATA
  6
CONTINUOUS
 62
     7
 10
-845.33024261949572
 20
-739.39223485877244
 30
0.0
 40
602.08197078552666
 50
356.82269587644367
 51
0.0207226715869524
  0
ARC
  5
3BE
  8
DATA
  6
CONTINUOUS
 62
     7
 10
-977.23993652019135
 20
-739.03657002298985
 30
0.0
 40
733.8415752189245
 50
356.19670440191419
 51
357.36581260602748
  0
ARC
  5
3BF
  8
DATA
  6
CONTINUOUS
 62
     7
 10
-513.57347829673745
 20
-777.73181417165836
 30
0.0
 40
268.74436792002911
 50
353.40283952233841
 51
357.87149179575522
  0
ARC
  5
3C0
  8
DATA
  6
CONTINUOUS
 62
     7
 10
457.39103834952709
 20
-889.35466896552657
 30
0.0
 40
708.51561498858018
 50
174.03561500558439
 51
174.59884420714681
  0
ARC
  5
3C1
  8
DATA
  6
CONTINUOUS
 62
     7
 10
-1102.7798289792181
 20
-720.58134644897984
 30
0.0
 40
860.87483766277205
 50
352.5359014796669
 51
353.18988641971993
  0
ARC
  5
3C2
  8
DATA
  6
CONTINUOUS
 62
     7
 10
-751.91796445785894
 20
-771.40604175858641
 30
0.0
 40
506.40653349648522
 50
348.9428357451294
 51
353.08072675708439
  0
ARC
  5
3C3
  8
DATA
  6
CONTINUOUS
 62
     7
 10
-606.12479340290565
 20
-799.56662030710299
 30
0.0
 40
357.91909717679141
 50
346.17238564110312
 51
348.89103281468942
  0
ARC
  5
3C4
  8
DATA
  6
CONTINUOUS
 62
     7
 10
-1358.7539305351379
 20
-585.21527738666634
 30
0.0
 40
1140.3169567882171
 50
343.90139360683401
 51
344.75231321819808
  0
ARC
  5
3C5
  8
DATA
  6
CONTINUOUS
 62
     7
 10
-407.28897751092438
 20
-856.75223478184193
 30
0.0
 40
150.8967375599145
 50
335.56877348472869
 51
342.78345787236992
  0
ARC
  5
3C6
  8
DATA
  6
CONTINUOUS
 62
     7
 10
-332.20299593810847
 20
-891.88200958784159
 30
0.0
 40
68.014167770687422
 50
322.15109489238279
 51
336.55010525789328
  0
ARC
  5
3C7
  8
DATA
  6
CONTINUOUS
 62
     7
 10
-304.1521237535282
 20
-913.57803687922456
 30
0.0
 40
32.552134769033131
 50
307.64261192920378
 51
322.0109508639656
  0
ARC
  5
3C8
  8
DATA
  6
CONTINUOUS
 62
     7
 10
-296.02030630541469
 20
-924.32403086080353
 30
0.0
 40
19.07709659141322
 50
287.246968200418
 51
308.01468377161882
  0
ARC
  5
3C9
  8
DATA
  6
CONTINUOUS
 62
     7
 10
-241.084053660226
 20
-815.78418608765423
 30
0.0
 40
0.897555637309331
 50
156.70475933143629
 51
176.707397217318
  0
ARC
  5
3CA
  8
DATA
  6
CONTINUOUS
 62
     7
 10
-241.79052896750511
 20
-815.49378094342694
 30
0.0
 40
0.1344237546381659
 50
120.24752442246709
 51
151.3014438975809
  0
ARC
  5
3CB
  8
DATA
  6
CONTINUOUS
 62
     7
 10
-242.0307410648835
 20
-815.58484525469191
 30
0.0
 40
0.2695961616391652
 50
2.8947062578934442
 51
50.22024380726711
  0
ARC
  5
3CC
  8
DATA
  6
CONTINUOUS
 62
     7
 10
-243.322127683714
 20
-815.89216997716551
 30
0.0
 40
1.5949012075828219
 50
1.1364510371852981
 51
12.049251668289029
  0
ARC
  5
3CD
  8
DATA
  6
CONTINUOUS
 62
     7
 10
686.61431539775595
 20
-928.0086883270136
 30
0.0
 40
935.27460517179713
 50
173.4710592961826
 51
174.32498235089969
  0
ARC
  5
3CE
  8
DATA
  6
CONTINUOUS
 62
     7
 10
-6966.3752163304871
 20
179.5724340275566
 30
0.0
 40
6798.5087995353178
 50
351.22348074923309
 51
351.41296978932138
  0
ARC
  5
3CF
  8
DATA
  6
CONTINUOUS
 62
     7
 10
-676.09395069307766
 20
-786.8627324974243
 30
0.0
 40
434.44595306712228
 50
347.45758448879258
 51
350.60926984970069
  0
ARC
  5
3D0
  8
DATA
  6
CONTINUOUS
 62
     7
 10
-921.83094551860495
 20
-715.3345576059769
 30
0.0
 40
690.04803813858007
 50
344.12774805959981
 51
346.09105557908077
  0
ARC
  5
3D1
  8
DATA
  6
CONTINUOUS
 62
     7
 10
-479.60052992460641
 20
-832.81597139414646
 30
0.0
 40
232.6834358717573
 50
339.90436819589661
 51
342.17104512691458
  0
ARC
  5
3D2
  8
DATA
  6
CONTINUOUS
 62
     7
 10
861.47462003802275
 20
-1360.5674489761579
 30
0.0
 40
1208.5792000509571
 50
158.25223522417821
 51
158.55305994580439
  0
ARC
  5
3D3
  8
DATA
  6
CONTINUOUS
 62
     7
 10
-384.70322663826988
 20
-866.87391304399182
 30
0.0
 40
131.8792572102609
 50
334.90181701087238
 51
336.87723668412161
  0
ARC
  5
3D4
  8
DATA
  6
CONTINUOUS
 62
     7
 10
-300.86990704687889
 20
-929.31246174874639
 30
0.0
 40
2.6802136868960562
 50
175.83071877039251
 51
187.37847845510609
  0
ARC
  5
3D5
  8
DATA
  6
CONTINUOUS
 62
     7
 10
-301.88728404717972
 20
-929.26717935300996
 30
0.0
 40
1.6624864358702689
 50
166.68249378347949
 51
174.83796066952181
  0
ARC
  5
3D6
  8
DATA
  6
CONTINUOUS
 62
     7
 10
-303.08923291528038
 20
-928.97184211014633
 30
0.0
 40
0.4249601362835906
 50
149.04073165240061
 51
168.1023310561437
  0
ARC
  5
3D7
  8
DATA
  6
CONTINUOUS
 62
     7
 10
-303.4001584934
 20
-928.79988602608285
 30
0.0
 40
0.0709797145451932
 50
104.81471919795911
 51
138.90508848629989
  0
ARC
  5
3D8
  8
DATA
  6
CONTINUOUS
 62
     7
 10
-270.07221661902679
 20
-916.61287185757249
 30
0.0
 40
49.869984132511057
 50
210.2585692339465
 51
223.6937450096639
  0
ARC
  5
3D9
  8
DATA
  6
CONTINUOUS
 62
     7
 10
-292.38179836496653
 20
-938.1058438632665
 30
0.0
 40
18.892226085504291
 50
223.30313059705529
 51
250.7145571056225
  0
ARC
  5
3DA
  8
DATA
  6
CONTINUOUS
 62
     7
 10
-294.02183159673882
 20
-939.19313877707043
 30
0.0
 40
17.365030244730178
 50
254.64038347734521
 51
273.46793980270962
  0
ARC
  5
3DB
  8
DATA
  6
CONTINUOUS
 62
     7
 10
-291.23142061004881
 20
-1721.9237165784371
 30
0.0
 40
765.3993241548618
 50
89.598012631448384
 51
90.130251933960508
  0
ARC
  5
3DC
  8
DATA
  6
CONTINUOUS
 62
     7
 10
-279.95360672814479
 20
-1006.6647002437589
 30
0.0
 40
50.468445559768142
 50
94.532006711112956
 51
96.722431446876044
  0
ARC
  5
3DD
  8
DATA
  6
CONTINUOUS
 62
     7
 10
-289.10640313473738
 20
-934.92664835384676
 30
0.0
 40
22.04111310323627
 50
283.5523684895245
 51
293.54567100008478
  0
ARC
  5
3DE
  8
DATA
  6
CONTINUOUS
 62
     7
 10
-290.80829575884962
 20
-934.9171883000879
 30
0.0
 40
22.782883144756681
 50
297.46289464997602
 51
318.82919331853662
  0
ARC
  5
3DF
  8
DATA
  6
CONTINUOUS
 62
     7
 10
-316.08914445516319
 20
-913.21247944577942
 30
0.0
 40
56.102218247838977
 50
319.13997452514138
 51
329.4335926890779
  0
ARC
  5
3E0
  8
DATA
  6
CONTINUOUS
 62
     7
 10
-268.32600312476882
 20
-928.80711463719649
 30
0.0
 40
0.08058143061582
 50
20.245119616523372
 51
70.265764637157389
  0
ARC
  5
3E1
  8
DATA
  6
CONTINUOUS
 62
     7
 10
-268.93047284734592
 20
-929.09514219470861
 30
0.0
 40
0.7498662313446781
 50
2.7449931137126011
 51
24.91610633618167
  0
ARC
  5
3E2
  8
DATA
  6
CONTINUOUS
 62
     7
 10
-270.5495186936829
 20
-929.32744580636097
 30
0.0
 40
2.383192846599723
 50
352.05969642876153
 51
6.4620179075924398
  0
ARC
  5
3E3
  8
DATA
  6
CONTINUOUS
 62
     7
 10
-303.50599978479852
 20
-928.88234984225176
 30
0.0
 40
0.174689145134752
 50
25.287155634196768
 51
59.868258343865179
  0
ARC
  5
3E4
  8
DATA
  6
CONTINUOUS
 62
     7
 10
-259.13306227799251
 20
-903.59267072967168
 30
0.0
 40
50.941042261745473
 50
216.87824144950889
 51
221.3739810084584
  0
ARC
  5
3E5
  8
DATA
  6
CONTINUOUS
 62
     7
 10
-279.49551104423978
 20
-921.62960187191845
 30
0.0
 40
23.739061283185251
 50
221.1902463718225
 51
232.97733845202691
  0
ARC
  5
3E6
  8
DATA
  6
CONTINUOUS
 62
     7
 10
-272.95110754239079
 20
-909.60296112860112
 30
0.0
 40
37.336186210858401
 50
236.07346552322429
 51
240.38516021763959
  0
ARC
  5
3E7
  8
DATA
  6
CONTINUOUS
 62
     7
 10
-286.07499293548722
 20
-932.63477972017245
 30
0.0
 40
10.8277281254614
 50
240.5328301426465
 51
263.07005063672591
  0
ARC
  5
3E8
  8
DATA
  6
CONTINUOUS
 62
     7
 10
-285.77943291332269
 20
-934.36883527197779
 30
0.0
 40
9.1558085399044931
 50
259.92311391011162
 51
285.83295301815963
  0
ARC
  5
3E9
  8
DATA
  6
CONTINUOUS
 62
     7
 10
-286.99988984214048
 20
-928.71606157358553
 30
0.0
 40
14.93164291708862
 50
284.42028719975042
 51
312.30839205528298
  0
ARC
  5
3EA
  8
DATA
  6
CONTINUOUS
 62
     7
 10
-304.13399347610601
 20
-909.6159880444078
 30
0.0
 40
40.590514041188207
 50
312.04664516182538
 51
331.82456754564367
  0
ARC
  5
3EB
  8
DATA
  6
CONTINUOUS
 62
     7
 10
-235.78881422296411
 20
-900.1444890255674
 30
0.0
 40
79.838546027564789
 50
211.40115552228801
 51
215.5496102803487
  0
ARC
  5
3EC
  8
DATA
  6
CONTINUOUS
 62
     7
 10
-267.37893488259363
 20
-922.21599559951289
 30
0.0
 40
41.305915042731897
 50
216.11706657200401
 51
223.0506012501497
  0
ARC
  5
3ED
  8
DATA
  6
CONTINUOUS
 62
     7
 10
-281.55826193309451
 20
-935.99854629094557
 30
0.0
 40
21.53935133584077
 50
222.007320251648
 51
235.94059999016389
  0
ARC
  5
3EE
  8
DATA
  6
CONTINUOUS
 62
     7
 10
-285.98018745897809
 20
-943.56723154111035
 30
0.0
 40
12.80544712118269
 50
233.3648410566185
 51
249.5190800664883
  0
ARC
  5
3EF
  8
DATA
  6
CONTINUOUS
 62
     7
 10
-283.59846697815573
 20
-937.23531057304228
 30
0.0
 40
19.57047891398128
 50
249.4732366601414
 51
257.65850509391379
  0
ARC
  5
3F0
  8
DATA
  6
CONTINUOUS
 62
     7
 10
-283.68333593923541
 20
-915.78716575422425
 30
0.0
 40
40.7728425995845
 50
264.23145186498158
 51
267.28956037483442
  0
ARC
  5
3F1
  8
DATA
  6
CONTINUOUS
 62
     7
 10
-585.66395455728855
 20
-792.64705984382874
 30
0.0
 40
347.42943037920799
 50
352.03108417134251
 51
353.7985043919864
  0
POLYLINE
  5
3F2
  8
DATA
  6
CONTINUOUS
 62
     7
 66
     1
 10
0.0
 20
0.0
 30
0.0
  0
VERTEX
  5
668
  8
DATA
  6
CONTINUOUS
 62
     7
 10
-198.01987235127581
 20
-815.73263485866755
 30
0.0
  0
VERTEX
  5
669
  8
DATA
  6
CONTINUOUS
 62
     7
 10
-198.04261499504619
 20
-815.57490367039554
 30
0.0
  0
VERTEX
  5
66A
  8
DATA
  6
CONTINUOUS
 62
     7
 10
-198.07532063317831
 20
-815.45674207386435
 30
0.0
  0
VERTEX
  5
66B
  8
DATA
  6
CONTINUOUS
 62
     7
 10
-198.11470260077741
 20
-815.39002440003981
 30
0.0
  0
VERTEX
  5
66C
  8
DATA
  6
CONTINUOUS
 62
     7
 10
-198.1568033132161
 20
-815.3814552616177
 30
0.0
  0
VERTEX
  5
66D
  8
DATA
  6
CONTINUOUS
 62
     7
 10
-198.19739197294891
 20
-815.43189579105126
 30
0.0
  0
VERTEX
  5
66E
  8
DATA
  6
CONTINUOUS
 62
     7
 10
-198.23238973207751
 20
-815.53627710337332
 30
0.0
  0
VERTEX
  5
66F
  8
DATA
  6
CONTINUOUS
 62
     7
 10
-198.25827958518769
 20
-815.68410968011437
 30
0.0
  0
VERTEX
  5
670
  8
DATA
  6
CONTINUOUS
 62
     7
 10
-198.27245980130741
 20
-815.86053748517452
 30
0.0
  0
SEQEND
  5
671
  8
DATA
  6
CONTINUOUS
 62
     7
  0
LINE
  5
3FE
  8
DATA
  6
CONTINUOUS
 62
     7
 10
-133.45154047985801
 20
-935.82283670906349
 30
0.0
 11
-136.61735253552931
 21
-935.82283670906349
 31
0.0
  0
LINE
  5
3FF
  8
DATA
  6
CONTINUOUS
 62
     7
 10
-136.63033439592931
 20
-928.77224377756465
 30
0.0
 11
-136.5891634989562
 21
-928.73219977004658
 31
0.0
  0
LINE
  5
400
  8
DATA
  6
CONTINUOUS
 62
     7
 10
-127.31570082636929
 20
-936.76683873404329
 30
0.0
 11
-126.8520783847884
 21
-941.74251484068952
 31
0.0
  0
LINE
  5
401
  8
DATA
  6
CONTINUOUS
 62
     7
 10
-136.61735253552931
 20
-935.82283670906349
 30
0.0
 11
-136.06577008323751
 21
-941.74251484068952
 31
0.0
  0
LINE
  5
402
  8
DATA
  6
CONTINUOUS
 62
     7
 10
-126.8520783847884
 20
-941.74251484068952
 30
0.0
 11
-136.06577008323751
 21
-941.74251484068952
 31
0.0
  0
LINE
  5
403
  8
DATA
  6
CONTINUOUS
 62
     7
 10
-133.91516292142791
 20
-930.84716060241749
 30
0.0
 11
-133.3635804691362
 21
-936.76683873404465
 31
0.0
  0
LINE
  5
404
  8
DATA
  6
CONTINUOUS
 62
     7
 10
-133.3635804691362
 20
-936.76683873404465
 30
0.0
 11
-124.149888770698
 21
-936.76683873404465
 31
0.0
  0
LINE
  5
405
  8
DATA
  6
CONTINUOUS
 62
     7
 10
-136.5816924105961
 20
-928.73126583815485
 30
0.0
 11
-134.2337081579785
 21
-928.73126583815485
 31
0.0
  0
LINE
  5
406
  8
DATA
  6
CONTINUOUS
 62
     7
 10
-171.66554569449639
 20
-930.84716060241749
 30
0.0
 11
-174.3677353085977
 21
-930.84716060241749
 31
0.0
  0
LINE
  5
407
  8
DATA
  6
CONTINUOUS
 62
     7
 10
-173.2841882539679
 20
-926.94368675168778
 30
0.0
 11
-166.07496468820591
 21
-926.94368675168778
 31
0.0
  0
LINE
  5
408
  8
DATA
  6
CONTINUOUS
 62
     7
 10
-166.70514366740741
 20
-925.82083160096181
 30
0.0
 11
-173.25541642328881
 21
-925.82083160096181
 31
0.0
  0
LINE
  5
409
  8
DATA
  6
CONTINUOUS
 62
     7
 10
-171.75350570520729
 20
-936.76683873404329
 30
0.0
 11
-174.91931776088589
 21
-936.76683873404329
 31
0.0
  0
LINE
  5
40A
  8
DATA
  6
CONTINUOUS
 62
     7
 10
-174.3677353085977
 20
-930.84716060241749
 30
0.0
 11
-174.91931776088589
 21
-936.76683873404329
 31
0.0
  0
LINE
  5
40B
  8
DATA
  6
CONTINUOUS
 62
     7
 10
-171.66554569449639
 20
-935.82283670906349
 30
0.0
 11
-172.21712814677721
 21
-941.74251484068952
 31
0.0
  0
LINE
  5
40C
  8
DATA
  6
CONTINUOUS
 62
     7
 10
-171.70120581941859
 20
-928.73126583815485
 30
0.0
 11
-164.96726425215729
 21
-928.73126583815485
 31
0.0
  0
LINE
  5
40D
  8
DATA
  6
CONTINUOUS
 62
     7
 10
-99.918656171939801
 20
-820.67735000371044
 30
0.0
 11
-98.587018334848864
 21
-823.12936097071349
 31
0.0
  0
LINE
  5
40E
  8
DATA
  6
CONTINUOUS
 62
     7
 10
-99.918656171939801
 20
-820.67735000371044
 30
0.0
 11
-109.1323478703775
 21
-820.67735000371044
 31
0.0
  0
LINE
  5
40F
  8
DATA
  6
CONTINUOUS
 62
     7
 10
-109.1323478703775
 20
-820.67735000371044
 30
0.0
 11
-107.80071003329751
 21
-823.12936097071349
 31
0.0
  0
LINE
  5
410
  8
DATA
  6
CONTINUOUS
 62
     7
 10
-98.587018334848864
 20
-823.12936097071349
 30
0.0
 11
-107.80071003329751
 21
-823.12936097071349
 31
0.0
  0
LINE
  5
411
  8
DATA
  6
CONTINUOUS
 62
     7
 10
-108.01306428411721
 20
-808.66500526507093
 30
0.0
 11
-106.6814264470372
 21
-811.11701623207296
 31
0.0
  0
LINE
  5
412
  8
DATA
  6
CONTINUOUS
 62
     7
 10
-110.14114136974921
 20
-815.37765800559453
 30
0.0
 11
-100.9274496713074
 21
-815.37765800559453
 31
0.0
  0
LINE
  5
413
  8
DATA
  6
CONTINUOUS
 62
     7
 10
-107.6060112292575
 20
-809.41453229626563
 30
0.0
 11
-109.4800636483992
 21
-809.4141644669761
 31
0.0
  0
LINE
  5
414
  8
DATA
  6
CONTINUOUS
 62
     7
 10
-199.15055035963721
 20
-808.66500526507093
 30
0.0
 11
-200.2698339459084
 21
-808.66500526506979
 31
0.0
  0
LINE
  5
415
  8
DATA
  6
CONTINUOUS
 62
     7
 10
-193.3913881897669
 20
-808.60729555376179
 30
0.0
 11
-198.6837956322079
 21
-808.60729555376179
 31
0.0
  0
LINE
  5
416
  8
DATA
  6
CONTINUOUS
 62
     7
 10
-198.01987235127581
 20
-815.73263485866755
 30
0.0
 11
-192.7108465060073
 21
-815.73263485866755
 31
0.0
  0
LINE
  5
417
  8
DATA
  6
CONTINUOUS
 62
     7
 10
-193.16104042980709
 20
-811.11701623207296
 30
0.0
 11
-201.60147178298851
 21
-811.11701623207296
 31
0.0
  0
LINE
  5
418
  8
DATA
  6
CONTINUOUS
 62
     7
 10
-200.2698339459084
 20
-808.66500526506979
 30
0.0
 11
-201.60147178298851
 21
-811.11701623207296
 31
0.0
  0
LINE
  5
419
  8
DATA
  6
CONTINUOUS
 62
     7
 10
-199.15055035963721
 20
-820.67735000371044
 30
0.0
 11
-200.48218819673539
 21
-823.12936097071349
 31
0.0
  0
LINE
  5
41A
  8
DATA
  6
CONTINUOUS
 62
     7
 10
-193.32042679688581
 20
-809.41453229626563
 30
0.0
 11
-198.80752437253881
 21
-809.41453229626563
 31
0.0
  0
LINE
  5
41B
  8
DATA
  6
CONTINUOUS
 62
     7
 10
-198.14175686026559
 20
-815.37765800559453
 30
0.0
 11
-192.7454699086874
 21
-815.37765800559453
 31
0.0
  0
LINE
  5
41C
  8
DATA
  6
CONTINUOUS
 62
     7
 10
-108.01306428411721
 20
-652.86136495230062
 30
0.0
 11
-106.6814264470372
 21
-650.40935398529746
 31
0.0
  0
LINE
  5
41D
  8
DATA
  6
CONTINUOUS
 62
     7
 10
-97.467734748588583
 20
-650.40935398529746
 30
0.0
 11
-106.6814264470372
 21
-650.40935398529746
 31
0.0
  0
LINE
  5
41E
  8
DATA
  6
CONTINUOUS
 62
     7
 10
-109.4813866667096
 20
-652.11183792110501
 30
0.0
 11
-107.6060112292575
 21
-652.11183792110501
 31
0.0
  0
LINE
  5
41F
  8
DATA
  6
CONTINUOUS
 62
     7
 10
-100.79674673025831
 20
-645.66583273219692
 30
0.0
 11
-110.0104384287074
 21
-645.66583273219692
 31
0.0
  0
LINE
  5
420
  8
DATA
  6
CONTINUOUS
 62
     7
 10
-98.587018334848864
 20
-638.39700924665897
 30
0.0
 11
-99.918656171939801
 21
-640.84902021366111
 31
0.0
  0
LINE
  5
421
  8
DATA
  6
CONTINUOUS
 62
     7
 10
-109.1323478703775
 20
-640.84902021366111
 30
0.0
 11
-99.918656171939801
 21
-640.84902021366111
 31
0.0
  0
LINE
  5
422
  8
DATA
  6
CONTINUOUS
 62
     7
 10
-107.80071003329751
 20
-638.39700924665897
 30
0.0
 11
-109.1323478703775
 21
-640.84902021366111
 31
0.0
  0
LINE
  5
423
  8
DATA
  6
CONTINUOUS
 62
     7
 10
-107.80071003329751
 20
-638.39700924665897
 30
0.0
 11
-98.587018334848864
 21
-638.39700924665897
 31
0.0
  0
LINE
  5
424
  8
DATA
  6
CONTINUOUS
 62
     7
 10
-100.9274496713074
 20
-646.14871221177532
 30
0.0
 11
-110.14114136974921
 21
-646.14871221177532
 31
0.0
  0
LINE
  5
425
  8
DATA
  6
CONTINUOUS
 62
     7
 10
-200.2698339459084
 20
-652.86136495230062
 30
0.0
 11
-199.15055035963721
 21
-652.86136495230062
 31
0.0
  0
LINE
  5
426
  8
DATA
  6
CONTINUOUS
 62
     7
 10
-198.6837956322079
 20
-652.91907466360794
 30
0.0
 11
-193.3905788447764
 21
-652.91907466360965
 31
0.0
  0
LINE
  5
427
  8
DATA
  6
CONTINUOUS
 62
     7
 10
-201.60147178298851
 20
-650.40935398529746
 30
0.0
 11
-193.15843459595911
 21
-650.40935398529746
 31
0.0
  0
LINE
  5
428
  8
DATA
  6
CONTINUOUS
 62
     7
 10
-200.2698339459084
 20
-652.86136495230062
 30
0.0
 11
-201.60147178298851
 21
-650.40935398529746
 31
0.0
  0
LINE
  5
429
  8
DATA
  6
CONTINUOUS
 62
     7
 10
-198.80752437253881
 20
-652.11183792110398
 30
0.0
 11
-193.31591102663779
 21
-652.11183792110398
 31
0.0
  0
LINE
  5
42A
  8
DATA
  6
CONTINUOUS
 62
     7
 10
-199.15055035963721
 20
-640.84902021365929
 30
0.0
 11
-200.4821881967282
 21
-638.39700924665635
 31
0.0
  0
LINE
  5
42B
  8
DATA
  6
CONTINUOUS
 62
     7
 10
-192.74515244245691
 20
-646.14871221177532
 30
0.0
 11
-198.14175686026559
 21
-646.14871221177532
 31
0.0
  0
LINE
  5
42C
  8
DATA
  6
CONTINUOUS
 62
     7
 10
-133.99659182670939
 20
-531.86970713389996
 30
0.0
 11
-136.4720728537572
 21
-531.86970713389996
 31
0.0
  0
LINE
  5
42D
  8
DATA
  6
CONTINUOUS
 62
     7
 10
-136.61735253552931
 20
-525.70353350830442
 30
0.0
 11
-133.45154047985801
 21
-525.70353350830442
 31
0.0
  0
LINE
  5
42E
  8
DATA
  6
CONTINUOUS
 62
     7
 10
-126.8520783847884
 20
-519.7838553766785
 30
0.0
 11
-127.31570082636929
 21
-524.75953148332405
 31
0.0
  0
LINE
  5
42F
  8
DATA
  6
CONTINUOUS
 62
     7
 10
-136.06577008323751
 20
-519.78385537667759
 30
0.0
 11
-126.8520783847884
 21
-519.7838553766785
 31
0.0
  0
LINE
  5
430
  8
DATA
  6
CONTINUOUS
 62
     7
 10
-136.61735253552931
 20
-525.70353350830442
 30
0.0
 11
-136.06577008323751
 21
-519.78385537667759
 31
0.0
  0
LINE
  5
431
  8
DATA
  6
CONTINUOUS
 62
     7
 10
-124.1498887706871
 20
-524.75953148332405
 30
0.0
 11
-133.3635804691362
 21
-524.75953148332405
 31
0.0
  0
LINE
  5
432
  8
DATA
  6
CONTINUOUS
 62
     7
 10
-134.20090695580529
 20
-532.7951043792126
 30
0.0
 11
-136.58857938994831
 21
-532.7951043792126
 31
0.0
  0
LINE
  5
433
  8
DATA
  6
CONTINUOUS
 62
     7
 10
-174.3677353085977
 20
-530.67920961494997
 30
0.0
 11
-171.66554569449639
 21
-530.67920961494997
 31
0.0
  0
LINE
  5
434
  8
DATA
  6
CONTINUOUS
 62
     7
 10
-173.25541642328881
 20
-535.70553861640553
 30
0.0
 11
-166.71491665466871
 21
-535.70553861640553
 31
0.0
  0
LINE
  5
435
  8
DATA
  6
CONTINUOUS
 62
     7
 10
-166.0574866770466
 20
-534.58268346567888
 30
0.0
 11
-173.2841882539679
 21
-534.58268346567888
 31
0.0
  0
LINE
  5
436
  8
DATA
  6
CONTINUOUS
 62
     7
 10
-174.91931776087861
 20
-524.75953148332405
 30
0.0
 11
-171.75350570520729
 21
-524.75953148332405
 31
0.0
  0
LINE
  5
437
  8
DATA
  6
CONTINUOUS
 62
     7
 10
-174.3677353085977
 20
-530.67920961494997
 30
0.0
 11
-174.91931776087861
 21
-524.75953148332405
 31
0.0
  0
LINE
  5
438
  8
DATA
  6
CONTINUOUS
 62
     7
 10
-171.66554569449639
 20
-525.70353350830521
 30
0.0
 11
-172.2171281467881
 21
-519.7838553766785
 31
0.0
  0
LINE
  5
439
  8
DATA
  6
CONTINUOUS
 62
     7
 10
-164.97682097064811
 20
-532.7951043792126
 30
0.0
 11
-171.70120581942589
 21
-532.7951043792126
 31
0.0
  0
LINE
  5
43A
  8
DATA
  6
CONTINUOUS
 62
     7
 10
-154.14144911500941
 20
-505.00000000010158
 30
0.0
 11
-144.9277574165676
 21
-505.00000000010158
 31
0.0
  0
LINE
  5
43B
  8
DATA
  6
CONTINUOUS
 62
     7
 10
-170.59822559260959
 20
-531.02323046926006
 30
0.0
 11
-171.6209525141403
 21
-532.70223046926014
 31
0.0
  0
LINE
  5
43C
  8
DATA
  6
CONTINUOUS
 62
     7
 10
-171.69373473105861
 20
-532.79417044732224
 30
0.0
 11
-171.6948193899475
 21
-532.7951043792126
 31
0.0
  0
LINE
  5
43D
  8
DATA
  6
CONTINUOUS
 62
     7
 10
-200.4821881967282
 20
-638.39700924665635
 30
0.0
 11
-199.313237747855
 21
-626.08002840202755
 31
0.0
  0
LINE
  5
43E
  8
DATA
  6
CONTINUOUS
 62
     7
 10
-198.2607735972297
 20
-645.81123046925995
 30
0.0
 11
-198.27245980130741
 21
-645.66583273219692
 31
0.0
  0
LINE
  5
43F
  8
DATA
  6
CONTINUOUS
 62
     7
 10
-181.02632243371809
 20
-574.28323046926005
 30
0.0
 11
-181.90510827816021
 21
-577.96323046926011
 31
0.0
  0
LINE
  5
440
  8
DATA
  6
CONTINUOUS
 62
     7
 10
-181.90510827816021
 20
-577.96323046926011
 30
0.0
 11
-182.82857938994721
 21
-581.76323046925995
 31
0.0
  0
LINE
  5
441
  8
DATA
  6
CONTINUOUS
 62
     7
 10
-201.60147178298851
 20
-650.40935398529746
 30
0.0
 11
-200.2698339459084
 21
-652.86136495230062
 31
0.0
  0
LINE
  5
442
  8
DATA
  6
CONTINUOUS
 62
     7
 10
-193.3905788447764
 20
-652.91907466360965
 30
0.0
 11
-193.31591102663779
 21
-652.11183792110398
 31
0.0
  0
LINE
  5
443
  8
DATA
  6
CONTINUOUS
 62
     7
 10
-193.31591102663779
 20
-652.11183792110398
 30
0.0
 11
-193.15843459595911
 21
-650.40935398529746
 31
0.0
  0
LINE
  5
444
  8
DATA
  6
CONTINUOUS
 62
     7
 10
-133.3635804691362
 20
-524.75953148332405
 30
0.0
 11
-133.91516292142069
 21
-530.67920961495099
 31
0.0
  0
LINE
  5
445
  8
DATA
  6
CONTINUOUS
 62
     7
 10
-135.02748180673319
 20
-535.70553861640462
 30
0.0
 11
-134.213003748066
 21
-537.37323046926019
 31
0.0
  0
LINE
  5
446
  8
DATA
  6
CONTINUOUS
 62
     7
 10
-134.213003748066
 20
-537.37323046926019
 30
0.0
 11
-133.6025207193243
 21
-538.62323046926019
 31
0.0
  0
LINE
  5
447
  8
DATA
  6
CONTINUOUS
 62
     7
 10
-132.49728881267529
 20
-541.05123046926008
 30
0.0
 11
-131.90774674878961
 21
-542.39323046926006
 31
0.0
  0
LINE
  5
448
  8
DATA
  6
CONTINUOUS
 62
     7
 10
-131.90774674878961
 20
-542.39323046926006
 30
0.0
 11
-131.55630587613041
 21
-543.19323046926013
 31
0.0
  0
LINE
  5
449
  8
DATA
  6
CONTINUOUS
 62
     7
 10
-131.55630587613041
 20
-543.19323046926013
 30
0.0
 11
-131.27939596707529
 21
-543.86323046926009
 31
0.0
  0
LINE
  5
44A
  8
DATA
  6
CONTINUOUS
 62
     7
 10
-131.27939596707529
 20
-543.86323046926009
 30
0.0
 11
-130.90962892221199
 21
-544.79323046926015
 31
0.0
  0
LINE
  5
44B
  8
DATA
  6
CONTINUOUS
 62
     7
 10
-130.90962892221199
 20
-544.79323046926015
 30
0.0
 11
-130.0945510276205
 21
-546.84323046926022
 31
0.0
  0
LINE
  5
44C
  8
DATA
  6
CONTINUOUS
 62
     7
 10
-100.61870923459669
 20
-650.40935398529746
 30
0.0
 11
-101.021899110739
 21
-646.14871221177532
 31
0.0
  0
LINE
  5
44D
  8
DATA
  6
CONTINUOUS
 62
     7
 10
-107.30886924276589
 20
-651.56469560556093
 30
0.0
 11
-107.8396862335062
 21
-646.14871221177532
 31
0.0
  0
LINE
  5
44E
  8
DATA
  6
CONTINUOUS
 62
     7
 10
-99.178921801707503
 20
-650.40935398529746
 30
0.0
 11
-100.058217337908
 21
-641.14535383037685
 31
0.0
  0
LINE
  5
44F
  8
DATA
  6
CONTINUOUS
 62
     7
 10
-98.603066070547357
 20
-650.40935398529746
 30
0.0
 11
-99.576559884029862
 21
-640.21910130750734
 31
0.0
  0
LINE
  5
450
  8
DATA
  6
CONTINUOUS
 62
     7
 10
-132.5384722593476
 20
-541.0693178333521
 30
0.0
 11
-131.5546543709051
 21
-542.77334040152982
 31
0.0
  0
LINE
  5
451
  8
DATA
  6
CONTINUOUS
 62
     7
 10
-188.3392064187974
 20
-633.56323046926025
 30
0.0
 11
-189.1174394201899
 21
-640.31323046926025
 31
0.0
  0
LINE
  5
452
  8
DATA
  6
CONTINUOUS
 62
     7
 10
-111.9027799189917
 20
-830.77616492527409
 30
0.0
 11
-110.3749891768434
 21
-816.81323046926013
 31
0.0
  0
LINE
  5
453
  8
DATA
  6
CONTINUOUS
 62
     7
 10
-110.3749891768434
 20
-816.81323046926013
 30
0.0
 11
-110.2458094263597
 21
-815.61323046926009
 31
0.0
  0
LINE
  5
454
  8
DATA
  6
CONTINUOUS
 62
     7
 10
-103.54372397533599
 20
-749.96323046926011
 30
0.0
 11
-103.6418350222329
 21
-754.26323046926007
 31
0.0
  0
LINE
  5
455
  8
DATA
  6
CONTINUOUS
 62
     7
 10
-103.6418350222329
 20
-754.26323046926007
 30
0.0
 11
-103.8309280104063
 21
-761.26323046925995
 31
0.0
  0
LINE
  5
456
  8
DATA
  6
CONTINUOUS
 62
     7
 10
-103.8309280104063
 20
-761.26323046925995
 30
0.0
 11
-103.93508560689951
 21
-764.51323046926007
 31
0.0
  0
LINE
  5
457
  8
DATA
  6
CONTINUOUS
 62
     7
 10
-97.467734748588114
 20
-811.11701623207296
 30
0.0
 11
-106.6814264470372
 21
-811.11701623207296
 31
0.0
  0
LINE
  5
458
  8
DATA
  6
CONTINUOUS
 62
     7
 10
-98.603066070547357
 20
-811.11701623207296
 30
0.0
 11
-99.576559884029862
 21
-821.30726890986432
 31
0.0
  0
LINE
  5
459
  8
DATA
  6
CONTINUOUS
 62
     7
 10
-99.178921801707503
 20
-811.11701623207296
 30
0.0
 11
-100.0582173379189
 21
-820.38101638698902
 31
0.0
  0
LINE
  5
45A
  8
DATA
  6
CONTINUOUS
 62
     7
 10
-100.61870923459669
 20
-811.11701623207296
 30
0.0
 11
-101.021899110739
 21
-815.37765800559453
 31
0.0
  0
LINE
  5
45B
  8
DATA
  6
CONTINUOUS
 62
     7
 10
-107.303842911107
 20
-809.97092984623384
 30
0.0
 11
-107.8380853408994
 21
-815.37765800559384
 31
0.0
  0
LINE
  5
45C
  8
DATA
  6
CONTINUOUS
 62
     7
 10
-109.6009010073235
 20
-808.6812304692603
 30
0.0
 11
-109.0737348537791
 21
-802.28323046926005
 31
0.0
  0
LINE
  5
45D
  8
DATA
  6
CONTINUOUS
 62
     7
 10
-201.87275603738999
 20
-808.36323046926009
 30
0.0
 11
-201.78258844129141
 21
-809.48323046925998
 31
0.0
  0
LINE
  5
45E
  8
DATA
  6
CONTINUOUS
 62
     7
 10
-201.78258844129141
 20
-809.48323046925998
 30
0.0
 11
-201.73106410066339
 21
-810.12323046926042
 31
0.0
  0
LINE
  5
45F
  8
DATA
  6
CONTINUOUS
 62
     7
 10
-201.73106410066339
 20
-810.12323046926042
 30
0.0
 11
-201.60147178298851
 21
-811.11701623207296
 31
0.0
  0
LINE
  5
460
  8
DATA
  6
CONTINUOUS
 62
     7
 10
-198.88902156928091
 20
-652.23223046926
 30
0.0
 11
-198.95480199001489
 21
-652.40723046926007
 31
0.0
  0
LINE
  5
461
  8
DATA
  6
CONTINUOUS
 62
     7
 10
-198.95480199001489
 20
-652.40723046926007
 30
0.0
 11
-199.0356179354884
 21
-652.6222304692601
 31
0.0
  0
LINE
  5
462
  8
DATA
  6
CONTINUOUS
 62
     7
 10
-201.15481222334489
 20
-689.86323046926009
 30
0.0
 11
-201.20147803614191
 21
-691.37323046926008
 31
0.0
  0
LINE
  5
463
  8
DATA
  6
CONTINUOUS
 62
     7
 10
-201.20147803614191
 20
-691.37323046926008
 30
0.0
 11
-201.27821195786279
 21
-693.17323046926015
 31
0.0
  0
LINE
  5
464
  8
DATA
  6
CONTINUOUS
 62
     7
 10
-201.27821195786279
 20
-693.17323046926015
 30
0.0
 11
-201.34855138610649
 21
-694.82323046926012
 31
0.0
  0
LINE
  5
465
  8
DATA
  6
CONTINUOUS
 62
     7
 10
-193.3913881897669
 20
-808.60729555376179
 30
0.0
 11
-193.32042679688581
 21
-809.41453229626563
 31
0.0
  0
LINE
  5
466
  8
DATA
  6
CONTINUOUS
 62
     7
 10
-193.32042679688581
 20
-809.41453229626563
 30
0.0
 11
-193.16104042980709
 21
-811.11701623207296
 31
0.0
  0
LINE
  5
467
  8
DATA
  6
CONTINUOUS
 62
     7
 10
-193.16104042980709
 20
-811.11701623207296
 30
0.0
 11
-192.7108465060073
 21
-815.73263485866755
 31
0.0
  0
LINE
  5
468
  8
DATA
  6
CONTINUOUS
 62
     7
 10
-198.01987235127581
 20
-815.73263485866755
 30
0.0
 11
-197.73902054935289
 21
-818.44323046926013
 31
0.0
  0
LINE
  5
469
  8
DATA
  6
CONTINUOUS
 62
     7
 10
-197.73902054935289
 20
-818.44323046926013
 30
0.0
 11
-197.40538804487369
 21
-821.66323046926016
 31
0.0
  0
LINE
  5
46A
  8
DATA
  6
CONTINUOUS
 62
     7
 10
-171.69373473105861
 20
-928.73219977004567
 30
0.0
 11
-171.69373473105861
 21
-928.73126583815485
 31
0.0
  0
LINE
  5
46B
  8
DATA
  6
CONTINUOUS
 62
     7
 10
-136.65195035480559
 20
-928.80773046925992
 30
0.0
 11
-138.43857938994731
 21
-931.74082051202345
 31
0.0
  0
LINE
  5
46C
  8
DATA
  6
CONTINUOUS
 62
     7
 10
-138.43857938994731
 20
-931.74082051202345
 30
0.0
 11
-139.57481442728471
 21
-933.38323046926041
 31
0.0
  0
LINE
  5
46D
  8
DATA
  6
CONTINUOUS
 62
     7
 10
-139.57481442728471
 20
-933.38323046926041
 30
0.0
 11
-140.1185553747105
 21
-934.16323046926016
 31
0.0
  0
LINE
  5
46E
  8
DATA
  6
CONTINUOUS
 62
     7
 10
-171.64678793102439
 20
-928.78172601670485
 30
0.0
 11
-171.69373473105861
 21
-928.73126583815485
 31
0.0
  0
LINE
  5
46F
  8
DATA
  6
CONTINUOUS
 62
     7
 10
-173.25541642328881
 20
-925.82083160096181
 30
0.0
 11
-174.04054698959951
 21
-924.21323046926011
 31
0.0
  0
LINE
  5
470
  8
DATA
  6
CONTINUOUS
 62
     7
 10
-174.04054698959951
 20
-924.21323046926011
 30
0.0
 11
-174.72428798178859
 21
-922.81323046925979
 31
0.0
  0
LINE
  5
471
  8
DATA
  6
CONTINUOUS
 62
     7
 10
-200.48218819673539
 20
-823.12936097071349
 30
0.0
 11
-199.89352619959939
 21
-828.66323046926004
 31
0.0
  0
LINE
  5
472
  8
DATA
  6
CONTINUOUS
 62
     7
 10
-199.89352619959939
 20
-828.66323046926004
 30
0.0
 11
-199.7323689974109
 21
-830.17823046926037
 31
0.0
  0
LINE
  5
473
  8
DATA
  6
CONTINUOUS
 62
     7
 10
-198.41049828816759
 20
-840.81323046926013
 30
0.0
 11
-197.0795512885316
 21
-851.23706006833561
 31
0.0
  0
LINE
  5
474
  8
DATA
  6
CONTINUOUS
 62
     7
 10
-197.0795512885316
 20
-851.23706006833561
 30
0.0
 11
-195.20578371338021
 21
-863.56323046926013
 31
0.0
  0
LINE
  5
475
  8
DATA
  6
CONTINUOUS
 62
     7
 10
-195.20578371338021
 20
-863.56323046926013
 30
0.0
 11
-193.72066852610081
 21
-872.16323046926016
 31
0.0
  0
LINE
  5
476
  8
DATA
  6
CONTINUOUS
 62
     7
 10
-193.72066852610081
 20
-872.16323046926016
 30
0.0
 11
-191.57821168132801
 21
-883.83745415319936
 31
0.0
  0
LINE
  5
477
  8
DATA
  6
CONTINUOUS
 62
     7
 10
-191.47458639211879
 20
-883.81843681070472
 30
0.0
 11
-188.57138935824599
 21
-896.7243422413178
 31
0.0
  0
LINE
  5
478
  8
DATA
  6
CONTINUOUS
 62
     7
 10
-188.57138935824599
 20
-896.7243422413178
 30
0.0
 11
-186.2386622367585
 21
-905.66054489774444
 31
0.0
  0
LINE
  5
479
  8
DATA
  6
CONTINUOUS
 62
     7
 10
-186.2386622367585
 20
-905.66054489774444
 30
0.0
 11
-184.41807032165161
 21
-912.26323046926007
 31
0.0
  0
LINE
  5
47A
  8
DATA
  6
CONTINUOUS
 62
     7
 10
-184.41807032165161
 20
-912.26323046926007
 30
0.0
 11
-182.74406660228621
 21
-917.26323046925995
 31
0.0
  0
LINE
  5
47B
  8
DATA
  6
CONTINUOUS
 62
     7
 10
-182.74406660228621
 20
-917.26323046925995
 30
0.0
 11
-180.6551766048419
 21
-923.66323046926016
 31
0.0
  0
LINE
  5
47C
  8
DATA
  6
CONTINUOUS
 62
     7
 10
-180.6551766048419
 20
-923.66323046926016
 30
0.0
 11
-178.59474827244679
 21
-928.63244435804654
 31
0.0
  0
LINE
  5
47D
  8
DATA
  6
CONTINUOUS
 62
     7
 10
-178.59474827244679
 20
-928.63244435804654
 30
0.0
 11
-176.94814939678551
 21
-932.46323046926011
 31
0.0
  0
LINE
  5
47E
  8
DATA
  6
CONTINUOUS
 62
     7
 10
-174.91931776088589
 20
-936.76683873404329
 30
0.0
 11
-176.94814939678551
 21
-932.46323046926011
 31
0.0
  0
ARC
  5
47F
  8
DATA
  6
CONTINUOUS
 62
     7
 10
-110.19873273640719
 20
-933.36048097142464
 30
0.0
 40
26.53312397492757
 50
171.97574907377901
 51
185.32488713718959
  0
ARC
  5
480
  8
DATA
  6
CONTINUOUS
 62
     7
 10
-141.10536580333741
 20
-930.74093009531362
 30
0.0
 40
7.1909875819430713
 50
359.15355421673121
 51
31.874192979936481
  0
ARC
  5
481
  8
DATA
  6
CONTINUOUS
 62
     7
 10
-133.56158851535611
 20
-926.34506602239469
 30
0.0
 40
1.5568124069097331
 50
160.3218762852494
 51
202.61375404359731
  0
ARC
  5
482
  8
DATA
  6
CONTINUOUS
 62
     7
 10
-167.1775324266882
 20
-930.74093009531362
 30
0.0
 40
7.1909875819431148
 50
148.125807020042
 51
180.84644578326879
  0
ARC
  5
483
  8
DATA
  6
CONTINUOUS
 62
     7
 10
-174.7213097146587
 20
-926.34506602239242
 30
0.0
 40
1.5568124069030469
 50
337.38624595631518
 51
19.67812371479345
  0
ARC
  5
484
  8
DATA
  6
CONTINUOUS
 62
     7
 10
-198.08416549355661
 20
-933.36048097142464
 30
0.0
 40
26.53312397487985
 50
354.67511286280973
 51
8.0242509262480972
  0
ARC
  5
485
  8
DATA
  6
CONTINUOUS
 62
     7
 10
-97.169665816159991
 20
-819.20165591988075
 30
0.0
 40
3.1200354173010858
 50
202.2095966704274
 51
208.2274868806532
  0
ARC
  5
486
  8
DATA
  6
CONTINUOUS
 62
     7
 10
-97.041003912119805
 20
-815.98469115225964
 30
0.0
 40
12.970028751437111
 50
179.45153631418441
 51
201.2112668679903
  0
ARC
  5
487
  8
DATA
  6
CONTINUOUS
 62
     7
 10
-85.958155529049705
 20
-815.75686303590555
 30
0.0
 40
14.83895337374682
 50
180.40030833467571
 51
198.1570436231768
  0
ARC
  5
488
  8
DATA
  6
CONTINUOUS
 62
     7
 10
187.843371895221
 20
-1012.915494453672
 30
0.0
 40
332.66180902464441
 50
147.9009965171737
 51
150.5134459449925
  0
ARC
  5
489
  8
DATA
  6
CONTINUOUS
 62
     7
 10
-211.2418943178954
 20
-815.98469115225851
 30
0.0
 40
12.97002875144233
 50
338.78873313201058
 51
0.5484636858153636
  0
ARC
  5
48A
  8
DATA
  6
CONTINUOUS
 62
     7
 10
-97.169665815898057
 20
-642.32471429762438
 30
0.0
 40
3.1200354175962719
 50
151.7725131194164
 51
157.7904033290732
  0
ARC
  5
48B
  8
DATA
  6
CONTINUOUS
 62
     7
 10
-97.041003912127053
 20
-645.541679065111
 30
0.0
 40
12.970028751434549
 50
158.78873313200489
 51
180.54846368581369
  0
ARC
  5
48C
  8
DATA
  6
CONTINUOUS
 62
     7
 10
-85.958155529038777
 20
-645.76950718146725
 30
0.0
 40
14.83895337375017
 50
161.8429563768216
 51
179.59969166532261
  0
ARC
  5
48D
  8
DATA
  6
CONTINUOUS
 62
     7
 10
188.9910159277305
 20
-447.73049766380592
 30
0.0
 40
334.09377584153981
 50
209.8089385838245
 51
212.1335781868496
  0
ARC
  5
48E
  8
DATA
  6
CONTINUOUS
 62
     7
 10
-211.2418943179064
 20
-645.541679065111
 30
0.0
 40
12.970028751444829
 50
359.4515363141868
 51
21.211266867969471
  0
ARC
  5
48F
  8
DATA
  6
CONTINUOUS
 62
     7
 10
-110.1987327364582
 20
-528.1658892459435
 30
0.0
 40
26.53312397487624
 50
174.6751128628087
 51
188.0242509262481
  0
ARC
  5
490
  8
DATA
  6
CONTINUOUS
 62
     7
 10
-141.10536580332649
 20
-530.78544012205555
 30
0.0
 40
7.1909875819390647
 50
328.12580702003902
 51
0.8464457832656078
  0
ARC
  5
491
  8
DATA
  6
CONTINUOUS
 62
     7
 10
-133.56158851535611
 20
-535.18130419497254
 30
0.0
 40
1.5568124069132969
 50
157.38624595645419
 51
199.67812371470541
  0
ARC
  5
492
  8
DATA
  6
CONTINUOUS
 62
     7
 10
-167.1775324266882
 20
-530.78544012205555
 30
0.0
 40
7.1909875819394271
 50
179.15355421673439
 51
211.87419297995481
  0
ARC
  5
493
  8
DATA
  6
CONTINUOUS
 62
     7
 10
-174.7213097146587
 20
-535.18130419497254
 30
0.0
 40
1.556812406902881
 50
340.32187628515919
 51
22.613754043669239
  0
ARC
  5
494
  8
DATA
  6
CONTINUOUS
 62
     7
 10
-198.08416549356761
 20
-528.1658892459435
 30
0.0
 40
26.533123974881502
 50
351.97574907375298
 51
5.3248871371898749
  0
ARC
  5
495
  8
DATA
  6
CONTINUOUS
 62
     7
 10
226.66587833757919
 20
-730.7565337259241
 30
0.0
 40
353.02631532027289
 50
163.54523656512791
 51
196.45436085859251
  0
ARC
  5
496
  8
DATA
  6
CONTINUOUS
 62
     7
 10
-187.37512344086741
 20
-556.29091923573185
 30
0.0
 40
70.681006603394962
 50
31.098076550963231
 51
36.283507546654
  0
ARC
  5
497
  8
DATA
  6
CONTINUOUS
 62
     7
 10
-163.38617061113879
 20
-539.55951239995215
 30
0.0
 40
41.448277586510279
 50
37.263700818769657
 51
44.277157599378732
  0
ARC
  5
498
  8
DATA
  6
CONTINUOUS
 62
     7
 10
-152.81185458337089
 20
-529.36480161709721
 30
0.0
 40
26.76026940574479
 50
44.455140699794903
 51
53.464541537663422
  0
ARC
  5
499
  8
DATA
  6
CONTINUOUS
 62
     7
 10
-148.08892382083559
 20
-524.14683715347485
 30
0.0
 40
19.768030797640161
 50
55.460386326373978
 51
66.09526653317927
  0
ARC
  5
49A
  8
DATA
  6
CONTINUOUS
 62
     7
 10
-146.1244824341224
 20
-520.40566040289934
 30
0.0
 40
15.55426451359267
 50
67.126524447759209
 51
78.255999603000831
  0
ARC
  5
49B
  8
DATA
  6
CONTINUOUS
 62
     7
 10
-145.594646221788
 20
-523.46204098491285
 30
0.0
 40
18.474081790535021
 50
81.79646468555228
 51
87.931252125640952
  0
ARC
  5
49C
  8
DATA
  6
CONTINUOUS
 62
     7
 10
-197.84161674505731
 20
-557.02954664596382
 30
0.0
 40
72.135267025995333
 50
31.08647794198426
 51
36.637844985730041
  0
ARC
  5
49D
  8
DATA
  6
CONTINUOUS
 62
     7
 10
-169.86079527901941
 20
-537.38931024479734
 30
0.0
 40
37.973973487407001
 50
38.0531217724659
 51
45.030789498923653
  0
ARC
  5
49E
  8
DATA
  6
CONTINUOUS
 62
     7
 10
-162.73997997078871
 20
-530.0512145811548
 30
0.0
 40
27.750293849476289
 50
44.724911850584007
 51
52.803408127583069
  0
ARC
  5
49F
  8
DATA
  6
CONTINUOUS
 62
     7
 10
-156.93728997080009
 20
-523.33255045760438
 30
0.0
 40
18.898720821089771
 50
54.502773480590143
 51
68.591789781630425
  0
ARC
  5
4A0
  8
DATA
  6
CONTINUOUS
 62
     7
 10
-154.24829860790621
 20
-517.35198883925796
 30
0.0
 40
12.35344574053363
 50
70.078422791759664
 51
89.120040023524268
  0
ARC
  5
4A1
  8
DATA
  6
CONTINUOUS
 62
     7
 10
193.52524449212569
 20
-748.7241258988679
 30
0.0
 40
431.48711523093652
 50
147.45227596599261
 51
147.955060764682
  0
ARC
  5
4A2
  8
DATA
  6
CONTINUOUS
 62
     7
 10
-57.984100158570079
 20
-596.44959332685619
 30
0.0
 40
137.73057711875569
 50
143.053095082368
 51
144.55832813951881
  0
ARC
  5
4A3
  8
DATA
  6
CONTINUOUS
 62
     7
 10
-135.86058950716321
 20
-538.95936670677042
 30
0.0
 40
40.945435918915699
 50
135.40751979712601
 51
141.84426206731871
  0
ARC
  5
4A4
  8
DATA
  6
CONTINUOUS
 62
     7
 10
-147.03943216741439
 20
-529.34625880187764
 30
0.0
 40
26.25495206672953
 50
122.09305244983921
 51
133.2191497671943
  0
ARC
  5
4A5
  8
DATA
  6
CONTINUOUS
 62
     7
 10
-153.1159027894054
 20
-519.33891504488815
 30
0.0
 40
14.549444417112189
 50
111.2989717517812
 51
122.7584219913621
  0
ARC
  5
4A6
  8
DATA
  6
CONTINUOUS
 62
     7
 10
-153.9955558694096
 20
-517.76636742693802
 30
0.0
 40
12.767201029047071
 50
90.654744070070208
 51
110.1842958206586
  0
ARC
  5
4A7
  8
DATA
  6
CONTINUOUS
 62
     7
 10
-138.6431405130156
 20
-532.18659002305446
 30
0.0
 40
2.1940714542904618
 50
358.25948985834572
 51
8.3040923503083377
  0
ARC
  5
4A8
  8
DATA
  6
CONTINUOUS
 62
     7
 10
-138.6055133784339
 20
-532.21585194120121
 30
0.0
 40
2.1557561287706961
 50
352.68329791440328
 51
359.00650208167792
  0
ARC
  5
4A9
  8
DATA
  6
CONTINUOUS
 62
     7
 10
-137.22839493932861
 20
-532.43201590355454
 30
0.0
 40
0.7633198929945523
 50
343.38880288303022
 51
355.6136639655457
  0
ARC
  5
4AA
  8
DATA
  6
CONTINUOUS
 62
     7
 10
-136.62145428633769
 20
-532.69641556846625
 30
0.0
 40
0.1040203834792778
 50
288.42377997520748
 51
345.87388076620931
  0
ARC
  5
4AB
  8
DATA
  6
CONTINUOUS
 62
     7
 10
-136.7741332161481
 20
-532.59833143932258
 30
0.0
 40
0.2820188673536023
 50
334.03568397085269
 51
349.39560193755972
  0
ARC
  5
4AC
  8
DATA
  6
CONTINUOUS
 62
     7
 10
-136.52692964286959
 20
-532.69052319135346
 30
0.0
 40
0.1213998194760405
 50
211.5952646387108
 51
239.4810013074943
  0
ARC
  5
4AD
  8
DATA
  6
CONTINUOUS
 62
     7
 10
-196.70242052182999
 20
-567.85070699058554
 30
0.0
 40
69.573166507462489
 50
30.295227313538359
 51
34.530784594106542
  0
ARC
  5
4AE
  8
DATA
  6
CONTINUOUS
 62
     7
 10
-164.87138626574051
 20
-544.85631909301731
 30
0.0
 40
30.329076825003021
 50
32.83052277365578
 51
41.163968849665849
  0
ARC
  5
4AF
  8
DATA
  6
CONTINUOUS
 62
     7
 10
-157.00293711464329
 20
-536.30738944025347
 30
0.0
 40
18.82044310648028
 50
37.335174312057283
 51
63.816888995372793
  0
ARC
  5
4B0
  8
DATA
  6
CONTINUOUS
 62
     7
 10
-154.0782170965667
 20
-529.27871569951708
 30
0.0
 40
11.23260612220291
 50
61.384425208923282
 51
82.327672498534497
  0
ARC
  5
4B1
  8
DATA
  6
CONTINUOUS
 62
     7
 10
-154.09364701131699
 20
-529.61669209552235
 30
0.0
 40
11.56965535169237
 50
82.475401216479426
 51
95.174608124484635
  0
ARC
  5
4B2
  8
DATA
  6
CONTINUOUS
 62
     7
 10
-154.9254801894067
 20
-524.85904406221459
 30
0.0
 40
6.76816485079706
 50
91.791996160819636
 51
109.4446831299463
  0
ARC
  5
4B3
  8
DATA
  6
CONTINUOUS
 62
     7
 10
-154.90394601538259
 20
-527.52500736498689
 30
0.0
 40
9.3296287297092029
 50
104.1113711229447
 51
112.89500932941689
  0
ARC
  5
4B4
  8
DATA
  6
CONTINUOUS
 62
     7
 10
-162.51308232325621
 20
-511.2218723983716
 30
0.0
 40
8.6751040664252752
 50
290.29859196782752
 51
297.30498223175653
  0
ARC
  5
4B5
  8
DATA
  6
CONTINUOUS
 62
     7
 10
-150.41518905983961
 20
-537.0570016925775
 30
0.0
 40
19.89586242432636
 50
117.1806810538758
 51
127.833085303697
  0
ARC
  5
4B6
  8
DATA
  6
CONTINUOUS
 62
     7
 10
-145.54433301449259
 20
-542.81536736942121
 30
0.0
 40
27.43323809448993
 50
128.49107140397641
 51
138.26683742655939
  0
ARC
  5
4B7
  8
DATA
  6
CONTINUOUS
 62
     7
 10
-119.61936441254559
 20
-562.27184020827997
 30
0.0
 40
59.793978775774967
 50
140.89119330250529
 51
148.49287281194901
  0
ARC
  5
4B8
  8
DATA
  6
CONTINUOUS
 62
     7
 10
-171.8357621537366
 20
-532.60695943877818
 30
0.0
 40
0.2349888306125162
 50
307.18573176674732
 51
336.08205503617768
  0
ARC
  5
4B9
  8
DATA
  6
CONTINUOUS
 62
     7
 10
-170.2930676944766
 20
-529.6454702138119
 30
0.0
 40
3.447477801467842
 50
245.272113580682
 51
246.0084383343191
  0
ARC
  5
4BA
  8
DATA
  6
CONTINUOUS
 62
     7
 10
-171.26186502618111
 20
-532.4818289605945
 30
0.0
 40
0.5577206980762018
 50
202.10814425434091
 51
211.9339503158044
  0
ARC
  5
4BB
  8
DATA
  6
CONTINUOUS
 62
     7
 10
-170.78583630380439
 20
-532.40852741272317
 30
0.0
 40
1.032348200132551
 50
185.48644372315479
 51
195.9220313564899
  0
ARC
  5
4BC
  8
DATA
  6
CONTINUOUS
 62
     7
 10
-169.3263654624898
 20
-532.19872262129275
 30
0.0
 40
2.506150884148199
 50
172.45625064852521
 51
187.07106191421349
  0
ARC
  5
4BD
  8
DATA
  6
CONTINUOUS
 62
     7
 10
-45.686024647472102
 20
-587.79669742949136
 30
0.0
 40
143.78778925715591
 50
153.9978950410603
 51
159.57318721308479
  0
ARC
  5
4BE
  8
DATA
  6
CONTINUOUS
 62
     7
 10
38.885728022301002
 20
-617.7125254161665
 30
0.0
 40
233.4872094760326
 50
159.93680022721929
 51
165.37293627680711
  0
ARC
  5
4BF
  8
DATA
  6
CONTINUOUS
 62
     7
 10
192.4059092155353
 20
-657.58235439559439
 30
0.0
 40
392.10003286004968
 50
165.40073742057231
 51
169.4160858318009
  0
ARC
  5
4C0
  8
DATA
  6
CONTINUOUS
 62
     7
 10
-933.00660285163133
 20
-464.21895971661399
 30
0.0
 40
749.86646048560794
 50
349.57055487465362
 51
350.68738051487571
  0
ARC
  5
4C1
  8
DATA
  6
CONTINUOUS
 62
     7
 10
-906.13544355769943
 20
-503.15221068768761
 30
0.0
 40
717.1707456866045
 50
350.77778674922388
 51
352.24194700801411
  0
ARC
  5
4C2
  8
DATA
  6
CONTINUOUS
 62
     7
 10
-84.364323538889067
 20
-637.5256940144169
 30
0.0
 40
115.5173412918202
 50
170.3133493754934
 51
174.31370134383411
  0
ARC
  5
4C3
  8
DATA
  6
CONTINUOUS
 62
     7
 10
-197.7107131943489
 20
-645.80697264135802
 30
0.0
 40
0.5500768818226609
 50
180.4434980143314
 51
218.40804624027129
  0
ARC
  5
4C4
  8
DATA
  6
CONTINUOUS
 62
     7
 10
-140.61757633486829
 20
-542.19341673922679
 30
0.0
 40
25.091810335156051
 50
111.6209298495738
 51
129.62039570621761
  0
ARC
  5
4C5
  8
DATA
  6
CONTINUOUS
 62
     7
 10
-138.85181156180121
 20
-545.35862551404921
 30
0.0
 40
28.66351282462368
 50
128.30439033231471
 51
146.44958949934161
  0
ARC
  5
4C6
  8
DATA
  6
CONTINUOUS
 62
     7
 10
-143.8082563889989
 20
-544.83812642824023
 30
0.0
 40
24.35451716870681
 50
141.0176065845217
 51
150.36399079733579
  0
ARC
  5
4C7
  8
DATA
  6
CONTINUOUS
 62
     7
 10
-62.379899919394582
 20
-596.03964203227508
 30
0.0
 40
120.523855531371
 50
148.3487836498968
 51
149.96037252119999
  0
ARC
  5
4C8
  8
DATA
  6
CONTINUOUS
 62
     7
 10
-83.669408913679504
 20
-582.14186239485571
 30
0.0
 40
95.146668475652689
 50
150.78751124208731
 51
156.5016335724691
  0
ARC
  5
4C9
  8
DATA
  6
CONTINUOUS
 62
     7
 10
-104.7612658412845
 20
-577.70213881672737
 30
0.0
 40
74.160708144637425
 50
153.14802277151381
 51
162.63967758765651
  0
ARC
  5
4CA
  8
DATA
  6
CONTINUOUS
 62
     7
 10
-62.69178501372199
 20
-600.02887190053707
 30
0.0
 40
121.1028521510223
 50
158.4955788140779
 51
167.7643688020859
  0
ARC
  5
4CB
  8
DATA
  6
CONTINUOUS
 62
     7
 10
51.455511519208343
 20
-641.92004865109288
 30
0.0
 40
241.88401771694541
 50
165.59933746986059
 51
169.5657709499867
  0
ARC
  5
4CC
  8
DATA
  6
CONTINUOUS
 62
     7
 10
-650.5251123319116
 20
-524.64316946102736
 30
0.0
 40
469.87598550394648
 50
349.58779447434119
 51
351.00428858905678
  0
ARC
  5
4CD
  8
DATA
  6
CONTINUOUS
 62
     7
 10
570.23409843869865
 20
-718.49310888443358
 30
0.0
 40
766.40136286746019
 50
171.82878641904571
 51
174.58350511828269
  0
ARC
  5
4CE
  8
DATA
  6
CONTINUOUS
 62
     7
 10
-96.459574464617162
 20
-575.97205832149325
 30
0.0
 40
86.712132664939887
 50
152.3305378816832
 51
158.86972879363589
  0
ARC
  5
4CF
  8
DATA
  6
CONTINUOUS
 62
     7
 10
-34.162546596250657
 20
-602.74181095941492
 30
0.0
 40
154.4911576602729
 50
157.9379176947879
 51
161.84855985155261
  0
ARC
  5
4D0
  8
DATA
  6
CONTINUOUS
 62
     7
 10
-58.499788533167248
 20
-601.41071176454977
 30
0.0
 40
131.10261931492181
 50
159.08680944058841
 51
170.14119971209141
  0
ARC
  5
4D1
  8
DATA
  6
CONTINUOUS
 62
     7
 10
19.404969956816771
 20
-634.69828198648224
 30
0.0
 40
214.4409904267836
 50
164.93536282110119
 51
172.3261733602348
  0
ARC
  5
4D2
  8
DATA
  6
CONTINUOUS
 62
     7
 10
593.01354417816935
 20
-723.25613402242982
 30
0.0
 40
794.81641421474228
 50
171.52102325863811
 51
174.3976522349854
  0
ARC
  5
4D3
  8
DATA
  6
CONTINUOUS
 62
     7
 10
-200.8163600894564
 20
-645.43347042273433
 30
0.0
 40
2.8193871880907921
 50
348.83856751517868
 51
355.32561699588342
  0
ARC
  5
4D4
  8
DATA
  6
CONTINUOUS
 62
     7
 10
-198.26792807676929
 20
-645.9712093273032
 30
0.0
 40
0.2177761462372656
 50
305.4056793182279
 51
357.88920153599139
  0
ARC
  5
4D5
  8
DATA
  6
CONTINUOUS
 62
     7
 10
79.3811191095742
 20
-674.69531932563052
 30
0.0
 40
273.61947380718908
 50
174.01145732836611
 51
174.907830117797
  0
ARC
  5
4D6
  8
DATA
  6
CONTINUOUS
 62
     7
 10
-913.7300141355073
 20
-720.87395792878362
 30
0.0
 40
810.13856239200572
 50
5.8431762281181907
 51
7.1339545927605936
  0
ARC
  5
4D7
  8
DATA
  6
CONTINUOUS
 62
     7
 10
-648.13900137905568
 20
-686.89947435042643
 30
0.0
 40
542.38483168655443
 50
7.0570671111481111
 51
8.6940870603284282
  0
ARC
  5
4D8
  8
DATA
  6
CONTINUOUS
 62
     7
 10
-637.65334286922052
 20
-684.05242820441515
 30
0.0
 40
531.59072407615133
 50
8.5615873304919372
 51
11.5398576588982
  0
ARC
  5
4D9
  8
DATA
  6
CONTINUOUS
 62
     7
 10
3899.5203898425589
 20
304.9767692700143
 30
0.0
 40
4112.1805072590923
 50
192.0964465783517
 51
192.39506795625061
  0
ARC
  5
4DA
  8
DATA
  6
CONTINUOUS
 62
     7
 10
-367.22435862655129
 20
-630.77062159264301
 30
0.0
 40
256.76684908016853
 50
16.751897677844489
 51
24.385193155202021
  0
ARC
  5
4DB
  8
DATA
  6
CONTINUOUS
 62
     7
 10
-164.77875761096041
 20
-554.28028669891876
 30
0.0
 40
34.886976889695063
 50
22.28398603411727
 51
26.666316751927511
  0
ARC
  5
4DC
  8
DATA
  6
CONTINUOUS
 62
     7
 10
-487.10162085513002
 20
-668.17166548854698
 30
0.0
 40
377.06052173497773
 50
5.6943786051718481
 51
18.770268973508308
  0
ARC
  5
4DD
  8
DATA
  6
CONTINUOUS
 62
     7
 10
-112.3726258580423
 20
-645.53656192873166
 30
0.0
 40
2.365721959980859
 50
349.359882655077
 51
356.86761062599948
  0
ARC
  5
4DE
  8
DATA
  6
CONTINUOUS
 62
     7
 10
-110.3430472306427
 20
-645.92807661395568
 30
0.0
 40
0.2990753144082008
 50
312.4619464185526
 51
352.28416784328641
  0
ARC
  5
4DF
  8
DATA
  6
CONTINUOUS
 62
     7
 10
-459.74227200037319
 20
-659.94532813057469
 30
0.0
 40
361.79752251353551
 50
3.414503270536295
 51
21.940925159543749
  0
ARC
  5
4E0
  8
DATA
  6
CONTINUOUS
 62
     7
 10
-512.13933951092395
 20
-677.73944489888072
 30
0.0
 40
421.47455180147108
 50
7.1289445275424672
 51
14.619020708054761
  0
ARC
  5
4E1
  8
DATA
  6
CONTINUOUS
 62
     7
 10
-228.531498036306
 20
-600.50561736237637
 30
0.0
 40
127.59427289333139
 50
13.20282444842883
 51
33.348484962942962
  0
ARC
  5
4E2
  8
DATA
  6
CONTINUOUS
 62
     7
 10
-780.11366705051466
 20
-715.74656511393005
 30
0.0
 40
692.1084085872003
 50
4.5399547159520566
 51
7.4979127111871824
  0
ARC
  5
4E3
  8
DATA
  6
CONTINUOUS
 62
     7
 10
-933.12982450682205
 20
-728.36522701536319
 30
0.0
 40
845.64340927062995
 50
1.284124711039381
 51
4.5716085595578351
  0
ARC
  5
4E4
  8
DATA
  6
CONTINUOUS
 62
     7
 10
-988.45157345708662
 20
-730.83912416737235
 30
0.0
 40
901.00754974256563
 50
357.03715230504508
 51
1.362563800886107
  0
ARC
  5
4E5
  8
DATA
  6
CONTINUOUS
 62
     7
 10
-840.21496680473479
 20
-739.42382473618284
 30
0.0
 40
752.5259188295787
 50
352.67543651277907
 51
357.10652247993949
  0
ARC
  5
4E6
  8
DATA
  6
CONTINUOUS
 62
     7
 10
-568.49449495980832
 20
-774.24997919433076
 30
0.0
 40
478.58274909138942
 50
347.36151926523598
 51
352.66350889389548
  0
ARC
  5
4E7
  8
DATA
  6
CONTINUOUS
 62
     7
 10
-294.8859046422549
 20
-837.91621456925998
 30
0.0
 40
197.68650128195389
 50
336.36728690388588
 51
348.0160945447833
  0
ARC
  5
4E8
  8
DATA
  6
CONTINUOUS
 62
     7
 10
-168.30834061711809
 20
-893.68522480224453
 30
0.0
 40
59.36928170015797
 50
323.3144424959558
 51
336.70551295255808
  0
ARC
  5
4E9
  8
DATA
  6
CONTINUOUS
 62
     7
 10
-102.2366795192028
 20
-645.63481737571988
 30
0.0
 40
1.440266777029221
 50
342.06916330834662
 51
358.76607137706588
  0
ARC
  5
4EA
  8
DATA
  6
CONTINUOUS
 62
     7
 10
-101.0022060575125
 20
-646.02221780237119
 30
0.0
 40
0.1469331578950126
 50
300.58247984942119
 51
337.59122984088953
  0
ARC
  5
4EB
  8
DATA
  6
CONTINUOUS
 62
     7
 10
-167.34799727787089
 20
-560.53204583111369
 30
0.0
 40
39.893285175307703
 50
28.377808026391911
 51
43.725182620263347
  0
ARC
  5
4EC
  8
DATA
  6
CONTINUOUS
 62
     7
 10
-147.4708589926494
 20
-541.58440303903797
 30
0.0
 40
12.43227806495895
 50
43.938616578803071
 51
65.459359227589715
  0
ARC
  5
4ED
  8
DATA
  6
CONTINUOUS
 62
     7
 10
-144.78243387447901
 20
-536.34020038144479
 30
0.0
 40
6.5506558947465274
 50
67.799294147135157
 51
92.328501664697427
  0
ARC
  5
4EE
  8
DATA
  6
CONTINUOUS
 62
     7
 10
-144.91785974232329
 20
-540.30097495325992
 30
0.0
 40
10.50683484111269
 50
90.712857625933708
 51
108.94250205838119
  0
ARC
  5
4EF
  8
DATA
  6
CONTINUOUS
 62
     7
 10
-143.64046848460239
 20
-548.52990718461535
 30
0.0
 40
18.761924883324951
 50
104.4700363727279
 51
127.7907926763157
  0
ARC
  5
4F0
  8
DATA
  6
CONTINUOUS
 62
     7
 10
-136.32599910715311
 20
-558.51959609744085
 30
0.0
 40
31.14034177914402
 50
127.163003968514
 51
143.24004931055759
  0
ARC
  5
4F1
  8
DATA
  6
CONTINUOUS
 62
     7
 10
-113.20960280040531
 20
-576.3039899729788
 30
0.0
 40
60.304773723112632
 50
142.84704538638479
 51
151.4288294052354
  0
ARC
  5
4F2
  8
DATA
  6
CONTINUOUS
 62
     7
 10
-78.862968282398484
 20
-594.56875935899654
 30
0.0
 40
99.204679379611335
 50
151.65160587070471
 51
156.64553054066951
  0
ARC
  5
4F3
  8
DATA
  6
CONTINUOUS
 62
     7
 10
-16.98001148302275
 20
-620.38254457672588
 30
0.0
 40
166.252707745381
 50
156.9325010868624
 51
164.68223992673859
  0
ARC
  5
4F4
  8
DATA
  6
CONTINUOUS
 62
     7
 10
116.5827713932967
 20
-658.92075385536157
 30
0.0
 40
305.25729066464589
 50
164.32831472136519
 51
169.20802320846241
  0
ARC
  5
4F5
  8
DATA
  6
CONTINUOUS
 62
     7
 10
307.06544566172988
 20
-696.14511181032071
 30
0.0
 40
499.34182798481311
 50
169.10483557434469
 51
172.8002595998156
  0
ARC
  5
4F6
  8
DATA
  6
CONTINUOUS
 62
     7
 10
258.21697492718289
 20
-699.71579088341525
 30
0.0
 40
451.26127957455452
 50
172.4358169196866
 51
177.38957780134319
  0
ARC
  5
4F7
  8
DATA
  6
CONTINUOUS
 62
     7
 10
653.56231674464243
 20
-730.51877232075014
 30
0.0
 40
847.69540293769785
 50
176.5267492383166
 51
180.4594213819299
  0
ARC
  5
4F8
  8
DATA
  6
CONTINUOUS
 62
     7
 10
1877.669325378871
 20
-691.43912975771195
 30
0.0
 40
2072.2830383472278
 50
181.26853258558131
 51
182.4427800373864
  0
ARC
  5
4F9
  8
DATA
  6
CONTINUOUS
 62
     7
 10
-1624.468612400894
 20
-884.54571903902172
 30
0.0
 40
1435.5671738845649
 50
3.1478652169914341
 51
4.1857588195318174
  0
ARC
  5
4FA
  8
DATA
  6
CONTINUOUS
 62
     7
 10
307.93048281013398
 20
-757.6250695063361
 30
0.0
 40
501.30986222396632
 50
185.50470320159801
 51
187.96183541249979
  0
ARC
  5
4FB
  8
DATA
  6
CONTINUOUS
 62
     7
 10
113.8863747446139
 20
-793.64207880307185
 30
0.0
 40
304.27444371601382
 50
186.30602543652881
 51
191.33876882814641
  0
ARC
  5
4FC
  8
DATA
  6
CONTINUOUS
 62
     7
 10
-17.26219265993679
 20
-829.42693532821181
 30
0.0
 40
168.90015154043621
 50
188.2420137977968
 51
194.97029161838739
  0
ARC
  5
4FD
  8
DATA
  6
CONTINUOUS
 62
     7
 10
-40.7395011030194
 20
-845.18334209251304
 30
0.0
 40
142.44413325396559
 50
191.28449233202329
 51
199.59862526939381
  0
ARC
  5
4FE
  8
DATA
  6
CONTINUOUS
 62
     7
 10
-105.6517887587538
 20
-877.31537752409076
 30
0.0
 40
71.024592932603596
 50
192.727592814725
 51
215.9408334814639
  0
ARC
  5
4FF
  8
DATA
  6
CONTINUOUS
 62
     7
 10
-132.23104610978041
 20
-898.98564584106452
 30
0.0
 40
36.837381905188472
 50
212.91566744565571
 51
230.38510326418711
  0
ARC
  5
500
  8
DATA
  6
CONTINUOUS
 62
     7
 10
-143.90681254291169
 20
-913.40890557811281
 30
0.0
 40
18.282826016983591
 50
229.75135049896659
 51
253.1101229849761
  0
ARC
  5
501
  8
DATA
  6
CONTINUOUS
 62
     7
 10
-144.04668554624911
 20
-916.58754333047352
 30
0.0
 40
15.22115851086021
 50
250.13633441414859
 51
261.56826121544782
  0
ARC
  5
502
  8
DATA
  6
CONTINUOUS
 62
     7
 10
-145.0211256475327
 20
-922.68624014814452
 30
0.0
 40
9.0457659350632742
 50
262.00942508661888
 51
278.79148958925009
  0
ARC
  5
503
  8
DATA
  6
CONTINUOUS
 62
     7
 10
-144.9173272386042
 20
-924.51385443222853
 30
0.0
 40
7.2259217406015077
 50
280.19313086547612
 51
309.93807712656093
  0
ARC
  5
504
  8
DATA
  6
CONTINUOUS
 62
     7
 10
-154.09963774935059
 20
-912.06211808333637
 30
0.0
 40
22.6878469950314
 50
307.53047636647
 51
325.65131939473741
  0
ARC
  5
505
  8
DATA
  6
CONTINUOUS
 62
     7
 10
-508.70344814199677
 20
-767.50743009874463
 30
0.0
 40
406.26931858878618
 50
338.014504738315
 51
339.87936294418409
  0
ARC
  5
506
  8
DATA
  6
CONTINUOUS
 62
     7
 10
-393.23306834573708
 20
-823.67553253634389
 30
0.0
 40
278.82842643883242
 50
342.55549976590868
 51
345.18678834766172
  0
ARC
  5
507
  8
DATA
  6
CONTINUOUS
 62
     7
 10
-266.13436606785308
 20
-850.86554324466852
 30
0.0
 40
149.13158631328551
 50
342.80069310539488
 51
347.41352655117242
  0
ARC
  5
508
  8
DATA
  6
CONTINUOUS
 62
     7
 10
363.60957166897418
 20
-983.81302173839356
 30
0.0
 40
494.5059816627994
 50
166.23655691574899
 51
168.27985349002211
  0
ARC
  5
509
  8
DATA
  6
CONTINUOUS
 62
     7
 10
1309.398481702043
 20
-1077.7874761785231
 30
0.0
 40
1441.712178119933
 50
170.60583215818079
 51
171.55924032843521
  0
ARC
  5
50A
  8
DATA
  6
CONTINUOUS
 62
     7
 10
-110.06750343257499
 20
-651.5400101075727
 30
0.0
 40
2.4426827138212102
 50
314.60111416570999
 51
327.25206783963017
  0
ARC
  5
50B
  8
DATA
  6
CONTINUOUS
 62
     7
 10
-108.6083663891409
 20
-652.81443791531387
 30
0.0
 40
0.5306462828011727
 50
281.05884359426062
 51
298.84844759505017
  0
ARC
  5
50C
  8
DATA
  6
CONTINUOUS
 62
     7
 10
-108.57257938994729
 20
-652.96094541773243
 30
0.0
 40
0.3800596003224077
 50
236.09571038445719
 51
280.00051174788382
  0
ARC
  5
50D
  8
DATA
  6
CONTINUOUS
 62
     7
 10
-108.1770422456943
 20
-652.4307204816688
 30
0.0
 40
1.0412721226208621
 50
207.60575852630939
 51
234.3059659328772
  0
ARC
  5
50E
  8
DATA
  6
CONTINUOUS
 62
     7
 10
-107.058974780396
 20
-651.6475420356262
 30
0.0
 40
2.401421229456516
 50
198.91535839429821
 51
211.80689498928581
  0
ARC
  5
50F
  8
DATA
  6
CONTINUOUS
 62
     7
 10
-112.5996352791785
 20
-653.45464090215364
 30
0.0
 40
3.4269389407676329
 50
17.467173574627619
 51
22.22841016539163
  0
ARC
  5
510
  8
DATA
  6
CONTINUOUS
 62
     7
 10
-109.5127153929038
 20
-652.20294774040849
 30
0.0
 40
0.096345670672715
 50
27.65417001938404
 51
71.024122493045056
  0
ARC
  5
511
  8
DATA
  6
CONTINUOUS
 62
     7
 10
-1066.5550080237599
 20
-730.76318510868543
 30
0.0
 40
972.41291712940199
 50
355.26004748237159
 51
4.7399525176282404
  0
ARC
  5
512
  8
DATA
  6
CONTINUOUS
 62
     7
 10
-1037.037789518143
 20
-728.70941744783204
 30
0.0
 40
933.64546924682895
 50
3.3830979303641522
 51
4.8107541032041112
  0
ARC
  5
513
  8
DATA
  6
CONTINUOUS
 62
     7
 10
-995.41530259824492
 20
-726.95121743364257
 30
0.0
 40
891.99203948775585
 50
1.4125086536628531
 51
3.4281311367616492
  0
ARC
  5
514
  8
DATA
  6
CONTINUOUS
 62
     7
 10
-928.80468709998172
 20
-728.6919308689038
 30
0.0
 40
825.45150314613909
 50
359.85623110464968
 51
1.6472702462362461
  0
ARC
  5
515
  8
DATA
  6
CONTINUOUS
 62
     7
 10
826.48461053329322
 20
-749.46595451247822
 30
0.0
 40
930.02846745262116
 50
178.84771054950559
 51
180.03063542238931
  0
ARC
  5
516
  8
DATA
  6
CONTINUOUS
 62
     7
 10
1196.196787251906
 20
-815.09045841292425
 30
0.0
 40
1301.1152688404709
 50
177.7722250529944
 51
178.32079289236839
  0
ARC
  5
517
  8
DATA
  6
CONTINUOUS
 62
     7
 10
-597.74233138685679
 20
-755.27534894573819
 30
0.0
 40
493.85904316873922
 50
355.61169452861861
 51
357.48303923945298
  0
ARC
  5
518
  8
DATA
  6
CONTINUOUS
 62
     7
 10
-890.51681074934004
 20
-742.62325582964183
 30
0.0
 40
786.8041731762147
 50
355.353306317906
 51
356.32439561625358
  0
ARC
  5
519
  8
DATA
  6
CONTINUOUS
 62
     7
 10
59335.102773590726
 20
-5595.1476511848268
 30
0.0
 40
59633.989116945937
 50
175.3939056096965
 51
175.39860345448551
  0
ARC
  5
51A
  8
DATA
  6
CONTINUOUS
 62
     7
 10
-113.54331554879811
 20
-812.16174150417544
 30
0.0
 40
6.5429995702559109
 50
32.304859394884247
 51
35.14552177009714
  0
ARC
  5
51B
  8
DATA
  6
CONTINUOUS
 62
     7
 10
-108.65137905328351
 20
-808.73193553039926
 30
0.0
 40
0.5686310780339482
 50
36.308498271885327
 51
62.17495614800368
  0
ARC
  5
51C
  8
DATA
  6
CONTINUOUS
 62
     7
 10
-108.5435793899473
 20
-808.71219857857955
 30
0.0
 40
0.5082086746416499
 50
71.931588558658703
 51
92.593921085654088
  0
ARC
  5
51D
  8
DATA
  6
CONTINUOUS
 62
     7
 10
-108.5846645088709
 20
-808.64117845156295
 30
0.0
 40
0.4370421732793841
 50
87.628382331738294
 51
145.116605431143
  0
ARC
  5
51E
  8
DATA
  6
CONTINUOUS
 62
     7
 10
-107.7325192362719
 20
-809.42656621094579
 30
0.0
 40
1.592989187424789
 50
139.4634731053236
 51
157.66632315679621
  0
ARC
  5
51F
  8
DATA
  6
CONTINUOUS
 62
     7
 10
-103.497664547936
 20
-811.35990883682825
 30
0.0
 40
6.2474096445862566
 50
156.023811011454
 51
160.60455321810801
  0
ARC
  5
520
  8
DATA
  6
CONTINUOUS
 62
     7
 10
-110.3353776864251
 20
-808.91973314227766
 30
0.0
 40
1.013079297533843
 50
332.77323392741522
 51
338.85198001256862
  0
ARC
  5
521
  8
DATA
  6
CONTINUOUS
 62
     7
 10
-109.55476923227749
 20
-809.25527937254685
 30
0.0
 40
0.1755716306650702
 50
295.18226360665449
 51
313.21673695951642
  0
ARC
  5
522
  8
DATA
  6
CONTINUOUS
 62
     7
 10
-109.43475781248161
 20
-809.3244660437648
 30
0.0
 40
0.1004909244400882
 50
198.42677839377171
 51
243.20208554272821
  0
ARC
  5
523
  8
DATA
  6
CONTINUOUS
 62
     7
 10
-109.080948229489
 20
-809.13608941264908
 30
0.0
 40
0.5001961296418908
 50
185.7531516897991
 51
206.1108663564965
  0
ARC
  5
524
  8
DATA
  6
CONTINUOUS
 62
     7
 10
-107.5381277014321
 20
-808.84323046925999
 30
0.0
 40
2.069124866096296
 50
175.5094902061374
 51
189.54200112453759
  0
ARC
  5
525
  8
DATA
  6
CONTINUOUS
 62
     7
 10
-367.1710907259685
 20
-778.26428690258911
 30
0.0
 40
259.21256674450512
 50
354.68327827829802
 51
356.76030348924178
  0
ARC
  5
526
  8
DATA
  6
CONTINUOUS
 62
     7
 10
-448.26453300304451
 20
-763.13864237198777
 30
0.0
 40
341.19338603253522
 50
354.99365753957937
 51
359.51697308737079
  0
ARC
  5
527
  8
DATA
  6
CONTINUOUS
 62
     7
 10
-724.25295921443001
 20
-737.61033594950436
 30
0.0
 40
617.96402392536004
 50
357.36504352068948
 51
0.3010633120675266
  0
ARC
  5
528
  8
DATA
  6
CONTINUOUS
 62
     7
 10
-618.35898880375044
 20
-727.21574332375303
 30
0.0
 40
512.11140326985117
 50
359.20030262644042
 51
1.6619541021377691
  0
ARC
  5
529
  8
DATA
  6
CONTINUOUS
 62
     7
 10
-768.74088815892242
 20
-722.61759918445193
 30
0.0
 40
662.35725920315599
 50
0.8870673844746336
 51
2.6526372685909689
  0
ARC
  5
52A
  8
DATA
  6
CONTINUOUS
 62
     7
 10
-434.96174504803179
 20
-698.07597945987766
 30
0.0
 40
327.92536058867063
 50
1.068093678012167
 51
5.2512365763847697
  0
ARC
  5
52B
  8
DATA
  6
CONTINUOUS
 62
     7
 10
2751.2675504977092
 20
-450.85156020426632
 30
0.0
 40
2867.9177220775291
 50
184.12729824305649
 51
184.34365360636841
  0
ARC
  5
52C
  8
DATA
  6
CONTINUOUS
 62
     7
 10
174.852448208288
 20
-629.82628252968175
 30
0.0
 40
285.38692536323168
 50
184.71868786073469
 51
185.51690688542479
  0
ARC
  5
52D
  8
DATA
  6
CONTINUOUS
 62
     7
 10
-106.1425762156295
 20
-652.76907710751561
 30
0.0
 40
3.466019790372842
 50
173.53348034934419
 51
188.86526735048901
  0
ARC
  5
52E
  8
DATA
  6
CONTINUOUS
 62
     7
 10
-109.15393225952489
 20
-652.39502094360637
 30
0.0
 40
0.4329191760777186
 50
139.14670479049761
 51
177.84275177002129
  0
ARC
  5
52F
  8
DATA
  6
CONTINUOUS
 62
     7
 10
202.8276489589889
 20
-865.5757286395891
 30
0.0
 40
316.65085099467808
 50
173.6860740627283
 51
175.8142311326454
  0
ARC
  5
530
  8
DATA
  6
CONTINUOUS
 62
     7
 10
-101.9069005164347
 20
-815.82579194700975
 30
0.0
 40
1.110697385144999
 50
358.20734471921782
 51
18.616013932904998
  0
ARC
  5
531
  8
DATA
  6
CONTINUOUS
 62
     7
 10
-101.009151476886
 20
-815.50117705018909
 30
0.0
 40
0.1577051742864608
 50
10.94634458589651
 51
44.453952273285267
  0
ARC
  5
532
  8
DATA
  6
CONTINUOUS
 62
     7
 10
-100.94421970538041
 20
-815.46024591607909
 30
0.0
 40
0.0842733469193943
 50
55.576385282042359
 51
78.521763261739949
  0
ARC
  5
533
  8
DATA
  6
CONTINUOUS
 62
     7
 10
-111.2523582551139
 20
-815.85301311546891
 30
0.0
 40
1.2419426199953889
 50
359.65286861236012
 51
15.494634086234949
  0
ARC
  5
534
  8
DATA
  6
CONTINUOUS
 62
     7
 10
-110.29456138945901
 20
-815.55631448616396
 30
0.0
 40
0.241569212573158
 50
8.3508187868612787
 51
36.17410137492665
  0
ARC
  5
535
  8
DATA
  6
CONTINUOUS
 62
     7
 10
-110.1800071237049
 20
-815.46446093523559
 30
0.0
 40
0.0951067580395649
 50
32.235839521494171
 51
65.879692883204683
  0
ARC
  5
536
  8
DATA
  6
CONTINUOUS
 62
     7
 10
-109.9407607128241
 20
-815.595249859967
 30
0.0
 40
0.2958016611835053
 50
132.64201676078471
 51
158.3734283912319
  0
ARC
  5
537
  8
DATA
  6
CONTINUOUS
 62
     7
 10
-109.1722016450358
 20
-815.80036896847378
 30
0.0
 40
1.0897956166213421
 50
163.2465152204891
 51
170.11222569199839
  0
ARC
  5
538
  8
DATA
  6
CONTINUOUS
 62
     7
 10
-487.05722260146729
 20
-786.00475578765406
 30
0.0
 40
390.24010033945302
 50
352.0522526059961
 51
354.5410408544804
  0
ARC
  5
539
  8
DATA
  6
CONTINUOUS
 62
     7
 10
293.65547334731809
 20
-892.94922855432219
 30
0.0
 40
397.76591758310479
 50
172.3449325283772
 51
173.6703475484849
  0
ARC
  5
53A
  8
DATA
  6
CONTINUOUS
 62
     7
 10
-638.13105431817121
 20
-775.66946700089909
 30
0.0
 40
541.44723442084978
 50
348.47821233013821
 51
352.2060064772067
  0
ARC
  5
53B
  8
DATA
  6
CONTINUOUS
 62
     7
 10
-470.95819658155909
 20
-808.28617880750687
 30
0.0
 40
371.13098857931089
 50
344.32707349390421
 51
348.25717562119019
  0
ARC
  5
53C
  8
DATA
  6
CONTINUOUS
 62
     7
 10
-283.32643330799959
 20
-861.3363387455247
 30
0.0
 40
176.14463562468671
 50
334.64468640328778
 51
344.4538820802037
  0
ARC
  5
53D
  8
DATA
  6
CONTINUOUS
 62
     7
 10
-1227.3582160952881
 20
-705.95008010490551
 30
0.0
 40
1125.673128951727
 50
353.2241434939927
 51
354.02485227033043
  0
ARC
  5
53E
  8
DATA
  6
CONTINUOUS
 62
     7
 10
130.12501860146361
 20
-871.1650354030478
 30
0.0
 40
241.8528942194346
 50
172.30075107363581
 51
173.63749220870159
  0
ARC
  5
53F
  8
DATA
  6
CONTINUOUS
 62
     7
 10
-1270.429387477466
 20
-684.78995814275493
 30
0.0
 40
1171.1136486614539
 50
351.87223070903951
 51
352.16864613733628
  0
ARC
  5
540
  8
DATA
  6
CONTINUOUS
 62
     7
 10
-1539.0284134773649
 20
-649.33227784960968
 30
0.0
 40
1442.0305714787501
 50
351.78772926894538
 51
351.98639455053171
  0
ARC
  5
541
  8
DATA
  6
CONTINUOUS
 62
     7
 10
-519.24677393687659
 20
-794.21449674928635
 30
0.0
 40
412.01726330278041
 50
349.93020309386628
 51
351.47205990694522
  0
ARC
  5
542
  8
DATA
  6
CONTINUOUS
 62
     7
 10
-507.74843952782282
 20
-801.17392098257665
 30
0.0
 40
399.5527909883898
 50
348.7587100102877
 51
350.62458118455771
  0
ARC
  5
543
  8
DATA
  6
CONTINUOUS
 62
     7
 10
-660.11534454273794
 20
-766.98050614966724
 30
0.0
 40
555.67546436681096
 50
345.66473038415359
 51
348.36329791633767
  0
ARC
  5
544
  8
DATA
  6
CONTINUOUS
 62
     7
 10
-319.43188332468799
 20
-851.75739948669957
 30
0.0
 40
204.62130155002339
 50
340.76064390526852
 51
345.04465493701088
  0
ARC
  5
545
  8
DATA
  6
CONTINUOUS
 62
     7
 10
39.682302864064233
 20
-987.23901784812233
 30
0.0
 40
179.26651382321501
 50
157.69639875205581
 51
161.0972159348245
  0
ARC
  5
546
  8
DATA
  6
CONTINUOUS
 62
     7
 10
-251.63314527634751
 20
-878.56319173148916
 30
0.0
 40
131.81560789256031
 50
333.79695544671767
 51
337.42640240389119
  0
ARC
  5
547
  8
DATA
  6
CONTINUOUS
 62
     7
 10
-129.1472944626357
 20
-926.08767105181767
 30
0.0
 40
5.8862387391418736
 50
154.64807180852111
 51
177.40173370059739
  0
ARC
  5
548
  8
DATA
  6
CONTINUOUS
 62
     7
 10
388.90092175577308
 20
-699.93855304361296
 30
0.0
 40
592.57591778131246
 50
175.20546039444139
 51
176.35850305181211
  0
ARC
  5
549
  8
DATA
  6
CONTINUOUS
 62
     7
 10
66.229945504789598
 20
-686.31220902446159
 30
0.0
 40
269.77909028483049
 50
174.89396474404279
 51
177.04682255424191
  0
ARC
  5
54A
  8
DATA
  6
CONTINUOUS
 62
     7
 10
856.21647430873816
 20
-736.06311368599654
 30
0.0
 40
1061.317685375843
 50
176.56176525839729
 51
177.26560222923749
  0
ARC
  5
54B
  8
DATA
  6
CONTINUOUS
 62
     7
 10
214.73743345230369
 20
-710.10048383992978
 30
0.0
 40
419.35644382255651
 50
176.6276170195176
 51
179.28442660242089
  0
ARC
  5
54C
  8
DATA
  6
CONTINUOUS
 62
     7
 10
641.92846616199313
 20
-728.01133128193953
 30
0.0
 40
846.8312071614514
 50
178.433626805627
 51
179.48252986956641
  0
ARC
  5
54D
  8
DATA
  6
CONTINUOUS
 62
     7
 10
-1118.763230373605
 20
-715.78052709108215
 30
0.0
 40
913.90651659282275
 50
358.98540053306641
 51
359.7126941783095
  0
ARC
  5
54E
  8
DATA
  6
CONTINUOUS
 62
     7
 10
-909.95449310534332
 20
-746.66323046926016
 30
0.0
 40
705.10774166005638
 50
359.55307541761118
 51
1.1945819519668239
  0
ARC
  5
54F
  8
DATA
  6
CONTINUOUS
 62
     7
 10
302.31114364611182
 20
-747.48119665202285
 30
0.0
 40
507.2009567128585
 50
180.52891183222809
 51
183.73864419930561
  0
ARC
  5
550
  8
DATA
  6
CONTINUOUS
 62
     7
 10
580.93380534541484
 20
-736.69548712830965
 30
0.0
 40
785.96884139203735
 50
183.19882924838009
 51
184.32462186762561
  0
ARC
  5
551
  8
DATA
  6
CONTINUOUS
 62
     7
 10
-1106.924511688386
 20
-869.60517509126691
 30
0.0
 40
907.12141204363297
 50
3.871120166893915
 51
4.6565112544049683
  0
ARC
  5
552
  8
DATA
  6
CONTINUOUS
 62
     7
 10
-201.37861836843649
 20
-652.71138280077992
 30
0.0
 40
2.702814364616938
 50
355.5928865647312
 51
7.0697953658716397
  0
ARC
  5
553
  8
DATA
  6
CONTINUOUS
 62
     7
 10
-199.35590773399241
 20
-652.44198654153888
 30
0.0
 40
0.6625810687007701
 50
5.4788069093132146
 51
25.836521583560991
  0
ARC
  5
554
  8
DATA
  6
CONTINUOUS
 62
     7
 10
-198.85485902295511
 20
-652.21466838996082
 30
0.0
 40
0.1133887060321407
 50
32.808613465255533
 51
65.078312331388858
  0
ARC
  5
555
  8
DATA
  6
CONTINUOUS
 62
     7
 10
-198.77974802051131
 20
-652.18862210533621
 30
0.0
 40
0.0815034643646611
 50
109.5932127699687
 51
155.81426616599481
  0
ARC
  5
556
  8
DATA
  6
CONTINUOUS
 62
     7
 10
-198.4140350933794
 20
-652.40124617400727
 30
0.0
 40
0.5041611456077821
 50
150.79273252097741
 51
160.4127799956276
  0
ARC
  5
557
  8
DATA
  6
CONTINUOUS
 62
     7
 10
-215.0812201099325
 20
-644.65162744225961
 30
0.0
 40
17.916245749446269
 50
332.72713407017483
 51
333.58425420756492
  0
ARC
  5
558
  8
DATA
  6
CONTINUOUS
 62
     7
 10
-200.3900713490649
 20
-652.2451566368195
 30
0.0
 40
1.378786294661124
 50
318.47433948679651
 51
333.45370143242423
  0
ARC
  5
559
  8
DATA
  6
CONTINUOUS
 62
     7
 10
-199.94081786533431
 20
-652.5957179922666
 30
0.0
 40
0.8108145904830703
 50
295.58672562931372
 51
315.9731428283261
  0
ARC
  5
55A
  8
DATA
  6
CONTINUOUS
 62
     7
 10
-199.7228173646408
 20
-653.03300471324724
 30
0.0
 40
0.322355682259037
 50
241.10544032319461
 51
294.2059416380153
  0
ARC
  5
55B
  8
DATA
  6
CONTINUOUS
 62
     7
 10
-199.1464764523534
 20
-652.30120952217248
 30
0.0
 40
1.250685089207459
 50
217.88511619513051
 51
234.17146543223711
  0
ARC
  5
55C
  8
DATA
  6
CONTINUOUS
 62
     7
 10
-201.1815068962805
 20
-653.60758947339616
 30
0.0
 40
1.1781335256774139
 50
27.191066401732972
 51
39.301086018600408
  0
ARC
  5
55D
  8
DATA
  6
CONTINUOUS
 62
     7
 10
669.01014903900614
 20
-728.74997066239553
 30
0.0
 40
871.00120918806465
 50
175.00540550920499
 51
176.0838235617874
  0
ARC
  5
55E
  8
DATA
  6
CONTINUOUS
 62
     7
 10
-666.22197270080585
 20
-640.99431943255536
 30
0.0
 40
467.12083315454851
 50
355.52226523651058
 51
356.53049177817252
  0
ARC
  5
55F
  8
DATA
  6
CONTINUOUS
 62
     7
 10
113.84926182682371
 20
-699.59827758847302
 30
0.0
 40
315.15446658839738
 50
175.97248349378219
 51
178.22986530857699
  0
ARC
  5
560
  8
DATA
  6
CONTINUOUS
 62
     7
 10
-144.13604982658441
 20
-698.44323046926013
 30
0.0
 40
57.326911086315391
 50
176.37955704679669
 51
180.15991331907239
  0
ARC
  5
561
  8
DATA
  6
CONTINUOUS
 62
     7
 10
-174.09814515777001
 20
-700.84777083547942
 30
0.0
 40
27.456490721076971
 50
175.31089520921009
 51
181.6601851444513
  0
ARC
  5
562
  8
DATA
  6
CONTINUOUS
 62
     7
 10
17.583537498711379
 20
-710.11306140605609
 30
0.0
 40
219.29027778630839
 50
177.7864668236025
 51
178.732741350281
  0
ARC
  5
563
  8
DATA
  6
CONTINUOUS
 62
     7
 10
581.87976664148016
 20
-734.33602397162383
 30
0.0
 40
784.07205475023545
 50
177.87502909911061
 51
185.32216444146749
  0
ARC
  5
564
  8
DATA
  6
CONTINUOUS
 62
     7
 10
-201.25231791099031
 20
-808.81614711801956
 30
0.0
 40
2.5769993543836991
 50
352.93220820628778
 51
4.648604806196829
  0
ARC
  5
565
  8
DATA
  6
CONTINUOUS
 62
     7
 10
-199.32693493321679
 20
-809.08905390457437
 30
0.0
 40
0.6335764321101109
 50
334.55861036979923
 51
356.00176710561448
  0
ARC
  5
566
  8
DATA
  6
CONTINUOUS
 62
     7
 10
-198.8571681666208
 20
-809.31757906842654
 30
0.0
 40
0.111264832391653
 50
299.38135506479841
 51
337.57121849097769
  0
ARC
  5
567
  8
DATA
  6
CONTINUOUS
 62
     7
 10
-198.71504901656959
 20
-809.25075016768449
 30
0.0
 40
0.1857044746532123
 50
222.7600702304812
 51
241.87853682780559
  0
ARC
  5
568
  8
DATA
  6
CONTINUOUS
 62
     7
 10
-213.00465471513189
 20
-815.02480645713683
 30
0.0
 40
15.23858347439503
 50
21.754880248340331
 51
24.66730514502223
  0
ARC
  5
569
  8
DATA
  6
CONTINUOUS
 62
     7
 10
-200.0414071645896
 20
-809.01238795708923
 30
0.0
 40
0.9505144263411645
 50
21.436392602986821
 51
56.340554587745082
  0
ARC
  5
56A
  8
DATA
  6
CONTINUOUS
 62
     7
 10
-199.77929028625741
 20
-808.75594312304224
 30
0.0
 40
0.596648540382028
 50
63.66216882076867
 51
81.255178602316008
  0
ARC
  5
56B
  8
DATA
  6
CONTINUOUS
 62
     7
 10
-199.71807938994741
 20
-808.3862304692592
 30
0.0
 40
0.2219690293703552
 50
82.362713159387013
 51
110.4352000953493
  0
ARC
  5
56C
  8
DATA
  6
CONTINUOUS
 62
     7
 10
-199.61242582113931
 20
-808.69546056493789
 30
0.0
 40
0.5487004662307978
 50
109.4992898817658
 51
139.64789750691219
  0
ARC
  5
56D
  8
DATA
  6
CONTINUOUS
 62
     7
 10
-190.66056528979701
 20
-815.49245865020066
 30
0.0
 40
11.787797242549731
 50
142.6449628344923
 51
144.60593666135409
  0
ARC
  5
56E
  8
DATA
  6
CONTINUOUS
 62
     7
 10
284.66650164284277
 20
-697.55737675063267
 30
0.0
 40
480.13659537423132
 50
174.6655074273076
 51
175.49125419334609
  0
ARC
  5
56F
  8
DATA
  6
CONTINUOUS
 62
     7
 10
55.960586883872537
 20
-682.44171683976811
 30
0.0
 40
250.9670564046356
 50
174.82689094647529
 51
176.3382042456202
  0
ARC
  5
570
  8
DATA
  6
CONTINUOUS
 62
     7
 10
-252.98828555096679
 20
-665.77297251946516
 30
0.0
 40
58.497687788781533
 50
352.74218995907802
 51
359.37288443070167
  0
ARC
  5
571
  8
DATA
  6
CONTINUOUS
 62
     7
 10
-1086.7371791197679
 20
-622.73891411158763
 30
0.0
 40
893.20233067011907
 50
356.30424839956419
 51
356.76373739108999
  0
ARC
  5
572
  8
DATA
  6
CONTINUOUS
 62
     7
 10
709.57164606932679
 20
-730.90719752024052
 30
0.0
 40
906.3771767395682
 50
176.80008680473171
 51
177.80315461548429
  0
ARC
  5
573
  8
DATA
  6
CONTINUOUS
 62
     7
 10
1766.3284985365581
 20
-757.2078417349951
 30
0.0
 40
1963.4170664057101
 50
178.21832946993061
 51
178.89229803548699
  0
ARC
  5
574
  8
DATA
  6
CONTINUOUS
 62
     7
 10
895.86494623917952
 20
-730.8603144424377
 30
0.0
 40
1092.6482674643539
 50
179.39124429984159
 51
180.43597825167771
  0
ARC
  5
575
  8
DATA
  6
CONTINUOUS
 62
     7
 10
405.33024261949959
 20
-739.39223485877244
 30
0.0
 40
602.08197078552666
 50
179.97927732841299
 51
183.17730412355641
  0
ARC
  5
576
  8
DATA
  6
CONTINUOUS
 62
     7
 10
537.23993652019544
 20
-739.03657002298985
 30
0.0
 40
733.8415752189245
 50
182.63418739397241
 51
183.80329559808581
  0
ARC
  5
577
  8
DATA
  6
CONTINUOUS
 62
     7
 10
73.573478296741513
 20
-777.73181417165836
 30
0.0
 40
268.74436792002922
 50
182.1285082042447
 51
186.59716047766159
  0
ARC
  5
578
  8
DATA
  6
CONTINUOUS
 62
     7
 10
-897.391038349523
 20
-889.35466896552657
 30
0.0
 40
708.51561498857961
 50
5.401155792853209
 51
5.9643849944155551
  0
ARC
  5
579
  8
DATA
  6
CONTINUOUS
 62
     7
 10
662.77982897922254
 20
-720.58134644897984
 30
0.0
 40
860.87483766277205
 50
186.8101135802801
 51
187.4640985203331
  0
ARC
  5
57A
  8
DATA
  6
CONTINUOUS
 62
     7
 10
311.91796445786298
 20
-771.40604175858641
 30
0.0
 40
506.40653349648562
 50
186.91927324291549
 51
191.0571642548706
  0
ARC
  5
57B
  8
DATA
  6
CONTINUOUS
 62
     7
 10
166.12479340290969
 20
-799.56662030710299
 30
0.0
 40
357.91909717679141
 50
191.10896718531049
 51
193.8276143588968
  0
ARC
  5
57C
  8
DATA
  6
CONTINUOUS
 62
     7
 10
918.7539305351421
 20
-585.21527738666634
 30
0.0
 40
1140.3169567882171
 50
195.2476867818018
 51
196.09860639316599
  0
ARC
  5
57D
  8
DATA
  6
CONTINUOUS
 62
     7
 10
-32.711022489071652
 20
-856.75223478184193
 30
0.0
 40
150.8967375599145
 50
197.21654212763011
 51
204.43122651527119
  0
ARC
  5
57E
  8
DATA
  6
CONTINUOUS
 62
     7
 10
-107.79700406188751
 20
-891.88200958784159
 30
0.0
 40
68.014167770687351
 50
203.44989474210661
 51
217.84890510761721
  0
ARC
  5
57F
  8
DATA
  6
CONTINUOUS
 62
     7
 10
-135.84787624646791
 20
-913.57803687922456
 30
0.0
 40
32.552134769033131
 50
217.9890491360344
 51
232.35738807079611
  0
ARC
  5
580
  8
DATA
  6
CONTINUOUS
 62
     7
 10
-143.9796936945813
 20
-924.32403086080353
 30
0.0
 40
19.077096591413181
 50
231.98531622838121
 51
252.75303179958189
  0
ARC
  5
581
  8
DATA
  6
CONTINUOUS
 62
     7
 10
-198.91594633976999
 20
-815.78418608765423
 30
0.0
 40
0.8975556373094409
 50
3.2926027826820938
 51
23.295240668563771
  0
ARC
  5
582
  8
DATA
  6
CONTINUOUS
 62
     7
 10
-198.20947103249091
 20
-815.49378094342694
 30
0.0
 40
0.1344237546380419
 50
28.698556102419079
 51
59.752475577532849
  0
ARC
  5
583
  8
DATA
  6
CONTINUOUS
 62
     7
 10
-197.96925893511241
 20
-815.58484525469191
 30
0.0
 40
0.2695961616393047
 50
129.7797561927328
 51
177.1052937421066
  0
ARC
  5
584
  8
DATA
  6
CONTINUOUS
 62
     7
 10
-196.67787231628199
 20
-815.89216997716551
 30
0.0
 40
1.5949012075829261
 50
167.950748331711
 51
178.8635489628146
  0
ARC
  5
585
  8
DATA
  6
CONTINUOUS
 62
     7
 10
-1126.6143153977521
 20
-928.0086883270136
 30
0.0
 40
935.27460517179713
 50
5.6750176491002566
 51
6.5289407038173808
  0
ARC
  5
586
  8
DATA
  6
CONTINUOUS
 62
     7
 10
6526.3752163304916
 20
179.5724340275566
 30
0.0
 40
6798.5087995353206
 50
188.58703021067859
 51
188.7765192507668
  0
ARC
  5
587
  8
DATA
  6
CONTINUOUS
 62
     7
 10
236.09395069308169
 20
-786.8627324974243
 30
0.0
 40
434.44595306712228
 50
189.39073015029939
 51
192.54241551120739
  0
ARC
  5
588
  8
DATA
  6
CONTINUOUS
 62
     7
 10
481.83094551860881
 20
-715.3345576059769
 30
0.0
 40
690.04803813858007
 50
193.9089444209192
 51
195.8722519404001
  0
ARC
  5
589
  8
DATA
  6
CONTINUOUS
 62
     7
 10
39.600529924610321
 20
-832.81597139414646
 30
0.0
 40
232.6834358717575
 50
197.82895487308539
 51
200.09563180410339
  0
ARC
  5
58A
  8
DATA
  6
CONTINUOUS
 62
     7
 10
-1301.4746200380191
 20
-1360.5674489761579
 30
0.0
 40
1208.5792000509571
 50
21.446940054195569
 51
21.747764775821789
  0
ARC
  5
58B
  8
DATA
  6
CONTINUOUS
 62
     7
 10
-55.29677336172611
 20
-866.87391304399182
 30
0.0
 40
131.8792572102613
 50
203.12276331587839
 51
205.09818298912759
  0
ARC
  5
58C
  8
DATA
  6
CONTINUOUS
 62
     7
 10
-139.1300929531171
 20
-929.31246174874639
 30
0.0
 40
2.680213686896054
 50
352.62152154489388
 51
4.1692812296074067
  0
ARC
  5
58D
  8
DATA
  6
CONTINUOUS
 62
     7
 10
-138.11271595281639
 20
-929.26717935300996
 30
0.0
 40
1.6624864358700431
 50
5.1620393304781427
 51
13.31750621652043
  0
ARC
  5
58E
  8
DATA
  6
CONTINUOUS
 62
     7
 10
-136.91076708471559
 20
-928.97184211014633
 30
0.0
 40
0.4249601362835643
 50
11.897668943856271
 51
30.959268347599359
  0
ARC
  5
58F
  8
DATA
  6
CONTINUOUS
 62
     7
 10
-136.59984150659599
 20
-928.79988602608285
 30
0.0
 40
0.0709797145453185
 50
41.094911513700048
 51
75.185280802040936
  0
ARC
  5
590
  8
DATA
  6
CONTINUOUS
 62
     7
 10
-169.9277833809692
 20
-916.61287185757249
 30
0.0
 40
49.869984132510929
 50
316.30625499033619
 51
329.7414307660535
  0
ARC
  5
591
  8
DATA
  6
CONTINUOUS
 62
     7
 10
-147.61820163502941
 20
-938.1058438632665
 30
0.0
 40
18.892226085504468
 50
289.28544289437752
 51
316.69686940294469
  0
ARC
  5
592
  8
DATA
  6
CONTINUOUS
 62
     7
 10
-145.97816840325731
 20
-939.19313877707043
 30
0.0
 40
17.36503024473026
 50
266.53206019729038
 51
285.35961652265479
  0
ARC
  5
593
  8
DATA
  6
CONTINUOUS
 62
     7
 10
-148.76857938994721
 20
-1721.9237165784371
 30
0.0
 40
765.3993241548618
 50
89.869748066039463
 51
90.401987368551602
  0
ARC
  5
594
  8
DATA
  6
CONTINUOUS
 62
     7
 10
-160.0463932718512
 20
-1006.6647002437589
 30
0.0
 40
50.468445559768142
 50
83.277568553123984
 51
85.467993288887058
  0
ARC
  5
595
  8
DATA
  6
CONTINUOUS
 62
     7
 10
-150.89359686525859
 20
-934.92664835384676
 30
0.0
 40
22.041113103236391
 50
246.45432899991519
 51
256.4476315104755
  0
ARC
  5
596
  8
DATA
  6
CONTINUOUS
 62
     7
 10
-149.1917042411464
 20
-934.9171883000879
 30
0.0
 40
22.782883144756489
 50
221.1708066814634
 51
242.53710535002401
  0
ARC
  5
597
  8
DATA
  6
CONTINUOUS
 62
     7
 10
-123.9108555448329
 20
-913.21247944577942
 30
0.0
 40
56.102218247838962
 50
210.56640731092199
 51
220.86002547485859
  0
ARC
  5
598
  8
DATA
  6
CONTINUOUS
 62
     7
 10
-171.67399687522709
 20
-928.80711463719649
 30
0.0
 40
0.0805814306157997
 50
109.7342353628426
 51
159.7548803834766
  0
ARC
  5
599
  8
DATA
  6
CONTINUOUS
 62
     7
 10
-171.0695271526501
 20
-929.09514219470861
 30
0.0
 40
0.7498662313446745
 50
155.08389366381829
 51
177.25500688628739
  0
ARC
  5
59A
  8
DATA
  6
CONTINUOUS
 62
     7
 10
-169.45048130631309
 20
-929.32744580636097
 30
0.0
 40
2.3831928465999641
 50
173.5379820924075
 51
187.9403035712385
  0
ARC
  5
59B
  8
DATA
  6
CONTINUOUS
 62
     7
 10
-136.4940002151975
 20
-928.88234984225176
 30
0.0
 40
0.1746891451345874
 50
120.13174165613481
 51
154.71284436580319
  0
ARC
  5
59C
  8
DATA
  6
CONTINUOUS
 62
     7
 10
-180.86693772200351
 20
-903.59267072967168
 30
0.0
 40
50.941042261745302
 50
318.62601899154163
 51
323.12175855049111
  0
ARC
  5
59D
  8
DATA
  6
CONTINUOUS
 62
     7
 10
-160.50448895575619
 20
-921.62960187191845
 30
0.0
 40
23.739061283185251
 50
307.0226615479732
 51
318.80975362817759
  0
ARC
  5
59E
  8
DATA
  6
CONTINUOUS
 62
     7
 10
-167.04889245760521
 20
-909.60296112860112
 30
0.0
 40
37.336186210858529
 50
299.61483978236032
 51
303.92653447677571
  0
ARC
  5
59F
  8
DATA
  6
CONTINUOUS
 62
     7
 10
-153.92500706450889
 20
-932.63477972017245
 30
0.0
 40
10.827728125461419
 50
276.92994936327409
 51
299.4671698573535
  0
ARC
  5
5A0
  8
DATA
  6
CONTINUOUS
 62
     7
 10
-154.2205670866733
 20
-934.36883527197779
 30
0.0
 40
9.1558085399045037
 50
254.1670469818404
 51
280.07688608988838
  0
ARC
  5
5A1
  8
DATA
  6
CONTINUOUS
 62
     7
 10
-153.0001101578554
 20
-928.71606157358553
 30
0.0
 40
14.93164291708851
 50
227.69160794471691
 51
255.57971280024961
  0
ARC
  5
5A2
  8
DATA
  6
CONTINUOUS
 62
     7
 10
-135.86600652389001
 20
-909.6159880444078
 30
0.0
 40
40.59051404118815
 50
208.17543245435641
 51
227.95335483817459
  0
ARC
  5
5A3
  8
DATA
  6
CONTINUOUS
 62
     7
 10
-204.21118577703189
 20
-900.1444890255674
 30
0.0
 40
79.838546027564973
 50
324.45038971965118
 51
328.59884447771202
  0
ARC
  5
5A4
  8
DATA
  6
CONTINUOUS
 62
     7
 10
-172.6210651174024
 20
-922.21599559951289
 30
0.0
 40
41.305915042731719
 50
316.94939874985022
 51
323.88293342799608
  0
ARC
  5
5A5
  8
DATA
  6
CONTINUOUS
 62
     7
 10
-158.44173806690151
 20
-935.99854629094557
 30
0.0
 40
21.539351335840639
 50
304.05940000983622
 51
317.99267974835209
  0
ARC
  5
5A6
  8
DATA
  6
CONTINUOUS
 62
     7
 10
-154.0198125410179
 20
-943.56723154111035
 30
0.0
 40
12.805447121182789
 50
290.4809199335117
 51
306.6351589433815
  0
ARC
  5
5A7
  8
DATA
  6
CONTINUOUS
 62
     7
 10
-156.40153302184041
 20
-937.23531057304228
 30
0.0
 40
19.57047891398112
 50
282.34149490608621
 51
290.52676333985852
  0
ARC
  5
5A8
  8
DATA
  6
CONTINUOUS
 62
     7
 10
-156.3166640607605
 20
-915.78716575422425
 30
0.0
 40
40.7728425995845
 50
272.71043962516558
 51
275.76854813501842
  0
ARC
  5
5A9
  8
DATA
  6
CONTINUOUS
 62
     7
 10
145.6639545572925
 20
-792.64705984382874
 30
0.0
 40
347.42943037920759
 50
186.20149560801369
 51
187.9689158286576
  0
ARC
  5
5AA
  8
DATA
  6
CONTINUOUS
 62
     7
 10
-828.90092175576922
 20
-699.93855304361296
 30
0.0
 40
592.57591778131246
 50
3.6414969481879602
 51
4.794539605558608
  0
ARC
  5
5AB
  8
DATA
  6
CONTINUOUS
 62
     7
 10
-506.22994550478558
 20
-686.31220902446159
 30
0.0
 40
269.77909028483037
 50
2.9531774457580711
 51
5.1060352559571953
  0
ARC
  5
5AC
  8
DATA
  6
CONTINUOUS
 62
     7
 10
-1296.216474308734
 20
-736.06311368599654
 30
0.0
 40
1061.317685375843
 50
2.7343977707624609
 51
3.4382347416027148
  0
ARC
  5
5AD
  8
DATA
  6
CONTINUOUS
 62
     7
 10
-654.73743345229968
 20
-710.10048383992978
 30
0.0
 40
419.35644382255651
 50
0.7155733975791261
 51
3.3723829804823402
  0
ARC
  5
5AE
  8
DATA
  6
CONTINUOUS
 62
     7
 10
-1081.928466161989
 20
-728.01133128193953
 30
0.0
 40
846.83120716145118
 50
0.5174701304336019
 51
1.5663731943729711
  0
ARC
  5
5AF
  8
DATA
  6
CONTINUOUS
 62
     7
 10
678.76323037360942
 20
-715.78052709108215
 30
0.0
 40
913.9065165928231
 50
180.2873058216905
 51
181.0145994669335
  0
ARC
  5
5B0
  8
DATA
  6
CONTINUOUS
 62
     7
 10
469.95449310534718
 20
-746.66323046926016
 30
0.0
 40
705.10774166005626
 50
178.80541804803309
 51
180.44692458238879
  0
ARC
  5
5B1
  8
DATA
  6
CONTINUOUS
 62
     7
 10
-742.31114364610789
 20
-747.48119665202285
 30
0.0
 40
507.20095671285878
 50
356.2613558006945
 51
359.47108816777182
  0
LINE
  5
5B2
  8
DATA
  6
CONTINUOUS
 62
     7
 10
-238.127243962606
 20
-808.36323046926009
 30
0.0
 11
-238.21741155870461
 21
-809.48323046925998
 31
0.0
  0
LINE
  5
5B3
  8
DATA
  6
CONTINUOUS
 62
     7
 10
-238.21741155870461
 20
-809.48323046925998
 30
0.0
 11
-238.2689358993326
 21
-810.12323046926042
 31
0.0
  0
LINE
  5
5B4
  8
DATA
  6
CONTINUOUS
 62
     7
 10
-238.2689358993326
 20
-810.12323046926042
 30
0.0
 11
-238.39852821700759
 21
-811.11701623207296
 31
0.0
  0
ARC
  5
5B5
  8
DATA
  6
CONTINUOUS
 62
     7
 10
-1020.933805345411
 20
-736.69548712830965
 30
0.0
 40
785.96884139203723
 50
355.67537813237431
 51
356.80117075161979
  0
ARC
  5
5B6
  8
DATA
  6
CONTINUOUS
 62
     7
 10
666.92451168838977
 20
-869.60517509126691
 30
0.0
 40
907.12141204363297
 50
175.34348874559501
 51
176.12887983310611
  0
LINE
  5
5B7
  8
DATA
  6
CONTINUOUS
 62
     7
 10
-241.1879321284552
 20
-807.06323046926013
 30
0.0
 11
-241.31620436778809
 21
-808.60729555376179
 31
0.0
  0
LINE
  5
5B8
  8
DATA
  6
CONTINUOUS
 62
     7
 10
-198.8120678715409
 20
-807.06323046926013
 30
0.0
 11
-198.6837956322079
 21
-808.60729555376179
 31
0.0
  0
LINE
  5
5B9
  8
DATA
  6
CONTINUOUS
 62
     7
 10
-224.99999999999559
 20
-477.9999457785151
 30
0.0
 11
-224.99999999999559
 21
-981.99994577851533
 31
0.0
  0
LINE
  5
5BA
  8
DATA
  6
CONTINUOUS
 62
     7
 10
-214.99999999999551
 20
-477.9999457785151
 30
0.0
 11
-214.99999999999551
 21
-981.99994577851533
 31
0.0
  0
ENDSEC
  0
EOF
