  0
SECTION
  2
HEADER
  9
$ACADVER
  1
AC1009
  9
$INSBASE
 10
0.0
 20
0.0
 30
0.0
  9
$EXTMIN
 10
9.9963383446405487
 20
2.381287252508741
 30
-0.0015258207003583
  9
$EXTMAX
 10
190.00579878222879
 20
270.00824037474621
 30
0.0000000349246037
  9
$LIMMIN
 10
0.0
 20
0.0
  9
$LIMMAX
 10
0.0
 20
0.0
  9
$ORTHOMODE
 70
     0
  9
$REGENMODE
 70
     1
  9
$FILLMODE
 70
     1
  9
$QTEXTMODE
 70
     0
  9
$MIRRTEXT
 70
     1
  9
$DRAGMODE
 70
     2
  9
$LTSCALE
 40
5.0800000000000001
  9
$OSMODE
 70
   231
  9
$ATTMODE
 70
     1
  9
$TEXTSIZE
 40
0.0
  9
$TRACEWID
 40
1.0
  9
$TEXTSTYLE
  7
STANDARD
  9
$CLAYER
  8
DATA
  9
$CELTYPE
  6
BYLAYER
  9
$CECOLOR
 62
   256
  9
$DIMSCALE
 40
1.0
  9
$DIMASZ
 40
0.18
  9
$DIMEXO
 40
0.0625
  9
$DIMDLI
 40
0.38
  9
$DIMRND
 40
0.0
  9
$DIMDLE
 40
0.0
  9
$DIMEXE
 40
0.18
  9
$DIMTP
 40
0.0
  9
$DIMTM
 40
0.0
  9
$DIMTXT
 40
0.18
  9
$DIMCEN
 40
0.09
  9
$DIMTSZ
 40
0.0
  9
$DIMTOL
 70
     0
  9
$DIMLIM
 70
     0
  9
$DIMTIH
 70
     1
  9
$DIMTOH
 70
     1
  9
$DIMSE1
 70
     0
  9
$DIMSE2
 70
     0
  9
$DIMTAD
 70
     0
  9
$DIMZIN
 70
     0
  9
$DIMBLK
  1

  9
$DIMASO
 70
     1
  9
$DIMSHO
 70
     1
  9
$DIMPOST
  1

  9
$DIMAPOST
  1

  9
$DIMALT
 70
     0
  9
$DIMALTD
 70
     2
  9
$DIMALTF
 40
25.399999999999999
  9
$DIMLFAC
 40
1.0
  9
$DIMTOFL
 70
     0
  9
$DIMTVP
 40
0.0
  9
$DIMTIX
 70
     0
  9
$DIMSOXD
 70
     0
  9
$DIMSAH
 70
     0
  9
$DIMBLK1
  1

  9
$DIMBLK2
  1

  9
$DIMSTYLE
  2
STANDARD
  9
$DIMCLRD
 70
     0
  9
$DIMCLRE
 70
     0
  9
$DIMCLRT
 70
     0
  9
$DIMTFAC
 40
1.0
  9
$DIMGAP
 40
0.09
  9
$LUNITS
 70
     2
  9
$LUPREC
 70
     4
  9
$SKETCHINC
 40
0.1
  9
$FILLETRAD
 40
0.0
  9
$AUNITS
 70
     0
  9
$AUPREC
 70
     0
  9
$MENU
  1
acad
  9
$ELEVATION
 40
0.0
  9
$PELEVATION
 40
0.0
  9
$THICKNESS
 40
0.0
  9
$LIMCHECK
 70
     0
  9
$BLIPMODE
 70
     0
  9
$CHAMFERA
 40
0.0
  9
$CHAMFERB
 40
0.0
  9
$SKPOLY
 70
     0
  9
$TDCREATE
 40
2455477.4240740752
  9
$TDUPDATE
 40
2455477.429700058
  9
$TDINDWG
 40
0.0002785532
  9
$TDUSRTIMER
 40
0.0002785532
  9
$USRTIMER
 70
     1
  9
$ANGBASE
 50
0.0
  9
$ANGDIR
 70
     0
  9
$PDMODE
 70
     1
  9
$PDSIZE
 40
-2.0
  9
$PLINEWID
 40
0.0
  9
$COORDS
 70
     0
  9
$SPLFRAME
 70
     0
  9
$SPLINETYPE
 70
     6
  9
$SPLINESEGS
 70
     8
  9
$ATTDIA
 70
     0
  9
$ATTREQ
 70
     1
  9
$HANDLING
 70
     1
  9
$HANDSEED
  5
203
  9
$SURFTAB1
 70
     6
  9
$SURFTAB2
 70
     6
  9
$SURFTYPE
 70
     6
  9
$SURFU
 70
     6
  9
$SURFV
 70
     6
  9
$UCSNAME
  2

  9
$UCSORG
 10
0.0
 20
0.0
 30
0.0
  9
$UCSXDIR
 10
1.0
 20
0.0
 30
0.0
  9
$UCSYDIR
 10
0.0
 20
1.0
 30
0.0
  9
$PUCSNAME
  2

  9
$PUCSORG
 10
0.0
 20
0.0
 30
0.0
  9
$PUCSXDIR
 10
1.0
 20
0.0
 30
0.0
  9
$PUCSYDIR
 10
0.0
 20
1.0
 30
0.0
  9
$USERI1
 70
     0
  9
$USERI2
 70
     0
  9
$USERI3
 70
     0
  9
$USERI4
 70
     0
  9
$USERI5
 70
     0
  9
$USERR1
 40
0.0
  9
$USERR2
 40
0.0
  9
$USERR3
 40
0.0
  9
$USERR4
 40
0.0
  9
$USERR5
 40
0.0
  9
$WORLDVIEW
 70
     1
  9
$SHADEDGE
 70
     3
  9
$SHADEDIF
 70
    70
  9
$TILEMODE
 70
     1
  9
$MAXACTVP
 70
    64
  9
$PLIMCHECK
 70
     0
  9
$PEXTMIN
 10
1.0000000000000000E+020
 20
1.0000000000000000E+020
 30
1.0000000000000000E+020
  9
$PEXTMAX
 10
-1.0000000000000000E+020
 20
-1.0000000000000000E+020
 30
-1.0000000000000000E+020
  9
$PLIMMIN
 10
0.0
 20
0.0
  9
$PLIMMAX
 10
12.0
 20
9.0
  9
$UNITMODE
 70
     0
  9
$VISRETAIN
 70
     0
  9
$PLINEGEN
 70
     1
  9
$PSLTSCALE
 70
     0
  0
ENDSEC
  0
SECTION
  2
TABLES
  0
TABLE
  2
VPORT
 70
     1
  0
VPORT
  2
*ACTIVE
 70
     0
 10
0.0
 20
0.0
 11
1.0
 21
1.0
 12
100.0010685634347
 22
136.19476381362739
 13
0.0
 23
0.0
 14
1.0
 24
1.0
 15
0.0
 25
0.0
 16
0.0
 26
0.0
 36
1.0
 17
0.0
 27
0.0
 37
0.0
 40
269.5972128998244
 41
1.961916461916462
 42
50.0
 43
0.0
 44
0.0
 50
0.0
 51
0.0
 71
     0
 72
  2000
 73
     1
 74
     1
 75
     0
 76
     0
 77
     0
 78
     0
  0
ENDTAB
  0
TABLE
  2
LTYPE
 70
    11
  0
LTYPE
  2
CONTINUOUS
 70
     0
  3
Solid line
 72
    65
 73
     0
 40
0.0
  0
ENDTAB
  0
TABLE
  2
LAYER
 70
     5
  0
LAYER
  2
0
 70
     0
 62
     7
  6
CONTINUOUS
  0
LAYER
  2
DATA
 70
     0
 62
     7
  6
CONTINUOUS
  0
LAYER
  2
HIBINO-BASE
 70
     0
 62
     7
  6
CONTINUOUS
  0
LAYER
  2
SPEC
 70
     0
 62
     7
  6
CONTINUOUS
  0
LAYER
  2
DIMNSIONS
 70
     0
 62
     7
  6
CONTINUOUS
  0
ENDTAB
  0
TABLE
  2
STYLE
 70
     3
  0
STYLE
  2
STANDARD
 70
     0
 40
0.0
 41
1.0
 50
0.0
 71
     0
 42
0.0
  3
txt
  4
BIGFONT.SHX
  0
ENDTAB
  0
TABLE
  2
VIEW
 70
     0
  0
ENDTAB
  0
TABLE
  2
UCS
 70
     0
  0
ENDTAB
  0
TABLE
  2
APPID
 70
     3
  0
APPID
  2
ACAD
 70
     0
  0
APPID
  2
ACADANNOTATIVE
 70
     0
  0
APPID
  2
ACAD_MLEADERVER
 70
     0
  0
ENDTAB
  0
TABLE
  2
DIMSTYLE
 70
     2
  0
DIMSTYLE
  2
STANDARD
 70
     0
  3

  4

  5

  6

  7

 40
1.0
 41
0.18
 42
0.0625
 43
0.38
 44
0.18
 45
0.0
 46
0.0
 47
0.0
 48
0.0
140
0.18
141
0.09
142
0.0
143
25.399999999999999
144
1.0
145
0.0
146
1.0
147
0.09
 71
     0
 72
     0
 73
     1
 74
     1
 75
     0
 76
     0
 77
     0
 78
     0
170
     0
171
     2
172
     0
173
     0
174
     0
175
     0
176
     0
177
     0
178
     0
  0
ENDTAB
  0
ENDSEC
  0
SECTION
  2
BLOCKS
  0
BLOCK
  8
0
  2
$MODEL_SPACE
 70
     0
 10
0.0
 20
0.0
 30
0.0
  3
$MODEL_SPACE
  1

  0
ENDBLK
  5
182
  8
0
  0
BLOCK
 67
     1
  8
0
  2
$PAPER_SPACE
 70
     0
 10
0.0
 20
0.0
 30
0.0
  3
$PAPER_SPACE
  1

  0
ENDBLK
  5
17E
 67
     1
  8
0
  0
ENDSEC
  0
SECTION
  2
ENTITIES
  0
LINE
  5
2C
  8
HIBINO-BASE
  6
CONTINUOUS
 62
     7
 10
10.0
 20
270.0
 30
0.0
 11
190.0
 21
270.0
 31
0.0
  0
LINE
  5
2D
  8
HIBINO-BASE
  6
CONTINUOUS
 62
     7
 10
190.0
 20
10.0
 30
0.0
 11
10.0
 21
10.0
 31
0.0
  0
LINE
  5
2E
  8
HIBINO-BASE
  6
CONTINUOUS
 62
     7
 10
10.0
 20
10.0
 30
0.0
 11
10.0
 21
270.0
 31
0.0
  0
LINE
  5
2F
  8
HIBINO-BASE
  6
CONTINUOUS
 62
     7
 10
190.0
 20
270.0
 30
0.0
 11
190.0
 21
10.0
 31
0.0
  0
LINE
  5
30
  8
HIBINO-BASE
  6
CONTINUOUS
 62
     7
 10
100.0
 20
32.500000000000007
 30
0.0
 11
190.0
 21
32.500000000000007
 31
0.0
  0
LINE
  5
31
  8
HIBINO-BASE
  6
CONTINUOUS
 62
     7
 10
100.0
 20
10.0
 30
0.0
 11
100.0
 21
32.500000000000007
 31
0.0
  0
TEXT
  5
32
  8
HIBINO-BASE
 62
     7
 10
100.90000000000001
 20
29.991306666666681
 30
0.0
 40
1.6288411458333329
  1
NOTE
 41
0.7
 11
100.90000000000001
 21
31.620147812500011
 31
0.0
 73
     3
  0
LINE
  5
33
  8
HIBINO-BASE
  6
CONTINUOUS
 62
     7
 10
135.0
 20
10.0
 30
0.0
 11
135.0
 21
32.500000000000007
 31
0.0
  0
TEXT
  5
34
  8
HIBINO-BASE
 62
     7
 10
135.89999999999989
 20
29.991306666666681
 30
0.0
 40
1.6288411458333329
  1
TITLE
 41
0.7
 11
135.89999999999989
 21
31.620147812500011
 31
0.0
 73
     3
  0
LINE
  5
35
  8
HIBINO-BASE
  6
CONTINUOUS
 62
     7
 10
100.0
 20
20.000000000000011
 30
0.0
 11
190.0
 21
20.000000000000011
 31
0.0
  0
TEXT
  5
36
  8
HIBINO-BASE
 62
     7
 10
148.39999999999989
 20
17.54762666666667
 30
0.0
 40
1.6288411458333329
  1
DRAWN
 41
0.7
 11
148.39999999999989
 21
19.176467812500011
 31
0.0
 73
     3
  0
TEXT
  5
37
  8
HIBINO-BASE
 62
     7
 10
123.39999999999991
 20
17.54762666666667
 30
0.0
 40
1.6288411458333329
  1
DATE
 41
0.7
 11
123.39999999999991
 21
19.176467812500011
 31
0.0
 73
     3
  0
TEXT
  5
38
  8
HIBINO-BASE
 62
     7
 10
113.40000000000001
 20
17.54762666666667
 30
0.0
 40
1.6288411458333329
  1
SCALE
 41
0.7
 11
113.40000000000001
 21
19.176467812500011
 31
0.0
 73
     3
  0
TEXT
  5
39
  8
HIBINO-BASE
 62
     7
 10
135.89999999999989
 20
17.54762666666667
 30
0.0
 40
1.6288411458333329
  1
DESIGN
 41
0.7
 11
135.89999999999989
 21
19.176467812500011
 31
0.0
 73
     3
  0
TEXT
  5
3A
  8
HIBINO-BASE
 62
     7
 10
173.39999999999989
 20
17.54762666666667
 30
0.0
 40
1.6288411458333329
  1
DRAWING NO.
 41
0.7
 11
173.39999999999989
 21
19.176467812500011
 31
0.0
 73
     3
  0
TEXT
  5
3B
  8
HIBINO-BASE
 62
     7
 10
160.89999999999989
 20
17.54762666666667
 30
0.0
 40
1.6288411458333329
  1
CHECK
 41
0.7
 11
160.89999999999989
 21
19.176467812500011
 31
0.0
 73
     3
  0
LINE
  5
3C
  8
HIBINO-BASE
  6
CONTINUOUS
 62
     7
 10
114.375
 20
11.25
 30
0.0
 11
118.125
 21
15.000000000000011
 31
0.0
  0
TEXT
  5
3D
  8
HIBINO-BASE
 62
     7
 10
113.75
 20
13.891056666666669
 30
0.0
 40
1.6288411458333329
  1
1
 41
0.7
 11
113.75
 21
15.5198978125
 31
0.0
 73
     3
  0
LINE
  5
3E
  8
HIBINO-BASE
  6
CONTINUOUS
 62
     7
 10
112.5
 20
10.0
 30
0.0
 11
112.5
 21
20.000000000000011
 31
0.0
  0
LINE
  5
3F
  8
HIBINO-BASE
  6
CONTINUOUS
 62
     7
 10
122.5
 20
10.0
 30
0.0
 11
122.5
 21
20.000000000000011
 31
0.0
  0
LINE
  5
40
  8
HIBINO-BASE
  6
CONTINUOUS
 62
     7
 10
147.49999999999989
 20
20.000000000000011
 30
0.0
 11
147.49999999999989
 21
10.0
 31
0.0
  0
LINE
  5
41
  8
HIBINO-BASE
  6
CONTINUOUS
 62
     7
 10
172.5
 20
20.000000000000011
 30
0.0
 11
172.5
 21
10.0
 31
0.0
  0
LINE
  5
42
  8
HIBINO-BASE
  6
CONTINUOUS
 62
     7
 10
159.99999999999989
 20
10.0
 30
0.0
 11
159.99999999999989
 21
20.000000000000011
 31
0.0
  0
TEXT
  5
43
  8
HIBINO-BASE
 62
     7
 10
123.35654
 20
12.86364666666667
 30
0.0
 40
1.6288411458333329
  1
'10.10.
 41
0.7
 11
123.35654
 21
14.4924878125
 31
0.0
 73
     3
  0
TEXT
  5
44
  8
HIBINO-BASE
 62
     7
 10
117.5
 20
12.016056666666669
 30
0.0
 40
1.6288411458333329
  1
1
 41
0.7
 11
117.5
 21
13.6448978125
 31
0.0
 73
     3
  0
TEXT
  5
45
  8
HIBINO-BASE
 62
     7
 10
149.00581001103461
 20
12.86364666666667
 30
0.0
 40
1.6288411458333329
  1
T.Ootake
 41
0.7
 11
149.00581001103461
 21
14.4924878125
 31
0.0
 73
     3
  0
TEXT
  5
46
  8
HIBINO-BASE
 62
     7
 10
103.8833333333333
 20
11.97600000000001
 30
0.0
 40
3.2576822916666659
  1
A4
 41
0.7
 11
103.8833333333333
 21
15.23368229166668
 31
0.0
 73
     3
  0
TEXT
  5
47
  8
HIBINO-BASE
 62
     7
 10
100.9583333333333
 20
17.380545000000009
 30
0.0
 40
1.6288411458333329
  1
PAPER SIZE
 41
0.7
 11
100.9583333333333
 21
19.009386145833339
 31
0.0
 73
     3
  0
TEXT
  5
48
  8
HIBINO-BASE
 62
     7
 10
12.75963525689018
 20
3.5747597658237509
 30
0.0
 40
3.5291558159722221
  1
Hibino-Intersound Corporation
 41
0.7
 11
12.75963525689018
 21
7.1039155817959729
 31
0.0
 73
     3
  0
TEXT
  5
49
  8
HIBINO-BASE
 62
     7
 10
120.18060968021391
 20
3.9258480191131699
 30
0.0
 40
3.5291558159722221
  1
ヒビノインターサウンド株式会社
 41
0.7
 11
120.18060968021391
 21
7.4550038350853924
 31
0.0
 73
     3
  0
LINE
  5
4A
  8
SPEC
  6
CONTINUOUS
 62
     7
 10
17.5
 20
260.0
 30
0.0
 11
165.0
 21
260.0
 31
0.0
  0
LINE
  5
4B
  8
SPEC
  6
CONTINUOUS
 62
     7
 10
17.5
 20
256.25
 30
0.0
 11
165.0
 21
256.25
 31
0.0
  0
LINE
  5
4C
  8
SPEC
  6
CONTINUOUS
 62
     7
 10
17.5
 20
248.75
 30
0.0
 11
165.0
 21
248.75
 31
0.0
  0
LINE
  5
4D
  8
SPEC
  6
CONTINUOUS
 62
     7
 10
17.5
 20
252.5
 30
0.0
 11
165.0
 21
252.5
 31
0.0
  0
LINE
  5
4E
  8
SPEC
  6
CONTINUOUS
 62
     7
 10
17.5
 20
260.0
 30
0.0
 11
17.5
 21
218.75
 31
0.0
  0
TEXT
  5
4F
  8
SPEC
 62
     7
 10
18.75
 20
261.39326999999997
 30
0.0
 40
2.4432617187500001
  1
仕様
 41
0.7
 11
18.75
 21
263.83653171875
 31
0.0
 73
     3
  0
LINE
  5
50
  8
SPEC
  6
CONTINUOUS
 62
     7
 10
56.25
 20
260.0
 30
0.0
 11
56.25
 21
218.75
 31
0.0
  0
LINE
  5
51
  8
SPEC
  6
CONTINUOUS
 62
     7
 10
165.0
 20
260.0
 30
0.0
 11
165.0
 21
218.75
 31
0.0
  0
LINE
  5
52
  8
SPEC
  6
CONTINUOUS
 62
     7
 10
17.5
 20
245.0
 30
0.0
 11
165.0
 21
245.0
 31
0.0
  0
LINE
  5
53
  8
SPEC
  6
CONTINUOUS
 62
     7
 10
17.5
 20
241.25
 30
0.0
 11
165.0
 21
241.25
 31
0.0
  0
LINE
  5
54
  8
SPEC
  6
CONTINUOUS
 62
     7
 10
17.5
 20
237.5
 30
0.0
 11
165.0
 21
237.5
 31
0.0
  0
LINE
  5
55
  8
SPEC
  6
CONTINUOUS
 62
     7
 10
17.5
 20
233.75
 30
0.0
 11
165.0
 21
233.75
 31
0.0
  0
LINE
  5
56
  8
SPEC
  6
CONTINUOUS
 62
     7
 10
17.5
 20
230.0
 30
0.0
 11
165.0
 21
230.0
 31
0.0
  0
LINE
  5
57
  8
SPEC
  6
CONTINUOUS
 62
     7
 10
17.5
 20
226.25
 30
0.0
 11
165.0
 21
226.25
 31
0.0
  0
TEXT
  5
58
  8
SPEC
 62
     7
 10
18.303630885144852
 20
223.51954198534719
 30
0.0
 40
1.900314670138888
  1
寸法
 41
0.7
 11
18.303630885144852
 21
225.419856655486
 31
0.0
 73
     3
  0
TEXT
  5
59
  8
SPEC
 62
     7
 10
57.187020524833372
 20
223.4612629373344
 30
0.0
 40
1.900314670138888
  1
50(W)\U+00D728(H)\U+00D752(D)mm(突起部含まず）
 41
0.7
 11
57.187020524833372
 21
225.36157760747329
 31
0.0
 73
     3
  0
TEXT
  5
5A
  8
SPEC
 62
     7
 10
57.13318456438337
 20
219.8322893630401
 30
0.0
 40
1.900314670138888
  1
約70g
 41
0.7
 11
57.13318456438337
 21
221.732604033179
 31
0.0
 73
     3
  0
TEXT
  5
5B
  8
SPEC
 62
     7
 10
18.356914377153888
 20
219.77323627312251
 30
0.0
 40
1.900314670138888
  1
重量
 41
0.7
 11
18.356914377153888
 21
221.6735509432614
 31
0.0
 73
     3
  0
TEXT
  5
5C
  8
SPEC
 62
     7
 10
18.42544080309359
 20
227.255295328312
 30
0.0
 40
1.900314670138888
  1
消費電力
 41
0.7
 11
18.42544080309359
 21
229.1556099984509
 31
0.0
 73
     3
  0
TEXT
  5
5D
  8
SPEC
 62
     7
 10
18.343453643464809
 20
257.1413220135243
 30
0.0
 40
1.900314670138888
  1
形式
 41
0.7
 11
18.343453643464809
 21
259.04163668366323
 31
0.0
 73
     3
  0
TEXT
  5
5E
  8
SPEC
 62
     7
 10
17.971763235488311
 20
253.47257457773151
 30
0.0
 40
1.900314670138888
  1
ビデオアンプ帯域
 41
0.7
 11
17.971763235488311
 21
255.3728892478704
 31
0.0
 73
     3
  0
TEXT
  5
5F
  8
SPEC
 62
     7
 10
57.146974760315132
 20
253.45653320491999
 30
0.0
 40
1.900314670138888
  1
225MHz
 41
0.7
 11
57.146974760315132
 21
255.35684787505889
 31
0.0
 73
     3
  0
TEXT
  5
60
  8
SPEC
 62
     7
 10
18.187940114519328
 20
249.61448613821591
 30
0.0
 40
1.900314670138888
  1
シングルリンク最大対応解像度
 41
0.7
 11
18.187940114519328
 21
251.51480080835489
 31
0.0
 73
     3
  0
TEXT
  5
61
  8
SPEC
 62
     7
 10
57.047889931472092
 20
249.7518461817248
 30
0.0
 40
1.900314670138888
  1
1920\U+00D71200@60Hz
 41
0.7
 11
57.047889931472092
 21
251.6521608518637
 31
0.0
 73
     3
  0
TEXT
  5
62
  8
SPEC
 62
     7
 10
18.36134320538633
 20
245.86456306948961
 30
0.0
 40
1.900314670138888
  1
入力DDC信号
 41
0.7
 11
18.36134320538633
 21
247.76487773962859
 31
0.0
 73
     3
  0
TEXT
  5
63
  8
SPEC
 62
     7
 10
57.164824749451931
 20
245.9283924874359
 30
0.0
 40
1.900314670138888
  1
5Vp-p(TTL)
 41
0.7
 11
57.164824749451931
 21
247.8287071575748
 31
0.0
 73
     3
  0
TEXT
  5
64
  8
SPEC
 62
     7
 10
18.362878001135641
 20
242.1470790353533
 30
0.0
 40
1.900314670138888
  1
入力ビデオ信号
 41
0.7
 11
18.362878001135641
 21
244.04739370549211
 31
0.0
 73
     3
  0
TEXT
  5
65
  8
SPEC
 62
     7
 10
57.034764332415293
 20
242.261544509592
 30
0.0
 40
1.900314670138888
  1
1.2Vp-p
 41
0.7
 11
57.034764332415293
 21
244.1618591797309
 31
0.0
 73
     3
  0
TEXT
  5
66
  8
SPEC
 62
     7
 10
18.42867228001311
 20
238.3972064299266
 30
0.0
 40
1.900314670138888
  1
HDMI入出力端子
 41
0.7
 11
18.42867228001311
 21
240.2975211000655
 31
0.0
 73
     3
  0
TEXT
  5
67
  8
SPEC
 62
     7
 10
57.222888781558581
 20
238.39432277702031
 30
0.0
 40
1.900314670138888
  1
Aタ イプ
 41
0.7
 11
57.222888781558581
 21
240.29463744715909
 31
0.0
 73
     3
  0
TEXT
  5
68
  8
SPEC
 62
     7
 10
18.364406736015731
 20
234.71147197392401
 30
0.0
 40
1.900314670138888
  1
動作温度
 41
0.7
 11
18.364406736015731
 21
236.6117866440629
 31
0.0
 73
     3
  0
TEXT
  5
69
  8
SPEC
 62
     7
 10
57.201944752014008
 20
234.65985444370801
 30
0.0
 40
1.900314670138888
  1
0～48℃
 41
0.7
 11
57.201944752014008
 21
236.56016911384691
 31
0.0
 73
     3
  0
TEXT
  5
6A
  8
SPEC
 62
     7
 10
57.142417699141582
 20
257.14553340744902
 30
0.0
 40
1.900314670138888
  1
HDMI1.3リピータ ー
 41
0.7
 11
57.142417699141582
 21
259.04584807758789
 31
0.0
 73
     3
  0
LINE
  5
6B
  8
SPEC
  6
CONTINUOUS
 62
     7
 10
17.5
 20
222.5
 30
0.0
 11
165.0
 21
222.5
 31
0.0
  0
LINE
  5
6C
  8
SPEC
  6
CONTINUOUS
 62
     7
 10
17.5
 20
218.75
 30
0.0
 11
165.0
 21
218.75
 31
0.0
  0
TEXT
  5
6D
  8
SPEC
 62
     7
 10
57.166883910205151
 20
230.9678358226752
 30
0.0
 40
1.900314670138888
  1
5V DC
 41
0.7
 11
57.166883910205151
 21
232.8681504928141
 31
0.0
 73
     3
  0
TEXT
  5
6E
  8
SPEC
 62
     7
 10
57.229851677498971
 20
227.18299388527819
 30
0.0
 40
1.900314670138888
  1
5W(最大)
 41
0.7
 11
57.229851677498971
 21
229.08330855541701
 31
0.0
 73
     3
  0
TEXT
  5
6F
  8
SPEC
 62
     7
 10
18.332413573308418
 20
230.9318518310364
 30
0.0
 40
1.900314670138888
  1
電源
 41
0.7
 11
18.332413573308418
 21
232.83216650117529
 31
0.0
 73
     3
  0
TEXT
  5
70
  8
DIMNSIONS
 62
     7
 10
79.999999999999986
 20
22.269490000000012
 30
0.0
 40
2.4432617187500001
  1
(単位：mm)
 41
0.7
 11
79.999999999999986
 21
24.71275171875001
 31
0.0
 73
     3
  0
LINE
  5
71
  8
DIMNSIONS
  6
CONTINUOUS
 62
     7
 10
37.5
 20
48.0
 30
0.0
 11
37.5
 21
35.5
 31
0.0
  0
LINE
  5
72
  8
DIMNSIONS
  6
CONTINUOUS
 62
     7
 10
87.5
 20
48.0
 30
0.0
 11
87.5
 21
35.5
 31
0.0
  0
LINE
  5
73
  8
DIMNSIONS
  6
CONTINUOUS
 62
     7
 10
37.5
 20
37.5
 30
0.0
 11
87.5
 21
37.5
 31
0.0
  0
LINE
  5
74
  8
DIMNSIONS
  6
CONTINUOUS
 62
     7
 10
37.5
 20
37.5
 30
0.0
 11
40.000622558593747
 21
38.170039795150252
 31
0.0
  0
LINE
  5
75
  8
DIMNSIONS
  6
CONTINUOUS
 62
     7
 10
37.5
 20
37.5
 30
0.0
 11
40.000622558593747
 21
36.829960204849762
 31
0.0
  0
LINE
  5
76
  8
DIMNSIONS
  6
CONTINUOUS
 62
     7
 10
87.5
 20
37.5
 30
0.0
 11
84.999377441406267
 21
36.829960204849762
 31
0.0
  0
LINE
  5
77
  8
DIMNSIONS
  6
CONTINUOUS
 62
     7
 10
87.5
 20
37.5
 30
0.0
 11
84.999377441406267
 21
38.170039795150252
 31
0.0
  0
TEXT
  5
78
  8
DIMNSIONS
 62
     7
 10
60.736111111111107
 20
38.493888888888868
 30
0.0
 40
2.7147352430555549
  1
50
 41
0.7
 11
60.736111111111107
 21
41.208624131944418
 31
0.0
 73
     3
  0
LINE
  5
79
  8
DIMNSIONS
  6
CONTINUOUS
 62
     7
 10
35.5
 20
50.0
 30
0.0
 11
23.0
 21
50.0
 31
0.0
  0
LINE
  5
7A
  8
DIMNSIONS
  6
CONTINUOUS
 62
     7
 10
35.5
 20
78.0
 30
0.0
 11
23.0
 21
78.0
 31
0.0
  0
LINE
  5
7B
  8
DIMNSIONS
  6
CONTINUOUS
 62
     7
 10
25.0
 20
50.0
 30
0.0
 11
25.0
 21
78.0
 31
0.0
  0
LINE
  5
7C
  8
DIMNSIONS
  6
CONTINUOUS
 62
     7
 10
25.0
 20
50.0
 30
0.0
 11
24.329960204849758
 21
52.500622558593747
 31
0.0
  0
LINE
  5
7D
  8
DIMNSIONS
  6
CONTINUOUS
 62
     7
 10
25.0
 20
50.0
 30
0.0
 11
25.670039795150249
 21
52.500622558593747
 31
0.0
  0
LINE
  5
7E
  8
DIMNSIONS
  6
CONTINUOUS
 62
     7
 10
25.0
 20
78.0
 30
0.0
 11
25.670039795150249
 21
75.499377441406267
 31
0.0
  0
LINE
  5
7F
  8
DIMNSIONS
  6
CONTINUOUS
 62
     7
 10
25.0
 20
78.0
 30
0.0
 11
24.329960204849758
 21
75.499377441406267
 31
0.0
  0
TEXT
  5
80
  8
DIMNSIONS
 62
     7
 10
24.006111111111121
 20
62.236111111111107
 30
0.0
 40
2.7147352430555549
  1
28
 50
90.0
 41
0.7
 11
21.291375868055571
 21
62.236111111111107
 31
0.0
 73
     3
  0
LINE
  5
81
  8
DIMNSIONS
  6
CONTINUOUS
 62
     7
 10
35.5
 20
93.75
 30
0.0
 11
23.0
 21
93.75
 31
0.0
  0
LINE
  5
82
  8
DIMNSIONS
  6
CONTINUOUS
 62
     7
 10
35.5
 20
145.75
 30
0.0
 11
23.0
 21
145.75
 31
0.0
  0
LINE
  5
83
  8
DIMNSIONS
  6
CONTINUOUS
 62
     7
 10
25.0
 20
93.75
 30
0.0
 11
25.0
 21
145.75
 31
0.0
  0
LINE
  5
84
  8
DIMNSIONS
  6
CONTINUOUS
 62
     7
 10
25.0
 20
93.75
 30
0.0
 11
24.329960204849758
 21
96.250622558593733
 31
0.0
  0
LINE
  5
85
  8
DIMNSIONS
  6
CONTINUOUS
 62
     7
 10
25.0
 20
93.75
 30
0.0
 11
25.670039795150249
 21
96.250622558593733
 31
0.0
  0
LINE
  5
86
  8
DIMNSIONS
  6
CONTINUOUS
 62
     7
 10
25.0
 20
145.75
 30
0.0
 11
25.670039795150249
 21
143.24937744140621
 31
0.0
  0
LINE
  5
87
  8
DIMNSIONS
  6
CONTINUOUS
 62
     7
 10
25.0
 20
145.75
 30
0.0
 11
24.329960204849758
 21
143.24937744140621
 31
0.0
  0
TEXT
  5
88
  8
DIMNSIONS
 62
     7
 10
24.006111111111121
 20
117.9861111111111
 30
0.0
 40
2.7147352430555549
  1
52
 50
90.0
 41
0.7
 11
21.291375868055571
 21
117.9861111111111
 31
0.0
 73
     3
  0
LINE
  5
89
  8
DIMNSIONS
  6
CONTINUOUS
 62
     7
 10
68.095855615173775
 20
88.75
 30
0.0
 11
23.0
 21
88.75
 31
0.0
  0
LINE
  5
8A
  8
DIMNSIONS
  6
CONTINUOUS
 62
     7
 10
35.5
 20
93.75
 30
0.0
 11
23.0
 21
93.75
 31
0.0
  0
LINE
  5
8B
  8
DIMNSIONS
  6
CONTINUOUS
 62
     7
 10
25.0
 20
93.75
 30
0.0
 11
25.0
 21
88.75
 31
0.0
  0
LINE
  5
8C
  8
DIMNSIONS
  6
CONTINUOUS
 62
     7
 10
25.0
 20
88.75
 30
0.0
 11
25.0
 21
83.75
 31
0.0
  0
LINE
  5
8D
  8
DIMNSIONS
  6
CONTINUOUS
 62
     7
 10
25.0
 20
88.75
 30
0.0
 11
25.670039795150249
 21
86.249377441406267
 31
0.0
  0
LINE
  5
8E
  8
DIMNSIONS
  6
CONTINUOUS
 62
     7
 10
25.0
 20
88.75
 30
0.0
 11
24.329960204849758
 21
86.249377441406267
 31
0.0
  0
LINE
  5
8F
  8
DIMNSIONS
  6
CONTINUOUS
 62
     7
 10
25.0
 20
93.75
 30
0.0
 11
25.0
 21
98.75
 31
0.0
  0
LINE
  5
90
  8
DIMNSIONS
  6
CONTINUOUS
 62
     7
 10
25.0
 20
93.75
 30
0.0
 11
24.329960204849758
 21
96.250622558593733
 31
0.0
  0
LINE
  5
91
  8
DIMNSIONS
  6
CONTINUOUS
 62
     7
 10
25.0
 20
93.75
 30
0.0
 11
25.670039795150249
 21
96.250622558593733
 31
0.0
  0
TEXT
  5
92
  8
DIMNSIONS
 62
     7
 10
24.006111111111121
 20
90.368055555555557
 30
0.0
 40
2.7147352430555549
  1
5
 50
90.0
 41
0.7
 11
21.291375868055571
 21
90.368055555555557
 31
0.0
 73
     3
  0
LINE
  5
93
  8
DIMNSIONS
  6
CONTINUOUS
 62
     7
 10
35.5
 20
145.75
 30
0.0
 11
23.0
 21
145.75
 31
0.0
  0
LINE
  5
94
  8
DIMNSIONS
  6
CONTINUOUS
 62
     7
 10
68.095855615173775
 20
150.75
 30
0.0
 11
23.0
 21
150.75
 31
0.0
  0
LINE
  5
95
  8
DIMNSIONS
  6
CONTINUOUS
 62
     7
 10
25.0
 20
150.75
 30
0.0
 11
25.0
 21
145.75
 31
0.0
  0
LINE
  5
96
  8
DIMNSIONS
  6
CONTINUOUS
 62
     7
 10
25.0
 20
145.75
 30
0.0
 11
25.0
 21
140.75
 31
0.0
  0
LINE
  5
97
  8
DIMNSIONS
  6
CONTINUOUS
 62
     7
 10
25.0
 20
145.75
 30
0.0
 11
25.670039795150249
 21
143.24937744140621
 31
0.0
  0
LINE
  5
98
  8
DIMNSIONS
  6
CONTINUOUS
 62
     7
 10
25.0
 20
145.75
 30
0.0
 11
24.329960204849758
 21
143.24937744140621
 31
0.0
  0
LINE
  5
99
  8
DIMNSIONS
  6
CONTINUOUS
 62
     7
 10
25.0
 20
150.75
 30
0.0
 11
25.0
 21
155.75
 31
0.0
  0
LINE
  5
9A
  8
DIMNSIONS
  6
CONTINUOUS
 62
     7
 10
25.0
 20
150.75
 30
0.0
 11
24.329960204849758
 21
153.2506225585937
 31
0.0
  0
LINE
  5
9B
  8
DIMNSIONS
  6
CONTINUOUS
 62
     7
 10
25.0
 20
150.75
 30
0.0
 11
25.670039795150249
 21
153.2506225585937
 31
0.0
  0
TEXT
  5
9C
  8
DIMNSIONS
 62
     7
 10
24.006111111111121
 20
147.36805555555549
 30
0.0
 40
2.7147352430555549
  1
5
 50
90.0
 41
0.7
 11
21.291375868055571
 21
147.36805555555549
 31
0.0
 73
     3
  0
TEXT
  5
9D
  8
DATA
 62
     7
 10
150.0
 20
20.88148592366905
 30
0.0
 40
2.4432617187500001
  1
GTV-HDMI1.3-141
 41
0.7
 11
150.0
 21
23.324747642419052
 31
0.0
 73
     3
  0
TEXT
  5
9E
  8
DATA
 62
     7
 10
150.0
 20
28.380890000000011
 30
0.0
 40
2.4432617187500001
  1
Gefen
 41
0.7
 11
150.0
 21
30.824151718750009
 31
0.0
 73
     3
  0
TEXT
  5
9F
  8
DATA
 62
     7
 10
148.7774809790634
 20
25.103457061064791
 30
0.0
 40
1.6288437109374989
  1
HDMI1.3リピータ ー
 41
0.7
 11
148.7774809790634
 21
26.73230077200229
 31
0.0
 73
     3
  0
TEXT
  5
A0
  8
DATA
 62
     7
 10
20.0
 20
14.238
 30
0.0
 40
1.6288411458333329
  1
仕様および外観は予告なく変更されることがありますので、ご了承ください。
 41
0.7
 11
20.0
 21
15.86684114583333
 31
0.0
 73
     3
  0
LINE
  5
A1
  8
DATA
  6
CONTINUOUS
 62
     7
 10
37.5
 20
53.0
 30
0.0
 11
37.5
 21
75.0
 31
0.0
  0
LINE
  5
A2
  8
DATA
  6
CONTINUOUS
 62
     7
 10
84.500000000000014
 20
50.0
 30
0.0
 11
40.499999999999993
 21
50.0
 31
0.0
  0
LINE
  5
A3
  8
DATA
  6
CONTINUOUS
 62
     7
 10
87.5
 20
75.0
 30
0.0
 11
87.5
 21
53.0
 31
0.0
  0
LINE
  5
A4
  8
DATA
  6
CONTINUOUS
 62
     7
 10
40.499999999999993
 20
78.0
 30
0.0
 11
84.500000000000014
 21
78.0
 31
0.0
  0
LINE
  5
A5
  8
DATA
  6
CONTINUOUS
 62
     7
 10
37.5
 20
93.75
 30
0.0
 11
37.5
 21
145.75
 31
0.0
  0
LINE
  5
A6
  8
DATA
  6
CONTINUOUS
 62
     7
 10
87.5
 20
93.75
 30
0.0
 11
37.5
 21
93.75
 31
0.0
  0
LINE
  5
A7
  8
DATA
  6
CONTINUOUS
 62
     7
 10
87.5
 20
145.75
 30
0.0
 11
87.5
 21
93.75
 31
0.0
  0
LINE
  5
A8
  8
DATA
  6
CONTINUOUS
 62
     7
 10
37.5
 20
145.75
 30
0.0
 11
87.5
 21
145.75
 31
0.0
  0
CIRCLE
  5
A9
  8
DATA
  6
CONTINUOUS
 62
     7
 10
41.0
 20
64.0
 30
0.0
 40
1.8999999999999979
  0
LINE
  5
AA
  8
DATA
  6
CONTINUOUS
 62
     7
 10
39.90303448853971
 20
64.0
 30
0.0
 11
42.09696551146029
 21
64.0
 31
0.0
  0
LINE
  5
AB
  8
DATA
  6
CONTINUOUS
 62
     7
 10
41.0
 20
62.903034488539703
 30
0.0
 11
41.0
 21
65.096965511460297
 31
0.0
  0
CIRCLE
  5
AC
  8
DATA
  6
CONTINUOUS
 62
     7
 10
84.0
 20
64.0
 30
0.0
 40
1.8999999999999979
  0
LINE
  5
AD
  8
DATA
  6
CONTINUOUS
 62
     7
 10
85.096965511460297
 20
64.0
 30
0.0
 11
82.903034488539703
 21
64.0
 31
0.0
  0
LINE
  5
AE
  8
DATA
  6
CONTINUOUS
 62
     7
 10
84.0
 20
62.903034488539703
 30
0.0
 11
84.0
 21
65.096965511460297
 31
0.0
  0
ARC
  5
AF
  8
DATA
  6
CONTINUOUS
 62
     7
 10
40.499999999999993
 20
75.0
 30
0.0
 40
3.0
 50
90.0
 51
180.0
  0
ARC
  5
B0
  8
DATA
  6
CONTINUOUS
 62
     7
 10
84.500000000000014
 20
75.0
 30
0.0
 40
3.0
 50
0.0
 51
90.0
  0
ARC
  5
B1
  8
DATA
  6
CONTINUOUS
 62
     7
 10
40.499999999999993
 20
53.0
 30
0.0
 40
3.0
 50
180.0
 51
270.0
  0
ARC
  5
B2
  8
DATA
  6
CONTINUOUS
 62
     7
 10
84.500000000000014
 20
53.0
 30
0.0
 40
3.0
 50
270.0
 51
0.0
  0
POLYLINE
  5
B3
  8
DATA
  6
CONTINUOUS
 62
     7
 66
     1
 10
0.0
 20
0.0
 30
0.0
 70
     1
  0
VERTEX
  5
1AE
  8
DATA
  6
CONTINUOUS
 62
     7
 10
75.095855615173804
 20
72.324966573095551
 30
0.0
  0
VERTEX
  5
1AF
  8
DATA
  6
CONTINUOUS
 62
     7
 10
72.595855615173804
 20
73.768342246069594
 30
0.0
  0
VERTEX
  5
1B0
  8
DATA
  6
CONTINUOUS
 62
     7
 10
70.095855615173775
 20
72.324966573095551
 30
0.0
  0
VERTEX
  5
1B1
  8
DATA
  6
CONTINUOUS
 62
     7
 10
70.095855615173775
 20
69.438215227147424
 30
0.0
  0
VERTEX
  5
1B2
  8
DATA
  6
CONTINUOUS
 62
     7
 10
72.595855615173804
 20
67.994839554173353
 30
0.0
  0
VERTEX
  5
1B3
  8
DATA
  6
CONTINUOUS
 62
     7
 10
75.095855615173804
 20
69.43821522714741
 30
0.0
  0
SEQEND
  5
1B4
  8
DATA
  6
CONTINUOUS
 62
     7
  0
CIRCLE
  5
BC
  8
DATA
  6
CONTINUOUS
 62
     7
 10
72.595855615173775
 20
70.881590900121495
 30
0.0
 40
1.200000000000002
  0
LINE
  5
BD
  8
DATA
  6
CONTINUOUS
 62
     7
 10
80.445855615173812
 20
63.881590900121481
 30
0.0
 11
64.745855615173852
 21
63.881590900121481
 31
0.0
  0
LINE
  5
BE
  8
DATA
  6
CONTINUOUS
 62
     7
 10
80.445855615173812
 20
63.881590900121481
 30
0.0
 11
80.445855615173812
 21
59.581590900121483
 31
0.0
  0
LINE
  5
BF
  8
DATA
  6
CONTINUOUS
 62
     7
 10
64.745855615173852
 20
63.881590900121481
 30
0.0
 11
64.745855615173852
 21
59.581590900121483
 31
0.0
  0
LINE
  5
C0
  8
DATA
  6
CONTINUOUS
 62
     7
 10
80.445855615173812
 20
59.581590900121483
 30
0.0
 11
77.845855615173804
 21
57.881590900121402
 31
0.0
  0
LINE
  5
C1
  8
DATA
  6
CONTINUOUS
 62
     7
 10
64.745855615173852
 20
59.581590900121483
 30
0.0
 11
67.345855615173775
 21
57.881590900121402
 31
0.0
  0
LINE
  5
C2
  8
DATA
  6
CONTINUOUS
 62
     7
 10
77.845855615173804
 20
57.881590900121402
 30
0.0
 11
67.345855615173775
 21
57.881590900121402
 31
0.0
  0
POLYLINE
  5
C3
  8
DATA
  6
CONTINUOUS
 62
     7
 66
     1
 10
0.0
 20
0.0
 30
0.0
 70
     1
  0
VERTEX
  5
1B5
  8
DATA
  6
CONTINUOUS
 62
     7
 10
67.595855615173775
 20
61.595427725628653
 30
0.0
  0
VERTEX
  5
1B6
  8
DATA
  6
CONTINUOUS
 62
     7
 10
77.595855615173804
 20
61.595427725628653
 30
0.0
  0
VERTEX
  5
1B7
  8
DATA
  6
CONTINUOUS
 62
     7
 10
77.595855615173804
 20
61.095427725628653
 30
0.0
  0
VERTEX
  5
1B8
  8
DATA
  6
CONTINUOUS
 62
     7
 10
67.595855615173775
 20
61.095427725628653
 30
0.0
  0
SEQEND
  5
1B9
  8
DATA
  6
CONTINUOUS
 62
     7
  0
TEXT
  5
CA
  8
DATA
 62
     7
 10
65.617603609620659
 20
51.722310828862
 30
0.0
 40
2.4432617187500001
  1
HDMI Out
 41
0.7
 11
65.617603609620659
 21
54.165572547612001
 31
0.0
 73
     3
  0
TEXT
  5
CB
  8
DATA
 62
     7
 10
51.820431246602972
 20
107.0435417659222
 30
0.0
 40
3.6590287500000001
  1
Repeater
 41
0.7
 11
51.820431246602972
 21
110.7025705159222
 31
0.0
 73
     3
  0
TEXT
  5
CC
  8
DATA
 62
     7
 10
50.949506419549742
 20
99.722673077300726
 30
0.0
 40
3.5552343749999999
  1
for
 41
0.7
 11
50.949506419549742
 21
103.2779074523007
 31
0.0
 73
     3
  0
TEXT
  5
CD
  8
DATA
 62
     7
 10
59.81372123871359
 20
99.709573800645316
 30
0.0
 40
5.0819843750000002
  1
HDMI
 41
0.7
 11
59.81372123871359
 21
104.79155817564531
 31
0.0
 73
     3
  0
TEXT
  5
CE
  8
DATA
 62
     7
 10
73.386554034769702
 20
99.574614752745603
 30
0.0
 40
3.5573890624999991
  1
1.3
 41
0.7
 11
73.386554034769702
 21
103.1320038152456
 31
0.0
 73
     3
  0
LINE
  5
CF
  8
DATA
  6
CONTINUOUS
 62
     7
 10
37.5
 20
187.49999999987199
 30
0.0
 11
37.5
 21
165.4999999998719
 31
0.0
  0
LINE
  5
D0
  8
DATA
  6
CONTINUOUS
 62
     7
 10
84.500000000000014
 20
190.49999999987199
 30
0.0
 11
40.499999999999993
 21
190.49999999987199
 31
0.0
  0
LINE
  5
D1
  8
DATA
  6
CONTINUOUS
 62
     7
 10
87.5
 20
165.4999999998719
 30
0.0
 11
87.5
 21
187.49999999987199
 31
0.0
  0
LINE
  5
D2
  8
DATA
  6
CONTINUOUS
 62
     7
 10
40.499999999999993
 20
162.4999999998719
 30
0.0
 11
84.500000000000014
 21
162.4999999998719
 31
0.0
  0
CIRCLE
  5
D3
  8
DATA
  6
CONTINUOUS
 62
     7
 10
41.0
 20
176.4999999998719
 30
0.0
 40
1.8999999999999979
  0
LINE
  5
D4
  8
DATA
  6
CONTINUOUS
 62
     7
 10
39.90303448853971
 20
176.4999999998719
 30
0.0
 11
42.09696551146029
 21
176.4999999998719
 31
0.0
  0
LINE
  5
D5
  8
DATA
  6
CONTINUOUS
 62
     7
 10
41.0
 20
177.5969655113322
 30
0.0
 11
41.0
 21
175.40303448841161
 31
0.0
  0
CIRCLE
  5
D6
  8
DATA
  6
CONTINUOUS
 62
     7
 10
84.0
 20
176.4999999998719
 30
0.0
 40
1.8999999999999979
  0
LINE
  5
D7
  8
DATA
  6
CONTINUOUS
 62
     7
 10
85.096965511460297
 20
176.4999999998719
 30
0.0
 11
82.903034488539703
 21
176.4999999998719
 31
0.0
  0
LINE
  5
D8
  8
DATA
  6
CONTINUOUS
 62
     7
 10
84.0
 20
177.5969655113322
 30
0.0
 11
84.0
 21
175.40303448841161
 31
0.0
  0
ARC
  5
D9
  8
DATA
  6
CONTINUOUS
 62
     7
 10
40.499999999999993
 20
165.4999999998719
 30
0.0
 40
3.0
 50
180.0
 51
270.0
  0
ARC
  5
DA
  8
DATA
  6
CONTINUOUS
 62
     7
 10
84.500000000000014
 20
165.4999999998719
 30
0.0
 40
3.0
 50
270.0
 51
0.0
  0
ARC
  5
DB
  8
DATA
  6
CONTINUOUS
 62
     7
 10
40.499999999999993
 20
187.49999999987199
 30
0.0
 40
3.0
 50
90.0
 51
180.0
  0
ARC
  5
DC
  8
DATA
  6
CONTINUOUS
 62
     7
 10
84.500000000000014
 20
187.49999999987199
 30
0.0
 40
3.0
 50
0.0
 51
90.0
  0
POLYLINE
  5
DD
  8
DATA
  6
CONTINUOUS
 62
     7
 66
     1
 10
0.0
 20
0.0
 30
0.0
 70
     1
  0
VERTEX
  5
1BA
  8
DATA
  6
CONTINUOUS
 62
     7
 10
75.095855615173804
 20
168.17503342677639
 30
0.0
  0
VERTEX
  5
1BB
  8
DATA
  6
CONTINUOUS
 62
     7
 10
72.595855615173804
 20
166.73165775380241
 30
0.0
  0
VERTEX
  5
1BC
  8
DATA
  6
CONTINUOUS
 62
     7
 10
70.095855615173775
 20
168.17503342677639
 30
0.0
  0
VERTEX
  5
1BD
  8
DATA
  6
CONTINUOUS
 62
     7
 10
70.095855615173775
 20
171.06178477272451
 30
0.0
  0
VERTEX
  5
1BE
  8
DATA
  6
CONTINUOUS
 62
     7
 10
72.595855615173804
 20
172.50516044569861
 30
0.0
  0
VERTEX
  5
1BF
  8
DATA
  6
CONTINUOUS
 62
     7
 10
75.095855615173804
 20
171.06178477272451
 30
0.0
  0
SEQEND
  5
1C0
  8
DATA
  6
CONTINUOUS
 62
     7
  0
CIRCLE
  5
E6
  8
DATA
  6
CONTINUOUS
 62
     7
 10
72.595855615173775
 20
169.61840909975049
 30
0.0
 40
1.200000000000002
  0
LINE
  5
E7
  8
DATA
  6
CONTINUOUS
 62
     7
 10
80.445855615173812
 20
176.61840909975049
 30
0.0
 11
64.745855615173852
 21
176.61840909975049
 31
0.0
  0
LINE
  5
E8
  8
DATA
  6
CONTINUOUS
 62
     7
 10
80.445855615173812
 20
176.61840909975049
 30
0.0
 11
80.445855615173812
 21
180.91840909975039
 31
0.0
  0
LINE
  5
E9
  8
DATA
  6
CONTINUOUS
 62
     7
 10
64.745855615173852
 20
176.61840909975049
 30
0.0
 11
64.745855615173852
 21
180.91840909975039
 31
0.0
  0
LINE
  5
EA
  8
DATA
  6
CONTINUOUS
 62
     7
 10
80.445855615173812
 20
180.91840909975039
 30
0.0
 11
77.845855615173804
 21
182.61840909975049
 31
0.0
  0
LINE
  5
EB
  8
DATA
  6
CONTINUOUS
 62
     7
 10
64.745855615173852
 20
180.91840909975039
 30
0.0
 11
67.345855615173775
 21
182.61840909975049
 31
0.0
  0
LINE
  5
EC
  8
DATA
  6
CONTINUOUS
 62
     7
 10
77.845855615173804
 20
182.61840909975049
 30
0.0
 11
67.345855615173775
 21
182.61840909975049
 31
0.0
  0
POLYLINE
  5
ED
  8
DATA
  6
CONTINUOUS
 62
     7
 66
     1
 10
0.0
 20
0.0
 30
0.0
 70
     1
  0
VERTEX
  5
1C1
  8
DATA
  6
CONTINUOUS
 62
     7
 10
67.595855615173775
 20
179.40457227424321
 30
0.0
  0
VERTEX
  5
1C2
  8
DATA
  6
CONTINUOUS
 62
     7
 10
77.595855615173804
 20
179.40457227424321
 30
0.0
  0
VERTEX
  5
1C3
  8
DATA
  6
CONTINUOUS
 62
     7
 10
77.595855615173804
 20
178.90457227424321
 30
0.0
  0
VERTEX
  5
1C4
  8
DATA
  6
CONTINUOUS
 62
     7
 10
67.595855615173775
 20
178.90457227424321
 30
0.0
  0
SEQEND
  5
1C5
  8
DATA
  6
CONTINUOUS
 62
     7
  0
LINE
  5
F4
  8
DATA
  6
CONTINUOUS
 62
     7
 10
75.095855615173804
 20
88.75
 30
0.0
 11
70.095855615173775
 21
88.75
 31
0.0
  0
LINE
  5
F5
  8
DATA
  6
CONTINUOUS
 62
     7
 10
70.095855615173775
 20
88.75
 30
0.0
 11
70.095855615173775
 21
93.75
 31
0.0
  0
LINE
  5
F6
  8
DATA
  6
CONTINUOUS
 62
     7
 10
75.095855615173804
 20
88.75
 30
0.0
 11
75.095855615173804
 21
93.75
 31
0.0
  0
LINE
  5
F7
  8
DATA
  6
CONTINUOUS
 62
     7
 10
70.095855615173775
 20
150.75
 30
0.0
 11
75.095855615173804
 21
150.75
 31
0.0
  0
TEXT
  5
F8
  8
DATA
 62
     7
 10
78.235559308693922
 20
188.12307859224879
 30
0.0
 40
2.4432617187500001
  1
HDMI In
 50
180.0
 41
0.7
 11
78.235559308693922
 21
185.67981687349871
 31
0.0
 73
     3
  0
LINE
  5
F9
  8
DATA
  6
CONTINUOUS
 62
     7
 10
70.095855615173775
 20
150.75
 30
0.0
 11
70.095855615173775
 21
145.75
 31
0.0
  0
LINE
  5
FA
  8
DATA
  6
CONTINUOUS
 62
     7
 10
75.095855615173804
 20
150.75
 30
0.0
 11
75.095855615173804
 21
145.75
 31
0.0
  0
LINE
  5
FB
  8
DATA
  6
CONTINUOUS
 62
     7
 10
87.5
 20
94.749999999999986
 30
0.0
 11
37.5
 21
94.749999999999986
 31
0.0
  0
LINE
  5
FC
  8
DATA
  6
CONTINUOUS
 62
     7
 10
37.5
 20
144.75
 30
0.0
 11
87.5
 21
144.75
 31
0.0
  0
LINE
  5
FD
  8
DATA
  6
CONTINUOUS
 62
     7
 10
44.5
 20
184.49999999987199
 30
0.0
 11
44.5
 21
173.49999999987199
 31
0.0
  0
LINE
  5
FE
  8
DATA
  6
CONTINUOUS
 62
     7
 10
53.5
 20
184.49999999987199
 30
0.0
 11
44.5
 21
184.49999999987199
 31
0.0
  0
LINE
  5
FF
  8
DATA
  6
CONTINUOUS
 62
     7
 10
53.5
 20
184.49999999987199
 30
0.0
 11
53.5
 21
173.49999999987199
 31
0.0
  0
LINE
  5
100
  8
DATA
  6
CONTINUOUS
 62
     7
 10
53.5
 20
173.49999999987199
 30
0.0
 11
44.5
 21
173.49999999987199
 31
0.0
  0
CIRCLE
  5
101
  8
DATA
  6
CONTINUOUS
 62
     7
 10
49.0
 20
177.49999999987199
 30
0.0
 40
3.1499999999999981
  0
CIRCLE
  5
102
  8
DATA
  6
CONTINUOUS
 62
     7
 10
49.0
 20
177.49999999987199
 30
0.0
 40
0.6000000000000015
  0
TEXT
  5
103
  8
DATA
 62
     7
 10
53.472280996490831
 20
188.12307859224879
 30
0.0
 40
2.4432617187500001
  1
5V DC
 50
180.0
 41
0.7
 11
53.472280996490831
 21
185.67981687349871
 31
0.0
 73
     3
  0
CIRCLE
  5
104
  8
DATA
  6
CONTINUOUS
 62
     7
 10
57.32775157723956
 20
175.0
 30
0.0
 40
1.25
  0
TEXT
  5
105
  8
DATA
 62
     7
 10
60.910601419515608
 20
171.23785094634371
 30
0.0
 40
2.198935546875
  1
Power
 50
180.0
 41
0.7
 11
60.910601419515608
 21
169.03891539946869
 31
0.0
 73
     3
  0
ARC
  5
106
  8
DATA
  6
CONTINUOUS
 62
     7
 10
57.32775157723956
 20
145.6570613417154
 30
0.0
 40
1.249999999999988
 50
4.2639290121899078
 51
175.73607098781039
  0
ARC
  5
107
  8
DATA
  6
CONTINUOUS
 62
     7
 10
158.25
 20
65.500000000000014
 30
0.0
 40
1.25
 50
269.99999999999932
 51
90.000000000000625
  0
LINE
  5
108
  8
DATA
  6
CONTINUOUS
 62
     7
 10
106.25
 20
50.0
 30
0.0
 11
158.25
 21
50.0
 31
0.0
  0
LINE
  5
109
  8
DATA
  6
CONTINUOUS
 62
     7
 10
106.25
 20
78.0
 30
0.0
 11
158.25
 21
78.0
 31
0.0
  0
LINE
  5
10A
  8
DATA
  6
CONTINUOUS
 62
     7
 10
106.25
 20
50.0
 30
0.0
 11
106.25
 21
78.0
 31
0.0
  0
LINE
  5
10B
  8
DATA
  6
CONTINUOUS
 62
     7
 10
158.25
 20
50.0
 30
0.0
 11
158.25
 21
78.0
 31
0.0
  0
LINE
  5
10C
  8
DATA
  6
CONTINUOUS
 62
     7
 10
107.25
 20
50.0
 30
0.0
 11
107.25
 21
78.0
 31
0.0
  0
LINE
  5
10D
  8
DATA
  6
CONTINUOUS
 62
     7
 10
157.25
 20
50.0
 30
0.0
 11
157.25
 21
78.0
 31
0.0
  0
LINE
  5
10E
  8
DATA
  6
CONTINUOUS
 62
     7
 10
101.25
 20
67.994839554173353
 30
0.0
 11
101.25
 21
73.768342246069594
 31
0.0
  0
LINE
  5
10F
  8
DATA
  6
CONTINUOUS
 62
     7
 10
163.25
 20
67.994839554173353
 30
0.0
 11
163.25
 21
73.768342246069594
 31
0.0
  0
LINE
  5
110
  8
DATA
  6
CONTINUOUS
 62
     7
 10
101.25
 20
73.768342246069594
 30
0.0
 11
106.25
 21
73.768342246069594
 31
0.0
  0
LINE
  5
111
  8
DATA
  6
CONTINUOUS
 62
     7
 10
158.25
 20
73.768342246069594
 30
0.0
 11
163.25
 21
73.768342246069594
 31
0.0
  0
LINE
  5
112
  8
DATA
  6
CONTINUOUS
 62
     7
 10
101.25
 20
67.994839554173353
 30
0.0
 11
106.25
 21
67.994839554173353
 31
0.0
  0
LINE
  5
113
  8
DATA
  6
CONTINUOUS
 62
     7
 10
158.25
 20
67.994839554173353
 30
0.0
 11
163.25
 21
67.994839554173353
 31
0.0
  0
ENDSEC
  0
EOF
