  0
SECTION
  2
HEADER
  9
$ACADVER
  1
AC1009
  9
$INSBASE
 10
0.0
 20
0.0
 30
0.0
  9
$EXTMIN
 10
-170.0164782349211
 20
-265.68665945661201
 30
-0.0015258207003583
  9
$EXTMAX
 10
370.0164807494923
 20
537.06099888531526
 30
0.0000000349246037
  9
$LIMMIN
 10
0.0
 20
0.0
  9
$LIMMAX
 10
0.0
 20
0.0
  9
$ORTHOMODE
 70
     0
  9
$REGENMODE
 70
     1
  9
$FILLMODE
 70
     1
  9
$QTEXTMODE
 70
     0
  9
$MIRRTEXT
 70
     1
  9
$DRAGMODE
 70
     2
  9
$LTSCALE
 40
15.24
  9
$OSMODE
 70
   231
  9
$ATTMODE
 70
     1
  9
$TEXTSIZE
 40
0.0
  9
$TRACEWID
 40
1.0
  9
$TEXTSTYLE
  7
STANDARD
  9
$CLAYER
  8
DATA
  9
$CELTYPE
  6
BYLAYER
  9
$CECOLOR
 62
   256
  9
$DIMSCALE
 40
1.0
  9
$DIMASZ
 40
0.18
  9
$DIMEXO
 40
0.0625
  9
$DIMDLI
 40
0.38
  9
$DIMRND
 40
0.0
  9
$DIMDLE
 40
0.0
  9
$DIMEXE
 40
0.18
  9
$DIMTP
 40
0.0
  9
$DIMTM
 40
0.0
  9
$DIMTXT
 40
0.18
  9
$DIMCEN
 40
0.09
  9
$DIMTSZ
 40
0.0
  9
$DIMTOL
 70
     0
  9
$DIMLIM
 70
     0
  9
$DIMTIH
 70
     1
  9
$DIMTOH
 70
     1
  9
$DIMSE1
 70
     0
  9
$DIMSE2
 70
     0
  9
$DIMTAD
 70
     0
  9
$DIMZIN
 70
     0
  9
$DIMBLK
  1

  9
$DIMASO
 70
     1
  9
$DIMSHO
 70
     1
  9
$DIMPOST
  1

  9
$DIMAPOST
  1

  9
$DIMALT
 70
     0
  9
$DIMALTD
 70
     2
  9
$DIMALTF
 40
25.399999999999999
  9
$DIMLFAC
 40
1.0
  9
$DIMTOFL
 70
     0
  9
$DIMTVP
 40
0.0
  9
$DIMTIX
 70
     0
  9
$DIMSOXD
 70
     0
  9
$DIMSAH
 70
     0
  9
$DIMBLK1
  1

  9
$DIMBLK2
  1

  9
$DIMSTYLE
  2
STANDARD
  9
$DIMCLRD
 70
     0
  9
$DIMCLRE
 70
     0
  9
$DIMCLRT
 70
     0
  9
$DIMTFAC
 40
1.0
  9
$DIMGAP
 40
0.09
  9
$LUNITS
 70
     2
  9
$LUPREC
 70
     4
  9
$SKETCHINC
 40
0.1
  9
$FILLETRAD
 40
0.0
  9
$AUNITS
 70
     0
  9
$AUPREC
 70
     0
  9
$MENU
  1
acad
  9
$ELEVATION
 40
0.0
  9
$PELEVATION
 40
0.0
  9
$THICKNESS
 40
0.0
  9
$LIMCHECK
 70
     0
  9
$BLIPMODE
 70
     0
  9
$CHAMFERA
 40
0.0
  9
$CHAMFERB
 40
0.0
  9
$SKPOLY
 70
     0
  9
$TDCREATE
 40
2455202.648425926
  9
$TDUPDATE
 40
2455202.6491954168
  9
$TDINDWG
 40
0.0002506134
  9
$TDUSRTIMER
 40
0.0002504398
  9
$USRTIMER
 70
     1
  9
$ANGBASE
 50
0.0
  9
$ANGDIR
 70
     0
  9
$PDMODE
 70
     1
  9
$PDSIZE
 40
-2.0
  9
$PLINEWID
 40
0.0
  9
$COORDS
 70
     0
  9
$SPLFRAME
 70
     0
  9
$SPLINETYPE
 70
     6
  9
$SPLINESEGS
 70
     8
  9
$ATTDIA
 70
     0
  9
$ATTREQ
 70
     1
  9
$HANDLING
 70
     1
  9
$HANDSEED
  5
2BD
  9
$SURFTAB1
 70
     6
  9
$SURFTAB2
 70
     6
  9
$SURFTYPE
 70
     6
  9
$SURFU
 70
     6
  9
$SURFV
 70
     6
  9
$UCSNAME
  2

  9
$UCSORG
 10
0.0
 20
0.0
 30
0.0
  9
$UCSXDIR
 10
1.0
 20
0.0
 30
0.0
  9
$UCSYDIR
 10
0.0
 20
1.0
 30
0.0
  9
$PUCSNAME
  2

  9
$PUCSORG
 10
0.0
 20
0.0
 30
0.0
  9
$PUCSXDIR
 10
1.0
 20
0.0
 30
0.0
  9
$PUCSYDIR
 10
0.0
 20
1.0
 30
0.0
  9
$USERI1
 70
     0
  9
$USERI2
 70
     0
  9
$USERI3
 70
     0
  9
$USERI4
 70
     0
  9
$USERI5
 70
     0
  9
$USERR1
 40
0.0
  9
$USERR2
 40
0.0
  9
$USERR3
 40
0.0
  9
$USERR4
 40
0.0
  9
$USERR5
 40
0.0
  9
$WORLDVIEW
 70
     1
  9
$SHADEDGE
 70
     3
  9
$SHADEDIF
 70
    70
  9
$TILEMODE
 70
     1
  9
$MAXACTVP
 70
    64
  9
$PLIMCHECK
 70
     0
  9
$PEXTMIN
 10
1.0000000000000000E+020
 20
1.0000000000000000E+020
 30
1.0000000000000000E+020
  9
$PEXTMAX
 10
-1.0000000000000000E+020
 20
-1.0000000000000000E+020
 30
-1.0000000000000000E+020
  9
$PLIMMIN
 10
0.0
 20
0.0
  9
$PLIMMAX
 10
12.0
 20
9.0
  9
$UNITMODE
 70
     0
  9
$VISRETAIN
 70
     0
  9
$PLINEGEN
 70
     1
  9
$PSLTSCALE
 70
     0
  0
ENDSEC
  0
SECTION
  2
TABLES
  0
TABLE
  2
VPORT
 70
     1
  0
VPORT
  2
*ACTIVE
 70
     0
 10
0.0
 20
0.0
 11
1.0
 21
1.0
 12
100.0000012572856
 22
135.68716971435171
 13
0.0
 23
0.0
 14
1.0
 24
1.0
 15
0.0
 25
0.0
 16
0.0
 26
0.0
 36
1.0
 17
0.0
 27
0.0
 37
0.0
 40
808.66471724862458
 41
1.964329643296433
 42
50.0
 43
0.0
 44
0.0
 50
0.0
 51
0.0
 71
     0
 72
  2000
 73
     1
 74
     1
 75
     0
 76
     0
 77
     0
 78
     0
  0
ENDTAB
  0
TABLE
  2
LTYPE
 70
    11
  0
LTYPE
  2
CONTINUOUS
 70
     0
  3
Solid line
 72
    65
 73
     0
 40
0.0
  0
ENDTAB
  0
TABLE
  2
LAYER
 70
     5
  0
LAYER
  2
0
 70
     0
 62
     7
  6
CONTINUOUS
  0
LAYER
  2
DATA
 70
     0
 62
     7
  6
CONTINUOUS
  0
LAYER
  2
HIBINO-BASE
 70
     0
 62
     7
  6
CONTINUOUS
  0
LAYER
  2
SPEC
 70
     0
 62
     7
  6
CONTINUOUS
  0
LAYER
  2
DIMNSIONS
 70
     0
 62
     7
  6
CONTINUOUS
  0
ENDTAB
  0
TABLE
  2
STYLE
 70
     3
  0
STYLE
  2
STANDARD
 70
     0
 40
0.0
 41
1.0
 50
0.0
 71
     0
 42
0.0
  3
txt
  4
BIGFONT.SHX
  0
ENDTAB
  0
TABLE
  2
VIEW
 70
     0
  0
ENDTAB
  0
TABLE
  2
UCS
 70
     0
  0
ENDTAB
  0
TABLE
  2
APPID
 70
     3
  0
APPID
  2
ACAD
 70
     0
  0
APPID
  2
ACADANNOTATIVE
 70
     0
  0
APPID
  2
ACAD_MLEADERVER
 70
     0
  0
ENDTAB
  0
TABLE
  2
DIMSTYLE
 70
     2
  0
DIMSTYLE
  2
STANDARD
 70
     0
  3

  4

  5

  6

  7

 40
1.0
 41
0.18
 42
0.0625
 43
0.38
 44
0.18
 45
0.0
 46
0.0
 47
0.0
 48
0.0
140
0.18
141
0.09
142
0.0
143
25.399999999999999
144
1.0
145
0.0
146
1.0
147
0.09
 71
     0
 72
     0
 73
     1
 74
     1
 75
     0
 76
     0
 77
     0
 78
     0
170
     0
171
     2
172
     0
173
     0
174
     0
175
     0
176
     0
177
     0
178
     0
  0
ENDTAB
  0
ENDSEC
  0
SECTION
  2
BLOCKS
  0
BLOCK
  8
0
  2
$MODEL_SPACE
 70
     0
 10
0.0
 20
0.0
 30
0.0
  3
$MODEL_SPACE
  1

  0
ENDBLK
  5
254
  8
0
  0
BLOCK
 67
     1
  8
0
  2
$PAPER_SPACE
 70
     0
 10
0.0
 20
0.0
 30
0.0
  3
$PAPER_SPACE
  1

  0
ENDBLK
  5
250
 67
     1
  8
0
  0
ENDSEC
  0
SECTION
  2
ENTITIES
  0
LINE
  5
2C
  8
HIBINO-BASE
  6
CONTINUOUS
 62
     7
 10
-169.99999999999989
 20
537.03654909381032
 30
0.0
 11
370.0
 21
537.03654909381032
 31
0.0
  0
LINE
  5
2D
  8
HIBINO-BASE
  6
CONTINUOUS
 62
     7
 10
370.0
 20
-242.96345090618959
 30
0.0
 11
-169.99999999999989
 21
-242.96345090618959
 31
0.0
  0
LINE
  5
2E
  8
HIBINO-BASE
  6
CONTINUOUS
 62
     7
 10
-169.99999999999989
 20
-242.96345090618959
 30
0.0
 11
-169.99999999999989
 21
537.03654909381032
 31
0.0
  0
LINE
  5
2F
  8
HIBINO-BASE
  6
CONTINUOUS
 62
     7
 10
370.0
 20
537.03654909381032
 30
0.0
 11
370.0
 21
-242.96345090618959
 31
0.0
  0
LINE
  5
30
  8
HIBINO-BASE
  6
CONTINUOUS
 62
     7
 10
100.0
 20
-175.46345090618959
 30
0.0
 11
370.0
 21
-175.46345090618959
 31
0.0
  0
LINE
  5
31
  8
HIBINO-BASE
  6
CONTINUOUS
 62
     7
 10
100.0
 20
-242.96345090618959
 30
0.0
 11
100.0
 21
-175.46345090618959
 31
0.0
  0
TEXT
  5
32
  8
HIBINO-BASE
 62
     7
 10
102.7
 20
-182.98953090618949
 30
0.0
 40
4.8865234374999993
  1
NOTE
 41
0.7
 11
102.7
 21
-178.10300746868961
 31
0.0
 73
     3
  0
LINE
  5
33
  8
HIBINO-BASE
  6
CONTINUOUS
 62
     7
 10
205.0
 20
-242.96345090618959
 30
0.0
 11
205.0
 21
-175.46345090618959
 31
0.0
  0
TEXT
  5
34
  8
HIBINO-BASE
 62
     7
 10
207.69999999999999
 20
-182.98953090618949
 30
0.0
 40
4.8865234374999993
  1
TITLE
 41
0.7
 11
207.69999999999999
 21
-178.10300746868961
 31
0.0
 73
     3
  0
LINE
  5
35
  8
HIBINO-BASE
  6
CONTINUOUS
 62
     7
 10
100.0
 20
-212.96345090618951
 30
0.0
 11
370.0
 21
-212.96345090618951
 31
0.0
  0
TEXT
  5
36
  8
HIBINO-BASE
 62
     7
 10
245.19999999999999
 20
-220.3205709061896
 30
0.0
 40
4.8865234374999993
  1
DRAWN
 41
0.7
 11
245.19999999999999
 21
-215.43404746868961
 31
0.0
 73
     3
  0
TEXT
  5
37
  8
HIBINO-BASE
 62
     7
 10
170.19999999999999
 20
-220.3205709061896
 30
0.0
 40
4.8865234374999993
  1
DATE
 41
0.7
 11
170.19999999999999
 21
-215.43404746868961
 31
0.0
 73
     3
  0
TEXT
  5
38
  8
HIBINO-BASE
 62
     7
 10
140.19999999999999
 20
-220.3205709061896
 30
0.0
 40
4.8865234374999993
  1
SCALE
 41
0.7
 11
140.19999999999999
 21
-215.43404746868961
 31
0.0
 73
     3
  0
TEXT
  5
39
  8
HIBINO-BASE
 62
     7
 10
207.69999999999999
 20
-220.3205709061896
 30
0.0
 40
4.8865234374999993
  1
DESIGN
 41
0.7
 11
207.69999999999999
 21
-215.43404746868961
 31
0.0
 73
     3
  0
TEXT
  5
3A
  8
HIBINO-BASE
 62
     7
 10
320.19999999999999
 20
-220.3205709061896
 30
0.0
 40
4.8865234374999993
  1
DRAWING NO.
 41
0.7
 11
320.19999999999999
 21
-215.43404746868961
 31
0.0
 73
     3
  0
TEXT
  5
3B
  8
HIBINO-BASE
 62
     7
 10
282.69999999999999
 20
-220.3205709061896
 30
0.0
 40
4.8865234374999993
  1
CHECK
 41
0.7
 11
282.69999999999999
 21
-215.43404746868961
 31
0.0
 73
     3
  0
LINE
  5
3C
  8
HIBINO-BASE
  6
CONTINUOUS
 62
     7
 10
143.12499999999989
 20
-239.21345090618959
 30
0.0
 11
154.375
 21
-227.96345090618959
 31
0.0
  0
TEXT
  5
3D
  8
HIBINO-BASE
 62
     7
 10
141.24999999999989
 20
-231.29028090618951
 30
0.0
 40
4.8865234374999993
  1
1
 41
0.7
 11
141.24999999999989
 21
-226.40375746868961
 31
0.0
 73
     3
  0
LINE
  5
3E
  8
HIBINO-BASE
  6
CONTINUOUS
 62
     7
 10
137.5
 20
-242.96345090618959
 30
0.0
 11
137.5
 21
-212.96345090618951
 31
0.0
  0
LINE
  5
3F
  8
HIBINO-BASE
  6
CONTINUOUS
 62
     7
 10
167.5
 20
-242.96345090618959
 30
0.0
 11
167.5
 21
-212.96345090618951
 31
0.0
  0
LINE
  5
40
  8
HIBINO-BASE
  6
CONTINUOUS
 62
     7
 10
242.5
 20
-212.96345090618951
 30
0.0
 11
242.5
 21
-242.96345090618959
 31
0.0
  0
LINE
  5
41
  8
HIBINO-BASE
  6
CONTINUOUS
 62
     7
 10
317.5
 20
-212.96345090618951
 30
0.0
 11
317.5
 21
-242.96345090618959
 31
0.0
  0
LINE
  5
42
  8
HIBINO-BASE
  6
CONTINUOUS
 62
     7
 10
279.99999999999989
 20
-242.96345090618959
 30
0.0
 11
279.99999999999989
 21
-212.96345090618951
 31
0.0
  0
TEXT
  5
43
  8
HIBINO-BASE
 62
     7
 10
170.06961999999999
 20
-234.3725109061896
 30
0.0
 40
4.8865234374999993
  1
'09.09.
 41
0.7
 11
170.06961999999999
 21
-229.48598746868959
 31
0.0
 73
     3
  0
TEXT
  5
44
  8
HIBINO-BASE
 62
     7
 10
152.5
 20
-236.91528090618959
 30
0.0
 40
4.8865234374999993
  1
3
 41
0.7
 11
152.5
 21
-232.02875746868961
 31
0.0
 73
     3
  0
TEXT
  5
45
  8
HIBINO-BASE
 62
     7
 10
111.65000000000001
 20
-237.0354509061896
 30
0.0
 40
9.7730468749999986
  1
A4
 41
0.7
 11
111.65000000000001
 21
-227.26240403118959
 31
0.0
 73
     3
  0
TEXT
  5
46
  8
HIBINO-BASE
 62
     7
 10
102.875
 20
-220.82181590618961
 30
0.0
 40
4.8865234374999993
  1
PAPER SIZE
 41
0.7
 11
102.875
 21
-215.9352924686896
 31
0.0
 73
     3
  0
TEXT
  5
47
  8
HIBINO-BASE
 62
     7
 10
-161.25736775960559
 20
-262.14693152095401
 30
0.0
 40
10.58746744791666
  1
Hibino-Intersound Corporation
 41
0.7
 11
-161.25736775960559
 21
-251.5594640730373
 31
0.0
 73
     3
  0
TEXT
  5
48
  8
HIBINO-BASE
 62
     7
 10
161.9378998119634
 20
-261.21591451957607
 30
0.0
 40
10.58746744791666
  1
ヒビノインターサウンド株式会社
 41
0.7
 11
161.9378998119634
 21
-250.62844707165939
 31
0.0
 73
     3
  0
LINE
  5
49
  8
SPEC
  6
CONTINUOUS
 62
     7
 10
-147.49999999999989
 20
507.03654909381032
 30
0.0
 11
295.0
 21
507.03654909381032
 31
0.0
  0
LINE
  5
4A
  8
SPEC
  6
CONTINUOUS
 62
     7
 10
-147.49999999999989
 20
495.78654909381032
 30
0.0
 11
295.0
 21
495.78654909381032
 31
0.0
  0
LINE
  5
4B
  8
SPEC
  6
CONTINUOUS
 62
     7
 10
-147.49999999999989
 20
450.78654909381032
 30
0.0
 11
295.0
 21
450.78654909381032
 31
0.0
  0
LINE
  5
4C
  8
SPEC
  6
CONTINUOUS
 62
     7
 10
-147.49999999999989
 20
462.03654909381032
 30
0.0
 11
295.0
 21
462.03654909381032
 31
0.0
  0
LINE
  5
4D
  8
SPEC
  6
CONTINUOUS
 62
     7
 10
-147.49999999999989
 20
473.28654909381021
 30
0.0
 11
295.0
 21
473.28654909381021
 31
0.0
  0
LINE
  5
4E
  8
SPEC
  6
CONTINUOUS
 62
     7
 10
-147.49999999999989
 20
439.53654909381032
 30
0.0
 11
295.0
 21
439.53654909381032
 31
0.0
  0
LINE
  5
4F
  8
SPEC
  6
CONTINUOUS
 62
     7
 10
-147.49999999999989
 20
417.03654909381021
 30
0.0
 11
295.0
 21
417.03654909381021
 31
0.0
  0
LINE
  5
50
  8
SPEC
  6
CONTINUOUS
 62
     7
 10
-147.49999999999989
 20
428.28654909381032
 30
0.0
 11
295.0
 21
428.28654909381032
 31
0.0
  0
LINE
  5
51
  8
SPEC
  6
CONTINUOUS
 62
     7
 10
-147.49999999999989
 20
405.78654909381032
 30
0.0
 11
295.0
 21
405.78654909381032
 31
0.0
  0
LINE
  5
52
  8
SPEC
  6
CONTINUOUS
 62
     7
 10
-147.49999999999989
 20
394.53654909381032
 30
0.0
 11
295.0
 21
394.53654909381032
 31
0.0
  0
LINE
  5
53
  8
SPEC
  6
CONTINUOUS
 62
     7
 10
-147.49999999999989
 20
484.53654909381032
 30
0.0
 11
295.0
 21
484.53654909381032
 31
0.0
  0
LINE
  5
54
  8
SPEC
  6
CONTINUOUS
 62
     7
 10
-147.49999999999989
 20
372.03654909381032
 30
0.0
 11
295.0
 21
372.03654909381032
 31
0.0
  0
LINE
  5
55
  8
SPEC
  6
CONTINUOUS
 62
     7
 10
-147.49999999999989
 20
507.03654909381032
 30
0.0
 11
-147.49999999999989
 21
338.28654909381038
 31
0.0
  0
TEXT
  5
56
  8
SPEC
 62
     7
 10
-143.74999999999989
 20
511.2163590938103
 30
0.0
 40
7.3297851562499989
  1
仕様
 41
0.7
 11
-143.74999999999989
 21
518.54614425006025
 31
0.0
 73
     3
  0
LINE
  5
57
  8
SPEC
  6
CONTINUOUS
 62
     7
 10
-33.308292557407121
 20
507.03654909381032
 30
0.0
 11
-33.308292557407121
 21
338.28654909381038
 31
0.0
  0
LINE
  5
58
  8
SPEC
  6
CONTINUOUS
 62
     7
 10
295.0
 20
507.03654909381032
 30
0.0
 11
295.0
 21
338.28654909381038
 31
0.0
  0
TEXT
  5
59
  8
SPEC
 62
     7
 10
-144.99980442886189
 20
498.58132168917831
 30
0.0
 40
5.700933749999999
  1
形式
 41
0.7
 11
-144.99980442886189
 21
504.28225543917841
 31
0.0
 73
     3
  0
LINE
  5
5A
  8
SPEC
  6
CONTINUOUS
 62
     7
 10
-147.49999999999989
 20
383.28654909381038
 30
0.0
 11
295.0
 21
383.28654909381038
 31
0.0
  0
TEXT
  5
5B
  8
SPEC
 62
     7
 10
-31.432978378119131
 20
498.7145866349083
 30
0.0
 40
5.7009440104166647
  1
コンポーネントオーディオ延長機
 41
0.7
 11
-31.432978378119131
 21
504.41553064532508
 31
0.0
 73
     3
  0
TEXT
  5
5C
  8
SPEC
 62
     7
 10
-144.9462569957621
 20
487.27948587652833
 30
0.0
 40
5.700933749999999
  1
入力ビデオ帯域
 41
0.7
 11
-144.9462569957621
 21
492.9804196265282
 31
0.0
 73
     3
  0
TEXT
  5
5D
  8
SPEC
 62
     7
 10
-30.554066028754828
 20
487.1251304602265
 30
0.0
 40
5.7009440104166647
  1
350MHz
 41
0.7
 11
-30.554066028754828
 21
492.82607447064311
 31
0.0
 73
     3
  0
TEXT
  5
5E
  8
SPEC
 62
     7
 10
-144.94612058021281
 20
476.01756890504402
 30
0.0
 40
5.700933749999999
  1
実動作帯域
 41
0.7
 11
-144.94612058021281
 21
481.71850265504401
 31
0.0
 73
     3
  0
TEXT
  5
5F
  8
SPEC
 62
     7
 10
-30.974301931333532
 20
476.21452078153112
 30
0.0
 40
5.7009440104166647
  1
120MHz
 41
0.7
 11
-30.974301931333532
 21
481.91546479194773
 31
0.0
 73
     3
  0
TEXT
  5
60
  8
SPEC
 62
     7
 10
-144.8893281143279
 20
464.57897012246622
 30
0.0
 40
5.700933749999999
  1
入力ビデオ信号
 41
0.7
 11
-144.8893281143279
 21
470.27990387246621
 31
0.0
 73
     3
  0
TEXT
  5
61
  8
SPEC
 62
     7
 10
-30.992830166695359
 20
465.24710860603028
 30
0.0
 40
5.7009440104166647
  1
1.2V p-p
 41
0.7
 11
-30.992830166695359
 21
470.948052616447
 31
0.0
 73
     3
  0
TEXT
  5
62
  8
SPEC
 62
     7
 10
-144.95333224610911
 20
453.4515231984256
 30
0.0
 40
5.700933749999999
  1
入力DDC信号
 41
0.7
 11
-144.95333224610911
 21
459.15245694842548
 31
0.0
 73
     3
  0
TEXT
  5
63
  8
SPEC
 62
     7
 10
-30.54348764092628
 20
453.7482229874858
 30
0.0
 40
5.7009440104166647
  1
5V p-p(TTL)
 41
0.7
 11
-30.54348764092628
 21
459.44916699790252
 31
0.0
 73
     3
  0
TEXT
  5
64
  8
SPEC
 62
     7
 10
-145.04877266874081
 20
442.49354102696071
 30
0.0
 40
5.700933749999999
  1
対応水平同期周波数
 41
0.7
 11
-145.04877266874081
 21
448.1944747769607
 31
0.0
 73
     3
  0
TEXT
  5
65
  8
SPEC
 62
     7
 10
-31.035767640202231
 20
442.41346882080438
 30
0.0
 40
5.7009440104166647
  1
15～70kHz
 41
0.7
 11
-31.035767640202231
 21
448.1144128312211
 31
0.0
 73
     3
  0
TEXT
  5
66
  8
SPEC
 62
     7
 10
-145.01016858499821
 20
431.26171341380427
 30
0.0
 40
5.700933749999999
  1
対応垂直同期周波数
 41
0.7
 11
-145.01016858499821
 21
436.96264716380432
 31
0.0
 73
     3
  0
TEXT
  5
67
  8
SPEC
 62
     7
 10
-30.577389307598722
 20
431.14959493167242
 30
0.0
 40
5.7009440104166647
  1
30～170Hz
 41
0.7
 11
-30.577389307598722
 21
436.85053894208897
 31
0.0
 73
     3
  0
TEXT
  5
68
  8
SPEC
 62
     7
 10
-144.80000000000001
 20
419.40031389381028
 30
0.0
 40
5.700933749999999
  1
ビデオ入出力端子
 41
0.7
 11
-144.80000000000001
 21
425.10124764381032
 31
0.0
 73
     3
  0
TEXT
  5
69
  8
SPEC
 62
     7
 10
-30.648762885586269
 20
419.77536441713562
 30
0.0
 40
5.7009440104166647
  1
3RCAコンポーネント
 41
0.7
 11
-30.648762885586269
 21
425.47630842755228
 31
0.0
 73
     3
  0
TEXT
  5
6A
  8
SPEC
 62
     7
 10
-145.2292135614498
 20
408.69398440498082
 30
0.0
 40
5.700933749999999
  1
アナログオーディオ入出力端子
 41
0.7
 11
-145.2292135614498
 21
414.39491815498093
 31
0.0
 73
     3
  0
TEXT
  5
6B
  8
SPEC
 62
     7
 10
-30.58686728925499
 20
408.6015732244731
 30
0.0
 40
5.7009440104166647
  1
2RCA(L+R）
 41
0.7
 11
-30.58686728925499
 21
414.30251723488982
 31
0.0
 73
     3
  0
TEXT
  5
6C
  8
SPEC
 62
     7
 10
-30.477389307598731
 20
397.35728536886529
 30
0.0
 40
5.7009440104166647
  1
S/PDIF TOSlink
 41
0.7
 11
-30.477389307598731
 21
403.05822937928201
 31
0.0
 73
     3
  0
TEXT
  5
6D
  8
SPEC
 62
     7
 10
-144.97020422614639
 20
386.16092657224971
 30
0.0
 40
5.700933749999999
  1
延長用コネクター
 41
0.7
 11
-144.97020422614639
 21
391.8618603222497
 31
0.0
 73
     3
  0
TEXT
  5
6E
  8
SPEC
 62
     7
 10
-30.641665977511639
 20
386.01940160561583
 30
0.0
 40
5.7009440104166647
  1
RJ-45
 41
0.7
 11
-30.641665977511639
 21
391.72034561603249
 31
0.0
 73
     3
  0
TEXT
  5
6F
  8
SPEC
 62
     7
 10
-145.19933908331581
 20
397.12850765570528
 30
0.0
 40
5.700933749999999
  1
デジタルオーディオ入出力端子
 41
0.7
 11
-145.19933908331581
 21
402.82944140570532
 31
0.0
 73
     3
  0
TEXT
  5
70
  8
SPEC
 62
     7
 10
-145.11724481488
 20
352.72985096481329
 30
0.0
 40
5.7009440104166647
  1
寸法
 41
0.7
 11
-145.11724481488
 21
358.4307949752299
 31
0.0
 73
     3
  0
TEXT
  5
71
  8
SPEC
 62
     7
 10
-144.94045384397609
 20
341.60694559669338
 30
0.0
 40
5.7009440104166647
  1
重量
 41
0.7
 11
-144.94045384397609
 21
347.30788960710998
 31
0.0
 73
     3
  0
TEXT
  5
72
  8
SPEC
 62
     7
 10
-145.05859498863171
 20
375.1894404462891
 30
0.0
 40
5.7009440104166647
  1
電源
 41
0.7
 11
-145.05859498863171
 21
380.8903844567057
 31
0.0
 73
     3
  0
TEXT
  5
73
  8
SPEC
 62
     7
 10
-30.57657840761722
 20
374.79845012746142
 30
0.0
 40
5.7009440104166647
  1
5V DC
 41
0.7
 11
-30.57657840761722
 21
380.49939413787803
 31
0.0
 73
     3
  0
TEXT
  5
74
  8
SPEC
 62
     7
 10
-30.98384066333351
 20
352.35879033518933
 30
0.0
 40
5.7009440104166647
  1
132(W)\U+00D730(H)\U+00D770(D)mm(突起部含まず)、(センダー、レシーバー共に)
 41
0.7
 11
-30.98384066333351
 21
358.05973434560588
 31
0.0
 73
     3
  0
TEXT
  5
75
  8
SPEC
 62
     7
 10
-30.635210182247949
 20
341.25536766940178
 30
0.0
 40
5.7009440104166647
  1
約180g(センダー、レシーバー共に)
 41
0.7
 11
-30.635210182247949
 21
346.95631167981838
 31
0.0
 73
     3
  0
TEXT
  5
76
  8
SPEC
 62
     7
 10
-144.9200954508342
 20
363.81211343225499
 30
0.0
 40
5.7009440104166647
  1
消費電力
 41
0.7
 11
-144.9200954508342
 21
369.51305744267171
 31
0.0
 73
     3
  0
TEXT
  5
77
  8
SPEC
 62
     7
 10
-30.589934079728
 20
363.54122224799659
 30
0.0
 40
5.7009440104166647
  1
5W(最大)
 41
0.7
 11
-30.589934079728
 21
369.24216625841319
 31
0.0
 73
     3
  0
LINE
  5
78
  8
SPEC
  6
CONTINUOUS
 62
     7
 10
-147.49999999999989
 20
360.78654909381032
 30
0.0
 11
295.0
 21
360.78654909381032
 31
0.0
  0
LINE
  5
79
  8
SPEC
  6
CONTINUOUS
 62
     7
 10
-147.49999999999989
 20
349.53654909381032
 30
0.0
 11
295.0
 21
349.53654909381032
 31
0.0
  0
LINE
  5
7A
  8
SPEC
  6
CONTINUOUS
 62
     7
 10
-147.49999999999989
 20
338.28654909381038
 30
0.0
 11
295.0
 21
338.28654909381038
 31
0.0
  0
TEXT
  5
7B
  8
DIMNSIONS
 62
     7
 10
40.0
 20
-206.15498090618959
 30
0.0
 40
7.3297851562499989
  1
(単位：mm)
 41
0.7
 11
40.0
 21
-198.82519574993961
 31
0.0
 73
     3
  0
LINE
  5
7C
  8
DIMNSIONS
  6
CONTINUOUS
 62
     7
 10
-74.750000000000014
 20
181.25
 30
0.0
 11
-99.750000000000014
 21
181.25
 31
0.0
  0
LINE
  5
7D
  8
DIMNSIONS
  6
CONTINUOUS
 62
     7
 10
-74.750000000000014
 20
251.25
 30
0.0
 11
-99.750000000000014
 21
251.25
 31
0.0
  0
LINE
  5
7E
  8
DIMNSIONS
  6
CONTINUOUS
 62
     7
 10
-93.75
 20
181.25
 30
0.0
 11
-93.75
 21
251.25
 31
0.0
  0
LINE
  5
7F
  8
DIMNSIONS
  6
CONTINUOUS
 62
     7
 10
-93.75
 20
181.25
 30
0.0
 11
-95.760119385450764
 21
188.75186767578131
 31
0.0
  0
LINE
  5
80
  8
DIMNSIONS
  6
CONTINUOUS
 62
     7
 10
-93.75
 20
181.25
 30
0.0
 11
-91.739880614549264
 21
188.75186767578131
 31
0.0
  0
LINE
  5
81
  8
DIMNSIONS
  6
CONTINUOUS
 62
     7
 10
-93.75
 20
251.25
 30
0.0
 11
-91.739880614549264
 21
243.7481323242188
 31
0.0
  0
LINE
  5
82
  8
DIMNSIONS
  6
CONTINUOUS
 62
     7
 10
-93.75
 20
251.25
 30
0.0
 11
-95.760119385450764
 21
243.7481323242188
 31
0.0
  0
TEXT
  5
83
  8
DIMNSIONS
 62
     7
 10
-96.731666666666655
 20
210.95833333333329
 30
0.0
 40
8.1442057291666661
  1
70
 50
90.0
 41
0.7
 11
-104.8758723958333
 21
210.95833333333329
 31
0.0
 73
     3
  0
LINE
  5
84
  8
DIMNSIONS
  6
CONTINUOUS
 62
     7
 10
-74.750000000000014
 20
106.25
 30
0.0
 11
-99.750000000000014
 21
106.25
 31
0.0
  0
LINE
  5
85
  8
DIMNSIONS
  6
CONTINUOUS
 62
     7
 10
-73.250000000000014
 20
136.25
 30
0.0
 11
-99.750000000000014
 21
136.25
 31
0.0
  0
LINE
  5
86
  8
DIMNSIONS
  6
CONTINUOUS
 62
     7
 10
-93.75
 20
106.25
 30
0.0
 11
-93.75
 21
136.25
 31
0.0
  0
LINE
  5
87
  8
DIMNSIONS
  6
CONTINUOUS
 62
     7
 10
-93.75
 20
106.25
 30
0.0
 11
-95.760119385450764
 21
113.7518676757812
 31
0.0
  0
LINE
  5
88
  8
DIMNSIONS
  6
CONTINUOUS
 62
     7
 10
-93.75
 20
106.25
 30
0.0
 11
-91.739880614549264
 21
113.7518676757812
 31
0.0
  0
LINE
  5
89
  8
DIMNSIONS
  6
CONTINUOUS
 62
     7
 10
-93.75
 20
136.25
 30
0.0
 11
-91.739880614549264
 21
128.74813232421869
 31
0.0
  0
LINE
  5
8A
  8
DIMNSIONS
  6
CONTINUOUS
 62
     7
 10
-93.75
 20
136.25
 30
0.0
 11
-95.760119385450764
 21
128.74813232421869
 31
0.0
  0
TEXT
  5
8B
  8
DIMNSIONS
 62
     7
 10
-96.731666666666655
 20
115.9583333333333
 30
0.0
 40
8.1442057291666661
  1
30
 50
90.0
 41
0.7
 11
-104.8758723958333
 21
115.9583333333333
 31
0.0
 73
     3
  0
LINE
  5
8C
  8
DIMNSIONS
  6
CONTINUOUS
 62
     7
 10
-70.550819930977028
 20
103.25
 30
0.0
 11
-99.750000000000014
 21
103.25
 31
0.0
  0
LINE
  5
8D
  8
DIMNSIONS
  6
CONTINUOUS
 62
     7
 10
-74.750000000000014
 20
106.25
 30
0.0
 11
-99.750000000000014
 21
106.25
 31
0.0
  0
LINE
  5
8E
  8
DIMNSIONS
  6
CONTINUOUS
 62
     7
 10
-93.75
 20
106.25
 30
0.0
 11
-93.75
 21
103.25
 31
0.0
  0
LINE
  5
8F
  8
DIMNSIONS
  6
CONTINUOUS
 62
     7
 10
-93.75
 20
103.25
 30
0.0
 11
-93.75
 21
90.608333333333334
 31
0.0
  0
LINE
  5
90
  8
DIMNSIONS
  6
CONTINUOUS
 62
     7
 10
-93.75
 20
103.25
 30
0.0
 11
-91.739880614549264
 21
95.748132324218716
 31
0.0
  0
LINE
  5
91
  8
DIMNSIONS
  6
CONTINUOUS
 62
     7
 10
-93.75
 20
103.25
 30
0.0
 11
-95.760119385450764
 21
95.748132324218716
 31
0.0
  0
LINE
  5
92
  8
DIMNSIONS
  6
CONTINUOUS
 62
     7
 10
-93.75
 20
106.25
 30
0.0
 11
-93.75
 21
121.25
 31
0.0
  0
LINE
  5
93
  8
DIMNSIONS
  6
CONTINUOUS
 62
     7
 10
-93.75
 20
106.25
 30
0.0
 11
-95.760119385450764
 21
113.7518676757812
 31
0.0
  0
LINE
  5
94
  8
DIMNSIONS
  6
CONTINUOUS
 62
     7
 10
-93.75
 20
106.25
 30
0.0
 11
-91.739880614549264
 21
113.7518676757812
 31
0.0
  0
TEXT
  5
95
  8
DIMNSIONS
 62
     7
 10
-96.731666666666683
 20
90.608333333333334
 30
0.0
 40
8.1442057291666661
  1
3
 50
90.0
 41
0.7
 11
-104.8758723958333
 21
90.608333333333334
 31
0.0
 73
     3
  0
LINE
  5
96
  8
DIMNSIONS
  6
CONTINUOUS
 62
     7
 10
-68.750000000000014
 20
175.25
 30
0.0
 11
-68.750000000000014
 21
150.25
 31
0.0
  0
LINE
  5
97
  8
DIMNSIONS
  6
CONTINUOUS
 62
     7
 10
63.249999999999993
 20
175.25
 30
0.0
 11
63.249999999999993
 21
150.25
 31
0.0
  0
LINE
  5
98
  8
DIMNSIONS
  6
CONTINUOUS
 62
     7
 10
-68.750000000000014
 20
156.25
 30
0.0
 11
63.249999999999993
 21
156.25
 31
0.0
  0
LINE
  5
99
  8
DIMNSIONS
  6
CONTINUOUS
 62
     7
 10
-68.750000000000014
 20
156.25
 30
0.0
 11
-61.248132324218759
 21
158.26011938545071
 31
0.0
  0
LINE
  5
9A
  8
DIMNSIONS
  6
CONTINUOUS
 62
     7
 10
-68.750000000000014
 20
156.25
 30
0.0
 11
-61.248132324218759
 21
154.23988061454921
 31
0.0
  0
LINE
  5
9B
  8
DIMNSIONS
  6
CONTINUOUS
 62
     7
 10
63.249999999999993
 20
156.25
 30
0.0
 11
55.748132324218737
 21
154.23988061454921
 31
0.0
  0
LINE
  5
9C
  8
DIMNSIONS
  6
CONTINUOUS
 62
     7
 10
63.249999999999993
 20
156.25
 30
0.0
 11
55.748132324218737
 21
158.26011938545071
 31
0.0
  0
TEXT
  5
9D
  8
DIMNSIONS
 62
     7
 10
-10.687500000000011
 20
159.23166666666671
 30
0.0
 40
8.1442057291666661
  1
132
 41
0.7
 11
-10.687500000000011
 21
167.37587239583331
 31
0.0
 73
     3
  0
LINE
  5
9E
  8
DIMNSIONS
  6
CONTINUOUS
 62
     7
 10
-74.750000000000014
 20
251.25
 30
0.0
 11
-99.750000000000014
 21
251.25
 31
0.0
  0
LINE
  5
9F
  8
DIMNSIONS
  6
CONTINUOUS
 62
     7
 10
-47.900000000000013
 20
258.25
 30
0.0
 11
-99.750000000000014
 21
258.25
 31
0.0
  0
LINE
  5
A0
  8
DIMNSIONS
  6
CONTINUOUS
 62
     7
 10
-93.75
 20
258.25
 30
0.0
 11
-93.75
 21
251.25
 31
0.0
  0
LINE
  5
A1
  8
DIMNSIONS
  6
CONTINUOUS
 62
     7
 10
-93.75
 20
251.25
 30
0.0
 11
-93.75
 21
236.25
 31
0.0
  0
LINE
  5
A2
  8
DIMNSIONS
  6
CONTINUOUS
 62
     7
 10
-93.75
 20
251.25
 30
0.0
 11
-91.739880614549264
 21
243.7481323242188
 31
0.0
  0
LINE
  5
A3
  8
DIMNSIONS
  6
CONTINUOUS
 62
     7
 10
-93.75
 20
251.25
 30
0.0
 11
-95.760119385450764
 21
243.7481323242188
 31
0.0
  0
LINE
  5
A4
  8
DIMNSIONS
  6
CONTINUOUS
 62
     7
 10
-93.75
 20
258.25
 30
0.0
 11
-93.75
 21
268.79166666666657
 31
0.0
  0
LINE
  5
A5
  8
DIMNSIONS
  6
CONTINUOUS
 62
     7
 10
-93.75
 20
258.25
 30
0.0
 11
-95.760119385450764
 21
265.75186767578123
 31
0.0
  0
LINE
  5
A6
  8
DIMNSIONS
  6
CONTINUOUS
 62
     7
 10
-93.75
 20
258.25
 30
0.0
 11
-91.739880614549264
 21
265.75186767578123
 31
0.0
  0
TEXT
  5
A7
  8
DIMNSIONS
 62
     7
 10
-96.731666666666683
 20
263.5
 30
0.0
 40
8.1442057291666661
  1
7
 50
90.0
 41
0.7
 11
-104.8758723958333
 21
263.5
 31
0.0
 73
     3
  0
LINE
  5
A8
  8
DIMNSIONS
  6
CONTINUOUS
 62
     7
 10
-74.750000000000014
 20
-81.25
 30
0.0
 11
-99.750000000000014
 21
-81.25
 31
0.0
  0
LINE
  5
A9
  8
DIMNSIONS
  6
CONTINUOUS
 62
     7
 10
-74.750000000000014
 20
-11.25
 30
0.0
 11
-99.750000000000014
 21
-11.25
 31
0.0
  0
LINE
  5
AA
  8
DIMNSIONS
  6
CONTINUOUS
 62
     7
 10
-93.75
 20
-81.25
 30
0.0
 11
-93.75
 21
-11.25
 31
0.0
  0
LINE
  5
AB
  8
DIMNSIONS
  6
CONTINUOUS
 62
     7
 10
-93.75
 20
-81.25
 30
0.0
 11
-95.760119385450764
 21
-73.74813232421873
 31
0.0
  0
LINE
  5
AC
  8
DIMNSIONS
  6
CONTINUOUS
 62
     7
 10
-93.75
 20
-81.25
 30
0.0
 11
-91.739880614549264
 21
-73.74813232421873
 31
0.0
  0
LINE
  5
AD
  8
DIMNSIONS
  6
CONTINUOUS
 62
     7
 10
-93.75
 20
-11.25
 30
0.0
 11
-91.739880614549264
 21
-18.751867675781249
 31
0.0
  0
LINE
  5
AE
  8
DIMNSIONS
  6
CONTINUOUS
 62
     7
 10
-93.75
 20
-11.25
 30
0.0
 11
-95.760119385450764
 21
-18.751867675781249
 31
0.0
  0
TEXT
  5
AF
  8
DIMNSIONS
 62
     7
 10
-96.731666666666655
 20
-51.54166666666665
 30
0.0
 40
8.1442057291666661
  1
70
 50
90.0
 41
0.7
 11
-104.8758723958333
 21
-51.54166666666665
 31
0.0
 73
     3
  0
LINE
  5
B0
  8
DIMNSIONS
  6
CONTINUOUS
 62
     7
 10
-74.750000000000014
 20
-156.25
 30
0.0
 11
-99.750000000000014
 21
-156.25
 31
0.0
  0
LINE
  5
B1
  8
DIMNSIONS
  6
CONTINUOUS
 62
     7
 10
-73.250000000000014
 20
-126.25
 30
0.0
 11
-99.750000000000014
 21
-126.25
 31
0.0
  0
LINE
  5
B2
  8
DIMNSIONS
  6
CONTINUOUS
 62
     7
 10
-93.75
 20
-156.25
 30
0.0
 11
-93.75
 21
-126.25
 31
0.0
  0
LINE
  5
B3
  8
DIMNSIONS
  6
CONTINUOUS
 62
     7
 10
-93.75
 20
-156.25
 30
0.0
 11
-95.760119385450764
 21
-148.74813232421869
 31
0.0
  0
LINE
  5
B4
  8
DIMNSIONS
  6
CONTINUOUS
 62
     7
 10
-93.75
 20
-156.25
 30
0.0
 11
-91.739880614549264
 21
-148.74813232421869
 31
0.0
  0
LINE
  5
B5
  8
DIMNSIONS
  6
CONTINUOUS
 62
     7
 10
-93.75
 20
-126.25
 30
0.0
 11
-91.739880614549264
 21
-133.7518676757812
 31
0.0
  0
LINE
  5
B6
  8
DIMNSIONS
  6
CONTINUOUS
 62
     7
 10
-93.75
 20
-126.25
 30
0.0
 11
-95.760119385450764
 21
-133.7518676757812
 31
0.0
  0
TEXT
  5
B7
  8
DIMNSIONS
 62
     7
 10
-96.731666666666655
 20
-146.54166666666671
 30
0.0
 40
8.1442057291666661
  1
30
 50
90.0
 41
0.7
 11
-104.8758723958333
 21
-146.54166666666671
 31
0.0
 73
     3
  0
LINE
  5
B8
  8
DIMNSIONS
  6
CONTINUOUS
 62
     7
 10
-70.550819930977028
 20
-159.25
 30
0.0
 11
-99.750000000000014
 21
-159.25
 31
0.0
  0
LINE
  5
B9
  8
DIMNSIONS
  6
CONTINUOUS
 62
     7
 10
-74.750000000000014
 20
-156.25
 30
0.0
 11
-99.750000000000014
 21
-156.25
 31
0.0
  0
LINE
  5
BA
  8
DIMNSIONS
  6
CONTINUOUS
 62
     7
 10
-93.75
 20
-156.25
 30
0.0
 11
-93.75
 21
-159.25
 31
0.0
  0
LINE
  5
BB
  8
DIMNSIONS
  6
CONTINUOUS
 62
     7
 10
-93.75
 20
-159.25
 30
0.0
 11
-93.75
 21
-171.89166666666659
 31
0.0
  0
LINE
  5
BC
  8
DIMNSIONS
  6
CONTINUOUS
 62
     7
 10
-93.75
 20
-159.25
 30
0.0
 11
-91.739880614549264
 21
-166.7518676757812
 31
0.0
  0
LINE
  5
BD
  8
DIMNSIONS
  6
CONTINUOUS
 62
     7
 10
-93.75
 20
-159.25
 30
0.0
 11
-95.760119385450764
 21
-166.7518676757812
 31
0.0
  0
LINE
  5
BE
  8
DIMNSIONS
  6
CONTINUOUS
 62
     7
 10
-93.75
 20
-156.25
 30
0.0
 11
-93.75
 21
-141.25
 31
0.0
  0
LINE
  5
BF
  8
DIMNSIONS
  6
CONTINUOUS
 62
     7
 10
-93.75
 20
-156.25
 30
0.0
 11
-95.760119385450764
 21
-148.74813232421869
 31
0.0
  0
LINE
  5
C0
  8
DIMNSIONS
  6
CONTINUOUS
 62
     7
 10
-93.75
 20
-156.25
 30
0.0
 11
-91.739880614549264
 21
-148.74813232421869
 31
0.0
  0
TEXT
  5
C1
  8
DIMNSIONS
 62
     7
 10
-96.731666666666683
 20
-171.89166666666671
 30
0.0
 40
8.1442057291666661
  1
3
 50
90.0
 41
0.7
 11
-104.8758723958333
 21
-171.89166666666671
 31
0.0
 73
     3
  0
LINE
  5
C2
  8
DIMNSIONS
  6
CONTINUOUS
 62
     7
 10
-68.750000000000014
 20
-87.249999999999986
 30
0.0
 11
-68.750000000000014
 21
-112.25
 31
0.0
  0
LINE
  5
C3
  8
DIMNSIONS
  6
CONTINUOUS
 62
     7
 10
63.249999999999993
 20
-87.249999999999986
 30
0.0
 11
63.249999999999993
 21
-112.25
 31
0.0
  0
LINE
  5
C4
  8
DIMNSIONS
  6
CONTINUOUS
 62
     7
 10
-68.750000000000014
 20
-106.25
 30
0.0
 11
63.249999999999993
 21
-106.25
 31
0.0
  0
LINE
  5
C5
  8
DIMNSIONS
  6
CONTINUOUS
 62
     7
 10
-68.750000000000014
 20
-106.25
 30
0.0
 11
-61.248132324218759
 21
-104.23988061454919
 31
0.0
  0
LINE
  5
C6
  8
DIMNSIONS
  6
CONTINUOUS
 62
     7
 10
-68.750000000000014
 20
-106.25
 30
0.0
 11
-61.248132324218759
 21
-108.26011938545069
 31
0.0
  0
LINE
  5
C7
  8
DIMNSIONS
  6
CONTINUOUS
 62
     7
 10
63.249999999999993
 20
-106.25
 30
0.0
 11
55.748132324218737
 21
-108.26011938545069
 31
0.0
  0
LINE
  5
C8
  8
DIMNSIONS
  6
CONTINUOUS
 62
     7
 10
63.249999999999993
 20
-106.25
 30
0.0
 11
55.748132324218737
 21
-104.23988061454919
 31
0.0
  0
TEXT
  5
C9
  8
DIMNSIONS
 62
     7
 10
-10.687500000000011
 20
-103.2683333333333
 30
0.0
 40
8.1442057291666661
  1
132
 41
0.7
 11
-10.687500000000011
 21
-95.124127604166645
 31
0.0
 73
     3
  0
LINE
  5
CA
  8
DIMNSIONS
  6
CONTINUOUS
 62
     7
 10
-74.750000000000014
 20
-11.25
 30
0.0
 11
-99.750000000000014
 21
-11.25
 31
0.0
  0
LINE
  5
CB
  8
DIMNSIONS
  6
CONTINUOUS
 62
     7
 10
-47.900000000000013
 20
-4.25
 30
0.0
 11
-99.750000000000014
 21
-4.25
 31
0.0
  0
LINE
  5
CC
  8
DIMNSIONS
  6
CONTINUOUS
 62
     7
 10
-93.75
 20
-4.25
 30
0.0
 11
-93.75
 21
-11.25
 31
0.0
  0
LINE
  5
CD
  8
DIMNSIONS
  6
CONTINUOUS
 62
     7
 10
-93.75
 20
-11.25
 30
0.0
 11
-93.75
 21
-26.25
 31
0.0
  0
LINE
  5
CE
  8
DIMNSIONS
  6
CONTINUOUS
 62
     7
 10
-93.75
 20
-11.25
 30
0.0
 11
-91.739880614549264
 21
-18.751867675781249
 31
0.0
  0
LINE
  5
CF
  8
DIMNSIONS
  6
CONTINUOUS
 62
     7
 10
-93.75
 20
-11.25
 30
0.0
 11
-95.760119385450764
 21
-18.751867675781249
 31
0.0
  0
LINE
  5
D0
  8
DIMNSIONS
  6
CONTINUOUS
 62
     7
 10
-93.75
 20
-4.25
 30
0.0
 11
-93.75
 21
6.2916666666666572
 31
0.0
  0
LINE
  5
D1
  8
DIMNSIONS
  6
CONTINUOUS
 62
     7
 10
-93.75
 20
-4.25
 30
0.0
 11
-95.760119385450764
 21
3.2518676757812561
 31
0.0
  0
LINE
  5
D2
  8
DIMNSIONS
  6
CONTINUOUS
 62
     7
 10
-93.75
 20
-4.25
 30
0.0
 11
-91.739880614549264
 21
3.2518676757812561
 31
0.0
  0
TEXT
  5
D3
  8
DIMNSIONS
 62
     7
 10
-96.731666666666683
 20
1.0000000000000271
 30
0.0
 40
8.1442057291666661
  1
7
 50
90.0
 41
0.7
 11
-104.8758723958333
 21
1.000000000000028
 31
0.0
 73
     3
  0
TEXT
  5
D4
  8
DATA
 62
     7
 10
-139.99999999999989
 20
-230.24945090618959
 30
0.0
 40
4.8865234374999993
  1
仕様および外観は予告なく変更されることがありますので、ご了承ください。
 41
0.7
 11
-139.99999999999989
 21
-225.36292746868961
 31
0.0
 73
     3
  0
TEXT
  5
D5
  8
DATA
 62
     7
 10
-21.866600004039199
 20
89.676538204656396
 30
0.0
 40
7.3297851562499989
  1
センダー　
 41
0.7
 11
-21.866600004039199
 21
97.006323360906421
 31
0.0
 73
     3
  0
TEXT
  5
D6
  8
DATA
 62
     7
 10
-27.217565840077601
 20
-172.97248358288621
 30
0.0
 40
7.3297851562499989
  1
レシーバー
 41
0.7
 11
-27.217565840077601
 21
-165.64269842663609
 31
0.0
 73
     3
  0
LINE
  5
D7
  8
DATA
  6
CONTINUOUS
 62
     7
 10
-25.400000000000009
 20
87.5
 30
0.0
 11
19.399999999999991
 21
87.5
 31
0.0
  0
LINE
  5
D8
  8
DATA
  6
CONTINUOUS
 62
     7
 10
-31.000000000000011
 20
-175.0
 30
0.0
 11
26.0
 21
-175.0
 31
0.0
  0
TEXT
  5
D9
  8
DATA
 62
     7
 10
248.80068339540921
 20
-234.1149467806606
 30
0.0
 40
4.8865234374999993
  1
T.Ootake
 41
0.7
 11
248.80068339540921
 21
-229.22842334316061
 31
0.0
 73
     3
  0
LINE
  5
DA
  8
DATA
  6
CONTINUOUS
 62
     7
 10
-68.750000000000014
 20
181.25
 30
0.0
 11
-68.750000000000014
 21
251.25
 31
0.0
  0
LINE
  5
DB
  8
DATA
  6
CONTINUOUS
 62
     7
 10
63.249999999999993
 20
181.25
 30
0.0
 11
-68.750000000000014
 21
181.25
 31
0.0
  0
LINE
  5
DC
  8
DATA
  6
CONTINUOUS
 62
     7
 10
63.249999999999993
 20
251.25
 30
0.0
 11
63.249999999999993
 21
181.25
 31
0.0
  0
LINE
  5
DD
  8
DATA
  6
CONTINUOUS
 62
     7
 10
-68.750000000000014
 20
251.25
 30
0.0
 11
63.249999999999993
 21
251.25
 31
0.0
  0
LINE
  5
DE
  8
DATA
  6
CONTINUOUS
 62
     7
 10
-68.750000000000014
 20
106.25
 30
0.0
 11
-68.750000000000014
 21
134.75
 31
0.0
  0
LINE
  5
DF
  8
DATA
  6
CONTINUOUS
 62
     7
 10
63.249999999999993
 20
106.25
 30
0.0
 11
51.25
 21
106.25
 31
0.0
  0
LINE
  5
E0
  8
DATA
  6
CONTINUOUS
 62
     7
 10
-56.750000000000021
 20
106.25
 30
0.0
 11
-68.750000000000014
 21
106.25
 31
0.0
  0
LINE
  5
E1
  8
DATA
  6
CONTINUOUS
 62
     7
 10
63.249999999999993
 20
134.75
 30
0.0
 11
63.249999999999993
 21
106.25
 31
0.0
  0
LINE
  5
E2
  8
DATA
  6
CONTINUOUS
 62
     7
 10
-67.250000000000014
 20
136.25
 30
0.0
 11
61.749999999999993
 21
136.25
 31
0.0
  0
LINE
  5
E3
  8
DATA
  6
CONTINUOUS
 62
     7
 10
-68.750000000000014
 20
108.25
 30
0.0
 11
63.249999999999993
 21
108.25
 31
0.0
  0
LINE
  5
E4
  8
DATA
  6
CONTINUOUS
 62
     7
 10
-56.750000000000021
 20
108.25
 30
0.0
 11
-56.750000000000021
 21
106.25
 31
0.0
  0
LINE
  5
E5
  8
DATA
  6
CONTINUOUS
 62
     7
 10
51.25
 20
108.25
 30
0.0
 11
51.25
 21
106.25
 31
0.0
  0
LINE
  5
E6
  8
DATA
  6
CONTINUOUS
 62
     7
 10
-64.550819930977028
 20
103.25
 30
0.0
 11
-65.300819930977013
 21
106.25
 31
0.0
  0
LINE
  5
E7
  8
DATA
  6
CONTINUOUS
 62
     7
 10
-59.050819930977021
 20
103.25
 30
0.0
 11
-58.300819930977028
 21
106.25
 31
0.0
  0
LINE
  5
E8
  8
DATA
  6
CONTINUOUS
 62
     7
 10
-64.550819930977028
 20
103.25
 30
0.0
 11
-59.050819930977021
 21
103.25
 31
0.0
  0
LINE
  5
E9
  8
DATA
  6
CONTINUOUS
 62
     7
 10
59.050819930976999
 20
103.25
 30
0.0
 11
59.800819930976999
 21
106.25
 31
0.0
  0
LINE
  5
EA
  8
DATA
  6
CONTINUOUS
 62
     7
 10
53.550819930976999
 20
103.25
 30
0.0
 11
52.800819930976999
 21
106.25
 31
0.0
  0
LINE
  5
EB
  8
DATA
  6
CONTINUOUS
 62
     7
 10
59.050819930976999
 20
103.25
 30
0.0
 11
53.550819930976999
 21
103.25
 31
0.0
  0
LINE
  5
EC
  8
DATA
  6
CONTINUOUS
 62
     7
 10
0.5704803938002954
 20
113.8820068195477
 30
0.0
 11
0.5704803938002954
 21
127.18200681954769
 31
0.0
  0
LINE
  5
ED
  8
DATA
  6
CONTINUOUS
 62
     7
 10
16.270480393800231
 20
113.8820068195477
 30
0.0
 11
16.270480393800231
 21
127.18200681954769
 31
0.0
  0
LINE
  5
EE
  8
DATA
  6
CONTINUOUS
 62
     7
 10
16.270480393800231
 20
127.18200681954769
 30
0.0
 11
0.5704803938002954
 21
127.18200681954769
 31
0.0
  0
LINE
  5
EF
  8
DATA
  6
CONTINUOUS
 62
     7
 10
16.270480393800231
 20
113.8820068195477
 30
0.0
 11
0.5704803938002954
 21
113.8820068195477
 31
0.0
  0
LINE
  5
F0
  8
DATA
  6
CONTINUOUS
 62
     7
 10
14.57048039380029
 20
116.8820068195477
 30
0.0
 11
2.2704803938002271
 21
116.8820068195477
 31
0.0
  0
LINE
  5
F1
  8
DATA
  6
CONTINUOUS
 62
     7
 10
14.57048039380029
 20
116.8820068195477
 30
0.0
 11
14.57048039380029
 21
124.18200681954769
 31
0.0
  0
LINE
  5
F2
  8
DATA
  6
CONTINUOUS
 62
     7
 10
2.2704803938002271
 20
116.8820068195477
 30
0.0
 11
2.2704803938002271
 21
124.18200681954769
 31
0.0
  0
LINE
  5
F3
  8
DATA
  6
CONTINUOUS
 62
     7
 10
10.645480393800231
 20
127.18200681954769
 30
0.0
 11
10.645480393800231
 21
125.68200681954769
 31
0.0
  0
LINE
  5
F4
  8
DATA
  6
CONTINUOUS
 62
     7
 10
6.1954803938002962
 20
125.68200681954769
 30
0.0
 11
6.1954803938002962
 21
127.18200681954769
 31
0.0
  0
LINE
  5
F5
  8
DATA
  6
CONTINUOUS
 62
     7
 10
11.77048039380022
 20
125.68200681954769
 30
0.0
 11
10.645480393800231
 21
125.68200681954769
 31
0.0
  0
LINE
  5
F6
  8
DATA
  6
CONTINUOUS
 62
     7
 10
6.1954803938002962
 20
125.68200681954769
 30
0.0
 11
5.0704803938002962
 21
125.68200681954769
 31
0.0
  0
LINE
  5
F7
  8
DATA
  6
CONTINUOUS
 62
     7
 10
14.57048039380029
 20
124.18200681954769
 30
0.0
 11
11.77048039380022
 21
124.18200681954769
 31
0.0
  0
LINE
  5
F8
  8
DATA
  6
CONTINUOUS
 62
     7
 10
5.0704803938002962
 20
124.18200681954769
 30
0.0
 11
2.2704803938002271
 21
124.18200681954769
 31
0.0
  0
LINE
  5
F9
  8
DATA
  6
CONTINUOUS
 62
     7
 10
11.77048039380022
 20
125.68200681954769
 30
0.0
 11
11.77048039380022
 21
124.18200681954769
 31
0.0
  0
LINE
  5
FA
  8
DATA
  6
CONTINUOUS
 62
     7
 10
5.0704803938002962
 20
124.18200681954769
 30
0.0
 11
5.0704803938002962
 21
125.68200681954769
 31
0.0
  0
TEXT
  5
FB
  8
DATA
 62
     7
 10
3.2662252836761909
 20
129.06763031171371
 30
0.0
 40
3.0540771484375
  1
CAT-5
 41
0.7
 11
3.2662252836761909
 21
132.12170746015121
 31
0.0
 73
     3
  0
TEXT
  5
FC
  8
DATA
 62
     7
 10
-1.5418313036032461
 20
109.6167656945035
 30
0.0
 40
3.0540771484375
  1
Video/Audio
 41
0.7
 11
-1.5418313036032449
 21
112.670842842941
 31
0.0
 73
     3
  0
TEXT
  5
FD
  8
DATA
 62
     7
 10
-25.285037165778611
 20
198.1057469994079
 30
0.0
 40
7.3297851562499989
  1
COMPONENT
 41
0.7
 11
-25.285037165778611
 21
205.435532155658
 31
0.0
 73
     3
  0
TEXT
  5
FE
  8
DATA
 62
     7
 10
21.391666666666641
 20
198.06933333333319
 30
0.0
 40
7.3297851562499989
  1
w/Audio
 41
0.7
 11
21.391666666666641
 21
205.39911848958329
 31
0.0
 73
     3
  0
TEXT
  5
FF
  8
DATA
 62
     7
 10
5.340571643702658
 20
186.21697561679281
 30
0.0
 40
7.3297851562499989
  1
extender S
 41
0.7
 11
5.3405716437026589
 21
193.54676077304279
 31
0.0
 73
     3
  0
LINE
  5
100
  8
DATA
  6
CONTINUOUS
 62
     7
 10
-68.750000000000014
 20
304.99999999980508
 30
0.0
 11
-68.750000000000014
 21
276.49999999980508
 31
0.0
  0
LINE
  5
101
  8
DATA
  6
CONTINUOUS
 62
     7
 10
63.249999999999993
 20
304.99999999980508
 30
0.0
 11
51.25
 21
304.99999999980508
 31
0.0
  0
LINE
  5
102
  8
DATA
  6
CONTINUOUS
 62
     7
 10
-56.750000000000021
 20
304.99999999980508
 30
0.0
 11
-68.750000000000014
 21
304.99999999980508
 31
0.0
  0
LINE
  5
103
  8
DATA
  6
CONTINUOUS
 62
     7
 10
63.249999999999993
 20
276.49999999980508
 30
0.0
 11
63.249999999999993
 21
304.99999999980508
 31
0.0
  0
LINE
  5
104
  8
DATA
  6
CONTINUOUS
 62
     7
 10
-67.250000000000014
 20
274.99999999980508
 30
0.0
 11
61.749999999999993
 21
274.99999999980508
 31
0.0
  0
LINE
  5
105
  8
DATA
  6
CONTINUOUS
 62
     7
 10
-68.750000000000014
 20
302.99999999980508
 30
0.0
 11
63.249999999999993
 21
302.99999999980508
 31
0.0
  0
LINE
  5
106
  8
DATA
  6
CONTINUOUS
 62
     7
 10
-56.750000000000021
 20
302.99999999980508
 30
0.0
 11
-56.750000000000021
 21
304.99999999980508
 31
0.0
  0
LINE
  5
107
  8
DATA
  6
CONTINUOUS
 62
     7
 10
51.25
 20
302.99999999980508
 30
0.0
 11
51.25
 21
304.99999999980508
 31
0.0
  0
LINE
  5
108
  8
DATA
  6
CONTINUOUS
 62
     7
 10
-64.550819930977028
 20
307.99999999980508
 30
0.0
 11
-65.300819930977013
 21
304.99999999980508
 31
0.0
  0
LINE
  5
109
  8
DATA
  6
CONTINUOUS
 62
     7
 10
-59.050819930977021
 20
307.99999999980508
 30
0.0
 11
-58.300819930977028
 21
304.99999999980508
 31
0.0
  0
LINE
  5
10A
  8
DATA
  6
CONTINUOUS
 62
     7
 10
-64.550819930977028
 20
307.99999999980508
 30
0.0
 11
-59.050819930977021
 21
307.99999999980508
 31
0.0
  0
LINE
  5
10B
  8
DATA
  6
CONTINUOUS
 62
     7
 10
59.050819930976999
 20
307.99999999980508
 30
0.0
 11
59.800819930976999
 21
304.99999999980508
 31
0.0
  0
LINE
  5
10C
  8
DATA
  6
CONTINUOUS
 62
     7
 10
53.550819930976999
 20
307.99999999980508
 30
0.0
 11
52.800819930976999
 21
304.99999999980508
 31
0.0
  0
LINE
  5
10D
  8
DATA
  6
CONTINUOUS
 62
     7
 10
59.050819930976999
 20
307.99999999980508
 30
0.0
 11
53.550819930976999
 21
307.99999999980508
 31
0.0
  0
CIRCLE
  5
10E
  8
DATA
  6
CONTINUOUS
 62
     7
 10
37.25
 20
288.99999999980508
 30
0.0
 40
4.1499999999999986
  0
CIRCLE
  5
10F
  8
DATA
  6
CONTINUOUS
 62
     7
 10
37.25
 20
288.99999999980508
 30
0.0
 40
1.75
  0
CIRCLE
  5
110
  8
DATA
  6
CONTINUOUS
 62
     7
 10
22.249999999999989
 20
288.99999999980508
 30
0.0
 40
4.1500000000000048
  0
CIRCLE
  5
111
  8
DATA
  6
CONTINUOUS
 62
     7
 10
22.249999999999989
 20
288.99999999980508
 30
0.0
 40
1.75
  0
CIRCLE
  5
112
  8
DATA
  6
CONTINUOUS
 62
     7
 10
7.2499999999999867
 20
288.99999999980508
 30
0.0
 40
4.1500000000000048
  0
CIRCLE
  5
113
  8
DATA
  6
CONTINUOUS
 62
     7
 10
7.2499999999999867
 20
288.99999999980508
 30
0.0
 40
1.75
  0
CIRCLE
  5
114
  8
DATA
  6
CONTINUOUS
 62
     7
 10
-7.7500000000000142
 20
288.99999999980508
 30
0.0
 40
4.1500000000000048
  0
CIRCLE
  5
115
  8
DATA
  6
CONTINUOUS
 62
     7
 10
-7.7500000000000142
 20
288.99999999980508
 30
0.0
 40
1.75
  0
CIRCLE
  5
116
  8
DATA
  6
CONTINUOUS
 62
     7
 10
-22.750000000000011
 20
288.99999999980508
 30
0.0
 40
4.1500000000000048
  0
CIRCLE
  5
117
  8
DATA
  6
CONTINUOUS
 62
     7
 10
-22.750000000000011
 20
288.99999999980508
 30
0.0
 40
1.75
  0
CIRCLE
  5
118
  8
DATA
  6
CONTINUOUS
 62
     7
 10
-37.750000000000021
 20
288.99999999980508
 30
0.0
 40
4.1500000000000048
  0
CIRCLE
  5
119
  8
DATA
  6
CONTINUOUS
 62
     7
 10
-37.750000000000021
 20
288.99999999980508
 30
0.0
 40
1.75
  0
CIRCLE
  5
11A
  8
DATA
  6
CONTINUOUS
 62
     7
 10
-61.750000000000021
 20
293.00828716800658
 30
0.0
 40
1.400000000000005
  0
POLYLINE
  5
11B
  8
DATA
  6
CONTINUOUS
 62
     7
 66
     1
 10
0.0
 20
0.0
 30
0.0
 70
     1
  0
VERTEX
  5
280
  8
DATA
  6
CONTINUOUS
 62
     7
 10
-57.250000000000021
 20
298.37157216443973
 30
0.0
  0
VERTEX
  5
281
  8
DATA
  6
CONTINUOUS
 62
     7
 10
-47.250000000000021
 20
298.37157216443973
 30
0.0
  0
VERTEX
  5
282
  8
DATA
  6
CONTINUOUS
 62
     7
 10
-47.250000000000021
 20
288.37157216443973
 30
0.0
  0
VERTEX
  5
283
  8
DATA
  6
CONTINUOUS
 62
     7
 10
-57.250000000000021
 20
288.37157216443973
 30
0.0
  0
SEQEND
  5
284
  8
DATA
  6
CONTINUOUS
 62
     7
  0
CIRCLE
  5
122
  8
DATA
  6
CONTINUOUS
 62
     7
 10
52.249999999999993
 20
293.04204616872738
 30
0.0
 40
3.1499999999999981
  0
CIRCLE
  5
123
  8
DATA
  6
CONTINUOUS
 62
     7
 10
52.249999999999993
 20
293.04204616872738
 30
0.0
 40
0.4939281061798874
  0
TEXT
  5
124
  8
DATA
 62
     7
 10
56.552410761159003
 20
301.19869485094642
 30
0.0
 40
2.646866861979166
  1
5V DC
 50
180.0
 41
0.7
 11
56.552410761159003
 21
298.55182798896732
 31
0.0
 73
     3
  0
TEXT
  5
125
  8
DATA
 62
     7
 10
38.321158545501419
 20
301.19869485094642
 30
0.0
 40
2.646866861979166
  1
Pr
 50
180.0
 41
0.7
 11
38.321158545501419
 21
298.55182798896732
 31
0.0
 73
     3
  0
TEXT
  5
126
  8
DATA
 62
     7
 10
22.960796873823249
 20
301.19869485094642
 30
0.0
 40
2.646866861979166
  1
Y
 50
180.0
 41
0.7
 11
22.960796873823249
 21
298.55182798896732
 31
0.0
 73
     3
  0
TEXT
  5
127
  8
DATA
 62
     7
 10
8.8016407744056693
 20
301.19869485094642
 30
0.0
 40
2.646866861979166
  1
Pb
 50
180.0
 41
0.7
 11
8.8016407744056693
 21
298.55182798896732
 31
0.0
 73
     3
  0
TEXT
  5
128
  8
DATA
 62
     7
 10
-7.3989972991592881
 20
301.19869485094642
 30
0.0
 40
2.646866861979166
  1
L
 50
180.0
 41
0.7
 11
-7.3989972991592889
 21
298.55182798896732
 31
0.0
 73
     3
  0
TEXT
  5
129
  8
DATA
 62
     7
 10
-22.038919376828929
 20
301.19869485094642
 30
0.0
 40
2.646866861979166
  1
R
 50
180.0
 41
0.7
 11
-22.038919376828929
 21
298.55182798896732
 31
0.0
 73
     3
  0
TEXT
  5
12A
  8
DATA
 62
     7
 10
-33.645360446276626
 20
298.2216612019227
 30
0.0
 40
2.646866861979166
  1
SPDIF
 50
180.0
 41
0.7
 11
-33.645360446276626
 21
295.57479433994359
 31
0.0
 73
     3
  0
TEXT
  5
12B
  8
DATA
 62
     7
 10
-36.001149558226693
 20
301.19869485094642
 30
0.0
 40
2.646866861979166
  1
In
 50
180.0
 41
0.7
 11
-36.001149558226693
 21
298.55182798896732
 31
0.0
 73
     3
  0
TEXT
  5
12C
  8
DATA
 62
     7
 10
-11.441813652535091
 20
281.2689216430868
 30
0.0
 40
2.646866861979166
  1
AUDIO
 50
180.0
 41
0.7
 11
-11.441813652535091
 21
278.62205478110769
 31
0.0
 73
     3
  0
TEXT
  5
12D
  8
DATA
 62
     7
 10
-13.79760276448515
 20
284.8446686489965
 30
0.0
 40
2.646866861979166
  1
In
 50
180.0
 41
0.7
 11
-13.79760276448515
 21
282.19780178701728
 31
0.0
 73
     3
  0
TEXT
  5
12E
  8
DATA
 62
     7
 10
-47.684281442647617
 20
283.3337053908046
 30
0.0
 40
2.646866861979166
  1
OPTIC.
 50
180.0
 41
0.7
 11
-47.684281442647617
 21
280.68683852882538
 31
0.0
 73
     3
  0
TEXT
  5
12F
  8
DATA
 62
     7
 10
-50.517910703943713
 20
286.98909242160528
 30
0.0
 40
2.646866861979166
  1
In
 50
180.0
 41
0.7
 11
-50.517910703943713
 21
284.34222555962617
 31
0.0
 73
     3
  0
TEXT
  5
130
  8
DATA
 62
     7
 10
-58.32140164177563
 20
301.2615329443164
 30
0.0
 40
2.646866861979166
  1
Power
 50
180.0
 41
0.7
 11
-58.32140164177563
 21
298.61466608233718
 31
0.0
 73
     3
  0
LINE
  5
131
  8
DATA
  6
CONTINUOUS
 62
     7
 10
112.4999999998317
 20
136.24999999974631
 30
0.0
 11
112.4999999998317
 21
106.24999999974629
 31
0.0
  0
LINE
  5
132
  8
DATA
  6
CONTINUOUS
 62
     7
 10
182.4999999998316
 20
136.24999999974631
 30
0.0
 11
182.4999999998316
 21
106.24999999974629
 31
0.0
  0
LINE
  5
133
  8
DATA
  6
CONTINUOUS
 62
     7
 10
112.4999999998317
 20
136.24999999974631
 30
0.0
 11
182.4999999998316
 21
136.24999999974631
 31
0.0
  0
LINE
  5
134
  8
DATA
  6
CONTINUOUS
 62
     7
 10
112.4999999998317
 20
106.24999999974629
 30
0.0
 11
182.4999999998316
 21
106.24999999974629
 31
0.0
  0
LINE
  5
135
  8
DATA
  6
CONTINUOUS
 62
     7
 10
33.09999999999998
 20
256.25
 30
0.0
 11
33.09999999999998
 21
251.25
 31
0.0
  0
LINE
  5
136
  8
DATA
  6
CONTINUOUS
 62
     7
 10
41.399999999999977
 20
256.25
 30
0.0
 11
41.399999999999977
 21
251.25
 31
0.0
  0
LINE
  5
137
  8
DATA
  6
CONTINUOUS
 62
     7
 10
18.09999999999998
 20
256.25
 30
0.0
 11
18.09999999999998
 21
251.25
 31
0.0
  0
LINE
  5
138
  8
DATA
  6
CONTINUOUS
 62
     7
 10
26.399999999999991
 20
256.25
 30
0.0
 11
26.399999999999991
 21
251.25
 31
0.0
  0
LINE
  5
139
  8
DATA
  6
CONTINUOUS
 62
     7
 10
3.0999999999999801
 20
256.25
 30
0.0
 11
3.0999999999999801
 21
251.25
 31
0.0
  0
LINE
  5
13A
  8
DATA
  6
CONTINUOUS
 62
     7
 10
11.39999999999999
 20
256.25
 30
0.0
 11
11.39999999999999
 21
251.25
 31
0.0
  0
LINE
  5
13B
  8
DATA
  6
CONTINUOUS
 62
     7
 10
-11.90000000000002
 20
258.25
 30
0.0
 11
-11.90000000000002
 21
251.25
 31
0.0
  0
LINE
  5
13C
  8
DATA
  6
CONTINUOUS
 62
     7
 10
-3.6000000000000081
 20
258.25
 30
0.0
 11
-3.6000000000000081
 21
251.25
 31
0.0
  0
LINE
  5
13D
  8
DATA
  6
CONTINUOUS
 62
     7
 10
-26.90000000000002
 20
258.25
 30
0.0
 11
-26.90000000000002
 21
251.25
 31
0.0
  0
LINE
  5
13E
  8
DATA
  6
CONTINUOUS
 62
     7
 10
-18.600000000000009
 20
258.25
 30
0.0
 11
-18.600000000000009
 21
251.25
 31
0.0
  0
LINE
  5
13F
  8
DATA
  6
CONTINUOUS
 62
     7
 10
-41.900000000000027
 20
258.25
 30
0.0
 11
-41.900000000000027
 21
251.25
 31
0.0
  0
LINE
  5
140
  8
DATA
  6
CONTINUOUS
 62
     7
 10
-33.600000000000009
 20
258.25
 30
0.0
 11
-33.600000000000009
 21
251.25
 31
0.0
  0
LINE
  5
141
  8
DATA
  6
CONTINUOUS
 62
     7
 10
3.0999999999999801
 20
256.25
 30
0.0
 11
11.39999999999999
 21
256.25
 31
0.0
  0
LINE
  5
142
  8
DATA
  6
CONTINUOUS
 62
     7
 10
18.09999999999998
 20
256.25
 30
0.0
 11
26.399999999999991
 21
256.25
 31
0.0
  0
LINE
  5
143
  8
DATA
  6
CONTINUOUS
 62
     7
 10
33.09999999999998
 20
256.25
 30
0.0
 11
41.399999999999977
 21
256.25
 31
0.0
  0
LINE
  5
144
  8
DATA
  6
CONTINUOUS
 62
     7
 10
-41.900000000000027
 20
258.25
 30
0.0
 11
-33.600000000000009
 21
258.25
 31
0.0
  0
LINE
  5
145
  8
DATA
  6
CONTINUOUS
 62
     7
 10
-26.90000000000002
 20
258.25
 30
0.0
 11
-18.600000000000009
 21
258.25
 31
0.0
  0
LINE
  5
146
  8
DATA
  6
CONTINUOUS
 62
     7
 10
-11.90000000000002
 20
258.25
 30
0.0
 11
-3.6000000000000081
 21
258.25
 31
0.0
  0
LINE
  5
147
  8
DATA
  6
CONTINUOUS
 62
     7
 10
189.4999999998316
 20
126.53709188387219
 30
0.0
 11
182.4999999998316
 21
126.53709188387219
 31
0.0
  0
LINE
  5
148
  8
DATA
  6
CONTINUOUS
 62
     7
 10
189.4999999998316
 20
118.2370918838722
 30
0.0
 11
182.4999999998316
 21
118.2370918838722
 31
0.0
  0
LINE
  5
149
  8
DATA
  6
CONTINUOUS
 62
     7
 10
189.4999999998316
 20
126.53709188387219
 30
0.0
 11
189.4999999998316
 21
118.2370918838722
 31
0.0
  0
LINE
  5
14A
  8
DATA
  6
CONTINUOUS
 62
     7
 10
187.4999999998316
 20
126.53709188387219
 30
0.0
 11
187.4999999998316
 21
118.2370918838722
 31
0.0
  0
LINE
  5
14B
  8
DATA
  6
CONTINUOUS
 62
     7
 10
116.3472874694736
 20
103.24999999974629
 30
0.0
 11
115.5972874694735
 21
106.24999999974629
 31
0.0
  0
LINE
  5
14C
  8
DATA
  6
CONTINUOUS
 62
     7
 10
121.8472874694735
 20
103.24999999974629
 30
0.0
 11
122.5972874694735
 21
106.24999999974629
 31
0.0
  0
LINE
  5
14D
  8
DATA
  6
CONTINUOUS
 62
     7
 10
116.3472874694736
 20
103.24999999974629
 30
0.0
 11
121.8472874694735
 21
103.24999999974629
 31
0.0
  0
LINE
  5
14E
  8
DATA
  6
CONTINUOUS
 62
     7
 10
178.65271253018969
 20
103.24999999974629
 30
0.0
 11
179.40271253018969
 21
106.24999999974629
 31
0.0
  0
LINE
  5
14F
  8
DATA
  6
CONTINUOUS
 62
     7
 10
173.15271253018969
 20
103.24999999974629
 30
0.0
 11
172.40271253018969
 21
106.24999999974629
 31
0.0
  0
LINE
  5
150
  8
DATA
  6
CONTINUOUS
 62
     7
 10
178.65271253018969
 20
103.24999999974629
 30
0.0
 11
173.15271253018969
 21
103.24999999974629
 31
0.0
  0
LINE
  5
151
  8
DATA
  6
CONTINUOUS
 62
     7
 10
-68.750000000000014
 20
-81.25
 30
0.0
 11
-68.750000000000014
 21
-11.25
 31
0.0
  0
LINE
  5
152
  8
DATA
  6
CONTINUOUS
 62
     7
 10
63.249999999999993
 20
-81.25
 30
0.0
 11
-68.750000000000014
 21
-81.25
 31
0.0
  0
LINE
  5
153
  8
DATA
  6
CONTINUOUS
 62
     7
 10
63.249999999999993
 20
-11.25
 30
0.0
 11
63.249999999999993
 21
-81.25
 31
0.0
  0
LINE
  5
154
  8
DATA
  6
CONTINUOUS
 62
     7
 10
-68.750000000000014
 20
-11.25
 30
0.0
 11
63.249999999999993
 21
-11.25
 31
0.0
  0
LINE
  5
155
  8
DATA
  6
CONTINUOUS
 62
     7
 10
-68.750000000000014
 20
-156.25
 30
0.0
 11
-68.750000000000014
 21
-127.75
 31
0.0
  0
LINE
  5
156
  8
DATA
  6
CONTINUOUS
 62
     7
 10
63.249999999999993
 20
-156.25
 30
0.0
 11
51.25
 21
-156.25
 31
0.0
  0
LINE
  5
157
  8
DATA
  6
CONTINUOUS
 62
     7
 10
-56.750000000000021
 20
-156.25
 30
0.0
 11
-68.750000000000014
 21
-156.25
 31
0.0
  0
LINE
  5
158
  8
DATA
  6
CONTINUOUS
 62
     7
 10
63.249999999999993
 20
-127.75
 30
0.0
 11
63.249999999999993
 21
-156.25
 31
0.0
  0
LINE
  5
159
  8
DATA
  6
CONTINUOUS
 62
     7
 10
-67.250000000000014
 20
-126.25
 30
0.0
 11
61.749999999999993
 21
-126.25
 31
0.0
  0
LINE
  5
15A
  8
DATA
  6
CONTINUOUS
 62
     7
 10
-68.750000000000014
 20
-154.25
 30
0.0
 11
63.249999999999993
 21
-154.25
 31
0.0
  0
LINE
  5
15B
  8
DATA
  6
CONTINUOUS
 62
     7
 10
-56.750000000000021
 20
-154.25
 30
0.0
 11
-56.750000000000021
 21
-156.25
 31
0.0
  0
LINE
  5
15C
  8
DATA
  6
CONTINUOUS
 62
     7
 10
51.25
 20
-154.25
 30
0.0
 11
51.25
 21
-156.25
 31
0.0
  0
LINE
  5
15D
  8
DATA
  6
CONTINUOUS
 62
     7
 10
-64.550819930977028
 20
-159.25
 30
0.0
 11
-65.300819930977013
 21
-156.25
 31
0.0
  0
LINE
  5
15E
  8
DATA
  6
CONTINUOUS
 62
     7
 10
-59.050819930977021
 20
-159.25
 30
0.0
 11
-58.300819930977028
 21
-156.25
 31
0.0
  0
LINE
  5
15F
  8
DATA
  6
CONTINUOUS
 62
     7
 10
-64.550819930977028
 20
-159.25
 30
0.0
 11
-59.050819930977021
 21
-159.25
 31
0.0
  0
LINE
  5
160
  8
DATA
  6
CONTINUOUS
 62
     7
 10
59.050819930976999
 20
-159.25
 30
0.0
 11
59.800819930976999
 21
-156.25
 31
0.0
  0
LINE
  5
161
  8
DATA
  6
CONTINUOUS
 62
     7
 10
53.550819930976999
 20
-159.25
 30
0.0
 11
52.800819930976999
 21
-156.25
 31
0.0
  0
LINE
  5
162
  8
DATA
  6
CONTINUOUS
 62
     7
 10
59.050819930976999
 20
-159.25
 30
0.0
 11
53.550819930976999
 21
-159.25
 31
0.0
  0
LINE
  5
163
  8
DATA
  6
CONTINUOUS
 62
     7
 10
0.5704803938002954
 20
-148.6179931804522
 30
0.0
 11
0.5704803938002954
 21
-135.31799318045231
 31
0.0
  0
LINE
  5
164
  8
DATA
  6
CONTINUOUS
 62
     7
 10
16.270480393800231
 20
-148.6179931804522
 30
0.0
 11
16.270480393800231
 21
-135.31799318045231
 31
0.0
  0
LINE
  5
165
  8
DATA
  6
CONTINUOUS
 62
     7
 10
16.270480393800231
 20
-135.31799318045231
 30
0.0
 11
0.5704803938002954
 21
-135.31799318045231
 31
0.0
  0
LINE
  5
166
  8
DATA
  6
CONTINUOUS
 62
     7
 10
16.270480393800231
 20
-148.6179931804522
 30
0.0
 11
0.5704803938002954
 21
-148.6179931804522
 31
0.0
  0
LINE
  5
167
  8
DATA
  6
CONTINUOUS
 62
     7
 10
14.57048039380029
 20
-145.61799318045229
 30
0.0
 11
2.2704803938002271
 21
-145.61799318045229
 31
0.0
  0
LINE
  5
168
  8
DATA
  6
CONTINUOUS
 62
     7
 10
14.57048039380029
 20
-145.61799318045229
 30
0.0
 11
14.57048039380029
 21
-138.31799318045231
 31
0.0
  0
LINE
  5
169
  8
DATA
  6
CONTINUOUS
 62
     7
 10
2.2704803938002271
 20
-145.61799318045229
 30
0.0
 11
2.2704803938002271
 21
-138.31799318045231
 31
0.0
  0
LINE
  5
16A
  8
DATA
  6
CONTINUOUS
 62
     7
 10
10.645480393800231
 20
-135.31799318045231
 30
0.0
 11
10.645480393800231
 21
-136.81799318045219
 31
0.0
  0
LINE
  5
16B
  8
DATA
  6
CONTINUOUS
 62
     7
 10
6.1954803938002962
 20
-136.81799318045219
 30
0.0
 11
6.1954803938002962
 21
-135.31799318045231
 31
0.0
  0
LINE
  5
16C
  8
DATA
  6
CONTINUOUS
 62
     7
 10
11.77048039380022
 20
-136.81799318045219
 30
0.0
 11
10.645480393800231
 21
-136.81799318045219
 31
0.0
  0
LINE
  5
16D
  8
DATA
  6
CONTINUOUS
 62
     7
 10
6.1954803938002962
 20
-136.81799318045219
 30
0.0
 11
5.0704803938002962
 21
-136.81799318045219
 31
0.0
  0
LINE
  5
16E
  8
DATA
  6
CONTINUOUS
 62
     7
 10
14.57048039380029
 20
-138.31799318045231
 30
0.0
 11
11.77048039380022
 21
-138.31799318045231
 31
0.0
  0
LINE
  5
16F
  8
DATA
  6
CONTINUOUS
 62
     7
 10
5.0704803938002962
 20
-138.31799318045231
 30
0.0
 11
2.2704803938002271
 21
-138.31799318045231
 31
0.0
  0
LINE
  5
170
  8
DATA
  6
CONTINUOUS
 62
     7
 10
11.77048039380022
 20
-136.81799318045219
 30
0.0
 11
11.77048039380022
 21
-138.31799318045231
 31
0.0
  0
LINE
  5
171
  8
DATA
  6
CONTINUOUS
 62
     7
 10
5.0704803938002962
 20
-138.31799318045231
 30
0.0
 11
5.0704803938002962
 21
-136.81799318045219
 31
0.0
  0
TEXT
  5
172
  8
DATA
 62
     7
 10
3.2662252836761909
 20
-133.4323696882862
 30
0.0
 40
3.0540771484375
  1
CAT-5
 41
0.7
 11
3.2662252836761909
 21
-130.3782925398487
 31
0.0
 73
     3
  0
TEXT
  5
173
  8
DATA
 62
     7
 10
-1.5418313036032461
 20
-152.88323430549639
 30
0.0
 40
3.0540771484375
  1
Video/Audio
 41
0.7
 11
-1.5418313036032449
 21
-149.82915715705889
 31
0.0
 73
     3
  0
TEXT
  5
174
  8
DATA
 62
     7
 10
-25.285037165778611
 20
-64.394253000592101
 30
0.0
 40
7.3297851562499989
  1
COMPONENT
 41
0.7
 11
-25.285037165778611
 21
-57.06446784434209
 31
0.0
 73
     3
  0
TEXT
  5
175
  8
DATA
 62
     7
 10
21.391666666666641
 20
-64.430666666666696
 30
0.0
 40
7.3297851562499989
  1
w/Audio
 41
0.7
 11
21.391666666666641
 21
-57.100881510416691
 31
0.0
 73
     3
  0
TEXT
  5
176
  8
DATA
 62
     7
 10
5.340571643702658
 20
-76.283024383207149
 30
0.0
 40
7.3297851562499989
  1
extender R
 41
0.7
 11
5.3405716437026589
 21
-68.953239226957152
 31
0.0
 73
     3
  0
LINE
  5
177
  8
DATA
  6
CONTINUOUS
 62
     7
 10
-68.750000000000014
 20
42.499999999805077
 30
0.0
 11
-68.750000000000014
 21
13.99999999980508
 31
0.0
  0
LINE
  5
178
  8
DATA
  6
CONTINUOUS
 62
     7
 10
63.249999999999993
 20
42.499999999805077
 30
0.0
 11
51.25
 21
42.499999999805077
 31
0.0
  0
LINE
  5
179
  8
DATA
  6
CONTINUOUS
 62
     7
 10
-56.750000000000021
 20
42.499999999805077
 30
0.0
 11
-68.750000000000014
 21
42.499999999805077
 31
0.0
  0
LINE
  5
17A
  8
DATA
  6
CONTINUOUS
 62
     7
 10
63.249999999999993
 20
13.99999999980508
 30
0.0
 11
63.249999999999993
 21
42.499999999805077
 31
0.0
  0
LINE
  5
17B
  8
DATA
  6
CONTINUOUS
 62
     7
 10
-67.250000000000014
 20
12.49999999980508
 30
0.0
 11
61.749999999999993
 21
12.49999999980508
 31
0.0
  0
LINE
  5
17C
  8
DATA
  6
CONTINUOUS
 62
     7
 10
-68.750000000000014
 20
40.499999999805091
 30
0.0
 11
63.249999999999993
 21
40.499999999805091
 31
0.0
  0
LINE
  5
17D
  8
DATA
  6
CONTINUOUS
 62
     7
 10
-56.750000000000021
 20
40.499999999805091
 30
0.0
 11
-56.750000000000021
 21
42.499999999805077
 31
0.0
  0
LINE
  5
17E
  8
DATA
  6
CONTINUOUS
 62
     7
 10
51.25
 20
40.499999999805091
 30
0.0
 11
51.25
 21
42.499999999805077
 31
0.0
  0
LINE
  5
17F
  8
DATA
  6
CONTINUOUS
 62
     7
 10
-64.550819930977028
 20
45.499999999805091
 30
0.0
 11
-65.300819930977013
 21
42.499999999805077
 31
0.0
  0
LINE
  5
180
  8
DATA
  6
CONTINUOUS
 62
     7
 10
-59.050819930977021
 20
45.499999999805091
 30
0.0
 11
-58.300819930977028
 21
42.499999999805077
 31
0.0
  0
LINE
  5
181
  8
DATA
  6
CONTINUOUS
 62
     7
 10
-64.550819930977028
 20
45.499999999805091
 30
0.0
 11
-59.050819930977021
 21
45.499999999805091
 31
0.0
  0
LINE
  5
182
  8
DATA
  6
CONTINUOUS
 62
     7
 10
59.050819930976999
 20
45.499999999805091
 30
0.0
 11
59.800819930976999
 21
42.499999999805077
 31
0.0
  0
LINE
  5
183
  8
DATA
  6
CONTINUOUS
 62
     7
 10
53.550819930976999
 20
45.499999999805091
 30
0.0
 11
52.800819930976999
 21
42.499999999805077
 31
0.0
  0
LINE
  5
184
  8
DATA
  6
CONTINUOUS
 62
     7
 10
59.050819930976999
 20
45.499999999805091
 30
0.0
 11
53.550819930976999
 21
45.499999999805091
 31
0.0
  0
CIRCLE
  5
185
  8
DATA
  6
CONTINUOUS
 62
     7
 10
37.25
 20
26.499999999805091
 30
0.0
 40
4.1499999999999986
  0
CIRCLE
  5
186
  8
DATA
  6
CONTINUOUS
 62
     7
 10
37.25
 20
26.499999999805091
 30
0.0
 40
1.75
  0
CIRCLE
  5
187
  8
DATA
  6
CONTINUOUS
 62
     7
 10
22.249999999999989
 20
26.499999999805091
 30
0.0
 40
4.1500000000000048
  0
CIRCLE
  5
188
  8
DATA
  6
CONTINUOUS
 62
     7
 10
22.249999999999989
 20
26.499999999805091
 30
0.0
 40
1.75
  0
CIRCLE
  5
189
  8
DATA
  6
CONTINUOUS
 62
     7
 10
7.2499999999999867
 20
26.499999999805091
 30
0.0
 40
4.1500000000000048
  0
CIRCLE
  5
18A
  8
DATA
  6
CONTINUOUS
 62
     7
 10
7.2499999999999867
 20
26.499999999805091
 30
0.0
 40
1.75
  0
CIRCLE
  5
18B
  8
DATA
  6
CONTINUOUS
 62
     7
 10
-7.7500000000000142
 20
26.499999999805091
 30
0.0
 40
4.1500000000000048
  0
CIRCLE
  5
18C
  8
DATA
  6
CONTINUOUS
 62
     7
 10
-7.7500000000000142
 20
26.499999999805091
 30
0.0
 40
1.75
  0
CIRCLE
  5
18D
  8
DATA
  6
CONTINUOUS
 62
     7
 10
-22.750000000000011
 20
26.499999999805091
 30
0.0
 40
4.1500000000000048
  0
CIRCLE
  5
18E
  8
DATA
  6
CONTINUOUS
 62
     7
 10
-22.750000000000011
 20
26.499999999805091
 30
0.0
 40
1.75
  0
CIRCLE
  5
18F
  8
DATA
  6
CONTINUOUS
 62
     7
 10
-37.750000000000021
 20
26.499999999805091
 30
0.0
 40
4.1500000000000048
  0
CIRCLE
  5
190
  8
DATA
  6
CONTINUOUS
 62
     7
 10
-37.750000000000021
 20
26.499999999805091
 30
0.0
 40
1.75
  0
CIRCLE
  5
191
  8
DATA
  6
CONTINUOUS
 62
     7
 10
-61.750000000000021
 20
30.50828716800666
 30
0.0
 40
1.400000000000005
  0
POLYLINE
  5
192
  8
DATA
  6
CONTINUOUS
 62
     7
 66
     1
 10
0.0
 20
0.0
 30
0.0
 70
     1
  0
VERTEX
  5
285
  8
DATA
  6
CONTINUOUS
 62
     7
 10
-57.250000000000021
 20
35.871572164439762
 30
0.0
  0
VERTEX
  5
286
  8
DATA
  6
CONTINUOUS
 62
     7
 10
-47.250000000000021
 20
35.871572164439762
 30
0.0
  0
VERTEX
  5
287
  8
DATA
  6
CONTINUOUS
 62
     7
 10
-47.250000000000021
 20
25.871572164439758
 30
0.0
  0
VERTEX
  5
288
  8
DATA
  6
CONTINUOUS
 62
     7
 10
-57.250000000000021
 20
25.871572164439758
 30
0.0
  0
SEQEND
  5
289
  8
DATA
  6
CONTINUOUS
 62
     7
  0
CIRCLE
  5
199
  8
DATA
  6
CONTINUOUS
 62
     7
 10
52.249999999999993
 20
30.542046168727381
 30
0.0
 40
3.1499999999999981
  0
CIRCLE
  5
19A
  8
DATA
  6
CONTINUOUS
 62
     7
 10
52.249999999999993
 20
30.542046168727381
 30
0.0
 40
0.4939281061798874
  0
TEXT
  5
19B
  8
DATA
 62
     7
 10
56.552410761159003
 20
38.698694850946431
 30
0.0
 40
2.646866861979166
  1
5V DC
 50
180.0
 41
0.7
 11
56.552410761159003
 21
36.051827988967261
 31
0.0
 73
     3
  0
TEXT
  5
19C
  8
DATA
 62
     7
 10
38.321158545501419
 20
38.698694850946431
 30
0.0
 40
2.646866861979166
  1
Pr
 50
180.0
 41
0.7
 11
38.321158545501419
 21
36.051827988967261
 31
0.0
 73
     3
  0
TEXT
  5
19D
  8
DATA
 62
     7
 10
22.960796873823249
 20
38.698694850946431
 30
0.0
 40
2.646866861979166
  1
Y
 50
180.0
 41
0.7
 11
22.960796873823249
 21
36.051827988967261
 31
0.0
 73
     3
  0
TEXT
  5
19E
  8
DATA
 62
     7
 10
8.8016407744056693
 20
38.698694850946431
 30
0.0
 40
2.646866861979166
  1
Pb
 50
180.0
 41
0.7
 11
8.8016407744056693
 21
36.051827988967261
 31
0.0
 73
     3
  0
TEXT
  5
19F
  8
DATA
 62
     7
 10
-7.3989972991592881
 20
38.698694850946431
 30
0.0
 40
2.646866861979166
  1
L
 50
180.0
 41
0.7
 11
-7.3989972991592889
 21
36.051827988967261
 31
0.0
 73
     3
  0
TEXT
  5
1A0
  8
DATA
 62
     7
 10
-22.038919376828929
 20
38.698694850946431
 30
0.0
 40
2.646866861979166
  1
R
 50
180.0
 41
0.7
 11
-22.038919376828929
 21
36.051827988967261
 31
0.0
 73
     3
  0
TEXT
  5
1A1
  8
DATA
 62
     7
 10
-33.645360446276626
 20
35.721661201922721
 30
0.0
 40
2.646866861979166
  1
SPDIF
 50
180.0
 41
0.7
 11
-33.645360446276626
 21
33.074794339943551
 31
0.0
 73
     3
  0
TEXT
  5
1A2
  8
DATA
 62
     7
 10
-36.001149558226693
 20
38.698694850946431
 30
0.0
 40
2.646866861979166
  1
In
 50
180.0
 41
0.7
 11
-36.001149558226693
 21
36.051827988967261
 31
0.0
 73
     3
  0
TEXT
  5
1A3
  8
DATA
 62
     7
 10
-11.441813652535091
 20
18.768921643086841
 30
0.0
 40
2.646866861979166
  1
AUDIO
 50
180.0
 41
0.7
 11
-11.441813652535091
 21
16.122054781107678
 31
0.0
 73
     3
  0
TEXT
  5
1A4
  8
DATA
 62
     7
 10
-13.40174867779899
 20
22.344668648996521
 30
0.0
 40
2.646866861979166
  1
Out
 50
180.0
 41
0.7
 11
-13.40174867779899
 21
19.697801787017351
 31
0.0
 73
     3
  0
TEXT
  5
1A5
  8
DATA
 62
     7
 10
-47.684281442647617
 20
20.833705390804621
 30
0.0
 40
2.646866861979166
  1
OPTIC.
 50
180.0
 41
0.7
 11
-47.684281442647617
 21
18.186838528825451
 31
0.0
 73
     3
  0
TEXT
  5
1A6
  8
DATA
 62
     7
 10
-50.517910703943713
 20
24.489092421605299
 30
0.0
 40
2.646866861979166
  1
In
 50
180.0
 41
0.7
 11
-50.517910703943713
 21
21.842225559626129
 31
0.0
 73
     3
  0
TEXT
  5
1A7
  8
DATA
 62
     7
 10
-58.32140164177563
 20
38.76153294431645
 30
0.0
 40
2.646866861979166
  1
Power
 50
180.0
 41
0.7
 11
-58.32140164177563
 21
36.11466608233728
 31
0.0
 73
     3
  0
LINE
  5
1A8
  8
DATA
  6
CONTINUOUS
 62
     7
 10
33.09999999999998
 20
-6.25
 30
0.0
 11
33.09999999999998
 21
-11.25
 31
0.0
  0
LINE
  5
1A9
  8
DATA
  6
CONTINUOUS
 62
     7
 10
41.399999999999977
 20
-6.25
 30
0.0
 11
41.399999999999977
 21
-11.25
 31
0.0
  0
LINE
  5
1AA
  8
DATA
  6
CONTINUOUS
 62
     7
 10
18.09999999999998
 20
-6.25
 30
0.0
 11
18.09999999999998
 21
-11.25
 31
0.0
  0
LINE
  5
1AB
  8
DATA
  6
CONTINUOUS
 62
     7
 10
26.399999999999991
 20
-6.25
 30
0.0
 11
26.399999999999991
 21
-11.25
 31
0.0
  0
LINE
  5
1AC
  8
DATA
  6
CONTINUOUS
 62
     7
 10
3.0999999999999801
 20
-6.25
 30
0.0
 11
3.0999999999999801
 21
-11.25
 31
0.0
  0
LINE
  5
1AD
  8
DATA
  6
CONTINUOUS
 62
     7
 10
11.39999999999999
 20
-6.25
 30
0.0
 11
11.39999999999999
 21
-11.25
 31
0.0
  0
LINE
  5
1AE
  8
DATA
  6
CONTINUOUS
 62
     7
 10
-11.90000000000002
 20
-4.25
 30
0.0
 11
-11.90000000000002
 21
-11.25
 31
0.0
  0
LINE
  5
1AF
  8
DATA
  6
CONTINUOUS
 62
     7
 10
-3.6000000000000081
 20
-4.25
 30
0.0
 11
-3.6000000000000081
 21
-11.25
 31
0.0
  0
LINE
  5
1B0
  8
DATA
  6
CONTINUOUS
 62
     7
 10
-26.90000000000002
 20
-4.25
 30
0.0
 11
-26.90000000000002
 21
-11.25
 31
0.0
  0
LINE
  5
1B1
  8
DATA
  6
CONTINUOUS
 62
     7
 10
-18.600000000000009
 20
-4.25
 30
0.0
 11
-18.600000000000009
 21
-11.25
 31
0.0
  0
LINE
  5
1B2
  8
DATA
  6
CONTINUOUS
 62
     7
 10
-41.900000000000027
 20
-4.25
 30
0.0
 11
-41.900000000000027
 21
-11.25
 31
0.0
  0
LINE
  5
1B3
  8
DATA
  6
CONTINUOUS
 62
     7
 10
-33.600000000000009
 20
-4.25
 30
0.0
 11
-33.600000000000009
 21
-11.25
 31
0.0
  0
LINE
  5
1B4
  8
DATA
  6
CONTINUOUS
 62
     7
 10
3.0999999999999801
 20
-6.25
 30
0.0
 11
11.39999999999999
 21
-6.25
 31
0.0
  0
LINE
  5
1B5
  8
DATA
  6
CONTINUOUS
 62
     7
 10
18.09999999999998
 20
-6.25
 30
0.0
 11
26.399999999999991
 21
-6.25
 31
0.0
  0
LINE
  5
1B6
  8
DATA
  6
CONTINUOUS
 62
     7
 10
33.09999999999998
 20
-6.25
 30
0.0
 11
41.399999999999977
 21
-6.25
 31
0.0
  0
LINE
  5
1B7
  8
DATA
  6
CONTINUOUS
 62
     7
 10
-41.900000000000027
 20
-4.25
 30
0.0
 11
-33.600000000000009
 21
-4.25
 31
0.0
  0
LINE
  5
1B8
  8
DATA
  6
CONTINUOUS
 62
     7
 10
-26.90000000000002
 20
-4.25
 30
0.0
 11
-18.600000000000009
 21
-4.25
 31
0.0
  0
LINE
  5
1B9
  8
DATA
  6
CONTINUOUS
 62
     7
 10
-11.90000000000002
 20
-4.25
 30
0.0
 11
-3.6000000000000081
 21
-4.25
 31
0.0
  0
TEXT
  5
1BA
  8
DATA
 62
     7
 10
249.5500000000001
 20
-209.91282791421219
 30
0.0
 40
7.3297851562499989
  1
EXT-COMPAUD-141
 41
0.7
 11
249.5500000000001
 21
-202.58304275796209
 31
0.0
 73
     3
  0
TEXT
  5
1BB
  8
DATA
 62
     7
 10
249.66413013082831
 20
-186.58100682562389
 30
0.0
 40
7.3297851562499989
  1
Gefen
 41
0.7
 11
249.66413013082831
 21
-179.2512216693739
 31
0.0
 73
     3
  0
TEXT
  5
1BC
  8
DATA
 62
     7
 10
243.7000000000001
 20
-196.99713447426251
 30
0.0
 40
4.8865234374999993
  1
コンポーネントオーディオ延長機
 41
0.7
 11
243.7000000000001
 21
-192.11061103676261
 31
0.0
 73
     3
  0
CIRCLE
  5
1BD
  8
DATA
  6
CONTINUOUS
 62
     7
 10
53.249999999999993
 20
-143.75
 30
0.0
 40
1.850000000000001
  0
CIRCLE
  5
1BE
  8
DATA
  6
CONTINUOUS
 62
     7
 10
45.249999999999993
 20
-143.75
 30
0.0
 40
1.850000000000001
  0
TEXT
  5
1BF
  8
DATA
 62
     7
 10
51.50800000000001
 20
-152.8954505274271
 30
0.0
 40
2.7364531249999988
  1
FO.
 41
0.7
 11
51.50800000000001
 21
-150.1589974024271
 31
0.0
 73
     3
  0
TEXT
  5
1C0
  8
DATA
 62
     7
 10
43.50800000000001
 20
-152.8954505274271
 30
0.0
 40
2.7364531249999988
  1
BR.
 41
0.7
 11
43.50800000000001
 21
-150.1589974024271
 31
0.0
 73
     3
  0
LINE
  5
1C1
  8
DATA
  6
CONTINUOUS
 62
     7
 10
52.457998316500102
 20
-144.5420016834999
 30
0.0
 11
54.04200168349994
 21
-142.9579983165001
 31
0.0
  0
LINE
  5
1C2
  8
DATA
  6
CONTINUOUS
 62
     7
 10
54.042001683499862
 20
-144.5420016834999
 30
0.0
 11
52.457998316500102
 21
-142.9579983165001
 31
0.0
  0
LINE
  5
1C3
  8
DATA
  6
CONTINUOUS
 62
     7
 10
44.45799831650011
 20
-144.5420016834999
 30
0.0
 11
46.04200168349994
 21
-142.9579983165001
 31
0.0
  0
LINE
  5
1C4
  8
DATA
  6
CONTINUOUS
 62
     7
 10
46.042001683499862
 20
-144.5420016834999
 30
0.0
 11
44.45799831650011
 21
-142.9579983165001
 31
0.0
  0
LINE
  5
1C5
  8
DATA
  6
CONTINUOUS
 62
     7
 10
112.4999999998317
 20
-126.25000000025361
 30
0.0
 11
112.4999999998317
 21
-156.25000000025361
 31
0.0
  0
LINE
  5
1C6
  8
DATA
  6
CONTINUOUS
 62
     7
 10
182.4999999998316
 20
-126.25000000025361
 30
0.0
 11
182.4999999998316
 21
-156.25000000025361
 31
0.0
  0
LINE
  5
1C7
  8
DATA
  6
CONTINUOUS
 62
     7
 10
112.4999999998317
 20
-126.25000000025361
 30
0.0
 11
182.4999999998316
 21
-126.25000000025361
 31
0.0
  0
LINE
  5
1C8
  8
DATA
  6
CONTINUOUS
 62
     7
 10
112.4999999998317
 20
-156.25000000025361
 30
0.0
 11
182.4999999998316
 21
-156.25000000025361
 31
0.0
  0
LINE
  5
1C9
  8
DATA
  6
CONTINUOUS
 62
     7
 10
189.4999999998316
 20
-135.96290811612781
 30
0.0
 11
182.4999999998316
 21
-135.96290811612781
 31
0.0
  0
LINE
  5
1CA
  8
DATA
  6
CONTINUOUS
 62
     7
 10
189.4999999998316
 20
-144.26290811612779
 30
0.0
 11
182.4999999998316
 21
-144.26290811612779
 31
0.0
  0
LINE
  5
1CB
  8
DATA
  6
CONTINUOUS
 62
     7
 10
189.4999999998316
 20
-135.96290811612781
 30
0.0
 11
189.4999999998316
 21
-144.26290811612779
 31
0.0
  0
LINE
  5
1CC
  8
DATA
  6
CONTINUOUS
 62
     7
 10
187.4999999998316
 20
-135.96290811612781
 30
0.0
 11
187.4999999998316
 21
-144.26290811612779
 31
0.0
  0
LINE
  5
1CD
  8
DATA
  6
CONTINUOUS
 62
     7
 10
116.3472874694736
 20
-159.25000000025361
 30
0.0
 11
115.5972874694735
 21
-156.25000000025361
 31
0.0
  0
LINE
  5
1CE
  8
DATA
  6
CONTINUOUS
 62
     7
 10
121.8472874694735
 20
-159.25000000025361
 30
0.0
 11
122.5972874694735
 21
-156.25000000025361
 31
0.0
  0
LINE
  5
1CF
  8
DATA
  6
CONTINUOUS
 62
     7
 10
116.3472874694736
 20
-159.25000000025361
 30
0.0
 11
121.8472874694735
 21
-159.25000000025361
 31
0.0
  0
LINE
  5
1D0
  8
DATA
  6
CONTINUOUS
 62
     7
 10
178.65271253018969
 20
-159.25000000025361
 30
0.0
 11
179.40271253018969
 21
-156.25000000025361
 31
0.0
  0
LINE
  5
1D1
  8
DATA
  6
CONTINUOUS
 62
     7
 10
173.15271253018969
 20
-159.25000000025361
 30
0.0
 11
172.40271253018969
 21
-156.25000000025361
 31
0.0
  0
LINE
  5
1D2
  8
DATA
  6
CONTINUOUS
 62
     7
 10
178.65271253018969
 20
-159.25000000025361
 30
0.0
 11
173.15271253018969
 21
-159.25000000025361
 31
0.0
  0
ARC
  5
1D3
  8
DATA
  6
CONTINUOUS
 62
     7
 10
-67.250000000000014
 20
-127.75
 30
0.0
 40
1.5
 50
90.0
 51
180.0
  0
ARC
  5
1D4
  8
DATA
  6
CONTINUOUS
 62
     7
 10
61.749999999999993
 20
-127.75
 30
0.0
 40
1.5
 50
0.0
 51
90.0
  0
ARC
  5
1D5
  8
DATA
  6
CONTINUOUS
 62
     7
 10
-67.250000000000014
 20
13.99999999980508
 30
0.0
 40
1.5
 50
180.0
 51
270.0
  0
ARC
  5
1D6
  8
DATA
  6
CONTINUOUS
 62
     7
 10
61.749999999999993
 20
13.99999999980508
 30
0.0
 40
1.5
 50
270.0
 51
0.0
  0
ARC
  5
1D7
  8
DATA
  6
CONTINUOUS
 62
     7
 10
-67.250000000000014
 20
134.75
 30
0.0
 40
1.5
 50
90.0
 51
180.0
  0
ARC
  5
1D8
  8
DATA
  6
CONTINUOUS
 62
     7
 10
61.749999999999993
 20
134.75
 30
0.0
 40
1.5
 50
0.0
 51
90.0
  0
ARC
  5
1D9
  8
DATA
  6
CONTINUOUS
 62
     7
 10
-67.250000000000014
 20
276.49999999980508
 30
0.0
 40
1.5
 50
180.0
 51
270.0
  0
ARC
  5
1DA
  8
DATA
  6
CONTINUOUS
 62
     7
 10
61.749999999999993
 20
276.49999999980508
 30
0.0
 40
1.5
 50
270.0
 51
0.0
  0
ENDSEC
  0
EOF
