  0
SECTION
  2
HEADER
  9
$ACADVER
  1
AC1009
  9
$INSBASE
 10
0.0
 20
0.0
 30
0.0
  9
$EXTMIN
 10
14.994507516960759
 20
3.633728974538144
 30
-0.0015258207003583
  9
$EXTMAX
 10
285.00869817334308
 20
405.012360562119
 30
0.0000000349246037
  9
$LIMMIN
 10
0.0
 20
0.0
  9
$LIMMAX
 10
0.0
 20
0.0
  9
$ORTHOMODE
 70
     0
  9
$REGENMODE
 70
     1
  9
$FILLMODE
 70
     1
  9
$QTEXTMODE
 70
     0
  9
$MIRRTEXT
 70
     1
  9
$DRAGMODE
 70
     2
  9
$LTSCALE
 40
7.6199999999999983
  9
$OSMODE
 70
   231
  9
$ATTMODE
 70
     1
  9
$TEXTSIZE
 40
0.0
  9
$TRACEWID
 40
1.0
  9
$TEXTSTYLE
  7
STANDARD
  9
$CLAYER
  8
DATA
  9
$CELTYPE
  6
BYLAYER
  9
$CECOLOR
 62
   256
  9
$DIMSCALE
 40
1.0
  9
$DIMASZ
 40
0.18
  9
$DIMEXO
 40
0.0625
  9
$DIMDLI
 40
0.38
  9
$DIMRND
 40
0.0
  9
$DIMDLE
 40
0.0
  9
$DIMEXE
 40
0.18
  9
$DIMTP
 40
0.0
  9
$DIMTM
 40
0.0
  9
$DIMTXT
 40
0.18
  9
$DIMCEN
 40
0.09
  9
$DIMTSZ
 40
0.0
  9
$DIMTOL
 70
     0
  9
$DIMLIM
 70
     0
  9
$DIMTIH
 70
     1
  9
$DIMTOH
 70
     1
  9
$DIMSE1
 70
     0
  9
$DIMSE2
 70
     0
  9
$DIMTAD
 70
     0
  9
$DIMZIN
 70
     0
  9
$DIMBLK
  1

  9
$DIMASO
 70
     1
  9
$DIMSHO
 70
     1
  9
$DIMPOST
  1

  9
$DIMAPOST
  1

  9
$DIMALT
 70
     0
  9
$DIMALTD
 70
     2
  9
$DIMALTF
 40
25.399999999999999
  9
$DIMLFAC
 40
1.0
  9
$DIMTOFL
 70
     0
  9
$DIMTVP
 40
0.0
  9
$DIMTIX
 70
     0
  9
$DIMSOXD
 70
     0
  9
$DIMSAH
 70
     0
  9
$DIMBLK1
  1

  9
$DIMBLK2
  1

  9
$DIMSTYLE
  2
STANDARD
  9
$DIMCLRD
 70
     0
  9
$DIMCLRE
 70
     0
  9
$DIMCLRT
 70
     0
  9
$DIMTFAC
 40
1.0
  9
$DIMGAP
 40
0.09
  9
$LUNITS
 70
     2
  9
$LUPREC
 70
     4
  9
$SKETCHINC
 40
0.1
  9
$FILLETRAD
 40
0.0
  9
$AUNITS
 70
     0
  9
$AUPREC
 70
     0
  9
$MENU
  1
acad
  9
$ELEVATION
 40
0.0
  9
$PELEVATION
 40
0.0
  9
$THICKNESS
 40
0.0
  9
$LIMCHECK
 70
     0
  9
$BLIPMODE
 70
     0
  9
$CHAMFERA
 40
0.0
  9
$CHAMFERB
 40
0.0
  9
$SKPOLY
 70
     0
  9
$TDCREATE
 40
2455202.6591319451
  9
$TDUPDATE
 40
2455202.665404629
  9
$TDINDWG
 40
0.0002440856
  9
$TDUSRTIMER
 40
0.0002439005
  9
$USRTIMER
 70
     1
  9
$ANGBASE
 50
0.0
  9
$ANGDIR
 70
     0
  9
$PDMODE
 70
     1
  9
$PDSIZE
 40
-2.0
  9
$PLINEWID
 40
0.0
  9
$COORDS
 70
     0
  9
$SPLFRAME
 70
     0
  9
$SPLINETYPE
 70
     6
  9
$SPLINESEGS
 70
     8
  9
$ATTDIA
 70
     0
  9
$ATTREQ
 70
     1
  9
$HANDLING
 70
     1
  9
$HANDSEED
  5
5A8
  9
$SURFTAB1
 70
     6
  9
$SURFTAB2
 70
     6
  9
$SURFTYPE
 70
     6
  9
$SURFU
 70
     6
  9
$SURFV
 70
     6
  9
$UCSNAME
  2

  9
$UCSORG
 10
0.0
 20
0.0
 30
0.0
  9
$UCSXDIR
 10
1.0
 20
0.0
 30
0.0
  9
$UCSYDIR
 10
0.0
 20
1.0
 30
0.0
  9
$PUCSNAME
  2

  9
$PUCSORG
 10
0.0
 20
0.0
 30
0.0
  9
$PUCSXDIR
 10
1.0
 20
0.0
 30
0.0
  9
$PUCSYDIR
 10
0.0
 20
1.0
 30
0.0
  9
$USERI1
 70
     0
  9
$USERI2
 70
     0
  9
$USERI3
 70
     0
  9
$USERI4
 70
     0
  9
$USERI5
 70
     0
  9
$USERR1
 40
0.0
  9
$USERR2
 40
0.0
  9
$USERR3
 40
0.0
  9
$USERR4
 40
0.0
  9
$USERR5
 40
0.0
  9
$WORLDVIEW
 70
     1
  9
$SHADEDGE
 70
     3
  9
$SHADEDIF
 70
    70
  9
$TILEMODE
 70
     1
  9
$MAXACTVP
 70
    64
  9
$PLIMCHECK
 70
     0
  9
$PEXTMIN
 10
1.0000000000000000E+020
 20
1.0000000000000000E+020
 30
1.0000000000000000E+020
  9
$PEXTMAX
 10
-1.0000000000000000E+020
 20
-1.0000000000000000E+020
 30
-1.0000000000000000E+020
  9
$PLIMMIN
 10
0.0
 20
0.0
  9
$PLIMMAX
 10
12.0
 20
9.0
  9
$UNITMODE
 70
     0
  9
$VISRETAIN
 70
     0
  9
$PLINEGEN
 70
     1
  9
$PSLTSCALE
 70
     0
  0
ENDSEC
  0
SECTION
  2
TABLES
  0
TABLE
  2
VPORT
 70
     1
  0
VPORT
  2
*ACTIVE
 70
     0
 10
0.0
 20
0.0
 11
1.0
 21
1.0
 12
150.00160284515189
 22
204.3230447683286
 13
0.0
 23
0.0
 14
1.0
 24
1.0
 15
0.0
 25
0.0
 16
0.0
 26
0.0
 36
1.0
 17
0.0
 27
0.0
 37
0.0
 40
404.33719643957778
 41
1.964329643296433
 42
50.0
 43
0.0
 44
0.0
 50
0.0
 51
0.0
 71
     0
 72
  2000
 73
     1
 74
     1
 75
     0
 76
     0
 77
     0
 78
     0
  0
ENDTAB
  0
TABLE
  2
LTYPE
 70
    11
  0
LTYPE
  2
CONTINUOUS
 70
     0
  3
Solid line
 72
    65
 73
     0
 40
0.0
  0
ENDTAB
  0
TABLE
  2
LAYER
 70
     5
  0
LAYER
  2
0
 70
     0
 62
     7
  6
CONTINUOUS
  0
LAYER
  2
DATA
 70
     0
 62
     7
  6
CONTINUOUS
  0
LAYER
  2
HIBINO-BASE
 70
     0
 62
     7
  6
CONTINUOUS
  0
LAYER
  2
SPEC
 70
     0
 62
     7
  6
CONTINUOUS
  0
LAYER
  2
DIMNSIONS
 70
     0
 62
     7
  6
CONTINUOUS
  0
ENDTAB
  0
TABLE
  2
STYLE
 70
     3
  0
STYLE
  2
STANDARD
 70
     0
 40
0.0
 41
1.0
 50
0.0
 71
     0
 42
0.0
  3
txt
  4
BIGFONT.SHX
  0
ENDTAB
  0
TABLE
  2
VIEW
 70
     0
  0
ENDTAB
  0
TABLE
  2
UCS
 70
     0
  0
ENDTAB
  0
TABLE
  2
APPID
 70
     3
  0
APPID
  2
ACAD
 70
     0
  0
APPID
  2
ACADANNOTATIVE
 70
     0
  0
APPID
  2
ACAD_MLEADERVER
 70
     0
  0
ENDTAB
  0
TABLE
  2
DIMSTYLE
 70
     2
  0
DIMSTYLE
  2
STANDARD
 70
     0
  3

  4

  5

  6

  7

 40
1.0
 41
0.18
 42
0.0625
 43
0.38
 44
0.18
 45
0.0
 46
0.0
 47
0.0
 48
0.0
140
0.18
141
0.09
142
0.0
143
25.399999999999999
144
1.0
145
0.0
146
1.0
147
0.09
 71
     0
 72
     0
 73
     1
 74
     1
 75
     0
 76
     0
 77
     0
 78
     0
170
     0
171
     2
172
     0
173
     0
174
     0
175
     0
176
     0
177
     0
178
     0
  0
ENDTAB
  0
ENDSEC
  0
SECTION
  2
BLOCKS
  0
BLOCK
  8
0
  2
$MODEL_SPACE
 70
     0
 10
0.0
 20
0.0
 30
0.0
  3
$MODEL_SPACE
  1

  0
ENDBLK
  5
44F
  8
0
  0
BLOCK
 67
     1
  8
0
  2
$PAPER_SPACE
 70
     0
 10
0.0
 20
0.0
 30
0.0
  3
$PAPER_SPACE
  1

  0
ENDBLK
  5
44B
 67
     1
  8
0
  0
ENDSEC
  0
SECTION
  2
ENTITIES
  0
LINE
  5
2C
  8
HIBINO-BASE
  6
CONTINUOUS
 62
     7
 10
15.0
 20
405.0
 30
0.0
 11
285.0
 21
405.0
 31
0.0
  0
LINE
  5
2D
  8
HIBINO-BASE
  6
CONTINUOUS
 62
     7
 10
285.0
 20
15.0
 30
0.0
 11
15.0
 21
15.0
 31
0.0
  0
LINE
  5
2E
  8
HIBINO-BASE
  6
CONTINUOUS
 62
     7
 10
15.0
 20
15.0
 30
0.0
 11
15.0
 21
405.0
 31
0.0
  0
LINE
  5
2F
  8
HIBINO-BASE
  6
CONTINUOUS
 62
     7
 10
285.0
 20
405.0
 30
0.0
 11
285.0
 21
15.0
 31
0.0
  0
LINE
  5
30
  8
HIBINO-BASE
  6
CONTINUOUS
 62
     7
 10
150.0
 20
48.750000000000021
 30
0.0
 11
285.0
 21
48.750000000000021
 31
0.0
  0
LINE
  5
31
  8
HIBINO-BASE
  6
CONTINUOUS
 62
     7
 10
150.0
 20
15.0
 30
0.0
 11
150.0
 21
48.750000000000021
 31
0.0
  0
TEXT
  5
32
  8
HIBINO-BASE
 62
     7
 10
151.34999999999991
 20
44.98696000000001
 30
0.0
 40
2.4432617187500001
  1
NOTE
 41
0.7
 11
151.34999999999991
 21
47.430221718750012
 31
0.0
 73
     3
  0
LINE
  5
33
  8
HIBINO-BASE
  6
CONTINUOUS
 62
     7
 10
202.5
 20
15.0
 30
0.0
 11
202.5
 21
48.750000000000021
 31
0.0
  0
TEXT
  5
34
  8
HIBINO-BASE
 62
     7
 10
203.84999999999999
 20
44.98696000000001
 30
0.0
 40
2.4432617187500001
  1
TITLE
 41
0.7
 11
203.84999999999999
 21
47.430221718750012
 31
0.0
 73
     3
  0
LINE
  5
35
  8
HIBINO-BASE
  6
CONTINUOUS
 62
     7
 10
150.0
 20
30.000000000000028
 30
0.0
 11
285.0
 21
30.000000000000028
 31
0.0
  0
TEXT
  5
36
  8
HIBINO-BASE
 62
     7
 10
222.59999999999999
 20
26.321439999999988
 30
0.0
 40
2.4432617187500001
  1
DRAWN
 41
0.7
 11
222.59999999999999
 21
28.76470171874999
 31
0.0
 73
     3
  0
TEXT
  5
37
  8
HIBINO-BASE
 62
     7
 10
185.09999999999999
 20
26.321439999999988
 30
0.0
 40
2.4432617187500001
  1
DATE
 41
0.7
 11
185.09999999999999
 21
28.76470171874999
 31
0.0
 73
     3
  0
TEXT
  5
38
  8
HIBINO-BASE
 62
     7
 10
170.09999999999991
 20
26.321439999999988
 30
0.0
 40
2.4432617187500001
  1
SCALE
 41
0.7
 11
170.09999999999991
 21
28.76470171874999
 31
0.0
 73
     3
  0
TEXT
  5
39
  8
HIBINO-BASE
 62
     7
 10
203.84999999999999
 20
26.321439999999988
 30
0.0
 40
2.4432617187500001
  1
DESIGN
 41
0.7
 11
203.84999999999999
 21
28.76470171874999
 31
0.0
 73
     3
  0
TEXT
  5
3A
  8
HIBINO-BASE
 62
     7
 10
260.10000000000002
 20
26.321439999999988
 30
0.0
 40
2.4432617187500001
  1
DRAWING NO.
 41
0.7
 11
260.10000000000002
 21
28.76470171874999
 31
0.0
 73
     3
  0
TEXT
  5
3B
  8
HIBINO-BASE
 62
     7
 10
241.34999999999999
 20
26.321439999999988
 30
0.0
 40
2.4432617187500001
  1
CHECK
 41
0.7
 11
241.34999999999999
 21
28.76470171874999
 31
0.0
 73
     3
  0
LINE
  5
3C
  8
HIBINO-BASE
  6
CONTINUOUS
 62
     7
 10
171.5625
 20
16.875
 30
0.0
 11
177.18749999999989
 21
22.500000000000028
 31
0.0
  0
TEXT
  5
3D
  8
HIBINO-BASE
 62
     7
 10
170.625
 20
20.83658500000001
 30
0.0
 40
2.4432617187500001
  1
1
 41
0.7
 11
170.625
 21
23.279846718750012
 31
0.0
 73
     3
  0
LINE
  5
3E
  8
HIBINO-BASE
  6
CONTINUOUS
 62
     7
 10
168.75
 20
15.0
 30
0.0
 11
168.75
 21
30.000000000000028
 31
0.0
  0
LINE
  5
3F
  8
HIBINO-BASE
  6
CONTINUOUS
 62
     7
 10
183.75
 20
15.0
 30
0.0
 11
183.75
 21
30.000000000000028
 31
0.0
  0
LINE
  5
40
  8
HIBINO-BASE
  6
CONTINUOUS
 62
     7
 10
221.25
 20
30.000000000000028
 30
0.0
 11
221.25
 21
15.0
 31
0.0
  0
LINE
  5
41
  8
HIBINO-BASE
  6
CONTINUOUS
 62
     7
 10
258.75
 20
30.000000000000028
 30
0.0
 11
258.75
 21
15.0
 31
0.0
  0
LINE
  5
42
  8
HIBINO-BASE
  6
CONTINUOUS
 62
     7
 10
240.0
 20
15.0
 30
0.0
 11
240.0
 21
30.000000000000028
 31
0.0
  0
TEXT
  5
43
  8
HIBINO-BASE
 62
     7
 10
185.03480999999999
 20
19.295469999999991
 30
0.0
 40
2.4432617187500001
  1
'09.10.
 41
0.7
 11
185.03480999999999
 21
21.738731718749989
 31
0.0
 73
     3
  0
TEXT
  5
44
  8
HIBINO-BASE
 62
     7
 10
176.25
 20
18.02408500000001
 30
0.0
 40
2.4432617187500001
  1
1.5
 41
0.7
 11
176.25
 21
20.467346718750012
 31
0.0
 73
     3
  0
TEXT
  5
45
  8
HIBINO-BASE
 62
     7
 10
155.82499999999999
 20
17.964000000000009
 30
0.0
 40
4.8865234374999993
  1
A4
 41
0.7
 11
155.82499999999999
 21
22.850523437500019
 31
0.0
 73
     3
  0
TEXT
  5
46
  8
HIBINO-BASE
 62
     7
 10
151.4375
 20
26.070817500000029
 30
0.0
 40
2.4432617187500001
  1
PAPER SIZE
 41
0.7
 11
151.4375
 21
28.51407921875003
 31
0.0
 73
     3
  0
TEXT
  5
47
  8
HIBINO-BASE
 62
     7
 10
19.371316120197179
 20
5.408259692617797
 30
0.0
 40
5.293733723958332
  1
Hibino-Intersound Corporation
 41
0.7
 11
19.371316120197179
 21
10.70199341657613
 31
0.0
 73
     3
  0
TEXT
  5
48
  8
HIBINO-BASE
 62
     7
 10
180.9689499059817
 20
5.8737681933067387
 30
0.0
 40
5.293733723958332
  1
ヒビノインターサウンド株式会社
 41
0.7
 11
180.9689499059817
 21
11.167501917265071
 31
0.0
 73
     3
  0
TEXT
  5
49
  8
HIBINO-BASE
 62
     7
 10
224.4003416977045
 20
19.424252062764499
 30
0.0
 40
2.4432617187500001
  1
T.Ootake
 41
0.7
 11
224.4003416977045
 21
21.8675137815145
 31
0.0
 73
     3
  0
TEXT
  5
4A
  8
SPEC
 62
     7
 10
28.125
 20
392.08990499999999
 30
0.0
 40
3.664892578124999
  1
仕様
 41
0.7
 11
28.125
 21
395.75479757812491
 31
0.0
 73
     3
  0
LINE
  5
4B
  8
SPEC
  6
CONTINUOUS
 62
     7
 10
26.249999999999972
 20
389.99999999983282
 30
0.0
 11
211.62181333603399
 21
389.99999999983282
 31
0.0
  0
LINE
  5
4C
  8
SPEC
  6
CONTINUOUS
 62
     7
 10
26.249999999999972
 20
384.37499999983282
 30
0.0
 11
211.62181333603399
 21
384.37499999983282
 31
0.0
  0
LINE
  5
4D
  8
SPEC
  6
CONTINUOUS
 62
     7
 10
26.249999999999972
 20
361.87499999983282
 30
0.0
 11
211.62181333603399
 21
361.87499999983282
 31
0.0
  0
LINE
  5
4E
  8
SPEC
  6
CONTINUOUS
 62
     7
 10
26.249999999999972
 20
367.49999999983282
 30
0.0
 11
211.62181333603399
 21
367.49999999983282
 31
0.0
  0
LINE
  5
4F
  8
SPEC
  6
CONTINUOUS
 62
     7
 10
26.249999999999972
 20
373.12499999983282
 30
0.0
 11
211.62181333603399
 21
373.12499999983282
 31
0.0
  0
LINE
  5
50
  8
SPEC
  6
CONTINUOUS
 62
     7
 10
211.62181333603399
 20
356.24999999983282
 30
0.0
 11
26.249999999999972
 21
356.24999999983282
 31
0.0
  0
LINE
  5
51
  8
SPEC
  6
CONTINUOUS
 62
     7
 10
26.249999999999972
 20
378.74999999983282
 30
0.0
 11
211.62181333603399
 21
378.74999999983282
 31
0.0
  0
LINE
  5
52
  8
SPEC
  6
CONTINUOUS
 62
     7
 10
26.249999999999972
 20
389.99999999983282
 30
0.0
 11
26.249999999999972
 21
328.09999999983279
 31
0.0
  0
LINE
  5
53
  8
SPEC
  6
CONTINUOUS
 62
     7
 10
74.999999999999972
 20
389.99999999983282
 30
0.0
 11
74.999999999999972
 21
356.24999999983282
 31
0.0
  0
LINE
  5
54
  8
SPEC
  6
CONTINUOUS
 62
     7
 10
211.62181333603399
 20
389.99999999983282
 30
0.0
 11
211.62181333603399
 21
328.09999999983279
 31
0.0
  0
TEXT
  5
55
  8
SPEC
 62
     7
 10
27.526867043920632
 20
385.88702927502129
 30
0.0
 40
2.850466875
  1
形式
 41
0.7
 11
27.526867043920632
 21
388.73749615002129
 31
0.0
 73
     3
  0
LINE
  5
56
  8
SPEC
  6
CONTINUOUS
 62
     7
 10
74.999999999999972
 20
389.99999999983282
 30
0.0
 11
74.999999999999972
 21
328.09999999983279
 31
0.0
  0
TEXT
  5
57
  8
SPEC
 62
     7
 10
27.459812966256131
 20
335.16688450454012
 30
0.0
 40
2.8504720052083332
  1
寸法
 41
0.7
 11
27.459812966256131
 21
338.01735650974848
 31
0.0
 73
     3
  0
TEXT
  5
58
  8
SPEC
 62
     7
 10
27.506014583388009
 20
329.58654336763487
 30
0.0
 40
2.8504720052083332
  1
重量
 41
0.7
 11
27.506014583388009
 21
332.43701537284318
 31
0.0
 73
     3
  0
TEXT
  5
59
  8
SPEC
 62
     7
 10
27.51604348862401
 20
340.83977664616248
 30
0.0
 40
2.8504720052083332
  1
電源
 41
0.7
 11
27.51604348862401
 21
343.69024865137078
 31
0.0
 73
     3
  0
TEXT
  5
5A
  8
SPEC
 62
     7
 10
76.382357408381921
 20
340.52101002913599
 30
0.0
 40
2.8504720052083332
  1
5V DC
 41
0.7
 11
76.382357408381921
 21
343.3714820343443
 31
0.0
 73
     3
  0
TEXT
  5
5B
  8
SPEC
 62
     7
 10
76.440898589792525
 20
335.17733402082263
 30
0.0
 40
2.8504720052083332
  1
39(W)\U+00D715(H)\U+00D769(D)mm(突起部含まず)、(センダー、レシーバー共に)
 41
0.7
 11
76.440898589792525
 21
338.02780602603087
 31
0.0
 73
     3
  0
TEXT
  5
5C
  8
SPEC
 62
     7
 10
76.294082715071426
 20
329.5845193048724
 30
0.0
 40
2.8504720052083332
  1
約90g(センダー、レシーバー共に)
 41
0.7
 11
76.294082715071426
 21
332.4349913100807
 31
0.0
 73
     3
  0
TEXT
  5
5D
  8
SPEC
 62
     7
 10
76.469769476581376
 20
385.68572972929661
 30
0.0
 40
2.8504720052083332
  1
DVI延長機
 41
0.7
 11
76.469769476581376
 21
388.53620173450491
 31
0.0
 73
     3
  0
LINE
  5
5E
  8
SPEC
  6
CONTINUOUS
 62
     7
 10
211.62181333603399
 20
350.61999999983283
 30
0.0
 11
26.249999999999972
 21
350.61999999983283
 31
0.0
  0
LINE
  5
5F
  8
SPEC
  6
CONTINUOUS
 62
     7
 10
211.62181333603399
 20
344.98999999983278
 30
0.0
 11
26.249999999999972
 21
344.98999999983278
 31
0.0
  0
LINE
  5
60
  8
SPEC
  6
CONTINUOUS
 62
     7
 10
211.62181333603399
 20
339.35999999983278
 30
0.0
 11
26.249999999999972
 21
339.35999999983278
 31
0.0
  0
LINE
  5
61
  8
SPEC
  6
CONTINUOUS
 62
     7
 10
211.62181333603399
 20
333.72999999983278
 30
0.0
 11
26.249999999999972
 21
333.72999999983278
 31
0.0
  0
TEXT
  5
62
  8
SPEC
 62
     7
 10
26.97540348096928
 20
380.25390592822862
 30
0.0
 40
2.850466875
  1
ビデオアンプ帯域
 41
0.7
 11
26.97540348096928
 21
383.10437280322861
 31
0.0
 73
     3
  0
TEXT
  5
63
  8
SPEC
 62
     7
 10
76.140852900141553
 20
380.05642642446048
 30
0.0
 40
2.8504720052083332
  1
165MHz
 41
0.7
 11
76.140852900141553
 21
382.9068984296689
 31
0.0
 73
     3
  0
TEXT
  5
64
  8
SPEC
 62
     7
 10
27.54063382895691
 20
368.95333661022192
 30
0.0
 40
2.850466875
  1
動作温度
 41
0.7
 11
27.54063382895691
 21
371.80380348522192
 31
0.0
 73
     3
  0
TEXT
  5
65
  8
SPEC
 62
     7
 10
76.48126114779177
 20
368.71654606985697
 30
0.0
 40
2.8504720052083332
  1
0℃～70℃
 41
0.7
 11
76.48126114779177
 21
371.56701807506539
 31
0.0
 73
     3
  0
TEXT
  5
66
  8
SPEC
 62
     7
 10
27.53264863181008
 20
357.6433958858226
 30
0.0
 40
2.850466875
  1
動作湿度
 41
0.7
 11
27.53264863181008
 21
360.49386276082259
 31
0.0
 73
     3
  0
TEXT
  5
67
  8
SPEC
 62
     7
 10
76.458994668435196
 20
357.44476805386932
 30
0.0
 40
2.8504720052083332
  1
5%%%～85%%%
 41
0.7
 11
76.458994668435196
 21
360.29524005907763
 31
0.0
 73
     3
  0
TEXT
  5
68
  8
SPEC
 62
     7
 10
27.606275841626118
 20
374.58836184560312
 30
0.0
 40
2.850466875
  1
最大対応解像度
 41
0.7
 11
27.606275841626118
 21
377.43882872060311
 31
0.0
 73
     3
  0
TEXT
  5
69
  8
SPEC
 62
     7
 10
76.604309615397355
 20
374.35594343914238
 30
0.0
 40
2.8504720052083332
  1
WUXGA(1920\U+00D71200)
 41
0.7
 11
76.604309615397355
 21
377.2064154443508
 31
0.0
 73
     3
  0
TEXT
  5
6A
  8
SPEC
 62
     7
 10
27.580709733096668
 20
363.39588353549487
 30
0.0
 40
2.850466875
  1
保管温度
 41
0.7
 11
27.580709733096668
 21
366.24635041049493
 31
0.0
 73
     3
  0
TEXT
  5
6B
  8
SPEC
 62
     7
 10
76.552661737938436
 20
363.15776104397048
 30
0.0
 40
2.8504720052083332
  1
-10℃～85℃
 41
0.7
 11
76.552661737938436
 21
366.0082330491789
 31
0.0
 73
     3
  0
TEXT
  5
6C
  8
SPEC
 62
     7
 10
27.161567702688931
 20
352.0752427073428
 30
0.0
 40
2.850466875
  1
フォーマットサポート
 41
0.7
 11
27.161567702688931
 21
354.9257095823429
 31
0.0
 73
     3
  0
TEXT
  5
6D
  8
SPEC
 62
     7
 10
76.520356076483338
 20
351.87603256274878
 30
0.0
 40
2.8504720052083332
  1
Virtual DDC経由でのDVI 1.0及び、DDC2Bをフルサポート
 41
0.7
 11
76.520356076483338
 21
354.72650456795719
 31
0.0
 73
     3
  0
TEXT
  5
6E
  8
SPEC
 62
     7
 10
27.594495453330271
 20
346.38339588582261
 30
0.0
 40
2.850466875
  1
EDID初期値
 41
0.7
 11
27.594495453330271
 21
349.2338627608226
 31
0.0
 73
     3
  0
TEXT
  5
6F
  8
SPEC
 62
     7
 10
76.458897769266613
 20
346.24603256274878
 30
0.0
 40
2.8504720052083332
  1
UXGA(1600\U+00D71200)
 41
0.7
 11
76.458897769266613
 21
349.09650456795708
 31
0.0
 73
     3
  0
LINE
  5
70
  8
SPEC
  6
CONTINUOUS
 62
     7
 10
211.62181333603399
 20
328.09999999983279
 30
0.0
 11
26.249999999999972
 21
328.09999999983279
 31
0.0
  0
TEXT
  5
71
  8
DIMNSIONS
 62
     7
 10
119.9999999999999
 20
33.404235000000021
 30
0.0
 40
3.664892578124999
  1
(単位：mm)
 41
0.7
 11
119.9999999999999
 21
37.06912757812502
 31
0.0
 73
     3
  0
LINE
  5
72
  8
DIMNSIONS
  6
CONTINUOUS
 62
     7
 10
56.249999999723038
 20
117.75
 30
0.0
 11
56.249999999723038
 21
103.25
 31
0.0
  0
LINE
  5
73
  8
DIMNSIONS
  6
CONTINUOUS
 62
     7
 10
95.249999999723059
 20
117.75
 30
0.0
 11
95.249999999723059
 21
103.25
 31
0.0
  0
LINE
  5
74
  8
DIMNSIONS
  6
CONTINUOUS
 62
     7
 10
56.249999999723038
 20
106.25
 30
0.0
 11
95.249999999723059
 21
106.25
 31
0.0
  0
LINE
  5
75
  8
DIMNSIONS
  6
CONTINUOUS
 62
     7
 10
56.249999999723038
 20
106.25
 30
0.0
 11
60.000933837613672
 21
107.2550596927253
 31
0.0
  0
LINE
  5
76
  8
DIMNSIONS
  6
CONTINUOUS
 62
     7
 10
56.249999999723038
 20
106.25
 30
0.0
 11
60.000933837613672
 21
105.2449403072746
 31
0.0
  0
LINE
  5
77
  8
DIMNSIONS
  6
CONTINUOUS
 62
     7
 10
95.249999999723059
 20
106.25
 30
0.0
 11
91.499066161832403
 21
105.2449403072746
 31
0.0
  0
LINE
  5
78
  8
DIMNSIONS
  6
CONTINUOUS
 62
     7
 10
95.249999999723059
 20
106.25
 30
0.0
 11
91.499066161832403
 21
107.2550596927253
 31
0.0
  0
TEXT
  5
79
  8
DIMNSIONS
 62
     7
 10
73.104166666389702
 20
107.7408333333333
 30
0.0
 40
4.072102864583333
  1
39
 41
0.7
 11
73.104166666389702
 21
111.8129361979167
 31
0.0
 73
     3
  0
LINE
  5
7A
  8
DIMNSIONS
  6
CONTINUOUS
 62
     7
 10
55.249999999723052
 20
118.75
 30
0.0
 11
40.75
 21
118.75
 31
0.0
  0
LINE
  5
7B
  8
DIMNSIONS
  6
CONTINUOUS
 62
     7
 10
55.249999999723052
 20
133.75
 30
0.0
 11
40.75
 21
133.75
 31
0.0
  0
LINE
  5
7C
  8
DIMNSIONS
  6
CONTINUOUS
 62
     7
 10
43.75
 20
118.75
 30
0.0
 11
43.75
 21
133.75
 31
0.0
  0
LINE
  5
7D
  8
DIMNSIONS
  6
CONTINUOUS
 62
     7
 10
43.75
 20
118.75
 30
0.0
 11
42.744940307274632
 21
122.5009338378906
 31
0.0
  0
LINE
  5
7E
  8
DIMNSIONS
  6
CONTINUOUS
 62
     7
 10
43.75
 20
118.75
 30
0.0
 11
44.755059692725361
 21
122.5009338378906
 31
0.0
  0
LINE
  5
7F
  8
DIMNSIONS
  6
CONTINUOUS
 62
     7
 10
43.75
 20
133.75
 30
0.0
 11
44.755059692725361
 21
129.99906616210939
 31
0.0
  0
LINE
  5
80
  8
DIMNSIONS
  6
CONTINUOUS
 62
     7
 10
43.75
 20
133.75
 30
0.0
 11
42.744940307274632
 21
129.99906616210939
 31
0.0
  0
TEXT
  5
81
  8
DIMNSIONS
 62
     7
 10
42.25916666666668
 20
123.6041666666667
 30
0.0
 40
4.072102864583333
  1
15
 50
90.0
 41
0.7
 11
38.187063802083351
 21
123.6041666666667
 31
0.0
 73
     3
  0
LINE
  5
82
  8
DIMNSIONS
  6
CONTINUOUS
 62
     7
 10
59.249999999999972
 20
156.25
 30
0.0
 11
40.75
 21
156.25
 31
0.0
  0
LINE
  5
83
  8
DIMNSIONS
  6
CONTINUOUS
 62
     7
 10
53.25
 20
225.25
 30
0.0
 11
40.75
 21
225.25
 31
0.0
  0
LINE
  5
84
  8
DIMNSIONS
  6
CONTINUOUS
 62
     7
 10
43.75
 20
156.25
 30
0.0
 11
43.75
 21
225.25
 31
0.0
  0
LINE
  5
85
  8
DIMNSIONS
  6
CONTINUOUS
 62
     7
 10
43.75
 20
156.25
 30
0.0
 11
42.744940307274632
 21
160.00093383789061
 31
0.0
  0
LINE
  5
86
  8
DIMNSIONS
  6
CONTINUOUS
 62
     7
 10
43.75
 20
156.25
 30
0.0
 11
44.755059692725361
 21
160.00093383789061
 31
0.0
  0
LINE
  5
87
  8
DIMNSIONS
  6
CONTINUOUS
 62
     7
 10
43.75
 20
225.25
 30
0.0
 11
44.755059692725361
 21
221.49906616210939
 31
0.0
  0
LINE
  5
88
  8
DIMNSIONS
  6
CONTINUOUS
 62
     7
 10
43.75
 20
225.25
 30
0.0
 11
42.744940307274632
 21
221.49906616210939
 31
0.0
  0
TEXT
  5
89
  8
DIMNSIONS
 62
     7
 10
42.25916666666668
 20
188.1041666666666
 30
0.0
 40
4.072102864583333
  1
69
 50
90.0
 41
0.7
 11
38.187063802083351
 21
188.1041666666666
 31
0.0
 73
     3
  0
LINE
  5
8A
  8
DIMNSIONS
  6
CONTINUOUS
 62
     7
 10
181.2499999996754
 20
117.75
 30
0.0
 11
181.2499999996754
 21
103.25
 31
0.0
  0
LINE
  5
8B
  8
DIMNSIONS
  6
CONTINUOUS
 62
     7
 10
220.2499999996754
 20
117.75
 30
0.0
 11
220.2499999996754
 21
103.25
 31
0.0
  0
LINE
  5
8C
  8
DIMNSIONS
  6
CONTINUOUS
 62
     7
 10
181.2499999996754
 20
106.25
 30
0.0
 11
220.2499999996754
 21
106.25
 31
0.0
  0
LINE
  5
8D
  8
DIMNSIONS
  6
CONTINUOUS
 62
     7
 10
181.2499999996754
 20
106.25
 30
0.0
 11
185.00093383756601
 21
107.2550596927253
 31
0.0
  0
LINE
  5
8E
  8
DIMNSIONS
  6
CONTINUOUS
 62
     7
 10
181.2499999996754
 20
106.25
 30
0.0
 11
185.00093383756601
 21
105.2449403072746
 31
0.0
  0
LINE
  5
8F
  8
DIMNSIONS
  6
CONTINUOUS
 62
     7
 10
220.2499999996754
 20
106.25
 30
0.0
 11
216.49906616178481
 21
105.2449403072746
 31
0.0
  0
LINE
  5
90
  8
DIMNSIONS
  6
CONTINUOUS
 62
     7
 10
220.2499999996754
 20
106.25
 30
0.0
 11
216.49906616178481
 21
107.2550596927253
 31
0.0
  0
TEXT
  5
91
  8
DIMNSIONS
 62
     7
 10
198.104166666342
 20
107.7408333333333
 30
0.0
 40
4.072102864583333
  1
39
 41
0.7
 11
198.104166666342
 21
111.8129361979167
 31
0.0
 73
     3
  0
LINE
  5
92
  8
DIMNSIONS
  6
CONTINUOUS
 62
     7
 10
180.2499999996754
 20
118.75
 30
0.0
 11
165.75
 21
118.75
 31
0.0
  0
LINE
  5
93
  8
DIMNSIONS
  6
CONTINUOUS
 62
     7
 10
180.2499999996754
 20
133.75
 30
0.0
 11
165.75
 21
133.75
 31
0.0
  0
LINE
  5
94
  8
DIMNSIONS
  6
CONTINUOUS
 62
     7
 10
168.75
 20
118.75
 30
0.0
 11
168.75
 21
133.75
 31
0.0
  0
LINE
  5
95
  8
DIMNSIONS
  6
CONTINUOUS
 62
     7
 10
168.75
 20
118.75
 30
0.0
 11
167.74494030727459
 21
122.5009338378906
 31
0.0
  0
LINE
  5
96
  8
DIMNSIONS
  6
CONTINUOUS
 62
     7
 10
168.75
 20
118.75
 30
0.0
 11
169.75505969272541
 21
122.5009338378906
 31
0.0
  0
LINE
  5
97
  8
DIMNSIONS
  6
CONTINUOUS
 62
     7
 10
168.75
 20
133.75
 30
0.0
 11
169.75505969272541
 21
129.99906616210939
 31
0.0
  0
LINE
  5
98
  8
DIMNSIONS
  6
CONTINUOUS
 62
     7
 10
168.75
 20
133.75
 30
0.0
 11
167.74494030727459
 21
129.99906616210939
 31
0.0
  0
TEXT
  5
99
  8
DIMNSIONS
 62
     7
 10
167.25916666666669
 20
123.6041666666667
 30
0.0
 40
4.072102864583333
  1
15
 50
90.0
 41
0.7
 11
163.18706380208329
 21
123.6041666666667
 31
0.0
 73
     3
  0
LINE
  5
9A
  8
DIMNSIONS
  6
CONTINUOUS
 62
     7
 10
184.25
 20
156.25
 30
0.0
 11
165.75
 21
156.25
 31
0.0
  0
LINE
  5
9B
  8
DIMNSIONS
  6
CONTINUOUS
 62
     7
 10
178.25
 20
225.25
 30
0.0
 11
165.75
 21
225.25
 31
0.0
  0
LINE
  5
9C
  8
DIMNSIONS
  6
CONTINUOUS
 62
     7
 10
168.75
 20
156.25
 30
0.0
 11
168.75
 21
225.25
 31
0.0
  0
LINE
  5
9D
  8
DIMNSIONS
  6
CONTINUOUS
 62
     7
 10
168.75
 20
156.25
 30
0.0
 11
167.74494030727459
 21
160.00093383789061
 31
0.0
  0
LINE
  5
9E
  8
DIMNSIONS
  6
CONTINUOUS
 62
     7
 10
168.75
 20
156.25
 30
0.0
 11
169.75505969272541
 21
160.00093383789061
 31
0.0
  0
LINE
  5
9F
  8
DIMNSIONS
  6
CONTINUOUS
 62
     7
 10
168.75
 20
225.25
 30
0.0
 11
169.75505969272541
 21
221.49906616210939
 31
0.0
  0
LINE
  5
A0
  8
DIMNSIONS
  6
CONTINUOUS
 62
     7
 10
168.75
 20
225.25
 30
0.0
 11
167.74494030727459
 21
221.49906616210939
 31
0.0
  0
TEXT
  5
A1
  8
DIMNSIONS
 62
     7
 10
167.25916666666669
 20
188.1041666666666
 30
0.0
 40
4.072102864583333
  1
69
 50
90.0
 41
0.7
 11
163.18706380208329
 21
188.1041666666666
 31
0.0
 73
     3
  0
LINE
  5
A2
  8
DIMNSIONS
  6
CONTINUOUS
 62
     7
 10
53.25
 20
225.25
 30
0.0
 11
40.75
 21
225.25
 31
0.0
  0
LINE
  5
A3
  8
DIMNSIONS
  6
CONTINUOUS
 62
     7
 10
60.0
 20
230.25
 30
0.0
 11
40.75
 21
230.25
 31
0.0
  0
LINE
  5
A4
  8
DIMNSIONS
  6
CONTINUOUS
 62
     7
 10
43.75
 20
230.25
 30
0.0
 11
43.75
 21
225.25
 31
0.0
  0
LINE
  5
A5
  8
DIMNSIONS
  6
CONTINUOUS
 62
     7
 10
43.75
 20
225.25
 30
0.0
 11
43.75
 21
217.75
 31
0.0
  0
LINE
  5
A6
  8
DIMNSIONS
  6
CONTINUOUS
 62
     7
 10
43.75
 20
225.25
 30
0.0
 11
44.755059692725361
 21
221.49906616210939
 31
0.0
  0
LINE
  5
A7
  8
DIMNSIONS
  6
CONTINUOUS
 62
     7
 10
43.75
 20
225.25
 30
0.0
 11
42.744940307274632
 21
221.49906616210939
 31
0.0
  0
LINE
  5
A8
  8
DIMNSIONS
  6
CONTINUOUS
 62
     7
 10
43.75
 20
230.25
 30
0.0
 11
43.75
 21
237.75
 31
0.0
  0
LINE
  5
A9
  8
DIMNSIONS
  6
CONTINUOUS
 62
     7
 10
43.75
 20
230.25
 30
0.0
 11
42.744940307274632
 21
234.00093383789061
 31
0.0
  0
LINE
  5
AA
  8
DIMNSIONS
  6
CONTINUOUS
 62
     7
 10
43.75
 20
230.25
 30
0.0
 11
44.755059692725361
 21
234.00093383789061
 31
0.0
  0
TEXT
  5
AB
  8
DIMNSIONS
 62
     7
 10
42.259166666666658
 20
226.42708333333329
 30
0.0
 40
4.072102864583333
  1
5
 50
90.0
 41
0.7
 11
38.18706380208333
 21
226.42708333333329
 31
0.0
 73
     3
  0
LINE
  5
AC
  8
DIMNSIONS
  6
CONTINUOUS
 62
     7
 10
178.25
 20
225.25
 30
0.0
 11
165.75
 21
225.25
 31
0.0
  0
LINE
  5
AD
  8
DIMNSIONS
  6
CONTINUOUS
 62
     7
 10
185.0
 20
230.25
 30
0.0
 11
165.75
 21
230.25
 31
0.0
  0
LINE
  5
AE
  8
DIMNSIONS
  6
CONTINUOUS
 62
     7
 10
168.75
 20
230.25
 30
0.0
 11
168.75
 21
225.25
 31
0.0
  0
LINE
  5
AF
  8
DIMNSIONS
  6
CONTINUOUS
 62
     7
 10
168.75
 20
225.25
 30
0.0
 11
168.75
 21
217.75
 31
0.0
  0
LINE
  5
B0
  8
DIMNSIONS
  6
CONTINUOUS
 62
     7
 10
168.75
 20
225.25
 30
0.0
 11
169.75505969272541
 21
221.49906616210939
 31
0.0
  0
LINE
  5
B1
  8
DIMNSIONS
  6
CONTINUOUS
 62
     7
 10
168.75
 20
225.25
 30
0.0
 11
167.74494030727459
 21
221.49906616210939
 31
0.0
  0
LINE
  5
B2
  8
DIMNSIONS
  6
CONTINUOUS
 62
     7
 10
168.75
 20
230.25
 30
0.0
 11
168.75
 21
237.75
 31
0.0
  0
LINE
  5
B3
  8
DIMNSIONS
  6
CONTINUOUS
 62
     7
 10
168.75
 20
230.25
 30
0.0
 11
167.74494030727459
 21
234.00093383789061
 31
0.0
  0
LINE
  5
B4
  8
DIMNSIONS
  6
CONTINUOUS
 62
     7
 10
168.75
 20
230.25
 30
0.0
 11
169.75505969272541
 21
234.00093383789061
 31
0.0
  0
TEXT
  5
B5
  8
DIMNSIONS
 62
     7
 10
167.25916666666669
 20
226.42708333333329
 30
0.0
 40
4.072102864583333
  1
5
 50
90.0
 41
0.7
 11
163.18706380208329
 21
226.42708333333329
 31
0.0
 73
     3
  0
TEXT
  5
B6
  8
DATA
 62
     7
 10
30.0
 20
21.356999999999989
 30
0.0
 40
2.4432617187500001
  1
仕様および外観は予告なく変更されることがありますので、ご了承ください。
 41
0.7
 11
30.0
 21
23.80026171874999
 31
0.0
 73
     3
  0
TEXT
  5
B7
  8
DATA
 62
     7
 10
224.77500000000001
 20
31.606633065059562
 30
0.0
 40
3.664892578124999
  1
EXT-DVI-FM500
 41
0.7
 11
224.77500000000001
 21
35.27152564318456
 31
0.0
 73
     3
  0
TEXT
  5
B8
  8
DATA
 62
     7
 10
224.8320650654141
 20
43.14337015648664
 30
0.0
 40
3.664892578124999
  1
Gefen
 41
0.7
 11
224.8320650654141
 21
46.808262734611638
 31
0.0
 73
     3
  0
TEXT
  5
B9
  8
DATA
 62
     7
 10
221.84999999999999
 20
37.983158215963527
 30
0.0
 40
2.4432617187500001
  1
DVI延長機
 41
0.7
 11
221.84999999999999
 21
40.426419934713522
 31
0.0
 73
     3
  0
TEXT
  5
BA
  8
DATA
 62
     7
 10
64.512029566510492
 20
88.965647705199231
 30
0.0
 40
4.072102864583333
  1
センダー
 41
0.7
 11
64.512029566510492
 21
93.03775056978256
 31
0.0
 73
     3
  0
LINE
  5
BB
  8
DATA
  6
CONTINUOUS
 62
     7
 10
56.25
 20
225.25
 30
0.0
 11
56.25
 21
206.25
 31
0.0
  0
LINE
  5
BC
  8
DATA
  6
CONTINUOUS
 62
     7
 10
56.25
 20
195.25
 30
0.0
 11
56.25
 21
175.03820797667319
 31
0.0
  0
LINE
  5
BD
  8
DATA
  6
CONTINUOUS
 62
     7
 10
95.25
 20
225.25
 30
0.0
 11
95.25
 21
206.25
 31
0.0
  0
LINE
  5
BE
  8
DATA
  6
CONTINUOUS
 62
     7
 10
95.25
 20
195.25
 30
0.0
 11
95.25
 21
175.03820797667319
 31
0.0
  0
LINE
  5
BF
  8
DATA
  6
CONTINUOUS
 62
     7
 10
56.25
 20
225.25
 30
0.0
 11
95.25
 21
225.25
 31
0.0
  0
LINE
  5
C0
  8
DATA
  6
CONTINUOUS
 62
     7
 10
56.25
 20
206.25
 30
0.0
 11
64.249999999999972
 21
206.25
 31
0.0
  0
LINE
  5
C1
  8
DATA
  6
CONTINUOUS
 62
     7
 10
87.249999999999957
 20
206.25
 30
0.0
 11
95.25
 21
206.25
 31
0.0
  0
LINE
  5
C2
  8
DATA
  6
CONTINUOUS
 62
     7
 10
56.25
 20
195.25
 30
0.0
 11
64.249999999999972
 21
195.25
 31
0.0
  0
LINE
  5
C3
  8
DATA
  6
CONTINUOUS
 62
     7
 10
87.249999999999957
 20
195.25
 30
0.0
 11
95.25
 21
195.25
 31
0.0
  0
ARC
  5
C4
  8
DATA
  6
CONTINUOUS
 62
     7
 10
103.7875000000012
 20
180.0958333333337
 30
0.0
 40
47.895591379700427
 50
188.0998263756249
 51
209.85925631858001
  0
ARC
  5
C5
  8
DATA
  6
CONTINUOUS
 62
     7
 10
47.712499999998762
 20
180.0958333333337
 30
0.0
 40
47.89559137970042
 50
330.14074368142002
 51
351.9001736243751
  0
LINE
  5
C6
  8
DATA
  6
CONTINUOUS
 62
     7
 10
62.249999999999972
 20
156.25
 30
0.0
 11
89.250000000000043
 21
156.25
 31
0.0
  0
ARC
  5
C7
  8
DATA
  6
CONTINUOUS
 62
     7
 10
68.250000000000185
 20
175.03820797667319
 30
0.0
 40
12.00000000000019
 50
180.0
 51
188.09982637562479
  0
ARC
  5
C8
  8
DATA
  6
CONTINUOUS
 62
     7
 10
83.250000000000497
 20
175.03820797667319
 30
0.0
 40
11.99999999999949
 50
351.90017362437487
 51
0.0
  0
LINE
  5
C9
  8
DATA
  6
CONTINUOUS
 62
     7
 10
87.249999999999957
 20
206.25
 30
0.0
 11
87.249999999999957
 21
195.25
 31
0.0
  0
LINE
  5
CA
  8
DATA
  6
CONTINUOUS
 62
     7
 10
64.249999999999972
 20
195.25
 30
0.0
 11
64.249999999999972
 21
206.25
 31
0.0
  0
LINE
  5
CB
  8
DATA
  6
CONTINUOUS
 62
     7
 10
56.25
 20
220.25
 30
0.0
 11
59.999999999999972
 21
220.25
 31
0.0
  0
LINE
  5
CC
  8
DATA
  6
CONTINUOUS
 62
     7
 10
63.0
 20
230.25
 30
0.0
 11
88.499999999999986
 21
230.25
 31
0.0
  0
POLYLINE
  5
CD
  8
DATA
  6
CONTINUOUS
 62
     7
 66
     1
 10
0.0
 20
0.0
 30
0.0
  0
VERTEX
  5
47B
  8
DATA
  6
CONTINUOUS
 62
     7
 10
57.870163062761627
 20
225.25
 30
0.0
  0
VERTEX
  5
47C
  8
DATA
  6
CONTINUOUS
 62
     7
 10
57.870163062761627
 20
227.7235842313261
 30
0.0
  0
VERTEX
  5
47D
  8
DATA
  6
CONTINUOUS
 62
     7
 10
60.570163062761623
 20
227.7235842313261
 30
0.0
  0
VERTEX
  5
47E
  8
DATA
  6
CONTINUOUS
 62
     7
 10
60.570163062761623
 20
225.25
 30
0.0
  0
SEQEND
  5
47F
  8
DATA
  6
CONTINUOUS
 62
     7
  0
LINE
  5
D4
  8
DATA
  6
CONTINUOUS
 62
     7
 10
57.870163062761627
 20
225.25
 30
0.0
 11
60.570163062761623
 21
225.53
 31
0.0
  0
LINE
  5
D5
  8
DATA
  6
CONTINUOUS
 62
     7
 10
57.870163062761627
 20
226.05000000000001
 30
0.0
 11
60.570163062761623
 21
226.33000000000001
 31
0.0
  0
LINE
  5
D6
  8
DATA
  6
CONTINUOUS
 62
     7
 10
57.870163062761627
 20
226.84999999999999
 30
0.0
 11
60.570163062761623
 21
227.13
 31
0.0
  0
POLYLINE
  5
D7
  8
DATA
  6
CONTINUOUS
 62
     7
 66
     1
 10
0.0
 20
0.0
 30
0.0
  0
VERTEX
  5
480
  8
DATA
  6
CONTINUOUS
 62
     7
 10
90.870163062761648
 20
225.25
 30
0.0
  0
VERTEX
  5
481
  8
DATA
  6
CONTINUOUS
 62
     7
 10
90.870163062761648
 20
227.7235842313261
 30
0.0
  0
VERTEX
  5
482
  8
DATA
  6
CONTINUOUS
 62
     7
 10
93.570163062761637
 20
227.7235842313261
 30
0.0
  0
VERTEX
  5
483
  8
DATA
  6
CONTINUOUS
 62
     7
 10
93.570163062761637
 20
225.25
 30
0.0
  0
SEQEND
  5
484
  8
DATA
  6
CONTINUOUS
 62
     7
  0
LINE
  5
DE
  8
DATA
  6
CONTINUOUS
 62
     7
 10
90.870163062761648
 20
225.25
 30
0.0
 11
93.570163062761637
 21
225.53
 31
0.0
  0
LINE
  5
DF
  8
DATA
  6
CONTINUOUS
 62
     7
 10
90.870163062761648
 20
226.05000000000001
 30
0.0
 11
93.570163062761637
 21
226.33000000000001
 31
0.0
  0
LINE
  5
E0
  8
DATA
  6
CONTINUOUS
 62
     7
 10
90.870163062761648
 20
226.84999999999999
 30
0.0
 11
93.570163062761637
 21
227.13
 31
0.0
  0
LINE
  5
E1
  8
DATA
  6
CONTINUOUS
 62
     7
 10
55.349999999999973
 20
204.90975261595841
 30
0.0
 11
63.149999999999977
 21
204.90975261595841
 31
0.0
  0
LINE
  5
E2
  8
DATA
  6
CONTINUOUS
 62
     7
 10
62.979999999999933
 20
196.90975261595841
 30
0.0
 11
55.520000000000003
 21
196.90975261595841
 31
0.0
  0
LINE
  5
E3
  8
DATA
  6
CONTINUOUS
 62
     7
 10
57.870163062761627
 20
206.25
 30
0.0
 11
57.870163062761627
 21
204.90975261595841
 31
0.0
  0
LINE
  5
E4
  8
DATA
  6
CONTINUOUS
 62
     7
 10
60.570163062761623
 20
206.25
 30
0.0
 11
60.570163062761623
 21
204.90975261595841
 31
0.0
  0
LINE
  5
E5
  8
DATA
  6
CONTINUOUS
 62
     7
 10
55.349999999999973
 20
204.90975261595841
 30
0.0
 11
55.520000000000003
 21
196.90975261595841
 31
0.0
  0
LINE
  5
E6
  8
DATA
  6
CONTINUOUS
 62
     7
 10
63.149999999999977
 20
204.90975261595841
 30
0.0
 11
62.979999999999933
 21
196.90975261595841
 31
0.0
  0
LINE
  5
E7
  8
DATA
  6
CONTINUOUS
 62
     7
 10
57.870163062761627
 20
204.90975261595841
 30
0.0
 11
60.570163062761623
 21
205.18000000000001
 31
0.0
  0
LINE
  5
E8
  8
DATA
  6
CONTINUOUS
 62
     7
 10
57.870163062761627
 20
205.70975261595839
 30
0.0
 11
60.570163062761623
 21
205.97999999999999
 31
0.0
  0
LINE
  5
E9
  8
DATA
  6
CONTINUOUS
 62
     7
 10
55.728562487732532
 20
196.90975261595841
 30
0.0
 11
55.728562487732532
 21
204.90975261595841
 31
0.0
  0
LINE
  5
EA
  8
DATA
  6
CONTINUOUS
 62
     7
 10
56.728562487732532
 20
196.90975261595841
 30
0.0
 11
56.728562487732532
 21
204.90975261595841
 31
0.0
  0
LINE
  5
EB
  8
DATA
  6
CONTINUOUS
 62
     7
 10
57.728562487732532
 20
196.90975261595841
 30
0.0
 11
57.728562487732532
 21
204.90975261595841
 31
0.0
  0
LINE
  5
EC
  8
DATA
  6
CONTINUOUS
 62
     7
 10
58.728562487732532
 20
196.90975261595841
 30
0.0
 11
58.728562487732532
 21
204.90975261595841
 31
0.0
  0
LINE
  5
ED
  8
DATA
  6
CONTINUOUS
 62
     7
 10
59.728562487732532
 20
196.90975261595841
 30
0.0
 11
59.728562487732532
 21
204.90975261595841
 31
0.0
  0
LINE
  5
EE
  8
DATA
  6
CONTINUOUS
 62
     7
 10
60.728562487732532
 20
196.90975261595841
 30
0.0
 11
60.728562487732532
 21
204.90975261595841
 31
0.0
  0
LINE
  5
EF
  8
DATA
  6
CONTINUOUS
 62
     7
 10
61.728562487732532
 20
196.90975261595841
 30
0.0
 11
61.728562487732532
 21
204.90975261595841
 31
0.0
  0
LINE
  5
F0
  8
DATA
  6
CONTINUOUS
 62
     7
 10
62.728562487732532
 20
196.90975261595841
 30
0.0
 11
62.728562487732532
 21
204.90975261595841
 31
0.0
  0
LINE
  5
F1
  8
DATA
  6
CONTINUOUS
 62
     7
 10
88.349999999999966
 20
204.90975261595841
 30
0.0
 11
96.149999999999963
 21
204.90975261595841
 31
0.0
  0
LINE
  5
F2
  8
DATA
  6
CONTINUOUS
 62
     7
 10
95.979999999999947
 20
196.90975261595841
 30
0.0
 11
88.519999999999982
 21
196.90975261595841
 31
0.0
  0
LINE
  5
F3
  8
DATA
  6
CONTINUOUS
 62
     7
 10
90.870163062761648
 20
206.25
 30
0.0
 11
90.870163062761648
 21
204.90975261595841
 31
0.0
  0
LINE
  5
F4
  8
DATA
  6
CONTINUOUS
 62
     7
 10
93.570163062761637
 20
206.25
 30
0.0
 11
93.570163062761637
 21
204.90975261595841
 31
0.0
  0
LINE
  5
F5
  8
DATA
  6
CONTINUOUS
 62
     7
 10
88.349999999999966
 20
204.90975261595841
 30
0.0
 11
88.519999999999982
 21
196.90975261595841
 31
0.0
  0
LINE
  5
F6
  8
DATA
  6
CONTINUOUS
 62
     7
 10
96.149999999999963
 20
204.90975261595841
 30
0.0
 11
95.979999999999947
 21
196.90975261595841
 31
0.0
  0
LINE
  5
F7
  8
DATA
  6
CONTINUOUS
 62
     7
 10
90.870163062761648
 20
205.70975261595839
 30
0.0
 11
93.570163062761637
 21
205.97999999999999
 31
0.0
  0
LINE
  5
F8
  8
DATA
  6
CONTINUOUS
 62
     7
 10
88.728562487732532
 20
196.90975261595841
 30
0.0
 11
88.728562487732532
 21
204.90975261595841
 31
0.0
  0
LINE
  5
F9
  8
DATA
  6
CONTINUOUS
 62
     7
 10
89.728562487732518
 20
196.90975261595841
 30
0.0
 11
89.728562487732518
 21
204.90975261595841
 31
0.0
  0
LINE
  5
FA
  8
DATA
  6
CONTINUOUS
 62
     7
 10
90.728562487732546
 20
196.90975261595841
 30
0.0
 11
90.728562487732546
 21
204.90975261595841
 31
0.0
  0
LINE
  5
FB
  8
DATA
  6
CONTINUOUS
 62
     7
 10
91.728562487732532
 20
196.90975261595841
 30
0.0
 11
91.728562487732532
 21
204.90975261595841
 31
0.0
  0
LINE
  5
FC
  8
DATA
  6
CONTINUOUS
 62
     7
 10
92.728562487732532
 20
196.90975261595841
 30
0.0
 11
92.728562487732532
 21
204.90975261595841
 31
0.0
  0
LINE
  5
FD
  8
DATA
  6
CONTINUOUS
 62
     7
 10
93.728562487732532
 20
196.90975261595841
 30
0.0
 11
93.728562487732532
 21
204.90975261595841
 31
0.0
  0
LINE
  5
FE
  8
DATA
  6
CONTINUOUS
 62
     7
 10
94.728562487732518
 20
196.90975261595841
 30
0.0
 11
94.728562487732518
 21
204.90975261595841
 31
0.0
  0
LINE
  5
FF
  8
DATA
  6
CONTINUOUS
 62
     7
 10
95.728562487732546
 20
196.90975261595841
 30
0.0
 11
95.728562487732546
 21
204.90975261595841
 31
0.0
  0
LINE
  5
100
  8
DATA
  6
CONTINUOUS
 62
     7
 10
59.999999999999972
 20
220.25
 30
0.0
 11
59.999999999999972
 21
212.80000000000001
 31
0.0
  0
ARC
  5
101
  8
DATA
  6
CONTINUOUS
 62
     7
 10
67.476670886076022
 20
213.78651898734191
 30
0.0
 40
7.5414738116022937
 50
187.51654566725651
 51
272.0770522664144
  0
ARC
  5
102
  8
DATA
  6
CONTINUOUS
 62
     7
 10
84.023329113923964
 20
213.78651898734191
 30
0.0
 40
7.5414738116022839
 50
267.92294773358572
 51
352.48345433274329
  0
LINE
  5
103
  8
DATA
  6
CONTINUOUS
 62
     7
 10
95.25
 20
220.25
 30
0.0
 11
91.500000000000028
 21
220.25
 31
0.0
  0
LINE
  5
104
  8
DATA
  6
CONTINUOUS
 62
     7
 10
91.500000000000028
 20
220.25
 30
0.0
 11
91.500000000000028
 21
212.80000000000001
 31
0.0
  0
LINE
  5
105
  8
DATA
  6
CONTINUOUS
 62
     7
 10
67.749999999999972
 20
206.25
 30
0.0
 11
67.749999999999972
 21
195.15874793976039
 31
0.0
  0
LINE
  5
106
  8
DATA
  6
CONTINUOUS
 62
     7
 10
83.750000000000028
 20
206.25
 30
0.0
 11
83.750000000000028
 21
195.15874793976039
 31
0.0
  0
LINE
  5
107
  8
DATA
  6
CONTINUOUS
 62
     7
 10
59.999999999999972
 20
166.25
 30
0.0
 11
59.999999999999972
 21
188.60874793976041
 31
0.0
  0
ARC
  5
108
  8
DATA
  6
CONTINUOUS
 62
     7
 10
67.476670886076022
 20
187.62222895241851
 30
0.0
 40
7.5414738116023319
 50
87.92294773358563
 51
172.48345433274321
  0
ARC
  5
109
  8
DATA
  6
CONTINUOUS
 62
     7
 10
84.023329113923964
 20
187.62222895241851
 30
0.0
 40
7.5414738116022999
 50
7.5165456672567954
 51
92.077052266414356
  0
LINE
  5
10A
  8
DATA
  6
CONTINUOUS
 62
     7
 10
91.500000000000028
 20
166.25
 30
0.0
 11
91.500000000000028
 21
188.60874793976041
 31
0.0
  0
ARC
  5
10B
  8
DATA
  6
CONTINUOUS
 62
     7
 10
75.33907894736879
 20
167.8489421052634
 30
0.0
 40
15.42219046729736
 50
185.9510067365683
 51
228.77212290397361
  0
ARC
  5
10C
  8
DATA
  6
CONTINUOUS
 62
     7
 10
76.160921052631181
 20
167.8489421052634
 30
0.0
 40
15.422190467297369
 50
311.22787709602648
 51
354.04899326343178
  0
CIRCLE
  5
10D
  8
DATA
  6
CONTINUOUS
 62
     7
 10
79.766977656210074
 20
208.81886995269301
 30
0.0
 40
2.9000000000000048
  0
CIRCLE
  5
10E
  8
DATA
  6
CONTINUOUS
 62
     7
 10
79.766977656210074
 20
208.81886995269301
 30
0.0
 40
0.75
  0
LINE
  5
10F
  8
DATA
  6
CONTINUOUS
 62
     7
 10
67.749999999999972
 20
204.59999999999999
 30
0.0
 11
83.750000000000028
 21
204.59999999999999
 31
0.0
  0
LINE
  5
110
  8
DATA
  6
CONTINUOUS
 62
     7
 10
67.749999999999972
 20
202.19999999999999
 30
0.0
 11
83.750000000000028
 21
202.19999999999999
 31
0.0
  0
LINE
  5
111
  8
DATA
  6
CONTINUOUS
 62
     7
 10
67.749999999999972
 20
196.80874793976039
 30
0.0
 11
83.750000000000028
 21
196.80874793976039
 31
0.0
  0
LINE
  5
112
  8
DATA
  6
CONTINUOUS
 62
     7
 10
67.749999999999972
 20
199.2087479397604
 30
0.0
 11
83.750000000000028
 21
199.2087479397604
 31
0.0
  0
LINE
  5
113
  8
DATA
  6
CONTINUOUS
 62
     7
 10
58.249999999723038
 20
118.75
 30
0.0
 11
93.249999999723045
 21
118.75
 31
0.0
  0
LINE
  5
114
  8
DATA
  6
CONTINUOUS
 62
     7
 10
58.249999999723038
 20
133.75
 30
0.0
 11
93.249999999723045
 21
133.75
 31
0.0
  0
LINE
  5
115
  8
DATA
  6
CONTINUOUS
 62
     7
 10
95.249999999723059
 20
131.75
 30
0.0
 11
95.249999999723059
 21
120.75
 31
0.0
  0
LINE
  5
116
  8
DATA
  6
CONTINUOUS
 62
     7
 10
56.249999999723038
 20
120.75
 30
0.0
 11
56.249999999723038
 21
131.75
 31
0.0
  0
LINE
  5
117
  8
DATA
  6
CONTINUOUS
 62
     7
 10
62.999999999723038
 20
133.75
 30
0.0
 11
62.999999999723038
 21
118.75
 31
0.0
  0
LINE
  5
118
  8
DATA
  6
CONTINUOUS
 62
     7
 10
89.999999999723073
 20
133.75
 30
0.0
 11
89.999999999723073
 21
118.75
 31
0.0
  0
LINE
  5
119
  8
DATA
  6
CONTINUOUS
 62
     7
 10
58.249999999723038
 20
118.75
 30
0.0
 11
58.249999999723038
 21
133.75
 31
0.0
  0
LINE
  5
11A
  8
DATA
  6
CONTINUOUS
 62
     7
 10
56.249999999723038
 20
131.75
 30
0.0
 11
58.249999999723038
 21
133.75
 31
0.0
  0
LINE
  5
11B
  8
DATA
  6
CONTINUOUS
 62
     7
 10
58.249999999723038
 20
118.75
 30
0.0
 11
56.249999999723038
 21
120.75
 31
0.0
  0
LINE
  5
11C
  8
DATA
  6
CONTINUOUS
 62
     7
 10
93.249999999723045
 20
133.75
 30
0.0
 11
93.249999999723045
 21
118.75
 31
0.0
  0
LINE
  5
11D
  8
DATA
  6
CONTINUOUS
 62
     7
 10
95.249999999723059
 20
131.75
 30
0.0
 11
93.249999999723045
 21
133.75
 31
0.0
  0
LINE
  5
11E
  8
DATA
  6
CONTINUOUS
 62
     7
 10
95.249999999723059
 20
120.75
 30
0.0
 11
93.249999999723045
 21
118.75
 31
0.0
  0
LINE
  5
11F
  8
DATA
  6
CONTINUOUS
 62
     7
 10
62.999999999723038
 20
131.75
 30
0.0
 11
58.249999999723038
 21
131.75
 31
0.0
  0
LINE
  5
120
  8
DATA
  6
CONTINUOUS
 62
     7
 10
62.999999999723038
 20
120.75
 30
0.0
 11
58.249999999723038
 21
120.75
 31
0.0
  0
LINE
  5
121
  8
DATA
  6
CONTINUOUS
 62
     7
 10
93.249999999723045
 20
131.75
 30
0.0
 11
89.999999999723073
 21
131.75
 31
0.0
  0
LINE
  5
122
  8
DATA
  6
CONTINUOUS
 62
     7
 10
93.249999999723045
 20
120.75
 30
0.0
 11
89.999999999723073
 21
120.75
 31
0.0
  0
CIRCLE
  5
123
  8
DATA
  6
CONTINUOUS
 62
     7
 10
66.506624245689238
 20
130.53470060322709
 30
0.0
 40
2.5499999999999958
  0
CIRCLE
  5
124
  8
DATA
  6
CONTINUOUS
 62
     7
 10
66.506624245689238
 20
130.53470060322709
 30
0.0
 40
1.8499999999999941
  0
CIRCLE
  5
125
  8
DATA
  6
CONTINUOUS
 62
     7
 10
66.506624245689238
 20
130.53470060322709
 30
0.0
 40
0.4000000000000057
  0
LINE
  5
126
  8
DATA
  6
CONTINUOUS
 62
     7
 10
85.299999999723084
 20
120.15000000000001
 30
0.0
 11
80.599999999723096
 21
120.15000000000001
 31
0.0
  0
LINE
  5
127
  8
DATA
  6
CONTINUOUS
 62
     7
 10
84.249999999723045
 20
127.34999999999999
 30
0.0
 11
81.649999999723093
 21
127.34999999999999
 31
0.0
  0
LINE
  5
128
  8
DATA
  6
CONTINUOUS
 62
     7
 10
85.299999999723084
 20
120.15000000000001
 30
0.0
 11
85.299999999723084
 21
124.66744614367531
 31
0.0
  0
LINE
  5
129
  8
DATA
  6
CONTINUOUS
 62
     7
 10
85.299999999723084
 20
125.41744614367531
 30
0.0
 11
85.299999999723084
 21
126.34999999999999
 31
0.0
  0
LINE
  5
12A
  8
DATA
  6
CONTINUOUS
 62
     7
 10
80.599999999723096
 20
120.15000000000001
 30
0.0
 11
80.599999999723096
 21
124.66744614367531
 31
0.0
  0
LINE
  5
12B
  8
DATA
  6
CONTINUOUS
 62
     7
 10
80.599999999723096
 20
125.41744614367531
 30
0.0
 11
80.599999999723096
 21
126.34999999999999
 31
0.0
  0
LINE
  5
12C
  8
DATA
  6
CONTINUOUS
 62
     7
 10
85.299999999723084
 20
126.34999999999999
 30
0.0
 11
84.249999999723045
 21
126.34999999999999
 31
0.0
  0
LINE
  5
12D
  8
DATA
  6
CONTINUOUS
 62
     7
 10
81.649999999723093
 20
126.34999999999999
 30
0.0
 11
80.599999999723096
 21
126.34999999999999
 31
0.0
  0
LINE
  5
12E
  8
DATA
  6
CONTINUOUS
 62
     7
 10
84.249999999723045
 20
127.34999999999999
 30
0.0
 11
84.249999999723045
 21
126.34999999999999
 31
0.0
  0
LINE
  5
12F
  8
DATA
  6
CONTINUOUS
 62
     7
 10
81.649999999723093
 20
126.34999999999999
 30
0.0
 11
81.649999999723093
 21
127.34999999999999
 31
0.0
  0
LINE
  5
130
  8
DATA
  6
CONTINUOUS
 62
     7
 10
81.149999999723093
 20
125.41744614367531
 30
0.0
 11
80.599999999723096
 21
125.41744614367531
 31
0.0
  0
LINE
  5
131
  8
DATA
  6
CONTINUOUS
 62
     7
 10
81.149999999723093
 20
124.66744614367531
 30
0.0
 11
80.599999999723096
 21
124.66744614367531
 31
0.0
  0
LINE
  5
132
  8
DATA
  6
CONTINUOUS
 62
     7
 10
84.749999999723059
 20
125.41744614367531
 30
0.0
 11
85.299999999723084
 21
125.41744614367531
 31
0.0
  0
LINE
  5
133
  8
DATA
  6
CONTINUOUS
 62
     7
 10
84.749999999723059
 20
124.66744614367531
 30
0.0
 11
85.299999999723084
 21
124.66744614367531
 31
0.0
  0
LINE
  5
134
  8
DATA
  6
CONTINUOUS
 62
     7
 10
81.149999999723093
 20
124.66744614367531
 30
0.0
 11
81.149999999723093
 21
125.41744614367531
 31
0.0
  0
LINE
  5
135
  8
DATA
  6
CONTINUOUS
 62
     7
 10
84.749999999723059
 20
124.66744614367531
 30
0.0
 11
84.749999999723059
 21
125.41744614367531
 31
0.0
  0
LINE
  5
136
  8
DATA
  6
CONTINUOUS
 62
     7
 10
79.299999999723084
 20
120.15000000000001
 30
0.0
 11
74.599999999723096
 21
120.15000000000001
 31
0.0
  0
LINE
  5
137
  8
DATA
  6
CONTINUOUS
 62
     7
 10
78.249999999723045
 20
127.34999999999999
 30
0.0
 11
75.649999999723093
 21
127.34999999999999
 31
0.0
  0
LINE
  5
138
  8
DATA
  6
CONTINUOUS
 62
     7
 10
79.299999999723084
 20
120.15000000000001
 30
0.0
 11
79.299999999723084
 21
124.66744614367531
 31
0.0
  0
LINE
  5
139
  8
DATA
  6
CONTINUOUS
 62
     7
 10
79.299999999723084
 20
125.41744614367531
 30
0.0
 11
79.299999999723084
 21
126.34999999999999
 31
0.0
  0
LINE
  5
13A
  8
DATA
  6
CONTINUOUS
 62
     7
 10
74.599999999723096
 20
120.15000000000001
 30
0.0
 11
74.599999999723096
 21
124.66744614367531
 31
0.0
  0
LINE
  5
13B
  8
DATA
  6
CONTINUOUS
 62
     7
 10
74.599999999723096
 20
125.41744614367531
 30
0.0
 11
74.599999999723096
 21
126.34999999999999
 31
0.0
  0
LINE
  5
13C
  8
DATA
  6
CONTINUOUS
 62
     7
 10
79.299999999723084
 20
126.34999999999999
 30
0.0
 11
78.249999999723045
 21
126.34999999999999
 31
0.0
  0
LINE
  5
13D
  8
DATA
  6
CONTINUOUS
 62
     7
 10
75.649999999723093
 20
126.34999999999999
 30
0.0
 11
74.599999999723096
 21
126.34999999999999
 31
0.0
  0
LINE
  5
13E
  8
DATA
  6
CONTINUOUS
 62
     7
 10
78.249999999723045
 20
127.34999999999999
 30
0.0
 11
78.249999999723045
 21
126.34999999999999
 31
0.0
  0
LINE
  5
13F
  8
DATA
  6
CONTINUOUS
 62
     7
 10
75.649999999723093
 20
126.34999999999999
 30
0.0
 11
75.649999999723093
 21
127.34999999999999
 31
0.0
  0
LINE
  5
140
  8
DATA
  6
CONTINUOUS
 62
     7
 10
75.149999999723093
 20
125.41744614367531
 30
0.0
 11
74.599999999723096
 21
125.41744614367531
 31
0.0
  0
LINE
  5
141
  8
DATA
  6
CONTINUOUS
 62
     7
 10
75.149999999723093
 20
124.66744614367531
 30
0.0
 11
74.599999999723096
 21
124.66744614367531
 31
0.0
  0
LINE
  5
142
  8
DATA
  6
CONTINUOUS
 62
     7
 10
78.749999999723059
 20
125.41744614367531
 30
0.0
 11
79.299999999723084
 21
125.41744614367531
 31
0.0
  0
LINE
  5
143
  8
DATA
  6
CONTINUOUS
 62
     7
 10
78.749999999723059
 20
124.66744614367531
 30
0.0
 11
79.299999999723084
 21
124.66744614367531
 31
0.0
  0
LINE
  5
144
  8
DATA
  6
CONTINUOUS
 62
     7
 10
75.149999999723093
 20
124.66744614367531
 30
0.0
 11
75.149999999723093
 21
125.41744614367531
 31
0.0
  0
LINE
  5
145
  8
DATA
  6
CONTINUOUS
 62
     7
 10
78.749999999723059
 20
124.66744614367531
 30
0.0
 11
78.749999999723059
 21
125.41744614367531
 31
0.0
  0
LINE
  5
146
  8
DATA
  6
CONTINUOUS
 62
     7
 10
57.25
 20
243.75
 30
0.0
 11
94.25
 21
243.75
 31
0.0
  0
LINE
  5
147
  8
DATA
  6
CONTINUOUS
 62
     7
 10
57.25
 20
258.75
 30
0.0
 11
94.25
 21
258.75
 31
0.0
  0
LINE
  5
148
  8
DATA
  6
CONTINUOUS
 62
     7
 10
56.25
 20
244.75
 30
0.0
 11
56.25
 21
257.75
 31
0.0
  0
LINE
  5
149
  8
DATA
  6
CONTINUOUS
 62
     7
 10
95.25
 20
244.75
 30
0.0
 11
95.25
 21
257.75
 31
0.0
  0
CIRCLE
  5
14A
  8
DATA
  6
CONTINUOUS
 62
     7
 10
59.220163062761621
 20
251.25
 30
0.0
 40
1.3499999999999941
  0
CIRCLE
  5
14B
  8
DATA
  6
CONTINUOUS
 62
     7
 10
92.220163062761657
 20
251.25
 30
0.0
 40
1.350000000000001
  0
ARC
  5
14C
  8
DATA
  6
CONTINUOUS
 62
     7
 10
57.25
 20
257.75
 30
0.0
 40
1.0
 50
90.0
 51
180.0
  0
ARC
  5
14D
  8
DATA
  6
CONTINUOUS
 62
     7
 10
57.25
 20
244.75
 30
0.0
 40
1.0
 50
180.0
 51
270.0
  0
ARC
  5
14E
  8
DATA
  6
CONTINUOUS
 62
     7
 10
94.25
 20
257.75
 30
0.0
 40
1.0
 50
0.0
 51
90.0
  0
ARC
  5
14F
  8
DATA
  6
CONTINUOUS
 62
     7
 10
94.25
 20
244.75
 30
0.0
 40
1.0
 50
270.0
 51
0.0
  0
LINE
  5
150
  8
DATA
  6
CONTINUOUS
 62
     7
 10
64.90579162496114
 20
255.80000000000001
 30
0.0
 11
86.594208375038846
 21
255.80000000000001
 31
0.0
  0
LINE
  5
151
  8
DATA
  6
CONTINUOUS
 62
     7
 10
64.0
 20
246.69999999999999
 30
0.0
 11
87.5
 21
246.69999999999999
 31
0.0
  0
POLYLINE
  5
152
  8
DATA
  6
CONTINUOUS
 62
     7
 66
     1
 10
0.0
 20
0.0
 30
0.0
 70
     1
  0
VERTEX
  5
485
  8
DATA
  6
CONTINUOUS
 62
     7
 10
83.153044547226813
 20
251.47499999999999
 30
0.0
  0
VERTEX
  5
486
  8
DATA
  6
CONTINUOUS
 62
     7
 10
85.553044547226804
 20
251.47499999999999
 30
0.0
  0
VERTEX
  5
487
  8
DATA
  6
CONTINUOUS
 62
     7
 10
85.553044547226804
 20
251.02500000000001
 30
0.0
  0
VERTEX
  5
488
  8
DATA
  6
CONTINUOUS
 62
     7
 10
83.153044547226813
 20
251.02500000000001
 30
0.0
  0
SEQEND
  5
489
  8
DATA
  6
CONTINUOUS
 62
     7
  0
POLYLINE
  5
159
  8
DATA
  6
CONTINUOUS
 62
     7
 66
     1
 10
0.0
 20
0.0
 30
0.0
 70
     1
  0
VERTEX
  5
48A
  8
DATA
  6
CONTINUOUS
 62
     7
 10
66.372122555202395
 20
251.9571067811865
 30
0.0
  0
VERTEX
  5
48B
  8
DATA
  6
CONTINUOUS
 62
     7
 10
67.432782726982211
 20
250.89644660940669
 30
0.0
  0
VERTEX
  5
48C
  8
DATA
  6
CONTINUOUS
 62
     7
 10
67.079229336388934
 20
250.54289321881339
 30
0.0
  0
VERTEX
  5
48D
  8
DATA
  6
CONTINUOUS
 62
     7
 10
66.018569164609119
 20
251.60355339059331
 30
0.0
  0
SEQEND
  5
48E
  8
DATA
  6
CONTINUOUS
 62
     7
  0
POLYLINE
  5
160
  8
DATA
  6
CONTINUOUS
 62
     7
 66
     1
 10
0.0
 20
0.0
 30
0.0
 70
     1
  0
VERTEX
  5
48F
  8
DATA
  6
CONTINUOUS
 62
     7
 10
67.872122555202395
 20
251.9571067811865
 30
0.0
  0
VERTEX
  5
490
  8
DATA
  6
CONTINUOUS
 62
     7
 10
68.932782726982211
 20
250.89644660940669
 30
0.0
  0
VERTEX
  5
491
  8
DATA
  6
CONTINUOUS
 62
     7
 10
68.579229336388934
 20
250.54289321881339
 30
0.0
  0
VERTEX
  5
492
  8
DATA
  6
CONTINUOUS
 62
     7
 10
67.518569164609119
 20
251.60355339059331
 30
0.0
  0
SEQEND
  5
493
  8
DATA
  6
CONTINUOUS
 62
     7
  0
POLYLINE
  5
167
  8
DATA
  6
CONTINUOUS
 62
     7
 66
     1
 10
0.0
 20
0.0
 30
0.0
 70
     1
  0
VERTEX
  5
494
  8
DATA
  6
CONTINUOUS
 62
     7
 10
69.372122555202395
 20
251.9571067811865
 30
0.0
  0
VERTEX
  5
495
  8
DATA
  6
CONTINUOUS
 62
     7
 10
70.432782726982197
 20
250.89644660940669
 30
0.0
  0
VERTEX
  5
496
  8
DATA
  6
CONTINUOUS
 62
     7
 10
70.079229336388934
 20
250.54289321881339
 30
0.0
  0
VERTEX
  5
497
  8
DATA
  6
CONTINUOUS
 62
     7
 10
69.018569164609119
 20
251.60355339059331
 30
0.0
  0
SEQEND
  5
498
  8
DATA
  6
CONTINUOUS
 62
     7
  0
POLYLINE
  5
16E
  8
DATA
  6
CONTINUOUS
 62
     7
 66
     1
 10
0.0
 20
0.0
 30
0.0
 70
     1
  0
VERTEX
  5
499
  8
DATA
  6
CONTINUOUS
 62
     7
 10
73.872122555202381
 20
251.9571067811865
 30
0.0
  0
VERTEX
  5
49A
  8
DATA
  6
CONTINUOUS
 62
     7
 10
74.932782726982197
 20
250.89644660940669
 30
0.0
  0
VERTEX
  5
49B
  8
DATA
  6
CONTINUOUS
 62
     7
 10
74.579229336388934
 20
250.54289321881339
 30
0.0
  0
VERTEX
  5
49C
  8
DATA
  6
CONTINUOUS
 62
     7
 10
73.518569164609133
 20
251.60355339059331
 30
0.0
  0
SEQEND
  5
49D
  8
DATA
  6
CONTINUOUS
 62
     7
  0
POLYLINE
  5
175
  8
DATA
  6
CONTINUOUS
 62
     7
 66
     1
 10
0.0
 20
0.0
 30
0.0
 70
     1
  0
VERTEX
  5
49E
  8
DATA
  6
CONTINUOUS
 62
     7
 10
75.372122555202381
 20
251.9571067811865
 30
0.0
  0
VERTEX
  5
49F
  8
DATA
  6
CONTINUOUS
 62
     7
 10
76.432782726982197
 20
250.89644660940669
 30
0.0
  0
VERTEX
  5
4A0
  8
DATA
  6
CONTINUOUS
 62
     7
 10
76.079229336388934
 20
250.54289321881339
 30
0.0
  0
VERTEX
  5
4A1
  8
DATA
  6
CONTINUOUS
 62
     7
 10
75.018569164609133
 20
251.60355339059331
 30
0.0
  0
SEQEND
  5
4A2
  8
DATA
  6
CONTINUOUS
 62
     7
  0
POLYLINE
  5
17C
  8
DATA
  6
CONTINUOUS
 62
     7
 66
     1
 10
0.0
 20
0.0
 30
0.0
 70
     1
  0
VERTEX
  5
4A3
  8
DATA
  6
CONTINUOUS
 62
     7
 10
76.872122555202381
 20
251.9571067811865
 30
0.0
  0
VERTEX
  5
4A4
  8
DATA
  6
CONTINUOUS
 62
     7
 10
77.932782726982197
 20
250.89644660940669
 30
0.0
  0
VERTEX
  5
4A5
  8
DATA
  6
CONTINUOUS
 62
     7
 10
77.579229336388934
 20
250.54289321881339
 30
0.0
  0
VERTEX
  5
4A6
  8
DATA
  6
CONTINUOUS
 62
     7
 10
76.518569164609133
 20
251.60355339059331
 30
0.0
  0
SEQEND
  5
4A7
  8
DATA
  6
CONTINUOUS
 62
     7
  0
POLYLINE
  5
183
  8
DATA
  6
CONTINUOUS
 62
     7
 66
     1
 10
0.0
 20
0.0
 30
0.0
 70
     1
  0
VERTEX
  5
4A8
  8
DATA
  6
CONTINUOUS
 62
     7
 10
78.372122555202381
 20
251.9571067811865
 30
0.0
  0
VERTEX
  5
4A9
  8
DATA
  6
CONTINUOUS
 62
     7
 10
79.432782726982197
 20
250.89644660940669
 30
0.0
  0
VERTEX
  5
4AA
  8
DATA
  6
CONTINUOUS
 62
     7
 10
79.079229336388934
 20
250.54289321881339
 30
0.0
  0
VERTEX
  5
4AB
  8
DATA
  6
CONTINUOUS
 62
     7
 10
78.018569164609133
 20
251.60355339059331
 30
0.0
  0
SEQEND
  5
4AC
  8
DATA
  6
CONTINUOUS
 62
     7
  0
POLYLINE
  5
18A
  8
DATA
  6
CONTINUOUS
 62
     7
 66
     1
 10
0.0
 20
0.0
 30
0.0
 70
     1
  0
VERTEX
  5
4AD
  8
DATA
  6
CONTINUOUS
 62
     7
 10
66.372122555202395
 20
253.75710678118659
 30
0.0
  0
VERTEX
  5
4AE
  8
DATA
  6
CONTINUOUS
 62
     7
 10
67.432782726982211
 20
252.69644660940671
 30
0.0
  0
VERTEX
  5
4AF
  8
DATA
  6
CONTINUOUS
 62
     7
 10
67.079229336388934
 20
252.3428932188134
 30
0.0
  0
VERTEX
  5
4B0
  8
DATA
  6
CONTINUOUS
 62
     7
 10
66.018569164609119
 20
253.40355339059329
 30
0.0
  0
SEQEND
  5
4B1
  8
DATA
  6
CONTINUOUS
 62
     7
  0
POLYLINE
  5
191
  8
DATA
  6
CONTINUOUS
 62
     7
 66
     1
 10
0.0
 20
0.0
 30
0.0
 70
     1
  0
VERTEX
  5
4B2
  8
DATA
  6
CONTINUOUS
 62
     7
 10
67.872122555202395
 20
253.75710678118659
 30
0.0
  0
VERTEX
  5
4B3
  8
DATA
  6
CONTINUOUS
 62
     7
 10
68.932782726982211
 20
252.69644660940671
 30
0.0
  0
VERTEX
  5
4B4
  8
DATA
  6
CONTINUOUS
 62
     7
 10
68.579229336388934
 20
252.3428932188134
 30
0.0
  0
VERTEX
  5
4B5
  8
DATA
  6
CONTINUOUS
 62
     7
 10
67.518569164609119
 20
253.40355339059329
 30
0.0
  0
SEQEND
  5
4B6
  8
DATA
  6
CONTINUOUS
 62
     7
  0
POLYLINE
  5
198
  8
DATA
  6
CONTINUOUS
 62
     7
 66
     1
 10
0.0
 20
0.0
 30
0.0
 70
     1
  0
VERTEX
  5
4B7
  8
DATA
  6
CONTINUOUS
 62
     7
 10
69.372122555202395
 20
253.75710678118659
 30
0.0
  0
VERTEX
  5
4B8
  8
DATA
  6
CONTINUOUS
 62
     7
 10
70.432782726982197
 20
252.69644660940671
 30
0.0
  0
VERTEX
  5
4B9
  8
DATA
  6
CONTINUOUS
 62
     7
 10
70.079229336388934
 20
252.3428932188134
 30
0.0
  0
VERTEX
  5
4BA
  8
DATA
  6
CONTINUOUS
 62
     7
 10
69.018569164609119
 20
253.40355339059329
 30
0.0
  0
SEQEND
  5
4BB
  8
DATA
  6
CONTINUOUS
 62
     7
  0
POLYLINE
  5
19F
  8
DATA
  6
CONTINUOUS
 62
     7
 66
     1
 10
0.0
 20
0.0
 30
0.0
 70
     1
  0
VERTEX
  5
4BC
  8
DATA
  6
CONTINUOUS
 62
     7
 10
73.872122555202381
 20
253.75710678118659
 30
0.0
  0
VERTEX
  5
4BD
  8
DATA
  6
CONTINUOUS
 62
     7
 10
74.932782726982197
 20
252.69644660940671
 30
0.0
  0
VERTEX
  5
4BE
  8
DATA
  6
CONTINUOUS
 62
     7
 10
74.579229336388934
 20
252.3428932188134
 30
0.0
  0
VERTEX
  5
4BF
  8
DATA
  6
CONTINUOUS
 62
     7
 10
73.518569164609133
 20
253.40355339059329
 30
0.0
  0
SEQEND
  5
4C0
  8
DATA
  6
CONTINUOUS
 62
     7
  0
POLYLINE
  5
1A6
  8
DATA
  6
CONTINUOUS
 62
     7
 66
     1
 10
0.0
 20
0.0
 30
0.0
 70
     1
  0
VERTEX
  5
4C1
  8
DATA
  6
CONTINUOUS
 62
     7
 10
75.372122555202381
 20
253.75710678118659
 30
0.0
  0
VERTEX
  5
4C2
  8
DATA
  6
CONTINUOUS
 62
     7
 10
76.432782726982197
 20
252.69644660940671
 30
0.0
  0
VERTEX
  5
4C3
  8
DATA
  6
CONTINUOUS
 62
     7
 10
76.079229336388934
 20
252.3428932188134
 30
0.0
  0
VERTEX
  5
4C4
  8
DATA
  6
CONTINUOUS
 62
     7
 10
75.018569164609133
 20
253.40355339059329
 30
0.0
  0
SEQEND
  5
4C5
  8
DATA
  6
CONTINUOUS
 62
     7
  0
POLYLINE
  5
1AD
  8
DATA
  6
CONTINUOUS
 62
     7
 66
     1
 10
0.0
 20
0.0
 30
0.0
 70
     1
  0
VERTEX
  5
4C6
  8
DATA
  6
CONTINUOUS
 62
     7
 10
76.872122555202381
 20
253.75710678118659
 30
0.0
  0
VERTEX
  5
4C7
  8
DATA
  6
CONTINUOUS
 62
     7
 10
77.932782726982197
 20
252.69644660940671
 30
0.0
  0
VERTEX
  5
4C8
  8
DATA
  6
CONTINUOUS
 62
     7
 10
77.579229336388934
 20
252.3428932188134
 30
0.0
  0
VERTEX
  5
4C9
  8
DATA
  6
CONTINUOUS
 62
     7
 10
76.518569164609133
 20
253.40355339059329
 30
0.0
  0
SEQEND
  5
4CA
  8
DATA
  6
CONTINUOUS
 62
     7
  0
POLYLINE
  5
1B4
  8
DATA
  6
CONTINUOUS
 62
     7
 66
     1
 10
0.0
 20
0.0
 30
0.0
 70
     1
  0
VERTEX
  5
4CB
  8
DATA
  6
CONTINUOUS
 62
     7
 10
78.372122555202381
 20
253.75710678118659
 30
0.0
  0
VERTEX
  5
4CC
  8
DATA
  6
CONTINUOUS
 62
     7
 10
79.432782726982197
 20
252.69644660940671
 30
0.0
  0
VERTEX
  5
4CD
  8
DATA
  6
CONTINUOUS
 62
     7
 10
79.079229336388934
 20
252.3428932188134
 30
0.0
  0
VERTEX
  5
4CE
  8
DATA
  6
CONTINUOUS
 62
     7
 10
78.018569164609133
 20
253.40355339059329
 30
0.0
  0
SEQEND
  5
4CF
  8
DATA
  6
CONTINUOUS
 62
     7
  0
POLYLINE
  5
1BB
  8
DATA
  6
CONTINUOUS
 62
     7
 66
     1
 10
0.0
 20
0.0
 30
0.0
 70
     1
  0
VERTEX
  5
4D0
  8
DATA
  6
CONTINUOUS
 62
     7
 10
66.372122555202395
 20
250.15710678118651
 30
0.0
  0
VERTEX
  5
4D1
  8
DATA
  6
CONTINUOUS
 62
     7
 10
67.432782726982211
 20
249.09644660940671
 30
0.0
  0
VERTEX
  5
4D2
  8
DATA
  6
CONTINUOUS
 62
     7
 10
67.079229336388934
 20
248.74289321881341
 30
0.0
  0
VERTEX
  5
4D3
  8
DATA
  6
CONTINUOUS
 62
     7
 10
66.018569164609119
 20
249.80355339059329
 30
0.0
  0
SEQEND
  5
4D4
  8
DATA
  6
CONTINUOUS
 62
     7
  0
POLYLINE
  5
1C2
  8
DATA
  6
CONTINUOUS
 62
     7
 66
     1
 10
0.0
 20
0.0
 30
0.0
 70
     1
  0
VERTEX
  5
4D5
  8
DATA
  6
CONTINUOUS
 62
     7
 10
67.872122555202395
 20
250.15710678118651
 30
0.0
  0
VERTEX
  5
4D6
  8
DATA
  6
CONTINUOUS
 62
     7
 10
68.932782726982211
 20
249.09644660940671
 30
0.0
  0
VERTEX
  5
4D7
  8
DATA
  6
CONTINUOUS
 62
     7
 10
68.579229336388934
 20
248.74289321881341
 30
0.0
  0
VERTEX
  5
4D8
  8
DATA
  6
CONTINUOUS
 62
     7
 10
67.518569164609119
 20
249.80355339059329
 30
0.0
  0
SEQEND
  5
4D9
  8
DATA
  6
CONTINUOUS
 62
     7
  0
POLYLINE
  5
1C9
  8
DATA
  6
CONTINUOUS
 62
     7
 66
     1
 10
0.0
 20
0.0
 30
0.0
 70
     1
  0
VERTEX
  5
4DA
  8
DATA
  6
CONTINUOUS
 62
     7
 10
69.372122555202395
 20
250.15710678118651
 30
0.0
  0
VERTEX
  5
4DB
  8
DATA
  6
CONTINUOUS
 62
     7
 10
70.432782726982197
 20
249.09644660940671
 30
0.0
  0
VERTEX
  5
4DC
  8
DATA
  6
CONTINUOUS
 62
     7
 10
70.079229336388934
 20
248.74289321881341
 30
0.0
  0
VERTEX
  5
4DD
  8
DATA
  6
CONTINUOUS
 62
     7
 10
69.018569164609119
 20
249.80355339059329
 30
0.0
  0
SEQEND
  5
4DE
  8
DATA
  6
CONTINUOUS
 62
     7
  0
POLYLINE
  5
1D0
  8
DATA
  6
CONTINUOUS
 62
     7
 66
     1
 10
0.0
 20
0.0
 30
0.0
 70
     1
  0
VERTEX
  5
4DF
  8
DATA
  6
CONTINUOUS
 62
     7
 10
73.872122555202381
 20
250.15710678118651
 30
0.0
  0
VERTEX
  5
4E0
  8
DATA
  6
CONTINUOUS
 62
     7
 10
74.932782726982197
 20
249.09644660940671
 30
0.0
  0
VERTEX
  5
4E1
  8
DATA
  6
CONTINUOUS
 62
     7
 10
74.579229336388934
 20
248.74289321881341
 30
0.0
  0
VERTEX
  5
4E2
  8
DATA
  6
CONTINUOUS
 62
     7
 10
73.518569164609133
 20
249.80355339059329
 30
0.0
  0
SEQEND
  5
4E3
  8
DATA
  6
CONTINUOUS
 62
     7
  0
POLYLINE
  5
1D7
  8
DATA
  6
CONTINUOUS
 62
     7
 66
     1
 10
0.0
 20
0.0
 30
0.0
 70
     1
  0
VERTEX
  5
4E4
  8
DATA
  6
CONTINUOUS
 62
     7
 10
75.372122555202381
 20
250.15710678118651
 30
0.0
  0
VERTEX
  5
4E5
  8
DATA
  6
CONTINUOUS
 62
     7
 10
76.432782726982197
 20
249.09644660940671
 30
0.0
  0
VERTEX
  5
4E6
  8
DATA
  6
CONTINUOUS
 62
     7
 10
76.079229336388934
 20
248.74289321881341
 30
0.0
  0
VERTEX
  5
4E7
  8
DATA
  6
CONTINUOUS
 62
     7
 10
75.018569164609133
 20
249.80355339059329
 30
0.0
  0
SEQEND
  5
4E8
  8
DATA
  6
CONTINUOUS
 62
     7
  0
POLYLINE
  5
1DE
  8
DATA
  6
CONTINUOUS
 62
     7
 66
     1
 10
0.0
 20
0.0
 30
0.0
 70
     1
  0
VERTEX
  5
4E9
  8
DATA
  6
CONTINUOUS
 62
     7
 10
76.872122555202381
 20
250.15710678118651
 30
0.0
  0
VERTEX
  5
4EA
  8
DATA
  6
CONTINUOUS
 62
     7
 10
77.932782726982197
 20
249.09644660940671
 30
0.0
  0
VERTEX
  5
4EB
  8
DATA
  6
CONTINUOUS
 62
     7
 10
77.579229336388934
 20
248.74289321881341
 30
0.0
  0
VERTEX
  5
4EC
  8
DATA
  6
CONTINUOUS
 62
     7
 10
76.518569164609133
 20
249.80355339059329
 30
0.0
  0
SEQEND
  5
4ED
  8
DATA
  6
CONTINUOUS
 62
     7
  0
POLYLINE
  5
1E5
  8
DATA
  6
CONTINUOUS
 62
     7
 66
     1
 10
0.0
 20
0.0
 30
0.0
 70
     1
  0
VERTEX
  5
4EE
  8
DATA
  6
CONTINUOUS
 62
     7
 10
78.372122555202381
 20
250.15710678118651
 30
0.0
  0
VERTEX
  5
4EF
  8
DATA
  6
CONTINUOUS
 62
     7
 10
79.432782726982197
 20
249.09644660940671
 30
0.0
  0
VERTEX
  5
4F0
  8
DATA
  6
CONTINUOUS
 62
     7
 10
79.079229336388934
 20
248.74289321881341
 30
0.0
  0
VERTEX
  5
4F1
  8
DATA
  6
CONTINUOUS
 62
     7
 10
78.018569164609133
 20
249.80355339059329
 30
0.0
  0
SEQEND
  5
4F2
  8
DATA
  6
CONTINUOUS
 62
     7
  0
POLYLINE
  5
1EC
  8
DATA
  6
CONTINUOUS
 62
     7
 66
     1
 10
0.0
 20
0.0
 30
0.0
 70
     1
  0
VERTEX
  5
4F3
  8
DATA
  6
CONTINUOUS
 62
     7
 10
70.998667862102437
 20
253.75710678118659
 30
0.0
  0
VERTEX
  5
4F4
  8
DATA
  6
CONTINUOUS
 62
     7
 10
72.938667862102434
 20
253.75710678118659
 30
0.0
  0
VERTEX
  5
4F5
  8
DATA
  6
CONTINUOUS
 62
     7
 10
72.938667862102434
 20
248.74289321881341
 30
0.0
  0
VERTEX
  5
4F6
  8
DATA
  6
CONTINUOUS
 62
     7
 10
70.998667862102437
 20
248.74289321881341
 30
0.0
  0
SEQEND
  5
4F7
  8
DATA
  6
CONTINUOUS
 62
     7
  0
TEXT
  5
1F3
  8
DATA
 62
     7
 10
70.812584044316296
 20
186.20359199025501
 30
0.0
 40
3.9092187499999991
  1
DVI
 41
0.7
 11
70.812584044316296
 21
190.11281074025499
 31
0.0
 73
     3
  0
TEXT
  5
1F4
  8
DATA
 62
     7
 10
80.587006907601648
 20
186.20359199025501
 30
0.0
 40
3.9092187499999991
  1
FM
 41
0.7
 11
80.587006907601648
 21
190.11281074025499
 31
0.0
 73
     3
  0
TEXT
  5
1F5
  8
DATA
 62
     7
 10
77.700642073846566
 20
180.96507361361751
 30
0.0
 40
3.9092187499999991
  1
500
 41
0.7
 11
77.700642073846566
 21
184.87429236361751
 31
0.0
 73
     3
  0
TEXT
  5
1F6
  8
DATA
 62
     7
 10
69.434478292056866
 20
169.4234392337062
 30
0.0
 40
3.2576822916666659
  1
Sender
 41
0.7
 11
69.434478292056866
 21
172.6811215253729
 31
0.0
 73
     3
  0
TEXT
  5
1F7
  8
DATA
 62
     7
 10
64.521332163572822
 20
157.96950000000001
 30
0.0
 40
2.4432617187500001
  1
5V
 41
0.7
 11
64.521332163572822
 21
160.41276171875001
 31
0.0
 73
     3
  0
TEXT
  5
1F8
  8
DATA
 62
     7
 10
75.318987577309699
 20
157.96950000000001
 30
0.0
 40
2.4432617187500001
  1
1
 41
0.7
 11
75.318987577309699
 21
160.41276171875001
 31
0.0
 73
     3
  0
TEXT
  5
1F9
  8
DATA
 62
     7
 10
81.410476049998948
 20
157.96950000000001
 30
0.0
 40
2.4432617187500001
  1
2
 41
0.7
 11
81.410476049998948
 21
160.41276171875001
 31
0.0
 73
     3
  0
LINE
  5
1FA
  8
DATA
  6
CONTINUOUS
 62
     7
 10
112.5
 20
157.75
 30
0.0
 11
112.5
 21
225.25
 31
0.0
  0
LINE
  5
1FB
  8
DATA
  6
CONTINUOUS
 62
     7
 10
127.5
 20
157.75
 30
0.0
 11
127.5
 21
225.25
 31
0.0
  0
LINE
  5
1FC
  8
DATA
  6
CONTINUOUS
 62
     7
 10
112.5
 20
225.25
 30
0.0
 11
115.0
 21
225.25
 31
0.0
  0
LINE
  5
1FD
  8
DATA
  6
CONTINUOUS
 62
     7
 10
125.0
 20
225.25
 30
0.0
 11
127.5
 21
225.25
 31
0.0
  0
LINE
  5
1FE
  8
DATA
  6
CONTINUOUS
 62
     7
 10
120.0
 20
224.65000000000001
 30
0.0
 11
120.0
 21
206.25
 31
0.0
  0
LINE
  5
1FF
  8
DATA
  6
CONTINUOUS
 62
     7
 10
120.0
 20
195.3108436115522
 30
0.0
 11
120.0
 21
156.25
 31
0.0
  0
LINE
  5
200
  8
DATA
  6
CONTINUOUS
 62
     7
 10
121.34999999999999
 20
227.7235842313261
 30
0.0
 11
121.34999999999999
 21
224.65000000000001
 31
0.0
  0
LINE
  5
201
  8
DATA
  6
CONTINUOUS
 62
     7
 10
118.65000000000001
 20
227.7235842313261
 30
0.0
 11
121.34999999999999
 21
227.7235842313261
 31
0.0
  0
LINE
  5
202
  8
DATA
  6
CONTINUOUS
 62
     7
 10
118.65000000000001
 20
224.65000000000001
 30
0.0
 11
118.65000000000001
 21
227.7235842313261
 31
0.0
  0
LINE
  5
203
  8
DATA
  6
CONTINUOUS
 62
     7
 10
118.65000000000001
 20
225.25
 30
0.0
 11
121.34999999999999
 21
225.80000000000001
 31
0.0
  0
LINE
  5
204
  8
DATA
  6
CONTINUOUS
 62
     7
 10
118.65000000000001
 20
226.05000000000001
 30
0.0
 11
121.34999999999999
 21
226.59999999999999
 31
0.0
  0
LINE
  5
205
  8
DATA
  6
CONTINUOUS
 62
     7
 10
118.65000000000001
 20
226.84999999999999
 30
0.0
 11
121.34999999999999
 21
227.40000000000001
 31
0.0
  0
LINE
  5
206
  8
DATA
  6
CONTINUOUS
 62
     7
 10
112.5
 20
220.25
 30
0.0
 11
115.0
 21
220.25
 31
0.0
  0
LINE
  5
207
  8
DATA
  6
CONTINUOUS
 62
     7
 10
125.0
 20
220.25
 30
0.0
 11
127.5
 21
220.25
 31
0.0
  0
LINE
  5
208
  8
DATA
  6
CONTINUOUS
 62
     7
 10
56.25
 20
256.25
 30
0.0
 11
95.25
 21
256.25
 31
0.0
  0
LINE
  5
209
  8
DATA
  6
CONTINUOUS
 62
     7
 10
95.25
 20
246.25
 30
0.0
 11
56.25
 21
246.25
 31
0.0
  0
LINE
  5
20A
  8
DATA
  6
CONTINUOUS
 62
     7
 10
56.25
 20
246.25
 30
0.0
 11
56.25
 21
256.25
 31
0.0
  0
LINE
  5
20B
  8
DATA
  6
CONTINUOUS
 62
     7
 10
57.25
 20
246.25
 30
0.0
 11
57.25
 21
256.25
 31
0.0
  0
LINE
  5
20C
  8
DATA
  6
CONTINUOUS
 62
     7
 10
95.25
 20
246.25
 30
0.0
 11
95.25
 21
256.25
 31
0.0
  0
LINE
  5
20D
  8
DATA
  6
CONTINUOUS
 62
     7
 10
94.25
 20
246.25
 30
0.0
 11
94.25
 21
256.25
 31
0.0
  0
LINE
  5
20E
  8
DATA
  6
CONTINUOUS
 62
     7
 10
88.499999999999986
 20
230.25
 30
0.0
 11
88.499999999999986
 21
225.25
 31
0.0
  0
LINE
  5
20F
  8
DATA
  6
CONTINUOUS
 62
     7
 10
63.0
 20
225.25
 30
0.0
 11
63.0
 21
230.25
 31
0.0
  0
ARC
  5
210
  8
DATA
  6
CONTINUOUS
 62
     7
 10
64.0
 20
247.69999999999999
 30
0.0
 40
1.0
 50
180.0
 51
270.0
  0
ARC
  5
211
  8
DATA
  6
CONTINUOUS
 62
     7
 10
87.5
 20
247.69999999999999
 30
0.0
 40
1.0
 50
270.0
 51
0.0
  0
ARC
  5
212
  8
DATA
  6
CONTINUOUS
 62
     7
 10
69.668111604430081
 20
251.72550577145731
 30
0.0
 40
6.6685277055150083
 50
147.15421880096449
 51
179.35993462729141
  0
ARC
  5
213
  8
DATA
  6
CONTINUOUS
 62
     7
 10
81.831888395569919
 20
251.72550577145731
 30
0.0
 40
6.6685277055150092
 50
0.640065372708576
 51
32.84578119903545
  0
LINE
  5
214
  8
DATA
  6
CONTINUOUS
 62
     7
 10
63.0
 20
247.69999999999999
 30
0.0
 11
63.0
 21
251.80000000000001
 31
0.0
  0
LINE
  5
215
  8
DATA
  6
CONTINUOUS
 62
     7
 10
88.499999999999986
 20
247.69999999999999
 30
0.0
 11
88.499999999999986
 21
251.79999999999961
 31
0.0
  0
ARC
  5
216
  8
DATA
  6
CONTINUOUS
 62
     7
 10
64.90579162496114
 20
254.8000000000001
 30
0.0
 40
0.9999999999999504
 50
90.0
 51
147.15421880096679
  0
ARC
  5
217
  8
DATA
  6
CONTINUOUS
 62
     7
 10
86.594208375038846
 20
254.80000000000001
 30
0.0
 40
0.9999999999999928
 50
32.845781199035073
 51
90.0
  0
LINE
  5
218
  8
DATA
  6
CONTINUOUS
 62
     7
 10
125.0
 20
225.25
 30
0.0
 11
125.0
 21
224.65000000000001
 31
0.0
  0
LINE
  5
219
  8
DATA
  6
CONTINUOUS
 62
     7
 10
115.0
 20
224.65000000000001
 30
0.0
 11
115.0
 21
225.25
 31
0.0
  0
LINE
  5
21A
  8
DATA
  6
CONTINUOUS
 62
     7
 10
115.0
 20
224.65000000000001
 30
0.0
 11
125.0
 21
224.65000000000001
 31
0.0
  0
LINE
  5
21B
  8
DATA
  6
CONTINUOUS
 62
     7
 10
120.6136363636363
 20
224.65000000000001
 30
0.0
 11
121.34999999999999
 21
224.80000000000001
 31
0.0
  0
ARC
  5
21C
  8
DATA
  6
CONTINUOUS
 62
     7
 10
120.0
 20
211.25
 30
0.0
 40
5.0
 50
180.0
 51
0.0
  0
LINE
  5
21D
  8
DATA
  6
CONTINUOUS
 62
     7
 10
115.0
 20
211.25
 30
0.0
 11
115.0
 21
220.25
 31
0.0
  0
LINE
  5
21E
  8
DATA
  6
CONTINUOUS
 62
     7
 10
125.0
 20
211.25
 30
0.0
 11
125.0
 21
220.25
 31
0.0
  0
ARC
  5
21F
  8
DATA
  6
CONTINUOUS
 62
     7
 10
120.0
 20
190.3108436115522
 30
0.0
 40
5.0
 50
0.0
 51
180.0
  0
LINE
  5
220
  8
DATA
  6
CONTINUOUS
 62
     7
 10
115.0
 20
190.3108436115522
 30
0.0
 11
115.0
 21
157.25
 31
0.0
  0
LINE
  5
221
  8
DATA
  6
CONTINUOUS
 62
     7
 10
125.0
 20
190.3108436115522
 30
0.0
 11
125.0
 21
157.25
 31
0.0
  0
ARC
  5
222
  8
DATA
  6
CONTINUOUS
 62
     7
 10
114.0
 20
157.75
 30
0.0
 40
1.5
 50
180.0
 51
270.0
  0
ARC
  5
223
  8
DATA
  6
CONTINUOUS
 62
     7
 10
126.0
 20
157.75
 30
0.0
 40
1.5
 50
270.0
 51
0.0
  0
ARC
  5
224
  8
DATA
  6
CONTINUOUS
 62
     7
 10
116.0
 20
157.25
 30
0.0
 40
1.0
 50
180.0
 51
270.0
  0
ARC
  5
225
  8
DATA
  6
CONTINUOUS
 62
     7
 10
124.0
 20
157.25
 30
0.0
 40
1.0
 50
270.0
 51
0.0
  0
LINE
  5
226
  8
DATA
  6
CONTINUOUS
 62
     7
 10
114.0
 20
156.25
 30
0.0
 11
126.05
 21
156.25
 31
0.0
  0
LINE
  5
227
  8
DATA
  6
CONTINUOUS
 62
     7
 10
116.09999999999989
 20
204.90975261595841
 30
0.0
 11
123.90000000000001
 21
204.90975261595841
 31
0.0
  0
LINE
  5
228
  8
DATA
  6
CONTINUOUS
 62
     7
 10
123.7299999999999
 20
196.90975261595841
 30
0.0
 11
116.27
 21
196.90975261595841
 31
0.0
  0
LINE
  5
229
  8
DATA
  6
CONTINUOUS
 62
     7
 10
118.62016306276161
 20
206.44416500214251
 30
0.0
 11
118.62016306276161
 21
204.90975261595841
 31
0.0
  0
LINE
  5
22A
  8
DATA
  6
CONTINUOUS
 62
     7
 10
121.32016306276159
 20
206.4274312355634
 30
0.0
 11
121.32016306276159
 21
204.90975261595841
 31
0.0
  0
LINE
  5
22B
  8
DATA
  6
CONTINUOUS
 62
     7
 10
116.09999999999989
 20
204.90975261595841
 30
0.0
 11
116.27
 21
196.90975261595841
 31
0.0
  0
LINE
  5
22C
  8
DATA
  6
CONTINUOUS
 62
     7
 10
123.90000000000001
 20
204.90975261595841
 30
0.0
 11
123.7299999999999
 21
196.90975261595841
 31
0.0
  0
LINE
  5
22D
  8
DATA
  6
CONTINUOUS
 62
     7
 10
118.62016306276161
 20
205.70975261595839
 30
0.0
 11
121.32016306276159
 21
205.97999999999999
 31
0.0
  0
LINE
  5
22E
  8
DATA
  6
CONTINUOUS
 62
     7
 10
116.4785624877325
 20
196.90975261595841
 30
0.0
 11
116.4785624877325
 21
204.90975261595841
 31
0.0
  0
LINE
  5
22F
  8
DATA
  6
CONTINUOUS
 62
     7
 10
117.4785624877325
 20
196.90975261595841
 30
0.0
 11
117.4785624877325
 21
204.90975261595841
 31
0.0
  0
LINE
  5
230
  8
DATA
  6
CONTINUOUS
 62
     7
 10
118.4785624877325
 20
196.90975261595841
 30
0.0
 11
118.4785624877325
 21
204.90975261595841
 31
0.0
  0
LINE
  5
231
  8
DATA
  6
CONTINUOUS
 62
     7
 10
119.4785624877325
 20
196.90975261595841
 30
0.0
 11
119.4785624877325
 21
204.90975261595841
 31
0.0
  0
LINE
  5
232
  8
DATA
  6
CONTINUOUS
 62
     7
 10
120.4785624877325
 20
196.90975261595841
 30
0.0
 11
120.4785624877325
 21
204.90975261595841
 31
0.0
  0
LINE
  5
233
  8
DATA
  6
CONTINUOUS
 62
     7
 10
121.4785624877325
 20
196.90975261595841
 30
0.0
 11
121.4785624877325
 21
204.90975261595841
 31
0.0
  0
LINE
  5
234
  8
DATA
  6
CONTINUOUS
 62
     7
 10
122.4785624877325
 20
196.90975261595841
 30
0.0
 11
122.4785624877325
 21
204.90975261595841
 31
0.0
  0
LINE
  5
235
  8
DATA
  6
CONTINUOUS
 62
     7
 10
123.4785624877325
 20
196.90975261595841
 30
0.0
 11
123.4785624877325
 21
204.90975261595841
 31
0.0
  0
LINE
  5
236
  8
DATA
  6
CONTINUOUS
 62
     7
 10
112.5
 20
195.3108436115522
 30
0.0
 11
127.5
 21
195.3108436115522
 31
0.0
  0
LINE
  5
237
  8
DATA
  6
CONTINUOUS
 62
     7
 10
127.5
 20
206.25
 30
0.0
 11
121.32016306276159
 21
206.25
 31
0.0
  0
LINE
  5
238
  8
DATA
  6
CONTINUOUS
 62
     7
 10
118.62016306276161
 20
206.25
 30
0.0
 11
112.5
 21
206.25
 31
0.0
  0
LINE
  5
239
  8
DATA
  6
CONTINUOUS
 62
     7
 10
114.0
 20
195.3108436115522
 30
0.0
 11
114.0
 21
206.25
 31
0.0
  0
LINE
  5
23A
  8
DATA
  6
CONTINUOUS
 62
     7
 10
126.0
 20
195.3108436115522
 30
0.0
 11
126.0
 21
206.25
 31
0.0
  0
TEXT
  5
23B
  8
DATA
 62
     7
 10
186.66304909021059
 20
88.965647705199231
 30
0.0
 40
4.072102864583333
  1
レシーバー
 41
0.7
 11
186.66304909021059
 21
93.03775056978256
 31
0.0
 73
     3
  0
LINE
  5
23C
  8
DATA
  6
CONTINUOUS
 62
     7
 10
181.25
 20
225.25
 30
0.0
 11
181.25
 21
206.25
 31
0.0
  0
LINE
  5
23D
  8
DATA
  6
CONTINUOUS
 62
     7
 10
181.25
 20
195.25
 30
0.0
 11
181.25
 21
175.03820797667319
 31
0.0
  0
LINE
  5
23E
  8
DATA
  6
CONTINUOUS
 62
     7
 10
220.25
 20
225.25
 30
0.0
 11
220.25
 21
206.25
 31
0.0
  0
LINE
  5
23F
  8
DATA
  6
CONTINUOUS
 62
     7
 10
220.25
 20
195.25
 30
0.0
 11
220.25
 21
175.03820797667319
 31
0.0
  0
LINE
  5
240
  8
DATA
  6
CONTINUOUS
 62
     7
 10
181.25
 20
225.25
 30
0.0
 11
220.25
 21
225.25
 31
0.0
  0
LINE
  5
241
  8
DATA
  6
CONTINUOUS
 62
     7
 10
181.25
 20
206.25
 30
0.0
 11
189.25
 21
206.25
 31
0.0
  0
LINE
  5
242
  8
DATA
  6
CONTINUOUS
 62
     7
 10
212.25
 20
206.25
 30
0.0
 11
220.25
 21
206.25
 31
0.0
  0
LINE
  5
243
  8
DATA
  6
CONTINUOUS
 62
     7
 10
181.25
 20
195.25
 30
0.0
 11
189.25
 21
195.25
 31
0.0
  0
LINE
  5
244
  8
DATA
  6
CONTINUOUS
 62
     7
 10
212.25
 20
195.25
 30
0.0
 11
220.25
 21
195.25
 31
0.0
  0
ARC
  5
245
  8
DATA
  6
CONTINUOUS
 62
     7
 10
228.78750000000119
 20
180.0958333333337
 30
0.0
 40
47.895591379700427
 50
188.0998263756249
 51
209.85925631858001
  0
ARC
  5
246
  8
DATA
  6
CONTINUOUS
 62
     7
 10
172.7124999999987
 20
180.0958333333337
 30
0.0
 40
47.89559137970042
 50
330.14074368142002
 51
351.9001736243751
  0
LINE
  5
247
  8
DATA
  6
CONTINUOUS
 62
     7
 10
187.25
 20
156.25
 30
0.0
 11
214.25
 21
156.25
 31
0.0
  0
ARC
  5
248
  8
DATA
  6
CONTINUOUS
 62
     7
 10
193.25000000000011
 20
175.03820797667319
 30
0.0
 40
12.00000000000019
 50
180.0
 51
188.09982637562479
  0
ARC
  5
249
  8
DATA
  6
CONTINUOUS
 62
     7
 10
208.2500000000004
 20
175.03820797667319
 30
0.0
 40
11.99999999999948
 50
351.90017362437487
 51
0.0
  0
LINE
  5
24A
  8
DATA
  6
CONTINUOUS
 62
     7
 10
212.25
 20
206.25
 30
0.0
 11
212.25
 21
195.25
 31
0.0
  0
LINE
  5
24B
  8
DATA
  6
CONTINUOUS
 62
     7
 10
189.25
 20
195.25
 30
0.0
 11
189.25
 21
206.25
 31
0.0
  0
LINE
  5
24C
  8
DATA
  6
CONTINUOUS
 62
     7
 10
181.25
 20
220.25
 30
0.0
 11
185.0
 21
220.25
 31
0.0
  0
LINE
  5
24D
  8
DATA
  6
CONTINUOUS
 62
     7
 10
188.0
 20
230.25
 30
0.0
 11
213.5
 21
230.25
 31
0.0
  0
POLYLINE
  5
24E
  8
DATA
  6
CONTINUOUS
 62
     7
 66
     1
 10
0.0
 20
0.0
 30
0.0
  0
VERTEX
  5
4F8
  8
DATA
  6
CONTINUOUS
 62
     7
 10
182.87016306276161
 20
225.25
 30
0.0
  0
VERTEX
  5
4F9
  8
DATA
  6
CONTINUOUS
 62
     7
 10
182.87016306276161
 20
227.7235842313261
 30
0.0
  0
VERTEX
  5
4FA
  8
DATA
  6
CONTINUOUS
 62
     7
 10
185.57016306276159
 20
227.7235842313261
 30
0.0
  0
VERTEX
  5
4FB
  8
DATA
  6
CONTINUOUS
 62
     7
 10
185.57016306276159
 20
225.25
 30
0.0
  0
SEQEND
  5
4FC
  8
DATA
  6
CONTINUOUS
 62
     7
  0
LINE
  5
255
  8
DATA
  6
CONTINUOUS
 62
     7
 10
182.87016306276161
 20
225.25
 30
0.0
 11
185.57016306276159
 21
225.53
 31
0.0
  0
LINE
  5
256
  8
DATA
  6
CONTINUOUS
 62
     7
 10
182.87016306276161
 20
226.05000000000001
 30
0.0
 11
185.57016306276159
 21
226.33000000000001
 31
0.0
  0
LINE
  5
257
  8
DATA
  6
CONTINUOUS
 62
     7
 10
182.87016306276161
 20
226.84999999999999
 30
0.0
 11
185.57016306276159
 21
227.13
 31
0.0
  0
POLYLINE
  5
258
  8
DATA
  6
CONTINUOUS
 62
     7
 66
     1
 10
0.0
 20
0.0
 30
0.0
  0
VERTEX
  5
4FD
  8
DATA
  6
CONTINUOUS
 62
     7
 10
215.87016306276161
 20
225.25
 30
0.0
  0
VERTEX
  5
4FE
  8
DATA
  6
CONTINUOUS
 62
     7
 10
215.87016306276161
 20
227.7235842313261
 30
0.0
  0
VERTEX
  5
4FF
  8
DATA
  6
CONTINUOUS
 62
     7
 10
218.57016306276159
 20
227.7235842313261
 30
0.0
  0
VERTEX
  5
500
  8
DATA
  6
CONTINUOUS
 62
     7
 10
218.57016306276159
 20
225.25
 30
0.0
  0
SEQEND
  5
501
  8
DATA
  6
CONTINUOUS
 62
     7
  0
LINE
  5
25F
  8
DATA
  6
CONTINUOUS
 62
     7
 10
215.87016306276161
 20
225.25
 30
0.0
 11
218.57016306276159
 21
225.53
 31
0.0
  0
LINE
  5
260
  8
DATA
  6
CONTINUOUS
 62
     7
 10
215.87016306276161
 20
226.05000000000001
 30
0.0
 11
218.57016306276159
 21
226.33000000000001
 31
0.0
  0
LINE
  5
261
  8
DATA
  6
CONTINUOUS
 62
     7
 10
215.87016306276161
 20
226.84999999999999
 30
0.0
 11
218.57016306276159
 21
227.13
 31
0.0
  0
LINE
  5
262
  8
DATA
  6
CONTINUOUS
 62
     7
 10
180.34999999999999
 20
204.90975261595841
 30
0.0
 11
188.15000000000001
 21
204.90975261595841
 31
0.0
  0
LINE
  5
263
  8
DATA
  6
CONTINUOUS
 62
     7
 10
187.97999999999999
 20
196.90975261595841
 30
0.0
 11
180.52000000000001
 21
196.90975261595841
 31
0.0
  0
LINE
  5
264
  8
DATA
  6
CONTINUOUS
 62
     7
 10
182.87016306276161
 20
206.25
 30
0.0
 11
182.87016306276161
 21
204.90975261595841
 31
0.0
  0
LINE
  5
265
  8
DATA
  6
CONTINUOUS
 62
     7
 10
185.57016306276159
 20
206.25
 30
0.0
 11
185.57016306276159
 21
204.90975261595841
 31
0.0
  0
LINE
  5
266
  8
DATA
  6
CONTINUOUS
 62
     7
 10
180.34999999999999
 20
204.90975261595841
 30
0.0
 11
180.52000000000001
 21
196.90975261595841
 31
0.0
  0
LINE
  5
267
  8
DATA
  6
CONTINUOUS
 62
     7
 10
188.15000000000001
 20
204.90975261595841
 30
0.0
 11
187.97999999999999
 21
196.90975261595841
 31
0.0
  0
LINE
  5
268
  8
DATA
  6
CONTINUOUS
 62
     7
 10
182.87016306276161
 20
204.90975261595841
 30
0.0
 11
185.57016306276159
 21
205.18000000000001
 31
0.0
  0
LINE
  5
269
  8
DATA
  6
CONTINUOUS
 62
     7
 10
182.87016306276161
 20
205.70975261595839
 30
0.0
 11
185.57016306276159
 21
205.97999999999999
 31
0.0
  0
LINE
  5
26A
  8
DATA
  6
CONTINUOUS
 62
     7
 10
180.7285624877324
 20
196.90975261595841
 30
0.0
 11
180.7285624877324
 21
204.90975261595841
 31
0.0
  0
LINE
  5
26B
  8
DATA
  6
CONTINUOUS
 62
     7
 10
181.7285624877324
 20
196.90975261595841
 30
0.0
 11
181.7285624877324
 21
204.90975261595841
 31
0.0
  0
LINE
  5
26C
  8
DATA
  6
CONTINUOUS
 62
     7
 10
182.7285624877324
 20
196.90975261595841
 30
0.0
 11
182.7285624877324
 21
204.90975261595841
 31
0.0
  0
LINE
  5
26D
  8
DATA
  6
CONTINUOUS
 62
     7
 10
183.7285624877324
 20
196.90975261595841
 30
0.0
 11
183.7285624877324
 21
204.90975261595841
 31
0.0
  0
LINE
  5
26E
  8
DATA
  6
CONTINUOUS
 62
     7
 10
184.7285624877324
 20
196.90975261595841
 30
0.0
 11
184.7285624877324
 21
204.90975261595841
 31
0.0
  0
LINE
  5
26F
  8
DATA
  6
CONTINUOUS
 62
     7
 10
185.7285624877324
 20
196.90975261595841
 30
0.0
 11
185.7285624877324
 21
204.90975261595841
 31
0.0
  0
LINE
  5
270
  8
DATA
  6
CONTINUOUS
 62
     7
 10
186.7285624877324
 20
196.90975261595841
 30
0.0
 11
186.7285624877324
 21
204.90975261595841
 31
0.0
  0
LINE
  5
271
  8
DATA
  6
CONTINUOUS
 62
     7
 10
187.7285624877324
 20
196.90975261595841
 30
0.0
 11
187.7285624877324
 21
204.90975261595841
 31
0.0
  0
LINE
  5
272
  8
DATA
  6
CONTINUOUS
 62
     7
 10
213.34999999999999
 20
204.90975261595841
 30
0.0
 11
221.15000000000001
 21
204.90975261595841
 31
0.0
  0
LINE
  5
273
  8
DATA
  6
CONTINUOUS
 62
     7
 10
220.97999999999999
 20
196.90975261595841
 30
0.0
 11
213.52000000000001
 21
196.90975261595841
 31
0.0
  0
LINE
  5
274
  8
DATA
  6
CONTINUOUS
 62
     7
 10
215.87016306276161
 20
206.25
 30
0.0
 11
215.87016306276161
 21
204.90975261595841
 31
0.0
  0
LINE
  5
275
  8
DATA
  6
CONTINUOUS
 62
     7
 10
218.57016306276159
 20
206.25
 30
0.0
 11
218.57016306276159
 21
204.90975261595841
 31
0.0
  0
LINE
  5
276
  8
DATA
  6
CONTINUOUS
 62
     7
 10
213.34999999999999
 20
204.90975261595841
 30
0.0
 11
213.52000000000001
 21
196.90975261595841
 31
0.0
  0
LINE
  5
277
  8
DATA
  6
CONTINUOUS
 62
     7
 10
221.15000000000001
 20
204.90975261595841
 30
0.0
 11
220.97999999999999
 21
196.90975261595841
 31
0.0
  0
LINE
  5
278
  8
DATA
  6
CONTINUOUS
 62
     7
 10
215.87016306276161
 20
205.70975261595839
 30
0.0
 11
218.57016306276159
 21
205.97999999999999
 31
0.0
  0
LINE
  5
279
  8
DATA
  6
CONTINUOUS
 62
     7
 10
213.72856248773249
 20
196.90975261595841
 30
0.0
 11
213.72856248773249
 21
204.90975261595841
 31
0.0
  0
LINE
  5
27A
  8
DATA
  6
CONTINUOUS
 62
     7
 10
214.72856248773249
 20
196.90975261595841
 30
0.0
 11
214.72856248773249
 21
204.90975261595841
 31
0.0
  0
LINE
  5
27B
  8
DATA
  6
CONTINUOUS
 62
     7
 10
215.7285624877324
 20
196.90975261595841
 30
0.0
 11
215.7285624877324
 21
204.90975261595841
 31
0.0
  0
LINE
  5
27C
  8
DATA
  6
CONTINUOUS
 62
     7
 10
216.72856248773249
 20
196.90975261595841
 30
0.0
 11
216.72856248773249
 21
204.90975261595841
 31
0.0
  0
LINE
  5
27D
  8
DATA
  6
CONTINUOUS
 62
     7
 10
217.7285624877324
 20
196.90975261595841
 30
0.0
 11
217.7285624877324
 21
204.90975261595841
 31
0.0
  0
LINE
  5
27E
  8
DATA
  6
CONTINUOUS
 62
     7
 10
218.72856248773249
 20
196.90975261595841
 30
0.0
 11
218.72856248773249
 21
204.90975261595841
 31
0.0
  0
LINE
  5
27F
  8
DATA
  6
CONTINUOUS
 62
     7
 10
219.7285624877324
 20
196.90975261595841
 30
0.0
 11
219.7285624877324
 21
204.90975261595841
 31
0.0
  0
LINE
  5
280
  8
DATA
  6
CONTINUOUS
 62
     7
 10
220.72856248773249
 20
196.90975261595841
 30
0.0
 11
220.72856248773249
 21
204.90975261595841
 31
0.0
  0
LINE
  5
281
  8
DATA
  6
CONTINUOUS
 62
     7
 10
185.0
 20
220.25
 30
0.0
 11
185.0
 21
212.80000000000001
 31
0.0
  0
ARC
  5
282
  8
DATA
  6
CONTINUOUS
 62
     7
 10
192.47667088607599
 20
213.78651898734191
 30
0.0
 40
7.5414738116022937
 50
187.51654566725651
 51
272.0770522664144
  0
ARC
  5
283
  8
DATA
  6
CONTINUOUS
 62
     7
 10
209.02332911392401
 20
213.78651898734191
 30
0.0
 40
7.5414738116022839
 50
267.92294773358572
 51
352.48345433274329
  0
LINE
  5
284
  8
DATA
  6
CONTINUOUS
 62
     7
 10
220.25
 20
220.25
 30
0.0
 11
216.5
 21
220.25
 31
0.0
  0
LINE
  5
285
  8
DATA
  6
CONTINUOUS
 62
     7
 10
216.5
 20
220.25
 30
0.0
 11
216.5
 21
212.80000000000001
 31
0.0
  0
LINE
  5
286
  8
DATA
  6
CONTINUOUS
 62
     7
 10
192.75
 20
206.25
 30
0.0
 11
192.75
 21
195.15874793976039
 31
0.0
  0
LINE
  5
287
  8
DATA
  6
CONTINUOUS
 62
     7
 10
208.75
 20
206.25
 30
0.0
 11
208.75
 21
195.15874793976039
 31
0.0
  0
LINE
  5
288
  8
DATA
  6
CONTINUOUS
 62
     7
 10
185.0
 20
166.25
 30
0.0
 11
185.0
 21
188.60874793976041
 31
0.0
  0
ARC
  5
289
  8
DATA
  6
CONTINUOUS
 62
     7
 10
192.47667088607599
 20
187.62222895241851
 30
0.0
 40
7.5414738116023319
 50
87.92294773358563
 51
172.48345433274321
  0
ARC
  5
28A
  8
DATA
  6
CONTINUOUS
 62
     7
 10
209.02332911392401
 20
187.62222895241851
 30
0.0
 40
7.5414738116022999
 50
7.5165456672567954
 51
92.077052266414356
  0
LINE
  5
28B
  8
DATA
  6
CONTINUOUS
 62
     7
 10
216.5
 20
166.25
 30
0.0
 11
216.5
 21
188.60874793976041
 31
0.0
  0
ARC
  5
28C
  8
DATA
  6
CONTINUOUS
 62
     7
 10
200.33907894736879
 20
167.8489421052634
 30
0.0
 40
15.42219046729736
 50
185.9510067365683
 51
228.77212290397361
  0
ARC
  5
28D
  8
DATA
  6
CONTINUOUS
 62
     7
 10
201.16092105263121
 20
167.8489421052634
 30
0.0
 40
15.422190467297369
 50
311.22787709602648
 51
354.04899326343178
  0
CIRCLE
  5
28E
  8
DATA
  6
CONTINUOUS
 62
     7
 10
204.76697765621009
 20
208.81886995269301
 30
0.0
 40
2.9000000000000048
  0
CIRCLE
  5
28F
  8
DATA
  6
CONTINUOUS
 62
     7
 10
204.76697765621009
 20
208.81886995269301
 30
0.0
 40
0.75
  0
LINE
  5
290
  8
DATA
  6
CONTINUOUS
 62
     7
 10
192.75
 20
204.59999999999999
 30
0.0
 11
208.75
 21
204.59999999999999
 31
0.0
  0
LINE
  5
291
  8
DATA
  6
CONTINUOUS
 62
     7
 10
192.75
 20
202.19999999999999
 30
0.0
 11
208.75
 21
202.19999999999999
 31
0.0
  0
LINE
  5
292
  8
DATA
  6
CONTINUOUS
 62
     7
 10
192.75
 20
196.80874793976039
 30
0.0
 11
208.75
 21
196.80874793976039
 31
0.0
  0
LINE
  5
293
  8
DATA
  6
CONTINUOUS
 62
     7
 10
192.75
 20
199.2087479397604
 30
0.0
 11
208.75
 21
199.2087479397604
 31
0.0
  0
LINE
  5
294
  8
DATA
  6
CONTINUOUS
 62
     7
 10
183.2499999996754
 20
118.75
 30
0.0
 11
218.2499999996754
 21
118.75
 31
0.0
  0
LINE
  5
295
  8
DATA
  6
CONTINUOUS
 62
     7
 10
183.2499999996754
 20
133.75
 30
0.0
 11
218.2499999996754
 21
133.75
 31
0.0
  0
LINE
  5
296
  8
DATA
  6
CONTINUOUS
 62
     7
 10
220.2499999996754
 20
131.75
 30
0.0
 11
220.2499999996754
 21
120.75
 31
0.0
  0
LINE
  5
297
  8
DATA
  6
CONTINUOUS
 62
     7
 10
181.2499999996754
 20
120.75
 30
0.0
 11
181.2499999996754
 21
131.75
 31
0.0
  0
LINE
  5
298
  8
DATA
  6
CONTINUOUS
 62
     7
 10
187.9999999996754
 20
133.75
 30
0.0
 11
187.9999999996754
 21
118.75
 31
0.0
  0
LINE
  5
299
  8
DATA
  6
CONTINUOUS
 62
     7
 10
214.9999999996754
 20
133.75
 30
0.0
 11
214.9999999996754
 21
118.75
 31
0.0
  0
LINE
  5
29A
  8
DATA
  6
CONTINUOUS
 62
     7
 10
183.2499999996754
 20
118.75
 30
0.0
 11
183.2499999996754
 21
133.75
 31
0.0
  0
LINE
  5
29B
  8
DATA
  6
CONTINUOUS
 62
     7
 10
181.2499999996754
 20
131.75
 30
0.0
 11
183.2499999996754
 21
133.75
 31
0.0
  0
LINE
  5
29C
  8
DATA
  6
CONTINUOUS
 62
     7
 10
183.2499999996754
 20
118.75
 30
0.0
 11
181.2499999996754
 21
120.75
 31
0.0
  0
LINE
  5
29D
  8
DATA
  6
CONTINUOUS
 62
     7
 10
218.2499999996754
 20
133.75
 30
0.0
 11
218.2499999996754
 21
118.75
 31
0.0
  0
LINE
  5
29E
  8
DATA
  6
CONTINUOUS
 62
     7
 10
220.2499999996754
 20
131.75
 30
0.0
 11
218.2499999996754
 21
133.75
 31
0.0
  0
LINE
  5
29F
  8
DATA
  6
CONTINUOUS
 62
     7
 10
220.2499999996754
 20
120.75
 30
0.0
 11
218.2499999996754
 21
118.75
 31
0.0
  0
LINE
  5
2A0
  8
DATA
  6
CONTINUOUS
 62
     7
 10
187.9999999996754
 20
131.75
 30
0.0
 11
183.2499999996754
 21
131.75
 31
0.0
  0
LINE
  5
2A1
  8
DATA
  6
CONTINUOUS
 62
     7
 10
187.9999999996754
 20
120.75
 30
0.0
 11
183.2499999996754
 21
120.75
 31
0.0
  0
LINE
  5
2A2
  8
DATA
  6
CONTINUOUS
 62
     7
 10
218.2499999996754
 20
131.75
 30
0.0
 11
214.9999999996754
 21
131.75
 31
0.0
  0
LINE
  5
2A3
  8
DATA
  6
CONTINUOUS
 62
     7
 10
218.2499999996754
 20
120.75
 30
0.0
 11
214.9999999996754
 21
120.75
 31
0.0
  0
CIRCLE
  5
2A4
  8
DATA
  6
CONTINUOUS
 62
     7
 10
191.5066242456416
 20
130.53470060322709
 30
0.0
 40
2.5499999999999958
  0
CIRCLE
  5
2A5
  8
DATA
  6
CONTINUOUS
 62
     7
 10
191.5066242456416
 20
130.53470060322709
 30
0.0
 40
1.8499999999999941
  0
CIRCLE
  5
2A6
  8
DATA
  6
CONTINUOUS
 62
     7
 10
191.5066242456416
 20
130.53470060322709
 30
0.0
 40
0.4000000000000057
  0
LINE
  5
2A7
  8
DATA
  6
CONTINUOUS
 62
     7
 10
210.29999999967541
 20
120.15000000000001
 30
0.0
 11
205.5999999996755
 21
120.15000000000001
 31
0.0
  0
LINE
  5
2A8
  8
DATA
  6
CONTINUOUS
 62
     7
 10
209.2499999996754
 20
127.34999999999999
 30
0.0
 11
206.64999999967549
 21
127.34999999999999
 31
0.0
  0
LINE
  5
2A9
  8
DATA
  6
CONTINUOUS
 62
     7
 10
210.29999999967541
 20
120.15000000000001
 30
0.0
 11
210.29999999967541
 21
124.66744614367531
 31
0.0
  0
LINE
  5
2AA
  8
DATA
  6
CONTINUOUS
 62
     7
 10
210.29999999967541
 20
125.41744614367531
 30
0.0
 11
210.29999999967541
 21
126.34999999999999
 31
0.0
  0
LINE
  5
2AB
  8
DATA
  6
CONTINUOUS
 62
     7
 10
205.5999999996755
 20
120.15000000000001
 30
0.0
 11
205.5999999996755
 21
124.66744614367531
 31
0.0
  0
LINE
  5
2AC
  8
DATA
  6
CONTINUOUS
 62
     7
 10
205.5999999996755
 20
125.41744614367531
 30
0.0
 11
205.5999999996755
 21
126.34999999999999
 31
0.0
  0
LINE
  5
2AD
  8
DATA
  6
CONTINUOUS
 62
     7
 10
210.29999999967541
 20
126.34999999999999
 30
0.0
 11
209.2499999996754
 21
126.34999999999999
 31
0.0
  0
LINE
  5
2AE
  8
DATA
  6
CONTINUOUS
 62
     7
 10
206.64999999967549
 20
126.34999999999999
 30
0.0
 11
205.5999999996755
 21
126.34999999999999
 31
0.0
  0
LINE
  5
2AF
  8
DATA
  6
CONTINUOUS
 62
     7
 10
209.2499999996754
 20
127.34999999999999
 30
0.0
 11
209.2499999996754
 21
126.34999999999999
 31
0.0
  0
LINE
  5
2B0
  8
DATA
  6
CONTINUOUS
 62
     7
 10
206.64999999967549
 20
126.34999999999999
 30
0.0
 11
206.64999999967549
 21
127.34999999999999
 31
0.0
  0
LINE
  5
2B1
  8
DATA
  6
CONTINUOUS
 62
     7
 10
206.14999999967549
 20
125.41744614367531
 30
0.0
 11
205.5999999996755
 21
125.41744614367531
 31
0.0
  0
LINE
  5
2B2
  8
DATA
  6
CONTINUOUS
 62
     7
 10
206.14999999967549
 20
124.66744614367531
 30
0.0
 11
205.5999999996755
 21
124.66744614367531
 31
0.0
  0
LINE
  5
2B3
  8
DATA
  6
CONTINUOUS
 62
     7
 10
209.74999999967551
 20
125.41744614367531
 30
0.0
 11
210.29999999967541
 21
125.41744614367531
 31
0.0
  0
LINE
  5
2B4
  8
DATA
  6
CONTINUOUS
 62
     7
 10
209.74999999967551
 20
124.66744614367531
 30
0.0
 11
210.29999999967541
 21
124.66744614367531
 31
0.0
  0
LINE
  5
2B5
  8
DATA
  6
CONTINUOUS
 62
     7
 10
206.14999999967549
 20
124.66744614367531
 30
0.0
 11
206.14999999967549
 21
125.41744614367531
 31
0.0
  0
LINE
  5
2B6
  8
DATA
  6
CONTINUOUS
 62
     7
 10
209.74999999967551
 20
124.66744614367531
 30
0.0
 11
209.74999999967551
 21
125.41744614367531
 31
0.0
  0
LINE
  5
2B7
  8
DATA
  6
CONTINUOUS
 62
     7
 10
204.29999999967541
 20
120.15000000000001
 30
0.0
 11
199.59999999967539
 21
120.15000000000001
 31
0.0
  0
LINE
  5
2B8
  8
DATA
  6
CONTINUOUS
 62
     7
 10
203.2499999996754
 20
127.34999999999999
 30
0.0
 11
200.6499999996754
 21
127.34999999999999
 31
0.0
  0
LINE
  5
2B9
  8
DATA
  6
CONTINUOUS
 62
     7
 10
204.29999999967541
 20
120.15000000000001
 30
0.0
 11
204.29999999967541
 21
124.66744614367531
 31
0.0
  0
LINE
  5
2BA
  8
DATA
  6
CONTINUOUS
 62
     7
 10
204.29999999967541
 20
125.41744614367531
 30
0.0
 11
204.29999999967541
 21
126.34999999999999
 31
0.0
  0
LINE
  5
2BB
  8
DATA
  6
CONTINUOUS
 62
     7
 10
199.59999999967539
 20
120.15000000000001
 30
0.0
 11
199.59999999967539
 21
124.66744614367531
 31
0.0
  0
LINE
  5
2BC
  8
DATA
  6
CONTINUOUS
 62
     7
 10
199.59999999967539
 20
125.41744614367531
 30
0.0
 11
199.59999999967539
 21
126.34999999999999
 31
0.0
  0
LINE
  5
2BD
  8
DATA
  6
CONTINUOUS
 62
     7
 10
204.29999999967541
 20
126.34999999999999
 30
0.0
 11
203.2499999996754
 21
126.34999999999999
 31
0.0
  0
LINE
  5
2BE
  8
DATA
  6
CONTINUOUS
 62
     7
 10
200.6499999996754
 20
126.34999999999999
 30
0.0
 11
199.59999999967539
 21
126.34999999999999
 31
0.0
  0
LINE
  5
2BF
  8
DATA
  6
CONTINUOUS
 62
     7
 10
203.2499999996754
 20
127.34999999999999
 30
0.0
 11
203.2499999996754
 21
126.34999999999999
 31
0.0
  0
LINE
  5
2C0
  8
DATA
  6
CONTINUOUS
 62
     7
 10
200.6499999996754
 20
126.34999999999999
 30
0.0
 11
200.6499999996754
 21
127.34999999999999
 31
0.0
  0
LINE
  5
2C1
  8
DATA
  6
CONTINUOUS
 62
     7
 10
200.14999999967549
 20
125.41744614367531
 30
0.0
 11
199.59999999967539
 21
125.41744614367531
 31
0.0
  0
LINE
  5
2C2
  8
DATA
  6
CONTINUOUS
 62
     7
 10
200.14999999967549
 20
124.66744614367531
 30
0.0
 11
199.59999999967539
 21
124.66744614367531
 31
0.0
  0
LINE
  5
2C3
  8
DATA
  6
CONTINUOUS
 62
     7
 10
203.74999999967551
 20
125.41744614367531
 30
0.0
 11
204.29999999967541
 21
125.41744614367531
 31
0.0
  0
LINE
  5
2C4
  8
DATA
  6
CONTINUOUS
 62
     7
 10
203.74999999967551
 20
124.66744614367531
 30
0.0
 11
204.29999999967541
 21
124.66744614367531
 31
0.0
  0
LINE
  5
2C5
  8
DATA
  6
CONTINUOUS
 62
     7
 10
200.14999999967549
 20
124.66744614367531
 30
0.0
 11
200.14999999967549
 21
125.41744614367531
 31
0.0
  0
LINE
  5
2C6
  8
DATA
  6
CONTINUOUS
 62
     7
 10
203.74999999967551
 20
124.66744614367531
 30
0.0
 11
203.74999999967551
 21
125.41744614367531
 31
0.0
  0
LINE
  5
2C7
  8
DATA
  6
CONTINUOUS
 62
     7
 10
182.25
 20
243.75
 30
0.0
 11
219.25
 21
243.75
 31
0.0
  0
LINE
  5
2C8
  8
DATA
  6
CONTINUOUS
 62
     7
 10
182.25
 20
258.75
 30
0.0
 11
219.25
 21
258.75
 31
0.0
  0
LINE
  5
2C9
  8
DATA
  6
CONTINUOUS
 62
     7
 10
181.25
 20
244.75
 30
0.0
 11
181.25
 21
257.75
 31
0.0
  0
LINE
  5
2CA
  8
DATA
  6
CONTINUOUS
 62
     7
 10
220.25
 20
244.75
 30
0.0
 11
220.25
 21
257.75
 31
0.0
  0
CIRCLE
  5
2CB
  8
DATA
  6
CONTINUOUS
 62
     7
 10
184.2201630627616
 20
251.25
 30
0.0
 40
1.3499999999999941
  0
CIRCLE
  5
2CC
  8
DATA
  6
CONTINUOUS
 62
     7
 10
217.2201630627616
 20
251.25
 30
0.0
 40
1.3499999999999941
  0
ARC
  5
2CD
  8
DATA
  6
CONTINUOUS
 62
     7
 10
182.25
 20
257.75
 30
0.0
 40
1.0
 50
90.0
 51
180.0
  0
ARC
  5
2CE
  8
DATA
  6
CONTINUOUS
 62
     7
 10
182.25
 20
244.75
 30
0.0
 40
1.0
 50
180.0
 51
270.0
  0
ARC
  5
2CF
  8
DATA
  6
CONTINUOUS
 62
     7
 10
219.25
 20
257.75
 30
0.0
 40
1.0
 50
0.0
 51
90.0
  0
ARC
  5
2D0
  8
DATA
  6
CONTINUOUS
 62
     7
 10
219.25
 20
244.75
 30
0.0
 40
1.0
 50
270.0
 51
0.0
  0
LINE
  5
2D1
  8
DATA
  6
CONTINUOUS
 62
     7
 10
189.9057916249611
 20
255.80000000000001
 30
0.0
 11
211.59420837503879
 21
255.80000000000001
 31
0.0
  0
LINE
  5
2D2
  8
DATA
  6
CONTINUOUS
 62
     7
 10
189.0
 20
246.69999999999999
 30
0.0
 11
212.5
 21
246.69999999999999
 31
0.0
  0
POLYLINE
  5
2D3
  8
DATA
  6
CONTINUOUS
 62
     7
 66
     1
 10
0.0
 20
0.0
 30
0.0
 70
     1
  0
VERTEX
  5
502
  8
DATA
  6
CONTINUOUS
 62
     7
 10
208.15304454722681
 20
251.47499999999999
 30
0.0
  0
VERTEX
  5
503
  8
DATA
  6
CONTINUOUS
 62
     7
 10
210.55304454722679
 20
251.47499999999999
 30
0.0
  0
VERTEX
  5
504
  8
DATA
  6
CONTINUOUS
 62
     7
 10
210.55304454722679
 20
251.02500000000001
 30
0.0
  0
VERTEX
  5
505
  8
DATA
  6
CONTINUOUS
 62
     7
 10
208.15304454722681
 20
251.02500000000001
 30
0.0
  0
SEQEND
  5
506
  8
DATA
  6
CONTINUOUS
 62
     7
  0
POLYLINE
  5
2DA
  8
DATA
  6
CONTINUOUS
 62
     7
 66
     1
 10
0.0
 20
0.0
 30
0.0
 70
     1
  0
VERTEX
  5
507
  8
DATA
  6
CONTINUOUS
 62
     7
 10
191.3721225552024
 20
251.9571067811865
 30
0.0
  0
VERTEX
  5
508
  8
DATA
  6
CONTINUOUS
 62
     7
 10
192.4327827269822
 20
250.89644660940669
 30
0.0
  0
VERTEX
  5
509
  8
DATA
  6
CONTINUOUS
 62
     7
 10
192.07922933638889
 20
250.54289321881339
 30
0.0
  0
VERTEX
  5
50A
  8
DATA
  6
CONTINUOUS
 62
     7
 10
191.01856916460909
 20
251.60355339059331
 30
0.0
  0
SEQEND
  5
50B
  8
DATA
  6
CONTINUOUS
 62
     7
  0
POLYLINE
  5
2E1
  8
DATA
  6
CONTINUOUS
 62
     7
 66
     1
 10
0.0
 20
0.0
 30
0.0
 70
     1
  0
VERTEX
  5
50C
  8
DATA
  6
CONTINUOUS
 62
     7
 10
192.8721225552024
 20
251.9571067811865
 30
0.0
  0
VERTEX
  5
50D
  8
DATA
  6
CONTINUOUS
 62
     7
 10
193.9327827269822
 20
250.89644660940669
 30
0.0
  0
VERTEX
  5
50E
  8
DATA
  6
CONTINUOUS
 62
     7
 10
193.57922933638889
 20
250.54289321881339
 30
0.0
  0
VERTEX
  5
50F
  8
DATA
  6
CONTINUOUS
 62
     7
 10
192.51856916460909
 20
251.60355339059331
 30
0.0
  0
SEQEND
  5
510
  8
DATA
  6
CONTINUOUS
 62
     7
  0
POLYLINE
  5
2E8
  8
DATA
  6
CONTINUOUS
 62
     7
 66
     1
 10
0.0
 20
0.0
 30
0.0
 70
     1
  0
VERTEX
  5
511
  8
DATA
  6
CONTINUOUS
 62
     7
 10
194.3721225552024
 20
251.9571067811865
 30
0.0
  0
VERTEX
  5
512
  8
DATA
  6
CONTINUOUS
 62
     7
 10
195.4327827269822
 20
250.89644660940669
 30
0.0
  0
VERTEX
  5
513
  8
DATA
  6
CONTINUOUS
 62
     7
 10
195.07922933638889
 20
250.54289321881339
 30
0.0
  0
VERTEX
  5
514
  8
DATA
  6
CONTINUOUS
 62
     7
 10
194.01856916460909
 20
251.60355339059331
 30
0.0
  0
SEQEND
  5
515
  8
DATA
  6
CONTINUOUS
 62
     7
  0
POLYLINE
  5
2EF
  8
DATA
  6
CONTINUOUS
 62
     7
 66
     1
 10
0.0
 20
0.0
 30
0.0
 70
     1
  0
VERTEX
  5
516
  8
DATA
  6
CONTINUOUS
 62
     7
 10
198.8721225552024
 20
251.9571067811865
 30
0.0
  0
VERTEX
  5
517
  8
DATA
  6
CONTINUOUS
 62
     7
 10
199.9327827269822
 20
250.89644660940669
 30
0.0
  0
VERTEX
  5
518
  8
DATA
  6
CONTINUOUS
 62
     7
 10
199.57922933638889
 20
250.54289321881339
 30
0.0
  0
VERTEX
  5
519
  8
DATA
  6
CONTINUOUS
 62
     7
 10
198.51856916460909
 20
251.60355339059331
 30
0.0
  0
SEQEND
  5
51A
  8
DATA
  6
CONTINUOUS
 62
     7
  0
POLYLINE
  5
2F6
  8
DATA
  6
CONTINUOUS
 62
     7
 66
     1
 10
0.0
 20
0.0
 30
0.0
 70
     1
  0
VERTEX
  5
51B
  8
DATA
  6
CONTINUOUS
 62
     7
 10
200.3721225552024
 20
251.9571067811865
 30
0.0
  0
VERTEX
  5
51C
  8
DATA
  6
CONTINUOUS
 62
     7
 10
201.4327827269822
 20
250.89644660940669
 30
0.0
  0
VERTEX
  5
51D
  8
DATA
  6
CONTINUOUS
 62
     7
 10
201.07922933638889
 20
250.54289321881339
 30
0.0
  0
VERTEX
  5
51E
  8
DATA
  6
CONTINUOUS
 62
     7
 10
200.01856916460909
 20
251.60355339059331
 30
0.0
  0
SEQEND
  5
51F
  8
DATA
  6
CONTINUOUS
 62
     7
  0
POLYLINE
  5
2FD
  8
DATA
  6
CONTINUOUS
 62
     7
 66
     1
 10
0.0
 20
0.0
 30
0.0
 70
     1
  0
VERTEX
  5
520
  8
DATA
  6
CONTINUOUS
 62
     7
 10
201.8721225552024
 20
251.9571067811865
 30
0.0
  0
VERTEX
  5
521
  8
DATA
  6
CONTINUOUS
 62
     7
 10
202.9327827269822
 20
250.89644660940669
 30
0.0
  0
VERTEX
  5
522
  8
DATA
  6
CONTINUOUS
 62
     7
 10
202.57922933638889
 20
250.54289321881339
 30
0.0
  0
VERTEX
  5
523
  8
DATA
  6
CONTINUOUS
 62
     7
 10
201.51856916460909
 20
251.60355339059331
 30
0.0
  0
SEQEND
  5
524
  8
DATA
  6
CONTINUOUS
 62
     7
  0
POLYLINE
  5
304
  8
DATA
  6
CONTINUOUS
 62
     7
 66
     1
 10
0.0
 20
0.0
 30
0.0
 70
     1
  0
VERTEX
  5
525
  8
DATA
  6
CONTINUOUS
 62
     7
 10
203.3721225552024
 20
251.9571067811865
 30
0.0
  0
VERTEX
  5
526
  8
DATA
  6
CONTINUOUS
 62
     7
 10
204.4327827269822
 20
250.89644660940669
 30
0.0
  0
VERTEX
  5
527
  8
DATA
  6
CONTINUOUS
 62
     7
 10
204.07922933638889
 20
250.54289321881339
 30
0.0
  0
VERTEX
  5
528
  8
DATA
  6
CONTINUOUS
 62
     7
 10
203.01856916460909
 20
251.60355339059331
 30
0.0
  0
SEQEND
  5
529
  8
DATA
  6
CONTINUOUS
 62
     7
  0
POLYLINE
  5
30B
  8
DATA
  6
CONTINUOUS
 62
     7
 66
     1
 10
0.0
 20
0.0
 30
0.0
 70
     1
  0
VERTEX
  5
52A
  8
DATA
  6
CONTINUOUS
 62
     7
 10
191.3721225552024
 20
253.75710678118659
 30
0.0
  0
VERTEX
  5
52B
  8
DATA
  6
CONTINUOUS
 62
     7
 10
192.4327827269822
 20
252.69644660940671
 30
0.0
  0
VERTEX
  5
52C
  8
DATA
  6
CONTINUOUS
 62
     7
 10
192.07922933638889
 20
252.3428932188134
 30
0.0
  0
VERTEX
  5
52D
  8
DATA
  6
CONTINUOUS
 62
     7
 10
191.01856916460909
 20
253.40355339059329
 30
0.0
  0
SEQEND
  5
52E
  8
DATA
  6
CONTINUOUS
 62
     7
  0
POLYLINE
  5
312
  8
DATA
  6
CONTINUOUS
 62
     7
 66
     1
 10
0.0
 20
0.0
 30
0.0
 70
     1
  0
VERTEX
  5
52F
  8
DATA
  6
CONTINUOUS
 62
     7
 10
192.8721225552024
 20
253.75710678118659
 30
0.0
  0
VERTEX
  5
530
  8
DATA
  6
CONTINUOUS
 62
     7
 10
193.9327827269822
 20
252.69644660940671
 30
0.0
  0
VERTEX
  5
531
  8
DATA
  6
CONTINUOUS
 62
     7
 10
193.57922933638889
 20
252.3428932188134
 30
0.0
  0
VERTEX
  5
532
  8
DATA
  6
CONTINUOUS
 62
     7
 10
192.51856916460909
 20
253.40355339059329
 30
0.0
  0
SEQEND
  5
533
  8
DATA
  6
CONTINUOUS
 62
     7
  0
POLYLINE
  5
319
  8
DATA
  6
CONTINUOUS
 62
     7
 66
     1
 10
0.0
 20
0.0
 30
0.0
 70
     1
  0
VERTEX
  5
534
  8
DATA
  6
CONTINUOUS
 62
     7
 10
194.3721225552024
 20
253.75710678118659
 30
0.0
  0
VERTEX
  5
535
  8
DATA
  6
CONTINUOUS
 62
     7
 10
195.4327827269822
 20
252.69644660940671
 30
0.0
  0
VERTEX
  5
536
  8
DATA
  6
CONTINUOUS
 62
     7
 10
195.07922933638889
 20
252.3428932188134
 30
0.0
  0
VERTEX
  5
537
  8
DATA
  6
CONTINUOUS
 62
     7
 10
194.01856916460909
 20
253.40355339059329
 30
0.0
  0
SEQEND
  5
538
  8
DATA
  6
CONTINUOUS
 62
     7
  0
POLYLINE
  5
320
  8
DATA
  6
CONTINUOUS
 62
     7
 66
     1
 10
0.0
 20
0.0
 30
0.0
 70
     1
  0
VERTEX
  5
539
  8
DATA
  6
CONTINUOUS
 62
     7
 10
198.8721225552024
 20
253.75710678118659
 30
0.0
  0
VERTEX
  5
53A
  8
DATA
  6
CONTINUOUS
 62
     7
 10
199.9327827269822
 20
252.69644660940671
 30
0.0
  0
VERTEX
  5
53B
  8
DATA
  6
CONTINUOUS
 62
     7
 10
199.57922933638889
 20
252.3428932188134
 30
0.0
  0
VERTEX
  5
53C
  8
DATA
  6
CONTINUOUS
 62
     7
 10
198.51856916460909
 20
253.40355339059329
 30
0.0
  0
SEQEND
  5
53D
  8
DATA
  6
CONTINUOUS
 62
     7
  0
POLYLINE
  5
327
  8
DATA
  6
CONTINUOUS
 62
     7
 66
     1
 10
0.0
 20
0.0
 30
0.0
 70
     1
  0
VERTEX
  5
53E
  8
DATA
  6
CONTINUOUS
 62
     7
 10
200.3721225552024
 20
253.75710678118659
 30
0.0
  0
VERTEX
  5
53F
  8
DATA
  6
CONTINUOUS
 62
     7
 10
201.4327827269822
 20
252.69644660940671
 30
0.0
  0
VERTEX
  5
540
  8
DATA
  6
CONTINUOUS
 62
     7
 10
201.07922933638889
 20
252.3428932188134
 30
0.0
  0
VERTEX
  5
541
  8
DATA
  6
CONTINUOUS
 62
     7
 10
200.01856916460909
 20
253.40355339059329
 30
0.0
  0
SEQEND
  5
542
  8
DATA
  6
CONTINUOUS
 62
     7
  0
POLYLINE
  5
32E
  8
DATA
  6
CONTINUOUS
 62
     7
 66
     1
 10
0.0
 20
0.0
 30
0.0
 70
     1
  0
VERTEX
  5
543
  8
DATA
  6
CONTINUOUS
 62
     7
 10
201.8721225552024
 20
253.75710678118659
 30
0.0
  0
VERTEX
  5
544
  8
DATA
  6
CONTINUOUS
 62
     7
 10
202.9327827269822
 20
252.69644660940671
 30
0.0
  0
VERTEX
  5
545
  8
DATA
  6
CONTINUOUS
 62
     7
 10
202.57922933638889
 20
252.3428932188134
 30
0.0
  0
VERTEX
  5
546
  8
DATA
  6
CONTINUOUS
 62
     7
 10
201.51856916460909
 20
253.40355339059329
 30
0.0
  0
SEQEND
  5
547
  8
DATA
  6
CONTINUOUS
 62
     7
  0
POLYLINE
  5
335
  8
DATA
  6
CONTINUOUS
 62
     7
 66
     1
 10
0.0
 20
0.0
 30
0.0
 70
     1
  0
VERTEX
  5
548
  8
DATA
  6
CONTINUOUS
 62
     7
 10
203.3721225552024
 20
253.75710678118659
 30
0.0
  0
VERTEX
  5
549
  8
DATA
  6
CONTINUOUS
 62
     7
 10
204.4327827269822
 20
252.69644660940671
 30
0.0
  0
VERTEX
  5
54A
  8
DATA
  6
CONTINUOUS
 62
     7
 10
204.07922933638889
 20
252.3428932188134
 30
0.0
  0
VERTEX
  5
54B
  8
DATA
  6
CONTINUOUS
 62
     7
 10
203.01856916460909
 20
253.40355339059329
 30
0.0
  0
SEQEND
  5
54C
  8
DATA
  6
CONTINUOUS
 62
     7
  0
POLYLINE
  5
33C
  8
DATA
  6
CONTINUOUS
 62
     7
 66
     1
 10
0.0
 20
0.0
 30
0.0
 70
     1
  0
VERTEX
  5
54D
  8
DATA
  6
CONTINUOUS
 62
     7
 10
191.3721225552024
 20
250.15710678118651
 30
0.0
  0
VERTEX
  5
54E
  8
DATA
  6
CONTINUOUS
 62
     7
 10
192.4327827269822
 20
249.09644660940671
 30
0.0
  0
VERTEX
  5
54F
  8
DATA
  6
CONTINUOUS
 62
     7
 10
192.07922933638889
 20
248.74289321881341
 30
0.0
  0
VERTEX
  5
550
  8
DATA
  6
CONTINUOUS
 62
     7
 10
191.01856916460909
 20
249.80355339059329
 30
0.0
  0
SEQEND
  5
551
  8
DATA
  6
CONTINUOUS
 62
     7
  0
POLYLINE
  5
343
  8
DATA
  6
CONTINUOUS
 62
     7
 66
     1
 10
0.0
 20
0.0
 30
0.0
 70
     1
  0
VERTEX
  5
552
  8
DATA
  6
CONTINUOUS
 62
     7
 10
192.8721225552024
 20
250.15710678118651
 30
0.0
  0
VERTEX
  5
553
  8
DATA
  6
CONTINUOUS
 62
     7
 10
193.9327827269822
 20
249.09644660940671
 30
0.0
  0
VERTEX
  5
554
  8
DATA
  6
CONTINUOUS
 62
     7
 10
193.57922933638889
 20
248.74289321881341
 30
0.0
  0
VERTEX
  5
555
  8
DATA
  6
CONTINUOUS
 62
     7
 10
192.51856916460909
 20
249.80355339059329
 30
0.0
  0
SEQEND
  5
556
  8
DATA
  6
CONTINUOUS
 62
     7
  0
POLYLINE
  5
34A
  8
DATA
  6
CONTINUOUS
 62
     7
 66
     1
 10
0.0
 20
0.0
 30
0.0
 70
     1
  0
VERTEX
  5
557
  8
DATA
  6
CONTINUOUS
 62
     7
 10
194.3721225552024
 20
250.15710678118651
 30
0.0
  0
VERTEX
  5
558
  8
DATA
  6
CONTINUOUS
 62
     7
 10
195.4327827269822
 20
249.09644660940671
 30
0.0
  0
VERTEX
  5
559
  8
DATA
  6
CONTINUOUS
 62
     7
 10
195.07922933638889
 20
248.74289321881341
 30
0.0
  0
VERTEX
  5
55A
  8
DATA
  6
CONTINUOUS
 62
     7
 10
194.01856916460909
 20
249.80355339059329
 30
0.0
  0
SEQEND
  5
55B
  8
DATA
  6
CONTINUOUS
 62
     7
  0
POLYLINE
  5
351
  8
DATA
  6
CONTINUOUS
 62
     7
 66
     1
 10
0.0
 20
0.0
 30
0.0
 70
     1
  0
VERTEX
  5
55C
  8
DATA
  6
CONTINUOUS
 62
     7
 10
198.8721225552024
 20
250.15710678118651
 30
0.0
  0
VERTEX
  5
55D
  8
DATA
  6
CONTINUOUS
 62
     7
 10
199.9327827269822
 20
249.09644660940671
 30
0.0
  0
VERTEX
  5
55E
  8
DATA
  6
CONTINUOUS
 62
     7
 10
199.57922933638889
 20
248.74289321881341
 30
0.0
  0
VERTEX
  5
55F
  8
DATA
  6
CONTINUOUS
 62
     7
 10
198.51856916460909
 20
249.80355339059329
 30
0.0
  0
SEQEND
  5
560
  8
DATA
  6
CONTINUOUS
 62
     7
  0
POLYLINE
  5
358
  8
DATA
  6
CONTINUOUS
 62
     7
 66
     1
 10
0.0
 20
0.0
 30
0.0
 70
     1
  0
VERTEX
  5
561
  8
DATA
  6
CONTINUOUS
 62
     7
 10
200.3721225552024
 20
250.15710678118651
 30
0.0
  0
VERTEX
  5
562
  8
DATA
  6
CONTINUOUS
 62
     7
 10
201.4327827269822
 20
249.09644660940671
 30
0.0
  0
VERTEX
  5
563
  8
DATA
  6
CONTINUOUS
 62
     7
 10
201.07922933638889
 20
248.74289321881341
 30
0.0
  0
VERTEX
  5
564
  8
DATA
  6
CONTINUOUS
 62
     7
 10
200.01856916460909
 20
249.80355339059329
 30
0.0
  0
SEQEND
  5
565
  8
DATA
  6
CONTINUOUS
 62
     7
  0
POLYLINE
  5
35F
  8
DATA
  6
CONTINUOUS
 62
     7
 66
     1
 10
0.0
 20
0.0
 30
0.0
 70
     1
  0
VERTEX
  5
566
  8
DATA
  6
CONTINUOUS
 62
     7
 10
201.8721225552024
 20
250.15710678118651
 30
0.0
  0
VERTEX
  5
567
  8
DATA
  6
CONTINUOUS
 62
     7
 10
202.9327827269822
 20
249.09644660940671
 30
0.0
  0
VERTEX
  5
568
  8
DATA
  6
CONTINUOUS
 62
     7
 10
202.57922933638889
 20
248.74289321881341
 30
0.0
  0
VERTEX
  5
569
  8
DATA
  6
CONTINUOUS
 62
     7
 10
201.51856916460909
 20
249.80355339059329
 30
0.0
  0
SEQEND
  5
56A
  8
DATA
  6
CONTINUOUS
 62
     7
  0
POLYLINE
  5
366
  8
DATA
  6
CONTINUOUS
 62
     7
 66
     1
 10
0.0
 20
0.0
 30
0.0
 70
     1
  0
VERTEX
  5
56B
  8
DATA
  6
CONTINUOUS
 62
     7
 10
203.3721225552024
 20
250.15710678118651
 30
0.0
  0
VERTEX
  5
56C
  8
DATA
  6
CONTINUOUS
 62
     7
 10
204.4327827269822
 20
249.09644660940671
 30
0.0
  0
VERTEX
  5
56D
  8
DATA
  6
CONTINUOUS
 62
     7
 10
204.07922933638889
 20
248.74289321881341
 30
0.0
  0
VERTEX
  5
56E
  8
DATA
  6
CONTINUOUS
 62
     7
 10
203.01856916460909
 20
249.80355339059329
 30
0.0
  0
SEQEND
  5
56F
  8
DATA
  6
CONTINUOUS
 62
     7
  0
POLYLINE
  5
36D
  8
DATA
  6
CONTINUOUS
 62
     7
 66
     1
 10
0.0
 20
0.0
 30
0.0
 70
     1
  0
VERTEX
  5
570
  8
DATA
  6
CONTINUOUS
 62
     7
 10
195.99866786210239
 20
253.75710678118659
 30
0.0
  0
VERTEX
  5
571
  8
DATA
  6
CONTINUOUS
 62
     7
 10
197.93866786210239
 20
253.75710678118659
 30
0.0
  0
VERTEX
  5
572
  8
DATA
  6
CONTINUOUS
 62
     7
 10
197.93866786210239
 20
248.74289321881341
 30
0.0
  0
VERTEX
  5
573
  8
DATA
  6
CONTINUOUS
 62
     7
 10
195.99866786210239
 20
248.74289321881341
 30
0.0
  0
SEQEND
  5
574
  8
DATA
  6
CONTINUOUS
 62
     7
  0
TEXT
  5
374
  8
DATA
 62
     7
 10
195.81258404431631
 20
186.20359199025501
 30
0.0
 40
3.9092187499999991
  1
DVI
 41
0.7
 11
195.81258404431631
 21
190.11281074025499
 31
0.0
 73
     3
  0
TEXT
  5
375
  8
DATA
 62
     7
 10
205.5870069076017
 20
186.20359199025501
 30
0.0
 40
3.9092187499999991
  1
FM
 41
0.7
 11
205.5870069076017
 21
190.11281074025499
 31
0.0
 73
     3
  0
TEXT
  5
376
  8
DATA
 62
     7
 10
202.7006420738465
 20
180.96507361361751
 30
0.0
 40
3.9092187499999991
  1
500
 41
0.7
 11
202.7006420738465
 21
184.87429236361751
 31
0.0
 73
     3
  0
TEXT
  5
377
  8
DATA
 62
     7
 10
194.43447829205689
 20
169.4234392337062
 30
0.0
 40
3.2576822916666659
  1
Receiver
 41
0.7
 11
194.43447829205689
 21
172.6811215253729
 31
0.0
 73
     3
  0
TEXT
  5
378
  8
DATA
 62
     7
 10
189.52133216357279
 20
157.96950000000001
 30
0.0
 40
2.4432617187500001
  1
5V
 41
0.7
 11
189.52133216357279
 21
160.41276171875001
 31
0.0
 73
     3
  0
TEXT
  5
379
  8
DATA
 62
     7
 10
200.31898757730971
 20
157.96950000000001
 30
0.0
 40
2.4432617187500001
  1
2
 41
0.7
 11
200.31898757730971
 21
160.41276171875001
 31
0.0
 73
     3
  0
TEXT
  5
37A
  8
DATA
 62
     7
 10
206.41047604999889
 20
157.96950000000001
 30
0.0
 40
2.4432617187500001
  1
1
 41
0.7
 11
206.41047604999889
 21
160.41276171875001
 31
0.0
 73
     3
  0
LINE
  5
37B
  8
DATA
  6
CONTINUOUS
 62
     7
 10
237.5
 20
157.75
 30
0.0
 11
237.5
 21
225.25
 31
0.0
  0
LINE
  5
37C
  8
DATA
  6
CONTINUOUS
 62
     7
 10
252.5
 20
157.75
 30
0.0
 11
252.5
 21
225.25
 31
0.0
  0
LINE
  5
37D
  8
DATA
  6
CONTINUOUS
 62
     7
 10
237.5
 20
225.25
 30
0.0
 11
240.0
 21
225.25
 31
0.0
  0
LINE
  5
37E
  8
DATA
  6
CONTINUOUS
 62
     7
 10
250.0
 20
225.25
 30
0.0
 11
252.5
 21
225.25
 31
0.0
  0
LINE
  5
37F
  8
DATA
  6
CONTINUOUS
 62
     7
 10
245.0
 20
224.65000000000001
 30
0.0
 11
245.0
 21
206.25
 31
0.0
  0
LINE
  5
380
  8
DATA
  6
CONTINUOUS
 62
     7
 10
245.0
 20
195.3108436115522
 30
0.0
 11
245.0
 21
156.25
 31
0.0
  0
LINE
  5
381
  8
DATA
  6
CONTINUOUS
 62
     7
 10
246.34999999999999
 20
227.7235842313261
 30
0.0
 11
246.34999999999999
 21
224.65000000000001
 31
0.0
  0
LINE
  5
382
  8
DATA
  6
CONTINUOUS
 62
     7
 10
243.65000000000001
 20
227.7235842313261
 30
0.0
 11
246.34999999999999
 21
227.7235842313261
 31
0.0
  0
LINE
  5
383
  8
DATA
  6
CONTINUOUS
 62
     7
 10
243.65000000000001
 20
224.65000000000001
 30
0.0
 11
243.65000000000001
 21
227.7235842313261
 31
0.0
  0
LINE
  5
384
  8
DATA
  6
CONTINUOUS
 62
     7
 10
243.65000000000001
 20
225.25
 30
0.0
 11
246.34999999999999
 21
225.80000000000001
 31
0.0
  0
LINE
  5
385
  8
DATA
  6
CONTINUOUS
 62
     7
 10
243.65000000000001
 20
226.05000000000001
 30
0.0
 11
246.34999999999999
 21
226.59999999999999
 31
0.0
  0
LINE
  5
386
  8
DATA
  6
CONTINUOUS
 62
     7
 10
243.65000000000001
 20
226.84999999999999
 30
0.0
 11
246.34999999999999
 21
227.40000000000001
 31
0.0
  0
LINE
  5
387
  8
DATA
  6
CONTINUOUS
 62
     7
 10
237.5
 20
220.25
 30
0.0
 11
240.0
 21
220.25
 31
0.0
  0
LINE
  5
388
  8
DATA
  6
CONTINUOUS
 62
     7
 10
250.0
 20
220.25
 30
0.0
 11
252.5
 21
220.25
 31
0.0
  0
LINE
  5
389
  8
DATA
  6
CONTINUOUS
 62
     7
 10
181.25
 20
256.25
 30
0.0
 11
220.25
 21
256.25
 31
0.0
  0
LINE
  5
38A
  8
DATA
  6
CONTINUOUS
 62
     7
 10
220.25
 20
246.25
 30
0.0
 11
181.25
 21
246.25
 31
0.0
  0
LINE
  5
38B
  8
DATA
  6
CONTINUOUS
 62
     7
 10
181.25
 20
246.25
 30
0.0
 11
181.25
 21
256.25
 31
0.0
  0
LINE
  5
38C
  8
DATA
  6
CONTINUOUS
 62
     7
 10
182.25
 20
246.25
 30
0.0
 11
182.25
 21
256.25
 31
0.0
  0
LINE
  5
38D
  8
DATA
  6
CONTINUOUS
 62
     7
 10
220.25
 20
246.25
 30
0.0
 11
220.25
 21
256.25
 31
0.0
  0
LINE
  5
38E
  8
DATA
  6
CONTINUOUS
 62
     7
 10
219.25
 20
246.25
 30
0.0
 11
219.25
 21
256.25
 31
0.0
  0
LINE
  5
38F
  8
DATA
  6
CONTINUOUS
 62
     7
 10
213.5
 20
230.25
 30
0.0
 11
213.5
 21
225.25
 31
0.0
  0
LINE
  5
390
  8
DATA
  6
CONTINUOUS
 62
     7
 10
188.0
 20
225.25
 30
0.0
 11
188.0
 21
230.25
 31
0.0
  0
ARC
  5
391
  8
DATA
  6
CONTINUOUS
 62
     7
 10
189.0
 20
247.69999999999999
 30
0.0
 40
1.0
 50
180.0
 51
270.0
  0
ARC
  5
392
  8
DATA
  6
CONTINUOUS
 62
     7
 10
212.5
 20
247.69999999999999
 30
0.0
 40
1.0
 50
270.0
 51
0.0
  0
ARC
  5
393
  8
DATA
  6
CONTINUOUS
 62
     7
 10
194.66811160443009
 20
251.72550577145731
 30
0.0
 40
6.6685277055150083
 50
147.15421880096449
 51
179.35993462729141
  0
ARC
  5
394
  8
DATA
  6
CONTINUOUS
 62
     7
 10
206.83188839556999
 20
251.72550577145731
 30
0.0
 40
6.6685277055150092
 50
0.640065372708576
 51
32.84578119903545
  0
LINE
  5
395
  8
DATA
  6
CONTINUOUS
 62
     7
 10
188.0
 20
247.69999999999999
 30
0.0
 11
188.0
 21
251.80000000000001
 31
0.0
  0
LINE
  5
396
  8
DATA
  6
CONTINUOUS
 62
     7
 10
213.5
 20
247.69999999999999
 30
0.0
 11
213.5
 21
251.79999999999961
 31
0.0
  0
ARC
  5
397
  8
DATA
  6
CONTINUOUS
 62
     7
 10
189.9057916249611
 20
254.8000000000001
 30
0.0
 40
0.9999999999999504
 50
90.0
 51
147.15421880096679
  0
ARC
  5
398
  8
DATA
  6
CONTINUOUS
 62
     7
 10
211.59420837503879
 20
254.80000000000001
 30
0.0
 40
0.9999999999999928
 50
32.845781199035073
 51
90.0
  0
LINE
  5
399
  8
DATA
  6
CONTINUOUS
 62
     7
 10
250.0
 20
225.25
 30
0.0
 11
250.0
 21
224.65000000000001
 31
0.0
  0
LINE
  5
39A
  8
DATA
  6
CONTINUOUS
 62
     7
 10
240.0
 20
224.65000000000001
 30
0.0
 11
240.0
 21
225.25
 31
0.0
  0
LINE
  5
39B
  8
DATA
  6
CONTINUOUS
 62
     7
 10
240.0
 20
224.65000000000001
 30
0.0
 11
250.0
 21
224.65000000000001
 31
0.0
  0
LINE
  5
39C
  8
DATA
  6
CONTINUOUS
 62
     7
 10
245.61363636363629
 20
224.65000000000001
 30
0.0
 11
246.34999999999999
 21
224.80000000000001
 31
0.0
  0
ARC
  5
39D
  8
DATA
  6
CONTINUOUS
 62
     7
 10
245.0
 20
211.25
 30
0.0
 40
5.0
 50
180.0
 51
0.0
  0
LINE
  5
39E
  8
DATA
  6
CONTINUOUS
 62
     7
 10
240.0
 20
211.25
 30
0.0
 11
240.0
 21
220.25
 31
0.0
  0
LINE
  5
39F
  8
DATA
  6
CONTINUOUS
 62
     7
 10
250.0
 20
211.25
 30
0.0
 11
250.0
 21
220.25
 31
0.0
  0
ARC
  5
3A0
  8
DATA
  6
CONTINUOUS
 62
     7
 10
245.0
 20
190.3108436115522
 30
0.0
 40
5.0
 50
0.0
 51
180.0
  0
LINE
  5
3A1
  8
DATA
  6
CONTINUOUS
 62
     7
 10
240.0
 20
190.3108436115522
 30
0.0
 11
240.0
 21
157.25
 31
0.0
  0
LINE
  5
3A2
  8
DATA
  6
CONTINUOUS
 62
     7
 10
250.0
 20
190.3108436115522
 30
0.0
 11
250.0
 21
157.25
 31
0.0
  0
ARC
  5
3A3
  8
DATA
  6
CONTINUOUS
 62
     7
 10
239.0
 20
157.75
 30
0.0
 40
1.5
 50
180.0
 51
270.0
  0
ARC
  5
3A4
  8
DATA
  6
CONTINUOUS
 62
     7
 10
251.0
 20
157.75
 30
0.0
 40
1.5
 50
270.0
 51
0.0
  0
ARC
  5
3A5
  8
DATA
  6
CONTINUOUS
 62
     7
 10
241.0
 20
157.25
 30
0.0
 40
1.0
 50
180.0
 51
270.0
  0
ARC
  5
3A6
  8
DATA
  6
CONTINUOUS
 62
     7
 10
249.0
 20
157.25
 30
0.0
 40
1.0
 50
270.0
 51
0.0
  0
LINE
  5
3A7
  8
DATA
  6
CONTINUOUS
 62
     7
 10
239.0
 20
156.25
 30
0.0
 11
251.05000000000001
 21
156.25
 31
0.0
  0
LINE
  5
3A8
  8
DATA
  6
CONTINUOUS
 62
     7
 10
241.09999999999999
 20
204.90975261595841
 30
0.0
 11
248.90000000000001
 21
204.90975261595841
 31
0.0
  0
LINE
  5
3A9
  8
DATA
  6
CONTINUOUS
 62
     7
 10
248.72999999999999
 20
196.90975261595841
 30
0.0
 11
241.27000000000001
 21
196.90975261595841
 31
0.0
  0
LINE
  5
3AA
  8
DATA
  6
CONTINUOUS
 62
     7
 10
243.62016306276161
 20
206.44416500214251
 30
0.0
 11
243.62016306276161
 21
204.90975261595841
 31
0.0
  0
LINE
  5
3AB
  8
DATA
  6
CONTINUOUS
 62
     7
 10
246.32016306276159
 20
206.4274312355634
 30
0.0
 11
246.32016306276159
 21
204.90975261595841
 31
0.0
  0
LINE
  5
3AC
  8
DATA
  6
CONTINUOUS
 62
     7
 10
241.09999999999999
 20
204.90975261595841
 30
0.0
 11
241.27000000000001
 21
196.90975261595841
 31
0.0
  0
LINE
  5
3AD
  8
DATA
  6
CONTINUOUS
 62
     7
 10
248.90000000000001
 20
204.90975261595841
 30
0.0
 11
248.72999999999999
 21
196.90975261595841
 31
0.0
  0
LINE
  5
3AE
  8
DATA
  6
CONTINUOUS
 62
     7
 10
243.62016306276161
 20
205.70975261595839
 30
0.0
 11
246.32016306276159
 21
205.97999999999999
 31
0.0
  0
LINE
  5
3AF
  8
DATA
  6
CONTINUOUS
 62
     7
 10
241.47856248773249
 20
196.90975261595841
 30
0.0
 11
241.47856248773249
 21
204.90975261595841
 31
0.0
  0
LINE
  5
3B0
  8
DATA
  6
CONTINUOUS
 62
     7
 10
242.4785624877324
 20
196.90975261595841
 30
0.0
 11
242.4785624877324
 21
204.90975261595841
 31
0.0
  0
LINE
  5
3B1
  8
DATA
  6
CONTINUOUS
 62
     7
 10
243.47856248773249
 20
196.90975261595841
 30
0.0
 11
243.47856248773249
 21
204.90975261595841
 31
0.0
  0
LINE
  5
3B2
  8
DATA
  6
CONTINUOUS
 62
     7
 10
244.4785624877324
 20
196.90975261595841
 30
0.0
 11
244.4785624877324
 21
204.90975261595841
 31
0.0
  0
LINE
  5
3B3
  8
DATA
  6
CONTINUOUS
 62
     7
 10
245.47856248773249
 20
196.90975261595841
 30
0.0
 11
245.47856248773249
 21
204.90975261595841
 31
0.0
  0
LINE
  5
3B4
  8
DATA
  6
CONTINUOUS
 62
     7
 10
246.4785624877324
 20
196.90975261595841
 30
0.0
 11
246.4785624877324
 21
204.90975261595841
 31
0.0
  0
LINE
  5
3B5
  8
DATA
  6
CONTINUOUS
 62
     7
 10
247.47856248773249
 20
196.90975261595841
 30
0.0
 11
247.47856248773249
 21
204.90975261595841
 31
0.0
  0
LINE
  5
3B6
  8
DATA
  6
CONTINUOUS
 62
     7
 10
248.47856248773249
 20
196.90975261595841
 30
0.0
 11
248.47856248773249
 21
204.90975261595841
 31
0.0
  0
LINE
  5
3B7
  8
DATA
  6
CONTINUOUS
 62
     7
 10
237.5
 20
195.3108436115522
 30
0.0
 11
252.5
 21
195.3108436115522
 31
0.0
  0
LINE
  5
3B8
  8
DATA
  6
CONTINUOUS
 62
     7
 10
252.5
 20
206.25
 30
0.0
 11
246.32016306276159
 21
206.25
 31
0.0
  0
LINE
  5
3B9
  8
DATA
  6
CONTINUOUS
 62
     7
 10
243.62016306276161
 20
206.25
 30
0.0
 11
237.5
 21
206.25
 31
0.0
  0
LINE
  5
3BA
  8
DATA
  6
CONTINUOUS
 62
     7
 10
239.0
 20
195.3108436115522
 30
0.0
 11
239.0
 21
206.25
 31
0.0
  0
LINE
  5
3BB
  8
DATA
  6
CONTINUOUS
 62
     7
 10
251.0
 20
195.3108436115522
 30
0.0
 11
251.0
 21
206.25
 31
0.0
  0
LINE
  5
3BC
  8
DATA
  6
CONTINUOUS
 62
     7
 10
181.42180188
 20
87.5
 30
0.0
 11
218.92180188
 21
87.5
 31
0.0
  0
LINE
  5
3BD
  8
DATA
  6
CONTINUOUS
 62
     7
 10
62.5
 20
87.5
 30
0.0
 11
87.5
 21
87.5
 31
0.0
  0
LINE
  5
3BE
  8
DATA
  6
CONTINUOUS
 62
     7
 10
56.249999999723038
 20
122.34999999999999
 30
0.0
 11
55.318525431699967
 21
122.34999999999999
 31
0.0
  0
LINE
  5
3BF
  8
DATA
  6
CONTINUOUS
 62
     7
 10
55.318525431699967
 20
130.15000000000001
 30
0.0
 11
56.249999999723038
 21
130.15000000000001
 31
0.0
  0
LINE
  5
3C0
  8
DATA
  6
CONTINUOUS
 62
     7
 10
96.118525431699979
 20
122.34999999999999
 30
0.0
 11
95.249999999723059
 21
122.34999999999999
 31
0.0
  0
LINE
  5
3C1
  8
DATA
  6
CONTINUOUS
 62
     7
 10
95.249999999723059
 20
130.15000000000001
 30
0.0
 11
96.118525431699979
 21
130.15000000000001
 31
0.0
  0
LINE
  5
3C2
  8
DATA
  6
CONTINUOUS
 62
     7
 10
55.318525431699967
 20
122.34999999999999
 30
0.0
 11
55.318525431699967
 21
130.15000000000001
 31
0.0
  0
LINE
  5
3C3
  8
DATA
  6
CONTINUOUS
 62
     7
 10
96.118525431699979
 20
122.34999999999999
 30
0.0
 11
96.118525431699979
 21
130.15000000000001
 31
0.0
  0
LINE
  5
3C4
  8
DATA
  6
CONTINUOUS
 62
     7
 10
180.34999999999999
 20
247.34999999999999
 30
0.0
 11
180.34999999999999
 21
255.15000000000001
 31
0.0
  0
LINE
  5
3C5
  8
DATA
  6
CONTINUOUS
 62
     7
 10
221.15000000000001
 20
247.34999999999999
 30
0.0
 11
221.15000000000001
 21
255.15000000000001
 31
0.0
  0
LINE
  5
3C6
  8
DATA
  6
CONTINUOUS
 62
     7
 10
180.34999999999999
 20
255.15000000000001
 30
0.0
 11
181.25
 21
255.15000000000001
 31
0.0
  0
LINE
  5
3C7
  8
DATA
  6
CONTINUOUS
 62
     7
 10
180.34999999999999
 20
247.34999999999999
 30
0.0
 11
181.25
 21
247.34999999999999
 31
0.0
  0
LINE
  5
3C8
  8
DATA
  6
CONTINUOUS
 62
     7
 10
220.25
 20
255.15000000000001
 30
0.0
 11
221.15000000000001
 21
255.15000000000001
 31
0.0
  0
LINE
  5
3C9
  8
DATA
  6
CONTINUOUS
 62
     7
 10
220.25
 20
247.34999999999999
 30
0.0
 11
221.15000000000001
 21
247.34999999999999
 31
0.0
  0
LINE
  5
3CA
  8
DATA
  6
CONTINUOUS
 62
     7
 10
181.2499999996754
 20
122.34999999999999
 30
0.0
 11
180.34999999999999
 21
122.34999999999999
 31
0.0
  0
LINE
  5
3CB
  8
DATA
  6
CONTINUOUS
 62
     7
 10
180.34999999999999
 20
130.15000000000001
 30
0.0
 11
181.2499999996754
 21
130.15000000000001
 31
0.0
  0
LINE
  5
3CC
  8
DATA
  6
CONTINUOUS
 62
     7
 10
221.15000000000001
 20
122.34999999999999
 30
0.0
 11
220.2499999996754
 21
122.34999999999999
 31
0.0
  0
LINE
  5
3CD
  8
DATA
  6
CONTINUOUS
 62
     7
 10
220.2499999996754
 20
130.15000000000001
 30
0.0
 11
221.15000000000001
 21
130.15000000000001
 31
0.0
  0
LINE
  5
3CE
  8
DATA
  6
CONTINUOUS
 62
     7
 10
180.34999999999999
 20
122.34999999999999
 30
0.0
 11
180.34999999999999
 21
130.15000000000001
 31
0.0
  0
LINE
  5
3CF
  8
DATA
  6
CONTINUOUS
 62
     7
 10
221.15000000000001
 20
122.34999999999999
 30
0.0
 11
221.15000000000001
 21
130.15000000000001
 31
0.0
  0
LINE
  5
3D0
  8
DATA
  6
CONTINUOUS
 62
     7
 10
56.25
 20
247.34999999999999
 30
0.0
 11
55.349999999999973
 21
247.34999999999999
 31
0.0
  0
LINE
  5
3D1
  8
DATA
  6
CONTINUOUS
 62
     7
 10
55.349999999999973
 20
255.15000000000001
 30
0.0
 11
56.25
 21
255.15000000000001
 31
0.0
  0
LINE
  5
3D2
  8
DATA
  6
CONTINUOUS
 62
     7
 10
96.149999999999963
 20
247.34999999999999
 30
0.0
 11
95.25
 21
247.34999999999999
 31
0.0
  0
LINE
  5
3D3
  8
DATA
  6
CONTINUOUS
 62
     7
 10
95.25
 20
255.15000000000001
 30
0.0
 11
96.149999999999963
 21
255.15000000000001
 31
0.0
  0
LINE
  5
3D4
  8
DATA
  6
CONTINUOUS
 62
     7
 10
55.349999999999973
 20
247.34999999999999
 30
0.0
 11
55.349999999999973
 21
255.15000000000001
 31
0.0
  0
LINE
  5
3D5
  8
DATA
  6
CONTINUOUS
 62
     7
 10
96.149999999999963
 20
247.34999999999999
 30
0.0
 11
96.149999999999963
 21
255.15000000000001
 31
0.0
  0
ENDSEC
  0
EOF
