  0
SECTION
  2
HEADER
  9
$ACADVER
  1
AC1009
  9
$INSBASE
 10
0.0
 20
0.0
 30
0.0
  9
$EXTMIN
 10
-125.0137318624345
 20
-198.71255684460289
 30
-0.0015258207003583
  9
$EXTMAX
 10
325.01373395790978
 20
470.32084901451839
 30
0.0000000349246037
  9
$LIMMIN
 10
0.0
 20
0.0
  9
$LIMMAX
 10
0.0
 20
0.0
  9
$ORTHOMODE
 70
     0
  9
$REGENMODE
 70
     1
  9
$FILLMODE
 70
     1
  9
$QTEXTMODE
 70
     0
  9
$MIRRTEXT
 70
     1
  9
$DRAGMODE
 70
     2
  9
$LTSCALE
 40
12.699999999999999
  9
$OSMODE
 70
   231
  9
$ATTMODE
 70
     1
  9
$TEXTSIZE
 40
0.0
  9
$TRACEWID
 40
1.0
  9
$TEXTSTYLE
  7
STANDARD
  9
$CLAYER
  8
DATA
  9
$CELTYPE
  6
BYLAYER
  9
$CECOLOR
 62
   256
  9
$DIMSCALE
 40
1.0
  9
$DIMASZ
 40
0.18
  9
$DIMEXO
 40
0.0625
  9
$DIMDLI
 40
0.38
  9
$DIMRND
 40
0.0
  9
$DIMDLE
 40
0.0
  9
$DIMEXE
 40
0.18
  9
$DIMTP
 40
0.0
  9
$DIMTM
 40
0.0
  9
$DIMTXT
 40
0.18
  9
$DIMCEN
 40
0.09
  9
$DIMTSZ
 40
0.0
  9
$DIMTOL
 70
     0
  9
$DIMLIM
 70
     0
  9
$DIMTIH
 70
     1
  9
$DIMTOH
 70
     1
  9
$DIMSE1
 70
     0
  9
$DIMSE2
 70
     0
  9
$DIMTAD
 70
     0
  9
$DIMZIN
 70
     0
  9
$DIMBLK
  1

  9
$DIMASO
 70
     1
  9
$DIMSHO
 70
     1
  9
$DIMPOST
  1

  9
$DIMAPOST
  1

  9
$DIMALT
 70
     0
  9
$DIMALTD
 70
     2
  9
$DIMALTF
 40
25.399999999999999
  9
$DIMLFAC
 40
1.0
  9
$DIMTOFL
 70
     0
  9
$DIMTVP
 40
0.0
  9
$DIMTIX
 70
     0
  9
$DIMSOXD
 70
     0
  9
$DIMSAH
 70
     0
  9
$DIMBLK1
  1

  9
$DIMBLK2
  1

  9
$DIMSTYLE
  2
STANDARD
  9
$DIMCLRD
 70
     0
  9
$DIMCLRE
 70
     0
  9
$DIMCLRT
 70
     0
  9
$DIMTFAC
 40
1.0
  9
$DIMGAP
 40
0.09
  9
$LUNITS
 70
     2
  9
$LUPREC
 70
     4
  9
$SKETCHINC
 40
0.1
  9
$FILLETRAD
 40
0.0
  9
$AUNITS
 70
     0
  9
$AUPREC
 70
     0
  9
$MENU
  1
acad
  9
$ELEVATION
 40
0.0
  9
$PELEVATION
 40
0.0
  9
$THICKNESS
 40
0.0
  9
$LIMCHECK
 70
     0
  9
$BLIPMODE
 70
     0
  9
$CHAMFERA
 40
0.0
  9
$CHAMFERB
 40
0.0
  9
$SKPOLY
 70
     0
  9
$TDCREATE
 40
2455509.559050926
  9
$TDUPDATE
 40
2455509.559777292
  9
$TDINDWG
 40
0.0004016551
  9
$TDUSRTIMER
 40
0.0004014815
  9
$USRTIMER
 70
     1
  9
$ANGBASE
 50
0.0
  9
$ANGDIR
 70
     0
  9
$PDMODE
 70
     1
  9
$PDSIZE
 40
-2.0
  9
$PLINEWID
 40
0.0
  9
$COORDS
 70
     0
  9
$SPLFRAME
 70
     0
  9
$SPLINETYPE
 70
     6
  9
$SPLINESEGS
 70
     8
  9
$ATTDIA
 70
     0
  9
$ATTREQ
 70
     1
  9
$HANDLING
 70
     1
  9
$HANDSEED
  5
344
  9
$SURFTAB1
 70
     6
  9
$SURFTAB2
 70
     6
  9
$SURFTYPE
 70
     6
  9
$SURFU
 70
     6
  9
$SURFV
 70
     6
  9
$UCSNAME
  2

  9
$UCSORG
 10
0.0
 20
0.0
 30
0.0
  9
$UCSXDIR
 10
1.0
 20
0.0
 30
0.0
  9
$UCSYDIR
 10
0.0
 20
1.0
 30
0.0
  9
$PUCSNAME
  2

  9
$PUCSORG
 10
0.0
 20
0.0
 30
0.0
  9
$PUCSXDIR
 10
1.0
 20
0.0
 30
0.0
  9
$PUCSYDIR
 10
0.0
 20
1.0
 30
0.0
  9
$USERI1
 70
     0
  9
$USERI2
 70
     0
  9
$USERI3
 70
     0
  9
$USERI4
 70
     0
  9
$USERI5
 70
     0
  9
$USERR1
 40
0.0
  9
$USERR2
 40
0.0
  9
$USERR3
 40
0.0
  9
$USERR4
 40
0.0
  9
$USERR5
 40
0.0
  9
$WORLDVIEW
 70
     1
  9
$SHADEDGE
 70
     3
  9
$SHADEDIF
 70
    70
  9
$TILEMODE
 70
     1
  9
$MAXACTVP
 70
    64
  9
$PLIMCHECK
 70
     0
  9
$PEXTMIN
 10
1.0000000000000000E+020
 20
1.0000000000000000E+020
 30
1.0000000000000000E+020
  9
$PEXTMAX
 10
-1.0000000000000000E+020
 20
-1.0000000000000000E+020
 30
-1.0000000000000000E+020
  9
$PLIMMIN
 10
0.0
 20
0.0
  9
$PLIMMAX
 10
12.0
 20
9.0
  9
$UNITMODE
 70
     0
  9
$VISRETAIN
 70
     0
  9
$PLINEGEN
 70
     1
  9
$PSLTSCALE
 70
     0
  0
ENDSEC
  0
SECTION
  2
TABLES
  0
TABLE
  2
VPORT
 70
     1
  0
VPORT
  2
*ACTIVE
 70
     0
 10
0.0
 20
0.0
 11
1.0
 21
1.0
 12
100.0000010477377
 22
135.80414608495781
 13
0.0
 23
0.0
 14
1.0
 24
1.0
 15
0.0
 25
0.0
 16
0.0
 26
0.0
 36
1.0
 17
0.0
 27
0.0
 37
0.0
 40
673.95880516605962
 41
1.9619164619164611
 42
50.0
 43
0.0
 44
0.0
 50
0.0
 51
0.0
 71
     0
 72
  2000
 73
     1
 74
     1
 75
     0
 76
     0
 77
     0
 78
     0
  0
ENDTAB
  0
TABLE
  2
LTYPE
 70
    11
  0
LTYPE
  2
CONTINUOUS
 70
     0
  3
Solid line
 72
    65
 73
     0
 40
0.0
  0
ENDTAB
  0
TABLE
  2
LAYER
 70
     5
  0
LAYER
  2
0
 70
     0
 62
     7
  6
CONTINUOUS
  0
LAYER
  2
DATA
 70
     0
 62
     7
  6
CONTINUOUS
  0
LAYER
  2
HIBINO-BASE
 70
     0
 62
     7
  6
CONTINUOUS
  0
LAYER
  2
SPEC
 70
     0
 62
     7
  6
CONTINUOUS
  0
LAYER
  2
DIMNSIONS
 70
     0
 62
     7
  6
CONTINUOUS
  0
ENDTAB
  0
TABLE
  2
STYLE
 70
     3
  0
STYLE
  2
STANDARD
 70
     0
 40
0.0
 41
1.0
 50
0.0
 71
     0
 42
0.0
  3
txt
  4
BIGFONT.SHX
  0
ENDTAB
  0
TABLE
  2
VIEW
 70
     0
  0
ENDTAB
  0
TABLE
  2
UCS
 70
     0
  0
ENDTAB
  0
TABLE
  2
APPID
 70
     3
  0
APPID
  2
ACAD
 70
     0
  0
APPID
  2
ACADANNOTATIVE
 70
     0
  0
APPID
  2
ACAD_MLEADERVER
 70
     0
  0
ENDTAB
  0
TABLE
  2
DIMSTYLE
 70
     2
  0
DIMSTYLE
  2
STANDARD
 70
     0
  3

  4

  5

  6

  7

 40
1.0
 41
0.18
 42
0.0625
 43
0.38
 44
0.18
 45
0.0
 46
0.0
 47
0.0
 48
0.0
140
0.18
141
0.09
142
0.0
143
25.399999999999999
144
1.0
145
0.0
146
1.0
147
0.09
 71
     0
 72
     0
 73
     1
 74
     1
 75
     0
 76
     0
 77
     0
 78
     0
170
     0
171
     2
172
     0
173
     0
174
     0
175
     0
176
     0
177
     0
178
     0
  0
ENDTAB
  0
ENDSEC
  0
SECTION
  2
BLOCKS
  0
BLOCK
  8
0
  2
$MODEL_SPACE
 70
     0
 10
0.0
 20
0.0
 30
0.0
  3
$MODEL_SPACE
  1

  0
ENDBLK
  5
29A
  8
0
  0
BLOCK
 67
     1
  8
0
  2
$PAPER_SPACE
 70
     0
 10
0.0
 20
0.0
 30
0.0
  3
$PAPER_SPACE
  1

  0
ENDBLK
  5
296
 67
     1
  8
0
  0
ENDSEC
  0
SECTION
  2
ENTITIES
  0
LINE
  5
2C
  8
HIBINO-BASE
  6
CONTINUOUS
 62
     7
 10
-125.0
 20
470.3004718422988
 30
0.0
 11
325.0
 21
470.3004718422988
 31
0.0
  0
LINE
  5
2D
  8
HIBINO-BASE
  6
CONTINUOUS
 62
     7
 10
325.0
 20
-179.69952815770111
 30
0.0
 11
-125.0
 21
-179.69952815770111
 31
0.0
  0
LINE
  5
2E
  8
HIBINO-BASE
  6
CONTINUOUS
 62
     7
 10
-125.0
 20
-179.69952815770111
 30
0.0
 11
-125.0
 21
470.3004718422988
 31
0.0
  0
LINE
  5
2F
  8
HIBINO-BASE
  6
CONTINUOUS
 62
     7
 10
325.0
 20
470.3004718422988
 30
0.0
 11
325.0
 21
-179.69952815770111
 31
0.0
  0
LINE
  5
30
  8
HIBINO-BASE
  6
CONTINUOUS
 62
     7
 10
100.0
 20
-123.449528157701
 30
0.0
 11
325.0
 21
-123.449528157701
 31
0.0
  0
LINE
  5
31
  8
HIBINO-BASE
  6
CONTINUOUS
 62
     7
 10
100.0
 20
-179.69952815770111
 30
0.0
 11
100.0
 21
-123.449528157701
 31
0.0
  0
TEXT
  5
32
  8
HIBINO-BASE
 62
     7
 10
102.25
 20
-129.7212614910344
 30
0.0
 40
4.072102864583333
  1
NOTE
 41
0.7
 51
3.0
 11
102.25
 21
-125.649158626451
 31
0.0
 73
     3
  0
LINE
  5
33
  8
HIBINO-BASE
  6
CONTINUOUS
 62
     7
 10
187.5
 20
-179.69952815770111
 30
0.0
 11
187.5
 21
-123.449528157701
 31
0.0
  0
TEXT
  5
34
  8
HIBINO-BASE
 62
     7
 10
189.75
 20
-129.7212614910344
 30
0.0
 40
4.072102864583333
  1
TITLE
 41
0.7
 51
3.0
 11
189.75
 21
-125.649158626451
 31
0.0
 73
     3
  0
LINE
  5
35
  8
HIBINO-BASE
  6
CONTINUOUS
 62
     7
 10
100.0
 20
-154.69952815770111
 30
0.0
 11
325.0
 21
-154.69952815770111
 31
0.0
  0
TEXT
  5
36
  8
HIBINO-BASE
 62
     7
 10
221.0
 20
-160.83046149103441
 30
0.0
 40
4.072102864583333
  1
DRAWN
 41
0.7
 51
3.0
 11
221.0
 21
-156.7583586264511
 31
0.0
 73
     3
  0
TEXT
  5
37
  8
HIBINO-BASE
 62
     7
 10
158.5
 20
-160.83046149103441
 30
0.0
 40
4.072102864583333
  1
DATE
 41
0.7
 51
3.0
 11
158.5
 21
-156.7583586264511
 31
0.0
 73
     3
  0
TEXT
  5
38
  8
HIBINO-BASE
 62
     7
 10
133.5
 20
-160.83046149103441
 30
0.0
 40
4.072102864583333
  1
SCALE
 41
0.7
 51
3.0
 11
133.5
 21
-156.7583586264511
 31
0.0
 73
     3
  0
TEXT
  5
39
  8
HIBINO-BASE
 62
     7
 10
189.75
 20
-160.83046149103441
 30
0.0
 40
4.072102864583333
  1
DESIGN
 41
0.7
 51
3.0
 11
189.75
 21
-156.7583586264511
 31
0.0
 73
     3
  0
TEXT
  5
3A
  8
HIBINO-BASE
 62
     7
 10
283.49999999999989
 20
-160.83046149103441
 30
0.0
 40
4.072102864583333
  1
DRAWING NO.
 41
0.7
 51
3.0
 11
283.49999999999989
 21
-156.7583586264511
 31
0.0
 73
     3
  0
TEXT
  5
3B
  8
HIBINO-BASE
 62
     7
 10
252.25
 20
-160.83046149103441
 30
0.0
 40
4.072102864583333
  1
CHECK
 41
0.7
 51
3.0
 11
252.25
 21
-156.7583586264511
 31
0.0
 73
     3
  0
LINE
  5
3C
  8
HIBINO-BASE
  6
CONTINUOUS
 62
     7
 10
135.9375
 20
-176.57452815770111
 30
0.0
 11
145.3125
 21
-167.19952815770111
 31
0.0
  0
TEXT
  5
3D
  8
HIBINO-BASE
 62
     7
 10
134.375
 20
-169.97188649103441
 30
0.0
 40
4.072102864583333
  1
1
 41
0.7
 51
3.0
 11
134.375
 21
-165.8997836264511
 31
0.0
 73
     3
  0
LINE
  5
3E
  8
HIBINO-BASE
  6
CONTINUOUS
 62
     7
 10
131.25
 20
-179.69952815770111
 30
0.0
 11
131.25
 21
-154.69952815770111
 31
0.0
  0
LINE
  5
3F
  8
HIBINO-BASE
  6
CONTINUOUS
 62
     7
 10
156.25
 20
-179.69952815770111
 30
0.0
 11
156.25
 21
-154.69952815770111
 31
0.0
  0
LINE
  5
40
  8
HIBINO-BASE
  6
CONTINUOUS
 62
     7
 10
218.75
 20
-154.69952815770111
 30
0.0
 11
218.75
 21
-179.69952815770111
 31
0.0
  0
LINE
  5
41
  8
HIBINO-BASE
  6
CONTINUOUS
 62
     7
 10
281.25
 20
-154.69952815770111
 30
0.0
 11
281.25
 21
-179.69952815770111
 31
0.0
  0
LINE
  5
42
  8
HIBINO-BASE
  6
CONTINUOUS
 62
     7
 10
250.0
 20
-179.69952815770111
 30
0.0
 11
250.0
 21
-154.69952815770111
 31
0.0
  0
TEXT
  5
43
  8
HIBINO-BASE
 62
     7
 10
158.39134999999999
 20
-172.5404114910344
 30
0.0
 40
4.072102864583333
  1
'10.11.
 41
0.7
 51
3.0
 11
158.39134999999999
 21
-168.46830862645109
 31
0.0
 73
     3
  0
TEXT
  5
44
  8
HIBINO-BASE
 62
     7
 10
143.75
 20
-174.65938649103441
 30
0.0
 40
4.072102864583333
  1
2.5
 41
0.7
 51
3.0
 11
143.75
 21
-170.5872836264511
 31
0.0
 73
     3
  0
TEXT
  5
45
  8
HIBINO-BASE
 62
     7
 10
109.7083333333333
 20
-174.75952815770111
 30
0.0
 40
8.1442057291666661
  1
A4
 41
0.7
 51
3.0
 11
109.7083333333333
 21
-166.6153224285344
 31
0.0
 73
     3
  0
TEXT
  5
46
  8
HIBINO-BASE
 62
     7
 10
102.3958333333333
 20
-161.24816565770109
 30
0.0
 40
4.072102864583333
  1
PAPER SIZE
 41
0.7
 51
3.0
 11
102.3958333333333
 21
-157.17606279311769
 31
0.0
 73
     3
  0
TEXT
  5
47
  8
HIBINO-BASE
 62
     7
 10
-118.10091185777451
 20
-195.7626287431417
 30
0.0
 40
8.8228895399305536
  1
Hibino-Intersound Corporation
 41
0.7
 51
3.0
 11
-118.10091185777451
 21
-186.9397392032111
 31
0.0
 73
     3
  0
TEXT
  5
48
  8
HIBINO-BASE
 62
     7
 10
150.45152420053469
 20
-194.8849081099182
 30
0.0
 40
8.8228895399305536
  1
ヒビノインターサウンド株式会社
 41
0.7
 51
3.0
 11
150.45152420053469
 21
-186.06201856998771
 31
0.0
 73
     3
  0
TEXT
  5
49
  8
HIBINO-BASE
 62
     7
 10
223.95811447874971
 20
-172.4904779279164
 30
0.0
 40
4.072102864583333
  1
N.Sasaki
 41
0.7
 51
3.0
 11
223.95811447874971
 21
-168.41837506333309
 31
0.0
 73
     3
  0
LINE
  5
4A
  8
SPEC
  6
CONTINUOUS
 62
     7
 10
-106.25
 20
445.30047184229869
 30
0.0
 11
262.5
 21
445.30047184229869
 31
0.0
  0
LINE
  5
4B
  8
SPEC
  6
CONTINUOUS
 62
     7
 10
-106.25
 20
435.92547184229869
 30
0.0
 11
262.5
 21
435.92547184229869
 31
0.0
  0
LINE
  5
4C
  8
SPEC
  6
CONTINUOUS
 62
     7
 10
-106.25
 20
417.17547184229869
 30
0.0
 11
262.5
 21
417.17547184229869
 31
0.0
  0
LINE
  5
4D
  8
SPEC
  6
CONTINUOUS
 62
     7
 10
-106.25
 20
426.55047184229869
 30
0.0
 11
262.5
 21
426.55047184229869
 31
0.0
  0
LINE
  5
4E
  8
SPEC
  6
CONTINUOUS
 62
     7
 10
-106.25
 20
445.30047184229869
 30
0.0
 11
-106.25
 21
360.92047184229892
 31
0.0
  0
TEXT
  5
4F
  8
SPEC
 62
     7
 10
-103.125
 20
448.78364684229871
 30
0.0
 40
6.108154296875
  1
仕様
 41
0.7
 51
3.0
 11
-103.125
 21
454.89180113917359
 31
0.0
 73
     3
  0
LINE
  5
50
  8
SPEC
  6
CONTINUOUS
 62
     7
 10
-25.0
 20
445.30047184229869
 30
0.0
 11
-25.0
 21
360.92047184229892
 31
0.0
  0
LINE
  5
51
  8
SPEC
  6
CONTINUOUS
 62
     7
 10
262.5
 20
445.30047184229869
 30
0.0
 11
262.5
 21
360.92047184229892
 31
0.0
  0
LINE
  5
52
  8
SPEC
  6
CONTINUOUS
 62
     7
 10
-106.25
 20
407.80047184229869
 30
0.0
 11
262.5
 21
407.80047184229869
 31
0.0
  0
LINE
  5
53
  8
SPEC
  6
CONTINUOUS
 62
     7
 10
-106.25
 20
398.4254718422988
 30
0.0
 11
262.5
 21
398.4254718422988
 31
0.0
  0
LINE
  5
54
  8
SPEC
  6
CONTINUOUS
 62
     7
 10
-106.25
 20
389.0504718422988
 30
0.0
 11
262.5
 21
389.0504718422988
 31
0.0
  0
LINE
  5
55
  8
SPEC
  6
CONTINUOUS
 62
     7
 10
-106.25
 20
379.67547184229892
 30
0.0
 11
262.5
 21
379.67547184229892
 31
0.0
  0
LINE
  5
56
  8
SPEC
  6
CONTINUOUS
 62
     7
 10
-106.25
 20
370.30047184229892
 30
0.0
 11
262.5
 21
370.30047184229892
 31
0.0
  0
TEXT
  5
57
  8
SPEC
 62
     7
 10
-103.9374136215322
 20
363.4368869405684
 30
0.0
 40
4.7507866753472232
  1
延長可能距離
 41
0.7
 51
3.0
 11
-103.9374136215322
 21
368.18767361591563
 31
0.0
 73
     3
  0
TEXT
  5
58
  8
SPEC
 62
     7
 10
-22.674377984685201
 20
363.4087737837412
 30
0.0
 40
4.7507866753472232
  1
50/125\U+03BCmマルチモード光ファイバーケーブル使用時：500m(1640ft)
 41
0.7
 51
3.0
 11
-22.674377984685201
 21
368.15956045908842
 31
0.0
 73
     3
  0
TEXT
  5
59
  8
SPEC
 62
     7
 10
-104.0741276784884
 20
372.5286818106074
 30
0.0
 40
4.7507866753472232
  1
動作温度
 41
0.7
 51
3.0
 11
-104.0741276784884
 21
377.27946848595462
 31
0.0
 73
     3
  0
TEXT
  5
5A
  8
SPEC
 62
     7
 10
-104.1433243766872
 20
382.11339011783599
 30
0.0
 40
4.7507866753472232
  1
重量
 41
0.7
 51
3.0
 11
-104.1433243766872
 21
386.86417679318322
 31
0.0
 73
     3
  0
TEXT
  5
5B
  8
SPEC
 62
     7
 10
-104.1909237608414
 20
391.638468639645
 30
0.0
 40
4.7507866753472232
  1
寸法
 41
0.7
 51
3.0
 11
-104.1909237608414
 21
396.38925531499223
 31
0.0
 73
     3
  0
TEXT
  5
5C
  8
SPEC
 62
     7
 10
-104.1643843167445
 20
400.89086863364213
 30
0.0
 40
4.7507866753472232
  1
電源
 41
0.7
 51
3.0
 11
-104.1643843167445
 21
405.6416553089893
 31
0.0
 73
     3
  0
TEXT
  5
5D
  8
SPEC
 62
     7
 10
-103.9740373134463
 20
428.65017462704583
 30
0.0
 40
4.7507866753472232
  1
USB入力端子
 41
0.7
 51
3.0
 11
-103.9740373134463
 21
433.400961302393
 31
0.0
 73
     3
  0
TEXT
  5
5E
  8
SPEC
 62
     7
 10
-22.60405193103335
 20
372.33587006179101
 30
0.0
 40
4.7507866753472232
  1
0～50\U+00B0C
 41
0.7
 51
3.0
 11
-22.60405193103335
 21
377.0866567371383
 31
0.0
 73
     3
  0
TEXT
  5
5F
  8
SPEC
 62
     7
 10
-22.729705698969202
 20
400.46773363321972
 30
0.0
 40
4.7507866753472232
  1
5V DC
 41
0.7
 51
3.0
 11
-22.729705698969202
 21
405.21852030856689
 31
0.0
 73
     3
  0
TEXT
  5
60
  8
SPEC
 62
     7
 10
-22.741105159726661
 20
428.98661628897349
 30
0.0
 40
4.7507866753472232
  1
Type B
 41
0.7
 51
3.0
 11
-22.741105159726661
 21
433.73740296432072
 31
0.0
 73
     3
  0
TEXT
  5
61
  8
SPEC
 62
     7
 10
-104.0714714683417
 20
437.79144964428679
 30
0.0
 40
4.7507866753472232
  1
USB2.0スピード
 41
0.7
 51
3.0
 11
-104.0714714683417
 21
442.54223631963401
 31
0.0
 73
     3
  0
TEXT
  5
62
  8
SPEC
 62
     7
 10
-22.684084201508131
 20
437.95446153956749
 30
0.0
 40
4.7507866753472232
  1
480Mbps
 41
0.7
 51
3.0
 11
-22.684084201508131
 21
442.70524821491472
 31
0.0
 73
     3
  0
TEXT
  5
63
  8
SPEC
 62
     7
 10
-105.2112928348843
 20
410.31122805543163
 30
0.0
 40
4.7507866753472232
  1
リンクコネクタ-
 41
0.7
 51
3.0
 11
-105.2112928348843
 21
415.06201473077891
 31
0.0
 73
     3
  0
TEXT
  5
64
  8
SPEC
 62
     7
 10
-22.74081278430041
 20
410.13386745860532
 30
0.0
 40
4.7507866753472232
  1
LC端子
 41
0.7
 51
3.0
 11
-22.74081278430041
 21
414.88465413395249
 31
0.0
 73
     3
  0
TEXT
  5
65
  8
SPEC
 62
     7
 10
-22.868763996649481
 20
391.15906585023282
 30
0.0
 40
4.7507866753472232
  1
92(W)\U+00D729(H)\U+00D776(D)mm(突起部含まず)、(送信機 、受信機共に)
 41
0.7
 51
3.0
 11
-22.868763996649481
 21
395.90985252557999
 31
0.0
 73
     3
  0
TEXT
  5
66
  8
SPEC
 62
     7
 10
-22.806860286807591
 20
382.0106770920496
 30
0.0
 40
4.7507866753472232
  1
約156g(送信機、受信機共に）
 41
0.7
 51
3.0
 11
-22.806860286807591
 21
386.76146376739678
 31
0.0
 73
     3
  0
LINE
  5
67
  8
SPEC
  6
CONTINUOUS
 62
     7
 10
-106.25
 20
360.92047184229892
 30
0.0
 11
262.5
 21
360.92047184229892
 31
0.0
  0
TEXT
  5
68
  8
SPEC
 62
     7
 10
-103.9740373134463
 20
419.27017462704578
 30
0.0
 40
4.7507866753472232
  1
USB出力端子
 41
0.7
 51
3.0
 11
-103.9740373134463
 21
424.020961302393
 31
0.0
 73
     3
  0
TEXT
  5
69
  8
SPEC
 62
     7
 10
-22.741105159726661
 20
419.60661628897338
 30
0.0
 40
4.7507866753472232
  1
Type A
 41
0.7
 51
3.0
 11
-22.741105159726661
 21
424.35740296432073
 31
0.0
 73
     3
  0
TEXT
  5
6A
  8
DIMNSIONS
 62
     7
 10
50.0
 20
-149.02580315770109
 30
0.0
 40
6.108154296875
  1
(単位：mm)
 41
0.7
 51
3.0
 11
50.0
 21
-142.91764886082609
 31
0.0
 73
     3
  0
LINE
  5
6B
  8
DIMNSIONS
  6
CONTINUOUS
 62
     7
 10
-25.0
 20
159.5
 30
0.0
 11
-25.0
 21
139.91050000000001
 31
0.0
  0
LINE
  5
6C
  8
DIMNSIONS
  6
CONTINUOUS
 62
     7
 10
66.500000000000014
 20
159.5
 30
0.0
 11
66.500000000000014
 21
139.91050000000001
 31
0.0
  0
LINE
  5
6D
  8
DIMNSIONS
  6
CONTINUOUS
 62
     7
 10
-25.0
 20
144.91050000000001
 30
0.0
 11
66.500000000000014
 21
144.91050000000001
 31
0.0
  0
LINE
  5
6E
  8
DIMNSIONS
  6
CONTINUOUS
 62
     7
 10
-25.0
 20
144.91050000000001
 30
0.0
 11
-18.748443603515621
 21
146.58559948787561
 31
0.0
  0
LINE
  5
6F
  8
DIMNSIONS
  6
CONTINUOUS
 62
     7
 10
-25.0
 20
144.91050000000001
 30
0.0
 11
-18.748443603515621
 21
143.23540051212439
 31
0.0
  0
LINE
  5
70
  8
DIMNSIONS
  6
CONTINUOUS
 62
     7
 10
66.500000000000014
 20
144.91050000000001
 30
0.0
 11
60.248443603515653
 21
143.23540051212439
 31
0.0
  0
LINE
  5
71
  8
DIMNSIONS
  6
CONTINUOUS
 62
     7
 10
66.500000000000014
 20
144.91050000000001
 30
0.0
 11
60.248443603515653
 21
146.58559948787561
 31
0.0
  0
TEXT
  5
72
  8
DIMNSIONS
 62
     7
 10
16.340277777777779
 20
147.3952222222222
 30
0.0
 40
6.7868381076388884
  1
92
 41
0.7
 51
3.0
 11
16.340277777777779
 21
154.18206032986109
 31
0.0
 73
     3
  0
LINE
  5
73
  8
DIMNSIONS
  6
CONTINUOUS
 62
     7
 10
-28.0
 20
162.5
 30
0.0
 11
-55.000000000000021
 21
162.5
 31
0.0
  0
LINE
  5
74
  8
DIMNSIONS
  6
CONTINUOUS
 62
     7
 10
-28.0
 20
191.0
 30
0.0
 11
-55.000000000000021
 21
191.0
 31
0.0
  0
LINE
  5
75
  8
DIMNSIONS
  6
CONTINUOUS
 62
     7
 10
-50.000000000000021
 20
162.5
 30
0.0
 11
-50.000000000000021
 21
191.0
 31
0.0
  0
LINE
  5
76
  8
DIMNSIONS
  6
CONTINUOUS
 62
     7
 10
-50.000000000000021
 20
162.5
 30
0.0
 11
-51.675099487875613
 21
168.7515563964844
 31
0.0
  0
LINE
  5
77
  8
DIMNSIONS
  6
CONTINUOUS
 62
     7
 10
-50.000000000000021
 20
162.5
 30
0.0
 11
-48.324900512124422
 21
168.7515563964844
 31
0.0
  0
LINE
  5
78
  8
DIMNSIONS
  6
CONTINUOUS
 62
     7
 10
-50.000000000000021
 20
191.0
 30
0.0
 11
-48.324900512124422
 21
184.7484436035156
 31
0.0
  0
LINE
  5
79
  8
DIMNSIONS
  6
CONTINUOUS
 62
     7
 10
-50.000000000000021
 20
191.0
 30
0.0
 11
-51.675099487875613
 21
184.7484436035156
 31
0.0
  0
TEXT
  5
7A
  8
DIMNSIONS
 62
     7
 10
-52.484722222222253
 20
172.34027777777769
 30
0.0
 40
6.7868381076388884
  1
29
 50
90.0
 41
0.7
 51
3.0
 11
-59.271560329861153
 21
172.34027777777769
 31
0.0
 73
     3
  0
LINE
  5
7B
  8
DIMNSIONS
  6
CONTINUOUS
 62
     7
 10
-26.717499999999969
 20
160.0
 30
0.0
 11
-55.000000000000021
 21
160.0
 31
0.0
  0
LINE
  5
7C
  8
DIMNSIONS
  6
CONTINUOUS
 62
     7
 10
-28.0
 20
162.5
 30
0.0
 11
-55.000000000000021
 21
162.5
 31
0.0
  0
LINE
  5
7D
  8
DIMNSIONS
  6
CONTINUOUS
 62
     7
 10
-50.000000000000021
 20
162.5
 30
0.0
 11
-50.000000000000021
 21
160.0
 31
0.0
  0
LINE
  5
7E
  8
DIMNSIONS
  6
CONTINUOUS
 62
     7
 10
-50.000000000000021
 20
160.0
 30
0.0
 11
-50.000000000000021
 21
151.34027777777769
 31
0.0
  0
LINE
  5
7F
  8
DIMNSIONS
  6
CONTINUOUS
 62
     7
 10
-50.000000000000021
 20
160.0
 30
0.0
 11
-48.324900512124422
 21
153.7484436035156
 31
0.0
  0
LINE
  5
80
  8
DIMNSIONS
  6
CONTINUOUS
 62
     7
 10
-50.000000000000021
 20
160.0
 30
0.0
 11
-51.675099487875613
 21
153.7484436035156
 31
0.0
  0
LINE
  5
81
  8
DIMNSIONS
  6
CONTINUOUS
 62
     7
 10
-50.000000000000021
 20
162.5
 30
0.0
 11
-50.000000000000021
 21
175.0
 31
0.0
  0
LINE
  5
82
  8
DIMNSIONS
  6
CONTINUOUS
 62
     7
 10
-50.000000000000021
 20
162.5
 30
0.0
 11
-51.675099487875613
 21
168.7515563964844
 31
0.0
  0
LINE
  5
83
  8
DIMNSIONS
  6
CONTINUOUS
 62
     7
 10
-50.000000000000021
 20
162.5
 30
0.0
 11
-48.324900512124422
 21
168.7515563964844
 31
0.0
  0
TEXT
  5
84
  8
DIMNSIONS
 62
     7
 10
-52.484722222222253
 20
151.34027777777769
 30
0.0
 40
6.7868381076388884
  1
3
 50
90.0
 41
0.7
 51
3.0
 11
-59.271560329861153
 21
151.34027777777769
 31
0.0
 73
     3
  0
LINE
  5
85
  8
DIMNSIONS
  6
CONTINUOUS
 62
     7
 10
-30.000000000000011
 20
200.0
 30
0.0
 11
-55.000000000000021
 21
200.0
 31
0.0
  0
LINE
  5
86
  8
DIMNSIONS
  6
CONTINUOUS
 62
     7
 10
-30.000000000000011
 20
275.5
 30
0.0
 11
-55.000000000000021
 21
275.5
 31
0.0
  0
LINE
  5
87
  8
DIMNSIONS
  6
CONTINUOUS
 62
     7
 10
-50.000000000000021
 20
200.0
 30
0.0
 11
-50.000000000000021
 21
275.5
 31
0.0
  0
LINE
  5
88
  8
DIMNSIONS
  6
CONTINUOUS
 62
     7
 10
-50.000000000000021
 20
200.0
 30
0.0
 11
-51.675099487875613
 21
206.2515563964844
 31
0.0
  0
LINE
  5
89
  8
DIMNSIONS
  6
CONTINUOUS
 62
     7
 10
-50.000000000000021
 20
200.0
 30
0.0
 11
-48.324900512124422
 21
206.2515563964844
 31
0.0
  0
LINE
  5
8A
  8
DIMNSIONS
  6
CONTINUOUS
 62
     7
 10
-50.000000000000021
 20
275.5
 30
0.0
 11
-48.324900512124422
 21
269.24844360351562
 31
0.0
  0
LINE
  5
8B
  8
DIMNSIONS
  6
CONTINUOUS
 62
     7
 10
-50.000000000000021
 20
275.5
 30
0.0
 11
-51.675099487875613
 21
269.24844360351562
 31
0.0
  0
TEXT
  5
8C
  8
DIMNSIONS
 62
     7
 10
-52.484722222222253
 20
233.34027777777769
 30
0.0
 40
6.7868381076388884
  1
76
 50
90.0
 41
0.7
 51
3.0
 11
-59.271560329861153
 21
233.34027777777769
 31
0.0
 73
     3
  0
LINE
  5
8D
  8
DIMNSIONS
  6
CONTINUOUS
 62
     7
 10
-30.000000000000011
 20
275.5
 30
0.0
 11
-55.000000000000021
 21
275.5
 31
0.0
  0
LINE
  5
8E
  8
DIMNSIONS
  6
CONTINUOUS
 62
     7
 10
-15.99999999999997
 20
293.5
 30
0.0
 11
-55.000000000000021
 21
293.5
 31
0.0
  0
LINE
  5
8F
  8
DIMNSIONS
  6
CONTINUOUS
 62
     7
 10
-50.000000000000021
 20
275.5
 30
0.0
 11
-50.000000000000021
 21
293.5
 31
0.0
  0
LINE
  5
90
  8
DIMNSIONS
  6
CONTINUOUS
 62
     7
 10
-50.000000000000021
 20
275.5
 30
0.0
 11
-51.675099487875613
 21
281.75155639648438
 31
0.0
  0
LINE
  5
91
  8
DIMNSIONS
  6
CONTINUOUS
 62
     7
 10
-50.000000000000021
 20
275.5
 30
0.0
 11
-48.324900512124422
 21
281.75155639648438
 31
0.0
  0
LINE
  5
92
  8
DIMNSIONS
  6
CONTINUOUS
 62
     7
 10
-50.000000000000021
 20
293.5
 30
0.0
 11
-48.324900512124422
 21
287.24844360351562
 31
0.0
  0
LINE
  5
93
  8
DIMNSIONS
  6
CONTINUOUS
 62
     7
 10
-50.000000000000021
 20
293.5
 30
0.0
 11
-51.675099487875613
 21
287.24844360351562
 31
0.0
  0
TEXT
  5
94
  8
DIMNSIONS
 62
     7
 10
-52.484722222222253
 20
280.09027777777783
 30
0.0
 40
6.7868381076388884
  1
18
 50
90.0
 41
0.7
 51
3.0
 11
-59.271560329861153
 21
280.09027777777783
 31
0.0
 73
     3
  0
LINE
  5
95
  8
DIMNSIONS
  6
CONTINUOUS
 62
     7
 10
-25.0
 20
-78.0
 30
0.0
 11
-25.0
 21
-92.5
 31
0.0
  0
LINE
  5
96
  8
DIMNSIONS
  6
CONTINUOUS
 62
     7
 10
66.500000000000014
 20
-78.0
 30
0.0
 11
66.500000000000014
 21
-92.5
 31
0.0
  0
LINE
  5
97
  8
DIMNSIONS
  6
CONTINUOUS
 62
     7
 10
-25.0
 20
-87.5
 30
0.0
 11
66.500000000000014
 21
-87.5
 31
0.0
  0
LINE
  5
98
  8
DIMNSIONS
  6
CONTINUOUS
 62
     7
 10
-25.0
 20
-87.5
 30
0.0
 11
-18.748443603515621
 21
-85.824900512124401
 31
0.0
  0
LINE
  5
99
  8
DIMNSIONS
  6
CONTINUOUS
 62
     7
 10
-25.0
 20
-87.5
 30
0.0
 11
-18.748443603515621
 21
-89.175099487875585
 31
0.0
  0
LINE
  5
9A
  8
DIMNSIONS
  6
CONTINUOUS
 62
     7
 10
66.500000000000014
 20
-87.5
 30
0.0
 11
60.248443603515653
 21
-89.175099487875585
 31
0.0
  0
LINE
  5
9B
  8
DIMNSIONS
  6
CONTINUOUS
 62
     7
 10
66.500000000000014
 20
-87.5
 30
0.0
 11
60.248443603515653
 21
-85.824900512124401
 31
0.0
  0
TEXT
  5
9C
  8
DIMNSIONS
 62
     7
 10
16.340277777777779
 20
-85.015277777777754
 30
0.0
 40
6.7868381076388884
  1
92
 41
0.7
 51
3.0
 11
16.340277777777779
 21
-78.228439670138869
 31
0.0
 73
     3
  0
LINE
  5
9D
  8
DIMNSIONS
  6
CONTINUOUS
 62
     7
 10
-28.0
 20
-75.0
 30
0.0
 11
-55.000000000000021
 21
-75.0
 31
0.0
  0
LINE
  5
9E
  8
DIMNSIONS
  6
CONTINUOUS
 62
     7
 10
-28.0
 20
-46.5
 30
0.0
 11
-55.000000000000021
 21
-46.5
 31
0.0
  0
LINE
  5
9F
  8
DIMNSIONS
  6
CONTINUOUS
 62
     7
 10
-50.000000000000021
 20
-75.0
 30
0.0
 11
-50.000000000000021
 21
-46.5
 31
0.0
  0
LINE
  5
A0
  8
DIMNSIONS
  6
CONTINUOUS
 62
     7
 10
-50.000000000000021
 20
-75.0
 30
0.0
 11
-51.675099487875613
 21
-68.748443603515611
 31
0.0
  0
LINE
  5
A1
  8
DIMNSIONS
  6
CONTINUOUS
 62
     7
 10
-50.000000000000021
 20
-75.0
 30
0.0
 11
-48.324900512124422
 21
-68.748443603515611
 31
0.0
  0
LINE
  5
A2
  8
DIMNSIONS
  6
CONTINUOUS
 62
     7
 10
-50.000000000000021
 20
-46.5
 30
0.0
 11
-48.324900512124422
 21
-52.751556396484382
 31
0.0
  0
LINE
  5
A3
  8
DIMNSIONS
  6
CONTINUOUS
 62
     7
 10
-50.000000000000021
 20
-46.5
 30
0.0
 11
-51.675099487875613
 21
-52.751556396484382
 31
0.0
  0
TEXT
  5
A4
  8
DIMNSIONS
 62
     7
 10
-52.484722222222253
 20
-65.159722222222229
 30
0.0
 40
6.7868381076388884
  1
29
 50
90.0
 41
0.7
 51
3.0
 11
-59.271560329861153
 21
-65.159722222222229
 31
0.0
 73
     3
  0
LINE
  5
A5
  8
DIMNSIONS
  6
CONTINUOUS
 62
     7
 10
-26.717499999999969
 20
-77.5
 30
0.0
 11
-55.000000000000021
 21
-77.5
 31
0.0
  0
LINE
  5
A6
  8
DIMNSIONS
  6
CONTINUOUS
 62
     7
 10
-28.0
 20
-75.0
 30
0.0
 11
-55.000000000000021
 21
-75.0
 31
0.0
  0
LINE
  5
A7
  8
DIMNSIONS
  6
CONTINUOUS
 62
     7
 10
-50.000000000000021
 20
-75.0
 30
0.0
 11
-50.000000000000021
 21
-77.5
 31
0.0
  0
LINE
  5
A8
  8
DIMNSIONS
  6
CONTINUOUS
 62
     7
 10
-50.000000000000021
 20
-77.5
 30
0.0
 11
-50.000000000000021
 21
-86.159722222222229
 31
0.0
  0
LINE
  5
A9
  8
DIMNSIONS
  6
CONTINUOUS
 62
     7
 10
-50.000000000000021
 20
-77.5
 30
0.0
 11
-48.324900512124422
 21
-83.751556396484375
 31
0.0
  0
LINE
  5
AA
  8
DIMNSIONS
  6
CONTINUOUS
 62
     7
 10
-50.000000000000021
 20
-77.5
 30
0.0
 11
-51.675099487875613
 21
-83.751556396484375
 31
0.0
  0
LINE
  5
AB
  8
DIMNSIONS
  6
CONTINUOUS
 62
     7
 10
-50.000000000000021
 20
-75.0
 30
0.0
 11
-50.000000000000021
 21
-62.5
 31
0.0
  0
LINE
  5
AC
  8
DIMNSIONS
  6
CONTINUOUS
 62
     7
 10
-50.000000000000021
 20
-75.0
 30
0.0
 11
-51.675099487875613
 21
-68.748443603515611
 31
0.0
  0
LINE
  5
AD
  8
DIMNSIONS
  6
CONTINUOUS
 62
     7
 10
-50.000000000000021
 20
-75.0
 30
0.0
 11
-48.324900512124422
 21
-68.748443603515611
 31
0.0
  0
TEXT
  5
AE
  8
DIMNSIONS
 62
     7
 10
-52.484722222222253
 20
-86.159722222222229
 30
0.0
 40
6.7868381076388884
  1
3
 50
90.0
 41
0.7
 51
3.0
 11
-59.271560329861153
 21
-86.159722222222229
 31
0.0
 73
     3
  0
LINE
  5
AF
  8
DIMNSIONS
  6
CONTINUOUS
 62
     7
 10
-30.000000000000011
 20
-37.5
 30
0.0
 11
-55.000000000000021
 21
-37.5
 31
0.0
  0
LINE
  5
B0
  8
DIMNSIONS
  6
CONTINUOUS
 62
     7
 10
-30.000000000000011
 20
38.0
 30
0.0
 11
-55.000000000000021
 21
38.0
 31
0.0
  0
LINE
  5
B1
  8
DIMNSIONS
  6
CONTINUOUS
 62
     7
 10
-50.000000000000021
 20
-37.5
 30
0.0
 11
-50.000000000000021
 21
38.0
 31
0.0
  0
LINE
  5
B2
  8
DIMNSIONS
  6
CONTINUOUS
 62
     7
 10
-50.000000000000021
 20
-37.5
 30
0.0
 11
-51.675099487875613
 21
-31.248443603515629
 31
0.0
  0
LINE
  5
B3
  8
DIMNSIONS
  6
CONTINUOUS
 62
     7
 10
-50.000000000000021
 20
-37.5
 30
0.0
 11
-48.324900512124422
 21
-31.248443603515629
 31
0.0
  0
LINE
  5
B4
  8
DIMNSIONS
  6
CONTINUOUS
 62
     7
 10
-50.000000000000021
 20
38.0
 30
0.0
 11
-48.324900512124422
 21
31.748443603515629
 31
0.0
  0
LINE
  5
B5
  8
DIMNSIONS
  6
CONTINUOUS
 62
     7
 10
-50.000000000000021
 20
38.0
 30
0.0
 11
-51.675099487875613
 21
31.748443603515629
 31
0.0
  0
TEXT
  5
B6
  8
DIMNSIONS
 62
     7
 10
-52.484722222222253
 20
-4.1597222222222294
 30
0.0
 40
6.7868381076388884
  1
76
 50
90.0
 41
0.7
 51
3.0
 11
-59.271560329861153
 21
-4.1597222222222276
 31
0.0
 73
     3
  0
LINE
  5
B7
  8
DIMNSIONS
  6
CONTINUOUS
 62
     7
 10
-30.000000000000011
 20
38.0
 30
0.0
 11
-55.000000000000021
 21
38.0
 31
0.0
  0
LINE
  5
B8
  8
DIMNSIONS
  6
CONTINUOUS
 62
     7
 10
-15.99999999999997
 20
56.0
 30
0.0
 11
-55.000000000000021
 21
56.0
 31
0.0
  0
LINE
  5
B9
  8
DIMNSIONS
  6
CONTINUOUS
 62
     7
 10
-50.000000000000021
 20
38.0
 30
0.0
 11
-50.000000000000021
 21
56.0
 31
0.0
  0
LINE
  5
BA
  8
DIMNSIONS
  6
CONTINUOUS
 62
     7
 10
-50.000000000000021
 20
38.0
 30
0.0
 11
-51.675099487875613
 21
44.251556396484368
 31
0.0
  0
LINE
  5
BB
  8
DIMNSIONS
  6
CONTINUOUS
 62
     7
 10
-50.000000000000021
 20
38.0
 30
0.0
 11
-48.324900512124422
 21
44.251556396484368
 31
0.0
  0
LINE
  5
BC
  8
DIMNSIONS
  6
CONTINUOUS
 62
     7
 10
-50.000000000000021
 20
56.0
 30
0.0
 11
-48.324900512124422
 21
49.748443603515611
 31
0.0
  0
LINE
  5
BD
  8
DIMNSIONS
  6
CONTINUOUS
 62
     7
 10
-50.000000000000021
 20
56.0
 30
0.0
 11
-51.675099487875613
 21
49.748443603515611
 31
0.0
  0
TEXT
  5
BE
  8
DIMNSIONS
 62
     7
 10
-52.484722222222253
 20
42.590277777777757
 30
0.0
 40
6.7868381076388884
  1
18
 50
90.0
 41
0.7
 51
3.0
 11
-59.271560329861153
 21
42.590277777777757
 31
0.0
 73
     3
  0
TEXT
  5
BF
  8
DATA
 62
     7
 10
225.0
 20
-152.30745883581699
 30
0.0
 40
6.108154296875
  1
EXT-USB-400FON
 41
0.7
 51
3.0
 11
225.0
 21
-146.19930453894199
 31
0.0
 73
     3
  0
TEXT
  5
C0
  8
DATA
 62
     7
 10
225.0
 20
-132.3724862314867
 30
0.0
 40
6.108154296875
  1
Gefen
 41
0.7
 51
3.0
 11
225.0
 21
-126.2643319346117
 31
0.0
 73
     3
  0
TEXT
  5
C1
  8
DATA
 62
     7
 10
219.86758017461861
 20
-141.4253291577088
 30
0.0
 40
4.0721092773437491
  1
USB延長機
 41
0.7
 51
3.0
 11
219.86758017461861
 21
-137.353219880365
 31
0.0
 73
     3
  0
TEXT
  5
C2
  8
DATA
 62
     7
 10
-100.0
 20
-169.10452815770111
 30
0.0
 40
4.072102864583333
  1
仕様および外観は予告なく変更されることがありますので、ご了承ください。
 41
0.7
 51
3.0
 11
-100.0
 21
-165.03242529311771
 31
0.0
 73
     3
  0
CIRCLE
  5
C3
  8
DATA
  6
CONTINUOUS
 62
     7
 10
45.970000000000013
 20
174.49999999999989
 30
0.0
 40
1.0
  0
TEXT
  5
C4
  8
DATA
 62
     7
 10
0.0277777777778146
 20
324.76974999999999
 30
0.0
 40
2.7147352430555549
  1
Link
 50
180.0
 41
0.7
 51
3.0
 11
0.0277777777778141
 21
322.05501475694439
 31
0.0
 73
     3
  0
TEXT
  5
C5
  8
DATA
 62
     7
 10
23.395833333333378
 20
324.76974999999999
 30
0.0
 40
2.7147352430555549
  1
USB
 50
180.0
 41
0.7
 51
3.0
 11
23.395833333333378
 21
322.05501475694439
 31
0.0
 73
     3
  0
TEXT
  5
C6
  8
DATA
 62
     7
 10
47.409722222222257
 20
324.76974999999999
 30
0.0
 40
2.7147352430555549
  1
5V DC
 50
180.0
 41
0.7
 51
3.0
 11
47.409722222222257
 21
322.05501475694439
 31
0.0
 73
     3
  0
TEXT
  5
C7
  8
DATA
 62
     7
 10
22.083333333333361
 20
130.6695452640686
 30
0.0
 40
8.1442057291666661
  1
USB-400 FO S(送信機)
 41
0.7
 51
3.0
 11
22.083333333333361
 21
138.8137509932352
 31
0.0
 73
     3
  0
TEXT
  5
C8
  8
DATA
 62
     7
 10
22.083333333333361
 20
-106.8304547359314
 30
0.0
 40
8.1442057291666661
  1
USB-400 FO R(受信機)
 41
0.7
 51
3.0
 11
22.083333333333361
 21
-98.68624900676474
 31
0.0
 73
     3
  0
LINE
  5
C9
  8
DATA
  6
CONTINUOUS
 62
     7
 10
-25.0
 20
164.5
 30
0.0
 11
-25.0
 21
189.0
 31
0.0
  0
LINE
  5
CA
  8
DATA
  6
CONTINUOUS
 62
     7
 10
64.500000000000014
 20
162.5
 30
0.0
 11
54.435000000000002
 21
162.5
 31
0.0
  0
LINE
  5
CB
  8
DATA
  6
CONTINUOUS
 62
     7
 10
-12.93499999999999
 20
162.5
 30
0.0
 11
-23.0
 21
162.5
 31
0.0
  0
LINE
  5
CC
  8
DATA
  6
CONTINUOUS
 62
     7
 10
66.500000000000014
 20
189.0
 30
0.0
 11
66.500000000000014
 21
164.5
 31
0.0
  0
LINE
  5
CD
  8
DATA
  6
CONTINUOUS
 62
     7
 10
-23.0
 20
191.0
 30
0.0
 11
64.500000000000014
 21
191.0
 31
0.0
  0
LINE
  5
CE
  8
DATA
  6
CONTINUOUS
 62
     7
 10
-23.5
 20
165.00049999999999
 30
0.0
 11
-23.5
 21
188.49950000000001
 31
0.0
  0
LINE
  5
CF
  8
DATA
  6
CONTINUOUS
 62
     7
 10
64.000000000000014
 20
164.00049999999999
 30
0.0
 11
-22.5
 21
164.00049999999999
 31
0.0
  0
LINE
  5
D0
  8
DATA
  6
CONTINUOUS
 62
     7
 10
65.000000000000014
 20
188.49950000000001
 30
0.0
 11
65.000000000000014
 21
165.00049999999999
 31
0.0
  0
LINE
  5
D1
  8
DATA
  6
CONTINUOUS
 62
     7
 10
-22.5
 20
189.49950000000001
 30
0.0
 11
64.000000000000014
 21
189.49950000000001
 31
0.0
  0
LINE
  5
D2
  8
DATA
  6
CONTINUOUS
 62
     7
 10
-12.93499999999999
 20
162.5
 30
0.0
 11
-12.93499999999999
 21
164.00049999999999
 31
0.0
  0
LINE
  5
D3
  8
DATA
  6
CONTINUOUS
 62
     7
 10
54.435000000000002
 20
164.00049999999999
 30
0.0
 11
54.435000000000002
 21
162.5
 31
0.0
  0
LINE
  5
D4
  8
DATA
  6
CONTINUOUS
 62
     7
 10
-16.21749999999998
 20
160.0
 30
0.0
 11
-21.717499999999969
 21
160.0
 31
0.0
  0
LINE
  5
D5
  8
DATA
  6
CONTINUOUS
 62
     7
 10
-21.717499999999969
 20
160.0
 30
0.0
 11
-22.717499999999969
 21
162.5
 31
0.0
  0
LINE
  5
D6
  8
DATA
  6
CONTINUOUS
 62
     7
 10
-15.21749999999999
 20
162.5
 30
0.0
 11
-16.21749999999998
 21
160.0
 31
0.0
  0
LINE
  5
D7
  8
DATA
  6
CONTINUOUS
 62
     7
 10
63.217500000000022
 20
160.0
 30
0.0
 11
57.717500000000022
 21
160.0
 31
0.0
  0
LINE
  5
D8
  8
DATA
  6
CONTINUOUS
 62
     7
 10
57.717500000000022
 20
160.0
 30
0.0
 11
56.717500000000022
 21
162.5
 31
0.0
  0
LINE
  5
D9
  8
DATA
  6
CONTINUOUS
 62
     7
 10
64.217500000000015
 20
162.5
 30
0.0
 11
63.217500000000022
 21
160.0
 31
0.0
  0
POLYLINE
  5
DA
  8
DATA
  6
CONTINUOUS
 62
     7
 66
     1
 10
0.0
 20
0.0
 30
0.0
 70
     1
  0
VERTEX
  5
2C6
  8
DATA
  6
CONTINUOUS
 62
     7
 10
-25.0
 20
275.5
 30
0.0
  0
VERTEX
  5
2C7
  8
DATA
  6
CONTINUOUS
 62
     7
 10
66.500000000000014
 20
275.5
 30
0.0
  0
VERTEX
  5
2C8
  8
DATA
  6
CONTINUOUS
 62
     7
 10
66.500000000000014
 20
200.0
 30
0.0
  0
VERTEX
  5
2C9
  8
DATA
  6
CONTINUOUS
 62
     7
 10
-25.0
 20
200.0
 30
0.0
  0
SEQEND
  5
2CA
  8
DATA
  6
CONTINUOUS
 62
     7
  0
CIRCLE
  5
E1
  8
DATA
  6
CONTINUOUS
 62
     7
 10
58.470000000000013
 20
174.49999999999989
 30
0.0
 40
1.0
  0
CIRCLE
  5
E2
  8
DATA
  6
CONTINUOUS
 62
     7
 10
50.136666666666677
 20
174.49999999999989
 30
0.0
 40
1.0
  0
CIRCLE
  5
E3
  8
DATA
  6
CONTINUOUS
 62
     7
 10
54.303333333333349
 20
174.49999999999989
 30
0.0
 40
1.0
  0
ARC
  5
E4
  8
DATA
  6
CONTINUOUS
 62
     7
 10
-22.5
 20
165.00049999999999
 30
0.0
 40
1.0
 50
180.0
 51
270.0
  0
ARC
  5
E5
  8
DATA
  6
CONTINUOUS
 62
     7
 10
-22.5
 20
188.49950000000001
 30
0.0
 40
1.0
 50
90.0
 51
180.0
  0
ARC
  5
E6
  8
DATA
  6
CONTINUOUS
 62
     7
 10
64.000000000000014
 20
188.49950000000001
 30
0.0
 40
1.0
 50
0.0
 51
90.0
  0
ARC
  5
E7
  8
DATA
  6
CONTINUOUS
 62
     7
 10
64.000000000000014
 20
165.00049999999999
 30
0.0
 40
1.0
 50
270.0
 51
0.0
  0
ARC
  5
E8
  8
DATA
  6
CONTINUOUS
 62
     7
 10
-23.0
 20
189.0
 30
0.0
 40
2.0
 50
90.0
 51
180.0
  0
ARC
  5
E9
  8
DATA
  6
CONTINUOUS
 62
     7
 10
-23.0
 20
164.5
 30
0.0
 40
2.0
 50
180.0
 51
270.0
  0
ARC
  5
EA
  8
DATA
  6
CONTINUOUS
 62
     7
 10
64.500000000000014
 20
164.5
 30
0.0
 40
2.0
 50
270.0
 51
0.0
  0
ARC
  5
EB
  8
DATA
  6
CONTINUOUS
 62
     7
 10
64.500000000000014
 20
189.0
 30
0.0
 40
2.0
 50
0.0
 51
90.0
  0
TEXT
  5
EC
  8
DATA
 62
     7
 10
57.200000000000017
 20
172.49999999999989
 30
0.0
 40
2.7147352430555549
  1
ACT
 50
270.0
 41
0.7
 51
3.0
 11
59.914735243055581
 21
172.49999999999989
 31
0.0
 73
     3
  0
TEXT
  5
ED
  8
DATA
 62
     7
 10
53.033333333333339
 20
172.49999999999989
 30
0.0
 40
2.7147352430555549
  1
HST
 50
270.0
 41
0.7
 51
3.0
 11
55.748068576388903
 21
172.49999999999989
 31
0.0
 73
     3
  0
TEXT
  5
EE
  8
DATA
 62
     7
 10
48.86666666666666
 20
172.49999999999989
 30
0.0
 40
2.7147352430555549
  1
LNK
 50
270.0
 41
0.7
 51
3.0
 11
51.581401909722217
 21
172.49999999999989
 31
0.0
 73
     3
  0
TEXT
  5
EF
  8
DATA
 62
     7
 10
44.70000000000001
 20
172.49999999999989
 30
0.0
 40
2.7147352430555549
  1
PWR
 50
270.0
 41
0.7
 51
3.0
 11
47.414735243055567
 21
172.49999999999989
 31
0.0
 73
     3
  0
LINE
  5
F0
  8
DATA
  6
CONTINUOUS
 62
     7
 10
66.500000000000014
 20
326.5
 30
0.0
 11
66.500000000000014
 21
302.0
 31
0.0
  0
LINE
  5
F1
  8
DATA
  6
CONTINUOUS
 62
     7
 10
-22.999999999999972
 20
328.5
 30
0.0
 11
-12.93499999999996
 21
328.5
 31
0.0
  0
LINE
  5
F2
  8
DATA
  6
CONTINUOUS
 62
     7
 10
54.435000000000031
 20
328.5
 30
0.0
 11
64.500000000000014
 21
328.5
 31
0.0
  0
LINE
  5
F3
  8
DATA
  6
CONTINUOUS
 62
     7
 10
-24.999999999999972
 20
302.0
 30
0.0
 11
-24.999999999999972
 21
326.5
 31
0.0
  0
LINE
  5
F4
  8
DATA
  6
CONTINUOUS
 62
     7
 10
64.500000000000014
 20
300.0
 30
0.0
 11
-22.999999999999972
 21
300.0
 31
0.0
  0
LINE
  5
F5
  8
DATA
  6
CONTINUOUS
 62
     7
 10
65.000000000000014
 20
325.99950000000001
 30
0.0
 11
65.000000000000014
 21
301.50049999999999
 31
0.0
  0
LINE
  5
F6
  8
DATA
  6
CONTINUOUS
 62
     7
 10
-22.499999999999972
 20
326.99950000000001
 30
0.0
 11
64.000000000000014
 21
326.99950000000001
 31
0.0
  0
LINE
  5
F7
  8
DATA
  6
CONTINUOUS
 62
     7
 10
-23.499999999999972
 20
301.50049999999999
 30
0.0
 11
-23.499999999999972
 21
325.99950000000001
 31
0.0
  0
LINE
  5
F8
  8
DATA
  6
CONTINUOUS
 62
     7
 10
54.435000000000031
 20
328.5
 30
0.0
 11
54.435000000000031
 21
326.99950000000001
 31
0.0
  0
LINE
  5
F9
  8
DATA
  6
CONTINUOUS
 62
     7
 10
-12.93499999999996
 20
326.99950000000001
 30
0.0
 11
-12.93499999999996
 21
328.5
 31
0.0
  0
LINE
  5
FA
  8
DATA
  6
CONTINUOUS
 62
     7
 10
57.71750000000003
 20
331.0
 30
0.0
 11
63.21750000000003
 21
331.0
 31
0.0
  0
LINE
  5
FB
  8
DATA
  6
CONTINUOUS
 62
     7
 10
63.21750000000003
 20
331.0
 30
0.0
 11
64.217500000000015
 21
328.5
 31
0.0
  0
LINE
  5
FC
  8
DATA
  6
CONTINUOUS
 62
     7
 10
56.717500000000022
 20
328.5
 30
0.0
 11
57.71750000000003
 21
331.0
 31
0.0
  0
LINE
  5
FD
  8
DATA
  6
CONTINUOUS
 62
     7
 10
-21.717499999999969
 20
331.0
 30
0.0
 11
-16.217499999999969
 21
331.0
 31
0.0
  0
LINE
  5
FE
  8
DATA
  6
CONTINUOUS
 62
     7
 10
-16.217499999999969
 20
331.0
 30
0.0
 11
-15.217499999999969
 21
328.5
 31
0.0
  0
LINE
  5
FF
  8
DATA
  6
CONTINUOUS
 62
     7
 10
-22.717499999999969
 20
328.5
 30
0.0
 11
-21.717499999999969
 21
331.0
 31
0.0
  0
ARC
  5
100
  8
DATA
  6
CONTINUOUS
 62
     7
 10
64.000000000000014
 20
325.99950000000001
 30
0.0
 40
1.0
 50
0.0
 51
90.0
  0
ARC
  5
101
  8
DATA
  6
CONTINUOUS
 62
     7
 10
-22.499999999999972
 20
325.99950000000001
 30
0.0
 40
1.0
 50
90.0
 51
180.0
  0
ARC
  5
102
  8
DATA
  6
CONTINUOUS
 62
     7
 10
64.500000000000014
 20
302.0
 30
0.0
 40
2.0
 50
270.0
 51
0.0
  0
ARC
  5
103
  8
DATA
  6
CONTINUOUS
 62
     7
 10
64.500000000000014
 20
326.5
 30
0.0
 40
2.0
 50
0.0
 51
90.0
  0
ARC
  5
104
  8
DATA
  6
CONTINUOUS
 62
     7
 10
-22.999999999999972
 20
326.5
 30
0.0
 40
2.0
 50
90.0
 51
180.0
  0
ARC
  5
105
  8
DATA
  6
CONTINUOUS
 62
     7
 10
-22.999999999999972
 20
302.0
 30
0.0
 40
2.0
 50
180.0
 51
270.0
  0
POLYLINE
  5
106
  8
DATA
  6
CONTINUOUS
 62
     7
 66
     1
 10
0.0
 20
0.0
 30
0.0
 70
     1
  0
VERTEX
  5
2CB
  8
DATA
  6
CONTINUOUS
 62
     7
 10
-10.99999999999997
 20
320.0
 30
0.0
  0
VERTEX
  5
2CC
  8
DATA
  6
CONTINUOUS
 62
     7
 10
4.0000000000000284
 20
320.0
 30
0.0
  0
VERTEX
  5
2CD
  8
DATA
  6
CONTINUOUS
 62
     7
 10
4.0000000000000284
 20
306.0
 30
0.0
  0
VERTEX
  5
2CE
  8
DATA
  6
CONTINUOUS
 62
     7
 10
-10.99999999999997
 20
306.0
 30
0.0
  0
SEQEND
  5
2CF
  8
DATA
  6
CONTINUOUS
 62
     7
  0
POLYLINE
  5
10D
  8
DATA
  6
CONTINUOUS
 62
     7
 66
     1
 10
0.0
 20
0.0
 30
0.0
  0
VERTEX
  5
2D0
  8
DATA
  6
CONTINUOUS
 62
     7
 10
16.150000000000031
 20
311.779411764401
 30
0.0
  0
VERTEX
  5
2D1
  8
DATA
  6
CONTINUOUS
 62
     7
 10
16.150000000000031
 20
317.14999999999998
 30
0.0
  0
VERTEX
  5
2D2
  8
DATA
  6
CONTINUOUS
 62
     7
 10
24.850000000000019
 20
317.14999999999998
 30
0.0
  0
VERTEX
  5
2D3
  8
DATA
  6
CONTINUOUS
 62
     7
 10
24.850000000000019
 20
311.779411764401
 30
0.0
  0
SEQEND
  5
2D4
  8
DATA
  6
CONTINUOUS
 62
     7
  0
LINE
  5
114
  8
DATA
  6
CONTINUOUS
 62
     7
 10
22.750000000000011
 20
309.35000000000002
 30
0.0
 11
18.250000000000021
 21
309.35000000000002
 31
0.0
  0
POLYLINE
  5
115
  8
DATA
  6
CONTINUOUS
 62
     7
 66
     1
 10
0.0
 20
0.0
 30
0.0
 70
     1
  0
VERTEX
  5
2D5
  8
DATA
  6
CONTINUOUS
 62
     7
 10
17.500000000000021
 20
314.75
 30
0.0
  0
VERTEX
  5
2D6
  8
DATA
  6
CONTINUOUS
 62
     7
 10
23.500000000000028
 20
314.75
 30
0.0
  0
VERTEX
  5
2D7
  8
DATA
  6
CONTINUOUS
 62
     7
 10
23.500000000000028
 20
311.75
 30
0.0
  0
VERTEX
  5
2D8
  8
DATA
  6
CONTINUOUS
 62
     7
 10
17.500000000000021
 20
311.75
 30
0.0
  0
SEQEND
  5
2D9
  8
DATA
  6
CONTINUOUS
 62
     7
  0
LINE
  5
11C
  8
DATA
  6
CONTINUOUS
 62
     7
 10
18.250000000000021
 20
309.35000000000002
 30
0.0
 11
16.15000000000002
 21
311.779411764401
 31
0.0
  0
LINE
  5
11D
  8
DATA
  6
CONTINUOUS
 62
     7
 10
22.750000000000028
 20
309.35000000000002
 30
0.0
 11
24.850000000000041
 21
311.779411764401
 31
0.0
  0
POLYLINE
  5
11E
  8
DATA
  6
CONTINUOUS
 62
     7
 66
     1
 10
0.0
 20
0.0
 30
0.0
 70
     1
  0
VERTEX
  5
2DA
  8
DATA
  6
CONTINUOUS
 62
     7
 10
14.00000000000003
 20
319.0
 30
0.0
  0
VERTEX
  5
2DB
  8
DATA
  6
CONTINUOUS
 62
     7
 10
27.000000000000028
 20
319.0
 30
0.0
  0
VERTEX
  5
2DC
  8
DATA
  6
CONTINUOUS
 62
     7
 10
27.000000000000028
 20
307.5
 30
0.0
  0
VERTEX
  5
2DD
  8
DATA
  6
CONTINUOUS
 62
     7
 10
14.00000000000003
 20
307.5
 30
0.0
  0
SEQEND
  5
2DE
  8
DATA
  6
CONTINUOUS
 62
     7
  0
CIRCLE
  5
125
  8
DATA
  6
CONTINUOUS
 62
     7
 10
43.000000000000021
 20
310.0
 30
0.0
 40
4.0
  0
CIRCLE
  5
126
  8
DATA
  6
CONTINUOUS
 62
     7
 10
43.000000000000021
 20
310.0
 30
0.0
 40
3.0
  0
CIRCLE
  5
127
  8
DATA
  6
CONTINUOUS
 62
     7
 10
43.000000000000021
 20
310.0
 30
0.0
 40
1.0
  0
LINE
  5
128
  8
DATA
  6
CONTINUOUS
 62
     7
 10
40.375000000000021
 20
314.5466333698684
 30
0.0
 11
37.750000000000021
 21
310.0
 31
0.0
  0
LINE
  5
129
  8
DATA
  6
CONTINUOUS
 62
     7
 10
37.750000000000021
 20
310.0
 30
0.0
 11
40.375000000000021
 21
305.45336663013171
 31
0.0
  0
LINE
  5
12A
  8
DATA
  6
CONTINUOUS
 62
     7
 10
40.375000000000021
 20
305.45336663013171
 30
0.0
 11
45.625000000000021
 21
305.4533666301316
 31
0.0
  0
LINE
  5
12B
  8
DATA
  6
CONTINUOUS
 62
     7
 10
45.625000000000021
 20
305.4533666301316
 30
0.0
 11
48.250000000000021
 21
310.0
 31
0.0
  0
LINE
  5
12C
  8
DATA
  6
CONTINUOUS
 62
     7
 10
48.250000000000021
 20
310.0
 30
0.0
 11
45.625000000000021
 21
314.54663336986818
 31
0.0
  0
LINE
  5
12D
  8
DATA
  6
CONTINUOUS
 62
     7
 10
45.625000000000021
 20
314.54663336986818
 30
0.0
 11
40.375000000000021
 21
314.5466333698684
 31
0.0
  0
LINE
  5
12E
  8
DATA
  6
CONTINUOUS
 62
     7
 10
-10.99999999999997
 20
293.5
 30
0.0
 11
-10.99999999999997
 21
275.5
 31
0.0
  0
LINE
  5
12F
  8
DATA
  6
CONTINUOUS
 62
     7
 10
4.0000000000000284
 20
275.5
 30
0.0
 11
4.0000000000000284
 21
293.5
 31
0.0
  0
LINE
  5
130
  8
DATA
  6
CONTINUOUS
 62
     7
 10
-10.99999999999997
 20
293.5
 30
0.0
 11
4.0000000000000284
 21
293.5
 31
0.0
  0
LINE
  5
131
  8
DATA
  6
CONTINUOUS
 62
     7
 10
39.000000000000021
 20
282.0
 30
0.0
 11
39.000000000000021
 21
277.5
 31
0.0
  0
LINE
  5
132
  8
DATA
  6
CONTINUOUS
 62
     7
 10
47.000000000000007
 20
282.0
 30
0.0
 11
47.000000000000007
 21
277.5
 31
0.0
  0
LINE
  5
133
  8
DATA
  6
CONTINUOUS
 62
     7
 10
39.000000000000021
 20
282.0
 30
0.0
 11
47.000000000000007
 21
282.0
 31
0.0
  0
LINE
  5
134
  8
DATA
  6
CONTINUOUS
 62
     7
 10
48.250000000000021
 20
277.5
 30
0.0
 11
37.750000000000021
 21
277.5
 31
0.0
  0
LINE
  5
135
  8
DATA
  6
CONTINUOUS
 62
     7
 10
37.750000000000021
 20
277.5
 30
0.0
 11
37.750000000000021
 21
275.5
 31
0.0
  0
LINE
  5
136
  8
DATA
  6
CONTINUOUS
 62
     7
 10
40.375000000000021
 20
277.5
 30
0.0
 11
40.375000000000021
 21
275.5
 31
0.0
  0
LINE
  5
137
  8
DATA
  6
CONTINUOUS
 62
     7
 10
45.625000000000021
 20
277.5
 30
0.0
 11
45.625000000000021
 21
275.5
 31
0.0
  0
LINE
  5
138
  8
DATA
  6
CONTINUOUS
 62
     7
 10
48.250000000000021
 20
277.5
 30
0.0
 11
48.250000000000021
 21
275.5
 31
0.0
  0
POLYLINE
  5
139
  8
DATA
  6
CONTINUOUS
 62
     7
 66
     1
 10
0.0
 20
0.0
 30
0.0
 70
     1
  0
VERTEX
  5
2DF
  8
DATA
  6
CONTINUOUS
 62
     7
 10
87.5
 20
191.0
 30
0.0
  0
VERTEX
  5
2E0
  8
DATA
  6
CONTINUOUS
 62
     7
 10
163.0
 20
191.0
 30
0.0
  0
VERTEX
  5
2E1
  8
DATA
  6
CONTINUOUS
 62
     7
 10
163.0
 20
162.5
 30
0.0
  0
VERTEX
  5
2E2
  8
DATA
  6
CONTINUOUS
 62
     7
 10
87.5
 20
162.5
 30
0.0
  0
SEQEND
  5
2E3
  8
DATA
  6
CONTINUOUS
 62
     7
  0
LINE
  5
140
  8
DATA
  6
CONTINUOUS
 62
     7
 10
100.5
 20
160.0
 30
0.0
 11
95.0
 21
160.0
 31
0.0
  0
LINE
  5
141
  8
DATA
  6
CONTINUOUS
 62
     7
 10
95.0
 20
160.0
 30
0.0
 11
94.0
 21
162.5
 31
0.0
  0
LINE
  5
142
  8
DATA
  6
CONTINUOUS
 62
     7
 10
101.5
 20
162.5
 30
0.0
 11
100.5
 21
160.0
 31
0.0
  0
LINE
  5
143
  8
DATA
  6
CONTINUOUS
 62
     7
 10
155.5
 20
160.0
 30
0.0
 11
150.0
 21
160.0
 31
0.0
  0
LINE
  5
144
  8
DATA
  6
CONTINUOUS
 62
     7
 10
150.0
 20
160.0
 30
0.0
 11
149.0
 21
162.5
 31
0.0
  0
LINE
  5
145
  8
DATA
  6
CONTINUOUS
 62
     7
 10
156.5
 20
162.5
 30
0.0
 11
155.5
 21
160.0
 31
0.0
  0
LINE
  5
146
  8
DATA
  6
CONTINUOUS
 62
     7
 10
181.0
 20
185.0
 30
0.0
 11
169.5
 21
185.0
 31
0.0
  0
LINE
  5
147
  8
DATA
  6
CONTINUOUS
 62
     7
 10
181.0
 20
171.0
 30
0.0
 11
163.0
 21
171.0
 31
0.0
  0
LINE
  5
148
  8
DATA
  6
CONTINUOUS
 62
     7
 10
181.0
 20
185.0
 30
0.0
 11
181.0
 21
171.0
 31
0.0
  0
LINE
  5
149
  8
DATA
  6
CONTINUOUS
 62
     7
 10
169.5
 20
185.0
 30
0.0
 11
165.0
 21
185.0
 31
0.0
  0
LINE
  5
14A
  8
DATA
  6
CONTINUOUS
 62
     7
 10
169.5
 20
177.0
 30
0.0
 11
165.0
 21
177.0
 31
0.0
  0
LINE
  5
14B
  8
DATA
  6
CONTINUOUS
 62
     7
 10
169.5
 20
185.0
 30
0.0
 11
169.5
 21
177.0
 31
0.0
  0
LINE
  5
14C
  8
DATA
  6
CONTINUOUS
 62
     7
 10
165.0
 20
176.4533666301318
 30
0.0
 11
165.0
 21
185.5466333698684
 31
0.0
  0
LINE
  5
14D
  8
DATA
  6
CONTINUOUS
 62
     7
 10
165.0
 20
185.5466333698684
 30
0.0
 11
163.0
 21
185.5466333698684
 31
0.0
  0
LINE
  5
14E
  8
DATA
  6
CONTINUOUS
 62
     7
 10
165.0
 20
181.0
 30
0.0
 11
163.0
 21
181.0
 31
0.0
  0
LINE
  5
14F
  8
DATA
  6
CONTINUOUS
 62
     7
 10
165.0
 20
176.4533666301318
 30
0.0
 11
163.0
 21
176.4533666301318
 31
0.0
  0
CIRCLE
  5
150
  8
DATA
  6
CONTINUOUS
 62
     7
 10
45.970000000000013
 20
-63.0
 30
0.0
 40
1.0
  0
LINE
  5
151
  8
DATA
  6
CONTINUOUS
 62
     7
 10
-25.0
 20
-73.0
 30
0.0
 11
-25.0
 21
-48.5
 31
0.0
  0
LINE
  5
152
  8
DATA
  6
CONTINUOUS
 62
     7
 10
64.500000000000014
 20
-75.0
 30
0.0
 11
54.435000000000002
 21
-75.0
 31
0.0
  0
LINE
  5
153
  8
DATA
  6
CONTINUOUS
 62
     7
 10
-12.93499999999999
 20
-75.0
 30
0.0
 11
-23.0
 21
-75.0
 31
0.0
  0
LINE
  5
154
  8
DATA
  6
CONTINUOUS
 62
     7
 10
66.500000000000014
 20
-48.5
 30
0.0
 11
66.500000000000014
 21
-73.0
 31
0.0
  0
LINE
  5
155
  8
DATA
  6
CONTINUOUS
 62
     7
 10
-23.0
 20
-46.5
 30
0.0
 11
64.500000000000014
 21
-46.5
 31
0.0
  0
LINE
  5
156
  8
DATA
  6
CONTINUOUS
 62
     7
 10
-23.5
 20
-72.499500000000026
 30
0.0
 11
-23.5
 21
-49.000499999999988
 31
0.0
  0
LINE
  5
157
  8
DATA
  6
CONTINUOUS
 62
     7
 10
64.000000000000014
 20
-73.499500000000026
 30
0.0
 11
-22.5
 21
-73.499500000000026
 31
0.0
  0
LINE
  5
158
  8
DATA
  6
CONTINUOUS
 62
     7
 10
65.000000000000014
 20
-49.000499999999988
 30
0.0
 11
65.000000000000014
 21
-72.499500000000026
 31
0.0
  0
LINE
  5
159
  8
DATA
  6
CONTINUOUS
 62
     7
 10
-22.5
 20
-48.000499999999981
 30
0.0
 11
64.000000000000014
 21
-48.000499999999981
 31
0.0
  0
LINE
  5
15A
  8
DATA
  6
CONTINUOUS
 62
     7
 10
-12.93499999999999
 20
-75.0
 30
0.0
 11
-12.93499999999999
 21
-73.499500000000026
 31
0.0
  0
LINE
  5
15B
  8
DATA
  6
CONTINUOUS
 62
     7
 10
54.435000000000002
 20
-73.499500000000026
 30
0.0
 11
54.435000000000002
 21
-75.0
 31
0.0
  0
LINE
  5
15C
  8
DATA
  6
CONTINUOUS
 62
     7
 10
-16.21749999999998
 20
-77.5
 30
0.0
 11
-21.717499999999969
 21
-77.5
 31
0.0
  0
LINE
  5
15D
  8
DATA
  6
CONTINUOUS
 62
     7
 10
-21.717499999999969
 20
-77.5
 30
0.0
 11
-22.717499999999969
 21
-75.0
 31
0.0
  0
LINE
  5
15E
  8
DATA
  6
CONTINUOUS
 62
     7
 10
-15.21749999999999
 20
-75.0
 30
0.0
 11
-16.21749999999998
 21
-77.5
 31
0.0
  0
LINE
  5
15F
  8
DATA
  6
CONTINUOUS
 62
     7
 10
63.217500000000022
 20
-77.5
 30
0.0
 11
57.717500000000022
 21
-77.5
 31
0.0
  0
LINE
  5
160
  8
DATA
  6
CONTINUOUS
 62
     7
 10
57.717500000000022
 20
-77.5
 30
0.0
 11
56.717500000000022
 21
-75.0
 31
0.0
  0
LINE
  5
161
  8
DATA
  6
CONTINUOUS
 62
     7
 10
64.217500000000015
 20
-75.0
 30
0.0
 11
63.217500000000022
 21
-77.5
 31
0.0
  0
CIRCLE
  5
162
  8
DATA
  6
CONTINUOUS
 62
     7
 10
58.470000000000013
 20
-63.0
 30
0.0
 40
1.0
  0
CIRCLE
  5
163
  8
DATA
  6
CONTINUOUS
 62
     7
 10
50.136666666666677
 20
-63.0
 30
0.0
 40
1.0
  0
CIRCLE
  5
164
  8
DATA
  6
CONTINUOUS
 62
     7
 10
54.303333333333349
 20
-63.0
 30
0.0
 40
1.0
  0
ARC
  5
165
  8
DATA
  6
CONTINUOUS
 62
     7
 10
-22.5
 20
-72.499500000000026
 30
0.0
 40
1.0
 50
180.0
 51
270.0
  0
ARC
  5
166
  8
DATA
  6
CONTINUOUS
 62
     7
 10
-22.5
 20
-49.000499999999988
 30
0.0
 40
1.0
 50
90.0
 51
180.0
  0
ARC
  5
167
  8
DATA
  6
CONTINUOUS
 62
     7
 10
64.000000000000014
 20
-49.000499999999988
 30
0.0
 40
1.0
 50
0.0
 51
90.0
  0
ARC
  5
168
  8
DATA
  6
CONTINUOUS
 62
     7
 10
64.000000000000014
 20
-72.499500000000026
 30
0.0
 40
1.0
 50
270.0
 51
0.0
  0
ARC
  5
169
  8
DATA
  6
CONTINUOUS
 62
     7
 10
-23.0
 20
-48.5
 30
0.0
 40
2.0
 50
90.0
 51
180.0
  0
ARC
  5
16A
  8
DATA
  6
CONTINUOUS
 62
     7
 10
-23.0
 20
-73.0
 30
0.0
 40
2.0
 50
180.0
 51
270.0
  0
ARC
  5
16B
  8
DATA
  6
CONTINUOUS
 62
     7
 10
64.500000000000014
 20
-73.0
 30
0.0
 40
2.0
 50
270.0
 51
0.0
  0
ARC
  5
16C
  8
DATA
  6
CONTINUOUS
 62
     7
 10
64.500000000000014
 20
-48.5
 30
0.0
 40
2.0
 50
0.0
 51
90.0
  0
TEXT
  5
16D
  8
DATA
 62
     7
 10
-19.499999999999979
 20
-71.309449946158196
 30
0.0
 40
1.212011718749999
  1
OPTICAL 4 PORT USB 2.0 HUB
 41
0.7
 51
3.0
 11
-19.499999999999979
 21
-70.09743822740819
 31
0.0
 73
     3
  0
TEXT
  5
16E
  8
DATA
 62
     7
 10
57.200000000000017
 20
-65.0
 30
0.0
 40
2.7147352430555549
  1
ACT
 50
270.0
 41
0.7
 51
3.0
 11
59.914735243055581
 21
-65.0
 31
0.0
 73
     3
  0
TEXT
  5
16F
  8
DATA
 62
     7
 10
53.033333333333339
 20
-65.0
 30
0.0
 40
2.7147352430555549
  1
HST
 50
270.0
 41
0.7
 51
3.0
 11
55.748068576388903
 21
-65.0
 31
0.0
 73
     3
  0
TEXT
  5
170
  8
DATA
 62
     7
 10
48.86666666666666
 20
-65.0
 30
0.0
 40
2.7147352430555549
  1
LNK
 50
270.0
 41
0.7
 51
3.0
 11
51.581401909722217
 21
-65.0
 31
0.0
 73
     3
  0
TEXT
  5
171
  8
DATA
 62
     7
 10
44.70000000000001
 20
-65.0
 30
0.0
 40
2.7147352430555549
  1
PWR
 50
270.0
 41
0.7
 51
3.0
 11
47.414735243055567
 21
-65.0
 31
0.0
 73
     3
  0
POLYLINE
  5
172
  8
DATA
  6
CONTINUOUS
 62
     7
 66
     1
 10
0.0
 20
0.0
 30
0.0
 70
     1
  0
VERTEX
  5
2E4
  8
DATA
  6
CONTINUOUS
 62
     7
 10
-25.0
 20
38.0
 30
0.0
  0
VERTEX
  5
2E5
  8
DATA
  6
CONTINUOUS
 62
     7
 10
66.500000000000014
 20
38.0
 30
0.0
  0
VERTEX
  5
2E6
  8
DATA
  6
CONTINUOUS
 62
     7
 10
66.500000000000014
 20
-37.5
 30
0.0
  0
VERTEX
  5
2E7
  8
DATA
  6
CONTINUOUS
 62
     7
 10
-25.0
 20
-37.5
 30
0.0
  0
SEQEND
  5
2E8
  8
DATA
  6
CONTINUOUS
 62
     7
  0
LINE
  5
179
  8
DATA
  6
CONTINUOUS
 62
     7
 10
-10.99999999999997
 20
56.0
 30
0.0
 11
-10.99999999999997
 21
38.0
 31
0.0
  0
LINE
  5
17A
  8
DATA
  6
CONTINUOUS
 62
     7
 10
4.0000000000000284
 20
38.0
 30
0.0
 11
4.0000000000000284
 21
56.0
 31
0.0
  0
LINE
  5
17B
  8
DATA
  6
CONTINUOUS
 62
     7
 10
-10.99999999999997
 20
56.0
 30
0.0
 11
4.0000000000000284
 21
56.0
 31
0.0
  0
LINE
  5
17C
  8
DATA
  6
CONTINUOUS
 62
     7
 10
39.000000000000021
 20
44.5
 30
0.0
 11
39.000000000000021
 21
40.0
 31
0.0
  0
LINE
  5
17D
  8
DATA
  6
CONTINUOUS
 62
     7
 10
47.000000000000007
 20
44.5
 30
0.0
 11
47.000000000000007
 21
40.0
 31
0.0
  0
LINE
  5
17E
  8
DATA
  6
CONTINUOUS
 62
     7
 10
39.000000000000021
 20
44.5
 30
0.0
 11
47.000000000000007
 21
44.5
 31
0.0
  0
LINE
  5
17F
  8
DATA
  6
CONTINUOUS
 62
     7
 10
48.250000000000021
 20
40.0
 30
0.0
 11
37.750000000000021
 21
40.0
 31
0.0
  0
LINE
  5
180
  8
DATA
  6
CONTINUOUS
 62
     7
 10
37.750000000000021
 20
40.0
 30
0.0
 11
37.750000000000021
 21
38.0
 31
0.0
  0
LINE
  5
181
  8
DATA
  6
CONTINUOUS
 62
     7
 10
40.375000000000021
 20
40.0
 30
0.0
 11
40.375000000000021
 21
38.0
 31
0.0
  0
LINE
  5
182
  8
DATA
  6
CONTINUOUS
 62
     7
 10
45.625000000000021
 20
40.0
 30
0.0
 11
45.625000000000021
 21
38.0
 31
0.0
  0
LINE
  5
183
  8
DATA
  6
CONTINUOUS
 62
     7
 10
48.250000000000021
 20
40.0
 30
0.0
 11
48.250000000000021
 21
38.0
 31
0.0
  0
TEXT
  5
184
  8
DATA
 62
     7
 10
64.107152896184317
 20
303.7759166666666
 30
0.0
 40
2.0360514322916661
  1
EXT-USB400FONS
 50
180.0
 41
0.7
 51
3.0
 11
64.107152896184317
 21
301.73986523437492
 31
0.0
 73
     3
  0
TEXT
  5
185
  8
DATA
 62
     7
 10
56.726283504641493
 20
306.63302739887712
 30
0.0
 40
2.0360514322916661
  1
Gefen
 50
180.0
 41
0.7
 51
3.0
 11
56.726283504641493
 21
304.59697596658549
 31
0.0
 73
     3
  0
TEXT
  5
186
  8
DATA
 62
     7
 10
0.0277777777778146
 20
87.269750000000016
 30
0.0
 40
2.7147352430555549
  1
Link
 50
180.0
 41
0.7
 51
3.0
 11
0.0277777777778141
 21
84.555014756944445
 31
0.0
 73
     3
  0
TEXT
  5
187
  8
DATA
 62
     7
 10
47.409722222222257
 20
87.269750000000016
 30
0.0
 40
2.7147352430555549
  1
5V DC
 50
180.0
 41
0.7
 51
3.0
 11
47.409722222222257
 21
84.555014756944445
 31
0.0
 73
     3
  0
LINE
  5
188
  8
DATA
  6
CONTINUOUS
 62
     7
 10
66.500000000000014
 20
89.0
 30
0.0
 11
66.500000000000014
 21
64.5
 31
0.0
  0
LINE
  5
189
  8
DATA
  6
CONTINUOUS
 62
     7
 10
-22.999999999999972
 20
91.0
 30
0.0
 11
-12.93499999999996
 21
91.0
 31
0.0
  0
LINE
  5
18A
  8
DATA
  6
CONTINUOUS
 62
     7
 10
54.435000000000031
 20
91.0
 30
0.0
 11
64.500000000000014
 21
91.0
 31
0.0
  0
LINE
  5
18B
  8
DATA
  6
CONTINUOUS
 62
     7
 10
-24.999999999999972
 20
64.5
 30
0.0
 11
-24.999999999999972
 21
89.0
 31
0.0
  0
LINE
  5
18C
  8
DATA
  6
CONTINUOUS
 62
     7
 10
64.500000000000014
 20
62.5
 30
0.0
 11
-22.999999999999972
 21
62.5
 31
0.0
  0
LINE
  5
18D
  8
DATA
  6
CONTINUOUS
 62
     7
 10
65.000000000000014
 20
88.499499999999969
 30
0.0
 11
65.000000000000014
 21
64.000499999999988
 31
0.0
  0
LINE
  5
18E
  8
DATA
  6
CONTINUOUS
 62
     7
 10
-22.499999999999972
 20
89.499499999999983
 30
0.0
 11
64.000000000000014
 21
89.499499999999983
 31
0.0
  0
LINE
  5
18F
  8
DATA
  6
CONTINUOUS
 62
     7
 10
-23.499999999999972
 20
64.000499999999988
 30
0.0
 11
-23.499999999999972
 21
88.499499999999969
 31
0.0
  0
LINE
  5
190
  8
DATA
  6
CONTINUOUS
 62
     7
 10
54.435000000000031
 20
91.0
 30
0.0
 11
54.435000000000031
 21
89.499499999999983
 31
0.0
  0
LINE
  5
191
  8
DATA
  6
CONTINUOUS
 62
     7
 10
-12.93499999999996
 20
89.499499999999983
 30
0.0
 11
-12.93499999999996
 21
91.0
 31
0.0
  0
LINE
  5
192
  8
DATA
  6
CONTINUOUS
 62
     7
 10
57.71750000000003
 20
93.499999999999986
 30
0.0
 11
63.21750000000003
 21
93.499999999999986
 31
0.0
  0
LINE
  5
193
  8
DATA
  6
CONTINUOUS
 62
     7
 10
63.21750000000003
 20
93.499999999999986
 30
0.0
 11
64.217500000000015
 21
91.0
 31
0.0
  0
LINE
  5
194
  8
DATA
  6
CONTINUOUS
 62
     7
 10
56.717500000000022
 20
91.0
 30
0.0
 11
57.71750000000003
 21
93.499999999999986
 31
0.0
  0
LINE
  5
195
  8
DATA
  6
CONTINUOUS
 62
     7
 10
-21.717499999999969
 20
93.499999999999986
 30
0.0
 11
-16.217499999999969
 21
93.499999999999986
 31
0.0
  0
LINE
  5
196
  8
DATA
  6
CONTINUOUS
 62
     7
 10
-16.217499999999969
 20
93.499999999999986
 30
0.0
 11
-15.217499999999969
 21
91.0
 31
0.0
  0
LINE
  5
197
  8
DATA
  6
CONTINUOUS
 62
     7
 10
-22.717499999999969
 20
91.0
 30
0.0
 11
-21.717499999999969
 21
93.499999999999986
 31
0.0
  0
ARC
  5
198
  8
DATA
  6
CONTINUOUS
 62
     7
 10
64.000000000000014
 20
88.499499999999969
 30
0.0
 40
1.0
 50
0.0
 51
90.0
  0
ARC
  5
199
  8
DATA
  6
CONTINUOUS
 62
     7
 10
-22.499999999999972
 20
88.499499999999969
 30
0.0
 40
1.0
 50
90.0
 51
180.0
  0
ARC
  5
19A
  8
DATA
  6
CONTINUOUS
 62
     7
 10
64.500000000000014
 20
64.5
 30
0.0
 40
2.0
 50
270.0
 51
0.0
  0
ARC
  5
19B
  8
DATA
  6
CONTINUOUS
 62
     7
 10
64.500000000000014
 20
89.0
 30
0.0
 40
2.0
 50
0.0
 51
90.0
  0
ARC
  5
19C
  8
DATA
  6
CONTINUOUS
 62
     7
 10
-22.999999999999972
 20
89.0
 30
0.0
 40
2.0
 50
90.0
 51
180.0
  0
ARC
  5
19D
  8
DATA
  6
CONTINUOUS
 62
     7
 10
-22.999999999999972
 20
64.5
 30
0.0
 40
2.0
 50
180.0
 51
270.0
  0
POLYLINE
  5
19E
  8
DATA
  6
CONTINUOUS
 62
     7
 66
     1
 10
0.0
 20
0.0
 30
0.0
 70
     1
  0
VERTEX
  5
2E9
  8
DATA
  6
CONTINUOUS
 62
     7
 10
-10.99999999999997
 20
82.5
 30
0.0
  0
VERTEX
  5
2EA
  8
DATA
  6
CONTINUOUS
 62
     7
 10
4.0000000000000284
 20
82.5
 30
0.0
  0
VERTEX
  5
2EB
  8
DATA
  6
CONTINUOUS
 62
     7
 10
4.0000000000000284
 20
68.5
 30
0.0
  0
VERTEX
  5
2EC
  8
DATA
  6
CONTINUOUS
 62
     7
 10
-10.99999999999997
 20
68.5
 30
0.0
  0
SEQEND
  5
2ED
  8
DATA
  6
CONTINUOUS
 62
     7
  0
CIRCLE
  5
1A5
  8
DATA
  6
CONTINUOUS
 62
     7
 10
43.000000000000021
 20
72.5
 30
0.0
 40
4.0
  0
CIRCLE
  5
1A6
  8
DATA
  6
CONTINUOUS
 62
     7
 10
43.000000000000021
 20
72.5
 30
0.0
 40
3.0
  0
CIRCLE
  5
1A7
  8
DATA
  6
CONTINUOUS
 62
     7
 10
43.000000000000021
 20
72.5
 30
0.0
 40
1.0
  0
LINE
  5
1A8
  8
DATA
  6
CONTINUOUS
 62
     7
 10
40.375000000000021
 20
77.046633369868303
 30
0.0
 11
37.750000000000021
 21
72.499999999999915
 31
0.0
  0
LINE
  5
1A9
  8
DATA
  6
CONTINUOUS
 62
     7
 10
37.750000000000021
 20
72.499999999999915
 30
0.0
 11
40.375000000000021
 21
67.953366630131711
 31
0.0
  0
LINE
  5
1AA
  8
DATA
  6
CONTINUOUS
 62
     7
 10
40.375000000000021
 20
67.953366630131711
 30
0.0
 11
45.625000000000021
 21
67.95336663013164
 31
0.0
  0
LINE
  5
1AB
  8
DATA
  6
CONTINUOUS
 62
     7
 10
45.625000000000021
 20
67.95336663013164
 30
0.0
 11
48.250000000000021
 21
72.5
 31
0.0
  0
LINE
  5
1AC
  8
DATA
  6
CONTINUOUS
 62
     7
 10
48.250000000000021
 20
72.5
 30
0.0
 11
45.625000000000021
 21
77.046633369868275
 31
0.0
  0
LINE
  5
1AD
  8
DATA
  6
CONTINUOUS
 62
     7
 10
45.625000000000021
 20
77.046633369868275
 30
0.0
 11
40.375000000000021
 21
77.046633369868303
 31
0.0
  0
TEXT
  5
1AE
  8
DATA
 62
     7
 10
64.107152896184317
 20
66.275916666666646
 30
0.0
 40
2.0360514322916661
  1
EXT-USB400FONR
 50
180.0
 41
0.7
 51
3.0
 11
64.107152896184317
 21
64.239865234374975
 31
0.0
 73
     3
  0
TEXT
  5
1AF
  8
DATA
 62
     7
 10
56.726283504641493
 20
69.133027398877132
 30
0.0
 40
2.0360514322916661
  1
Gefen
 50
180.0
 41
0.7
 51
3.0
 11
56.726283504641493
 21
67.096975966585461
 31
0.0
 73
     3
  0
POLYLINE
  5
1B0
  8
DATA
  6
CONTINUOUS
 62
     7
 66
     1
 10
0.0
 20
0.0
 30
0.0
 70
     1
  0
VERTEX
  5
2EE
  8
DATA
  6
CONTINUOUS
 62
     7
 10
-13.99999999999998
 20
-51.0
 30
0.0
  0
VERTEX
  5
2EF
  8
DATA
  6
CONTINUOUS
 62
     7
 10
-7.4999999999999867
 20
-51.0
 30
0.0
  0
VERTEX
  5
2F0
  8
DATA
  6
CONTINUOUS
 62
     7
 10
-7.4999999999999867
 20
-64.5
 30
0.0
  0
VERTEX
  5
2F1
  8
DATA
  6
CONTINUOUS
 62
     7
 10
-13.99999999999998
 20
-64.5
 30
0.0
  0
SEQEND
  5
2F2
  8
DATA
  6
CONTINUOUS
 62
     7
  0
TEXT
  5
1B7
  8
DATA
 62
     7
 10
-19.499999999999979
 20
-68.71097222222221
 30
0.0
 40
2.7147352430555549
  1
USB 400 FO R
 41
0.7
 51
3.0
 11
-19.499999999999979
 21
-65.996236979166653
 31
0.0
 73
     3
  0
TEXT
  5
1B8
  8
DATA
 62
     7
 10
-19.499999999999979
 20
168.78902777777779
 30
0.0
 40
2.7147352430555549
  1
USB 400 FO S
 41
0.7
 51
3.0
 11
-19.499999999999979
 21
171.5037630208333
 31
0.0
 73
     3
  0
TEXT
  5
1B9
  8
DATA
 62
     7
 10
-19.499999999999979
 20
166.0961056093974
 30
0.0
 40
1.212011718749999
  1
OPTICAL 4 PORT USB 2.0 HUB
 41
0.7
 51
3.0
 11
-19.499999999999979
 21
167.3081173281474
 31
0.0
 73
     3
  0
LINE
  5
1BA
  8
DATA
  6
CONTINUOUS
 62
     7
 10
-10.599999999999961
 20
-63.499999999999922
 30
0.0
 11
-10.599999999999961
 21
-52.000000000000021
 31
0.0
  0
LINE
  5
1BB
  8
DATA
  6
CONTINUOUS
 62
     7
 10
-11.89999999999997
 20
-63.499999999999922
 30
0.0
 11
-11.89999999999997
 21
-52.000000000000021
 31
0.0
  0
LINE
  5
1BC
  8
DATA
  6
CONTINUOUS
 62
     7
 10
-10.60000000009998
 20
-58.337855690644211
 30
0.0
 11
-10.52500000009996
 21
-58.337855690644211
 31
0.0
  0
LINE
  5
1BD
  8
DATA
  6
CONTINUOUS
 62
     7
 10
-10.60000000009998
 20
-59.587855690644211
 30
0.0
 11
-10.52500000009996
 21
-59.587855690644211
 31
0.0
  0
LINE
  5
1BE
  8
DATA
  6
CONTINUOUS
 62
     7
 10
-10.52500000009996
 20
-59.587855690644211
 30
0.0
 11
-10.52500000009996
 21
-58.337855690644211
 31
0.0
  0
LINE
  5
1BF
  8
DATA
  6
CONTINUOUS
 62
     7
 10
-10.60000000009998
 20
-57.162144309355611
 30
0.0
 11
-10.52500000009996
 21
-57.162144309355611
 31
0.0
  0
LINE
  5
1C0
  8
DATA
  6
CONTINUOUS
 62
     7
 10
-10.60000000009998
 20
-55.912144309355611
 30
0.0
 11
-10.52500000009996
 21
-55.912144309355611
 31
0.0
  0
LINE
  5
1C1
  8
DATA
  6
CONTINUOUS
 62
     7
 10
-10.52500000009996
 20
-55.912144309355611
 30
0.0
 11
-10.52500000009996
 21
-57.162144309355611
 31
0.0
  0
LINE
  5
1C2
  8
DATA
  6
CONTINUOUS
 62
     7
 10
-10.60000000009998
 20
-60.75785569064422
 30
0.0
 11
-10.52500000009996
 21
-60.75785569064422
 31
0.0
  0
LINE
  5
1C3
  8
DATA
  6
CONTINUOUS
 62
     7
 10
-10.60000000009998
 20
-62.00785569064422
 30
0.0
 11
-10.52500000009996
 21
-62.00785569064422
 31
0.0
  0
LINE
  5
1C4
  8
DATA
  6
CONTINUOUS
 62
     7
 10
-10.52500000009996
 20
-62.00785569064422
 30
0.0
 11
-10.52500000009996
 21
-60.75785569064422
 31
0.0
  0
LINE
  5
1C5
  8
DATA
  6
CONTINUOUS
 62
     7
 10
-10.60000000009998
 20
-54.742144309355673
 30
0.0
 11
-10.52500000009996
 21
-54.742144309355673
 31
0.0
  0
LINE
  5
1C6
  8
DATA
  6
CONTINUOUS
 62
     7
 10
-10.60000000009998
 20
-53.492144309355673
 30
0.0
 11
-10.52500000009996
 21
-53.492144309355673
 31
0.0
  0
LINE
  5
1C7
  8
DATA
  6
CONTINUOUS
 62
     7
 10
-10.52500000009996
 20
-53.492144309355673
 30
0.0
 11
-10.52500000009996
 21
-54.742144309355673
 31
0.0
  0
LINE
  5
1C8
  8
DATA
  6
CONTINUOUS
 62
     7
 10
-10.599999999999961
 20
-63.499999999999922
 30
0.0
 11
-11.89999999999997
 21
-63.499999999999922
 31
0.0
  0
LINE
  5
1C9
  8
DATA
  6
CONTINUOUS
 62
     7
 10
-10.599999999999961
 20
-52.000000000000021
 30
0.0
 11
-11.89999999999997
 21
-52.000000000000021
 31
0.0
  0
CIRCLE
  5
1CA
  8
DATA
  6
CONTINUOUS
 62
     7
 10
-3.9999999999999849
 20
-63.0
 30
0.0
 40
1.0
  0
POLYLINE
  5
1CB
  8
DATA
  6
CONTINUOUS
 62
     7
 66
     1
 10
0.0
 20
0.0
 30
0.0
 70
     1
  0
VERTEX
  5
2F3
  8
DATA
  6
CONTINUOUS
 62
     7
 10
1.000000000000014
 20
-51.0
 30
0.0
  0
VERTEX
  5
2F4
  8
DATA
  6
CONTINUOUS
 62
     7
 10
7.5000000000000142
 20
-51.0
 30
0.0
  0
VERTEX
  5
2F5
  8
DATA
  6
CONTINUOUS
 62
     7
 10
7.5000000000000142
 20
-64.5
 30
0.0
  0
VERTEX
  5
2F6
  8
DATA
  6
CONTINUOUS
 62
     7
 10
1.000000000000014
 20
-64.5
 30
0.0
  0
SEQEND
  5
2F7
  8
DATA
  6
CONTINUOUS
 62
     7
  0
LINE
  5
1D2
  8
DATA
  6
CONTINUOUS
 62
     7
 10
4.4000000000000332
 20
-63.499999999999922
 30
0.0
 11
4.4000000000000332
 21
-52.000000000000021
 31
0.0
  0
LINE
  5
1D3
  8
DATA
  6
CONTINUOUS
 62
     7
 10
3.1000000000000218
 20
-63.499999999999922
 30
0.0
 11
3.1000000000000218
 21
-52.000000000000021
 31
0.0
  0
LINE
  5
1D4
  8
DATA
  6
CONTINUOUS
 62
     7
 10
4.3999999999000172
 20
-58.337855690644211
 30
0.0
 11
4.4749999999000352
 21
-58.337855690644211
 31
0.0
  0
LINE
  5
1D5
  8
DATA
  6
CONTINUOUS
 62
     7
 10
4.3999999999000172
 20
-59.587855690644211
 30
0.0
 11
4.4749999999000352
 21
-59.587855690644211
 31
0.0
  0
LINE
  5
1D6
  8
DATA
  6
CONTINUOUS
 62
     7
 10
4.4749999999000352
 20
-59.587855690644211
 30
0.0
 11
4.4749999999000352
 21
-58.337855690644211
 31
0.0
  0
LINE
  5
1D7
  8
DATA
  6
CONTINUOUS
 62
     7
 10
4.3999999999000172
 20
-57.162144309355611
 30
0.0
 11
4.4749999999000352
 21
-57.162144309355611
 31
0.0
  0
LINE
  5
1D8
  8
DATA
  6
CONTINUOUS
 62
     7
 10
4.3999999999000172
 20
-55.912144309355611
 30
0.0
 11
4.4749999999000352
 21
-55.912144309355611
 31
0.0
  0
LINE
  5
1D9
  8
DATA
  6
CONTINUOUS
 62
     7
 10
4.4749999999000352
 20
-55.912144309355611
 30
0.0
 11
4.4749999999000352
 21
-57.162144309355611
 31
0.0
  0
LINE
  5
1DA
  8
DATA
  6
CONTINUOUS
 62
     7
 10
4.3999999999000172
 20
-60.75785569064422
 30
0.0
 11
4.4749999999000352
 21
-60.75785569064422
 31
0.0
  0
LINE
  5
1DB
  8
DATA
  6
CONTINUOUS
 62
     7
 10
4.3999999999000172
 20
-62.00785569064422
 30
0.0
 11
4.4749999999000352
 21
-62.00785569064422
 31
0.0
  0
LINE
  5
1DC
  8
DATA
  6
CONTINUOUS
 62
     7
 10
4.4749999999000352
 20
-62.00785569064422
 30
0.0
 11
4.4749999999000352
 21
-60.75785569064422
 31
0.0
  0
LINE
  5
1DD
  8
DATA
  6
CONTINUOUS
 62
     7
 10
4.3999999999000172
 20
-54.742144309355673
 30
0.0
 11
4.4749999999000352
 21
-54.742144309355673
 31
0.0
  0
LINE
  5
1DE
  8
DATA
  6
CONTINUOUS
 62
     7
 10
4.3999999999000172
 20
-53.492144309355673
 30
0.0
 11
4.4749999999000352
 21
-53.492144309355673
 31
0.0
  0
LINE
  5
1DF
  8
DATA
  6
CONTINUOUS
 62
     7
 10
4.4749999999000352
 20
-53.492144309355673
 30
0.0
 11
4.4749999999000352
 21
-54.742144309355673
 31
0.0
  0
LINE
  5
1E0
  8
DATA
  6
CONTINUOUS
 62
     7
 10
4.4000000000000332
 20
-63.499999999999922
 30
0.0
 11
3.1000000000000218
 21
-63.499999999999922
 31
0.0
  0
LINE
  5
1E1
  8
DATA
  6
CONTINUOUS
 62
     7
 10
4.4000000000000332
 20
-52.000000000000021
 30
0.0
 11
3.1000000000000218
 21
-52.000000000000021
 31
0.0
  0
CIRCLE
  5
1E2
  8
DATA
  6
CONTINUOUS
 62
     7
 10
11.000000000000011
 20
-63.0
 30
0.0
 40
1.0
  0
POLYLINE
  5
1E3
  8
DATA
  6
CONTINUOUS
 62
     7
 66
     1
 10
0.0
 20
0.0
 30
0.0
 70
     1
  0
VERTEX
  5
2F8
  8
DATA
  6
CONTINUOUS
 62
     7
 10
16.000000000000021
 20
-51.0
 30
0.0
  0
VERTEX
  5
2F9
  8
DATA
  6
CONTINUOUS
 62
     7
 10
22.500000000000011
 20
-51.0
 30
0.0
  0
VERTEX
  5
2FA
  8
DATA
  6
CONTINUOUS
 62
     7
 10
22.500000000000011
 20
-64.5
 30
0.0
  0
VERTEX
  5
2FB
  8
DATA
  6
CONTINUOUS
 62
     7
 10
16.000000000000021
 20
-64.5
 30
0.0
  0
SEQEND
  5
2FC
  8
DATA
  6
CONTINUOUS
 62
     7
  0
LINE
  5
1EA
  8
DATA
  6
CONTINUOUS
 62
     7
 10
19.400000000000031
 20
-63.499999999999922
 30
0.0
 11
19.400000000000031
 21
-52.000000000000021
 31
0.0
  0
LINE
  5
1EB
  8
DATA
  6
CONTINUOUS
 62
     7
 10
18.100000000000019
 20
-63.499999999999922
 30
0.0
 11
18.100000000000019
 21
-52.000000000000021
 31
0.0
  0
LINE
  5
1EC
  8
DATA
  6
CONTINUOUS
 62
     7
 10
19.399999999900022
 20
-58.337855690644211
 30
0.0
 11
19.474999999900032
 21
-58.337855690644211
 31
0.0
  0
LINE
  5
1ED
  8
DATA
  6
CONTINUOUS
 62
     7
 10
19.399999999900022
 20
-59.587855690644211
 30
0.0
 11
19.474999999900032
 21
-59.587855690644211
 31
0.0
  0
LINE
  5
1EE
  8
DATA
  6
CONTINUOUS
 62
     7
 10
19.474999999900032
 20
-59.587855690644211
 30
0.0
 11
19.474999999900032
 21
-58.337855690644211
 31
0.0
  0
LINE
  5
1EF
  8
DATA
  6
CONTINUOUS
 62
     7
 10
19.399999999900022
 20
-57.162144309355611
 30
0.0
 11
19.474999999900032
 21
-57.162144309355611
 31
0.0
  0
LINE
  5
1F0
  8
DATA
  6
CONTINUOUS
 62
     7
 10
19.399999999900022
 20
-55.912144309355611
 30
0.0
 11
19.474999999900032
 21
-55.912144309355611
 31
0.0
  0
LINE
  5
1F1
  8
DATA
  6
CONTINUOUS
 62
     7
 10
19.474999999900032
 20
-55.912144309355611
 30
0.0
 11
19.474999999900032
 21
-57.162144309355611
 31
0.0
  0
LINE
  5
1F2
  8
DATA
  6
CONTINUOUS
 62
     7
 10
19.399999999900022
 20
-60.75785569064422
 30
0.0
 11
19.474999999900032
 21
-60.75785569064422
 31
0.0
  0
LINE
  5
1F3
  8
DATA
  6
CONTINUOUS
 62
     7
 10
19.399999999900022
 20
-62.00785569064422
 30
0.0
 11
19.474999999900032
 21
-62.00785569064422
 31
0.0
  0
LINE
  5
1F4
  8
DATA
  6
CONTINUOUS
 62
     7
 10
19.474999999900032
 20
-62.00785569064422
 30
0.0
 11
19.474999999900032
 21
-60.75785569064422
 31
0.0
  0
LINE
  5
1F5
  8
DATA
  6
CONTINUOUS
 62
     7
 10
19.399999999900022
 20
-54.742144309355673
 30
0.0
 11
19.474999999900032
 21
-54.742144309355673
 31
0.0
  0
LINE
  5
1F6
  8
DATA
  6
CONTINUOUS
 62
     7
 10
19.399999999900022
 20
-53.492144309355673
 30
0.0
 11
19.474999999900032
 21
-53.492144309355673
 31
0.0
  0
LINE
  5
1F7
  8
DATA
  6
CONTINUOUS
 62
     7
 10
19.474999999900032
 20
-53.492144309355673
 30
0.0
 11
19.474999999900032
 21
-54.742144309355673
 31
0.0
  0
LINE
  5
1F8
  8
DATA
  6
CONTINUOUS
 62
     7
 10
19.400000000000031
 20
-63.499999999999922
 30
0.0
 11
18.100000000000019
 21
-63.499999999999922
 31
0.0
  0
LINE
  5
1F9
  8
DATA
  6
CONTINUOUS
 62
     7
 10
19.400000000000031
 20
-52.000000000000021
 30
0.0
 11
18.100000000000019
 21
-52.000000000000021
 31
0.0
  0
CIRCLE
  5
1FA
  8
DATA
  6
CONTINUOUS
 62
     7
 10
26.000000000000011
 20
-63.0
 30
0.0
 40
1.0
  0
POLYLINE
  5
1FB
  8
DATA
  6
CONTINUOUS
 62
     7
 66
     1
 10
0.0
 20
0.0
 30
0.0
 70
     1
  0
VERTEX
  5
2FD
  8
DATA
  6
CONTINUOUS
 62
     7
 10
31.000000000000011
 20
-51.0
 30
0.0
  0
VERTEX
  5
2FE
  8
DATA
  6
CONTINUOUS
 62
     7
 10
37.500000000000021
 20
-51.0
 30
0.0
  0
VERTEX
  5
2FF
  8
DATA
  6
CONTINUOUS
 62
     7
 10
37.500000000000021
 20
-64.5
 30
0.0
  0
VERTEX
  5
300
  8
DATA
  6
CONTINUOUS
 62
     7
 10
31.000000000000011
 20
-64.5
 30
0.0
  0
SEQEND
  5
301
  8
DATA
  6
CONTINUOUS
 62
     7
  0
LINE
  5
202
  8
DATA
  6
CONTINUOUS
 62
     7
 10
34.400000000000027
 20
-63.499999999999922
 30
0.0
 11
34.400000000000027
 21
-52.000000000000021
 31
0.0
  0
LINE
  5
203
  8
DATA
  6
CONTINUOUS
 62
     7
 10
33.100000000000023
 20
-63.499999999999922
 30
0.0
 11
33.100000000000023
 21
-52.000000000000021
 31
0.0
  0
LINE
  5
204
  8
DATA
  6
CONTINUOUS
 62
     7
 10
34.399999999900018
 20
-58.337855690644211
 30
0.0
 11
34.474999999900042
 21
-58.337855690644211
 31
0.0
  0
LINE
  5
205
  8
DATA
  6
CONTINUOUS
 62
     7
 10
34.399999999900018
 20
-59.587855690644211
 30
0.0
 11
34.474999999900042
 21
-59.587855690644211
 31
0.0
  0
LINE
  5
206
  8
DATA
  6
CONTINUOUS
 62
     7
 10
34.474999999900042
 20
-59.587855690644211
 30
0.0
 11
34.474999999900042
 21
-58.337855690644211
 31
0.0
  0
LINE
  5
207
  8
DATA
  6
CONTINUOUS
 62
     7
 10
34.399999999900018
 20
-57.162144309355611
 30
0.0
 11
34.474999999900042
 21
-57.162144309355611
 31
0.0
  0
LINE
  5
208
  8
DATA
  6
CONTINUOUS
 62
     7
 10
34.399999999900018
 20
-55.912144309355611
 30
0.0
 11
34.474999999900042
 21
-55.912144309355611
 31
0.0
  0
LINE
  5
209
  8
DATA
  6
CONTINUOUS
 62
     7
 10
34.474999999900042
 20
-55.912144309355611
 30
0.0
 11
34.474999999900042
 21
-57.162144309355611
 31
0.0
  0
LINE
  5
20A
  8
DATA
  6
CONTINUOUS
 62
     7
 10
34.399999999900018
 20
-60.75785569064422
 30
0.0
 11
34.474999999900042
 21
-60.75785569064422
 31
0.0
  0
LINE
  5
20B
  8
DATA
  6
CONTINUOUS
 62
     7
 10
34.399999999900018
 20
-62.00785569064422
 30
0.0
 11
34.474999999900042
 21
-62.00785569064422
 31
0.0
  0
LINE
  5
20C
  8
DATA
  6
CONTINUOUS
 62
     7
 10
34.474999999900042
 20
-62.00785569064422
 30
0.0
 11
34.474999999900042
 21
-60.75785569064422
 31
0.0
  0
LINE
  5
20D
  8
DATA
  6
CONTINUOUS
 62
     7
 10
34.399999999900018
 20
-54.742144309355673
 30
0.0
 11
34.474999999900042
 21
-54.742144309355673
 31
0.0
  0
LINE
  5
20E
  8
DATA
  6
CONTINUOUS
 62
     7
 10
34.399999999900018
 20
-53.492144309355673
 30
0.0
 11
34.474999999900042
 21
-53.492144309355673
 31
0.0
  0
LINE
  5
20F
  8
DATA
  6
CONTINUOUS
 62
     7
 10
34.474999999900042
 20
-53.492144309355673
 30
0.0
 11
34.474999999900042
 21
-54.742144309355673
 31
0.0
  0
LINE
  5
210
  8
DATA
  6
CONTINUOUS
 62
     7
 10
34.400000000000027
 20
-63.499999999999922
 30
0.0
 11
33.100000000000023
 21
-63.499999999999922
 31
0.0
  0
LINE
  5
211
  8
DATA
  6
CONTINUOUS
 62
     7
 10
34.400000000000027
 20
-52.000000000000021
 30
0.0
 11
33.100000000000023
 21
-52.000000000000021
 31
0.0
  0
CIRCLE
  5
212
  8
DATA
  6
CONTINUOUS
 62
     7
 10
41.000000000000007
 20
-63.0
 30
0.0
 40
1.0
  0
POLYLINE
  5
213
  8
DATA
  6
CONTINUOUS
 62
     7
 66
     1
 10
0.0
 20
0.0
 30
0.0
 70
     1
  0
VERTEX
  5
302
  8
DATA
  6
CONTINUOUS
 62
     7
 10
87.5
 20
-46.5
 30
0.0
  0
VERTEX
  5
303
  8
DATA
  6
CONTINUOUS
 62
     7
 10
163.0
 20
-46.5
 30
0.0
  0
VERTEX
  5
304
  8
DATA
  6
CONTINUOUS
 62
     7
 10
163.0
 20
-75.0
 30
0.0
  0
VERTEX
  5
305
  8
DATA
  6
CONTINUOUS
 62
     7
 10
87.5
 20
-75.0
 30
0.0
  0
SEQEND
  5
306
  8
DATA
  6
CONTINUOUS
 62
     7
  0
LINE
  5
21A
  8
DATA
  6
CONTINUOUS
 62
     7
 10
100.5
 20
-77.5
 30
0.0
 11
95.0
 21
-77.5
 31
0.0
  0
LINE
  5
21B
  8
DATA
  6
CONTINUOUS
 62
     7
 10
95.0
 20
-77.5
 30
0.0
 11
94.0
 21
-75.0
 31
0.0
  0
LINE
  5
21C
  8
DATA
  6
CONTINUOUS
 62
     7
 10
101.5
 20
-75.0
 30
0.0
 11
100.5
 21
-77.5
 31
0.0
  0
LINE
  5
21D
  8
DATA
  6
CONTINUOUS
 62
     7
 10
155.5
 20
-77.5
 30
0.0
 11
150.0
 21
-77.5
 31
0.0
  0
LINE
  5
21E
  8
DATA
  6
CONTINUOUS
 62
     7
 10
150.0
 20
-77.5
 30
0.0
 11
149.0
 21
-75.0
 31
0.0
  0
LINE
  5
21F
  8
DATA
  6
CONTINUOUS
 62
     7
 10
156.5
 20
-75.0
 30
0.0
 11
155.5
 21
-77.5
 31
0.0
  0
LINE
  5
220
  8
DATA
  6
CONTINUOUS
 62
     7
 10
181.0
 20
-52.5
 30
0.0
 11
169.5
 21
-52.5
 31
0.0
  0
LINE
  5
221
  8
DATA
  6
CONTINUOUS
 62
     7
 10
181.0
 20
-66.5
 30
0.0
 11
163.0
 21
-66.5
 31
0.0
  0
LINE
  5
222
  8
DATA
  6
CONTINUOUS
 62
     7
 10
181.0
 20
-52.5
 30
0.0
 11
181.0
 21
-66.5
 31
0.0
  0
LINE
  5
223
  8
DATA
  6
CONTINUOUS
 62
     7
 10
169.5
 20
-52.5
 30
0.0
 11
165.0
 21
-52.5
 31
0.0
  0
LINE
  5
224
  8
DATA
  6
CONTINUOUS
 62
     7
 10
169.5
 20
-60.5
 30
0.0
 11
165.0
 21
-60.5
 31
0.0
  0
LINE
  5
225
  8
DATA
  6
CONTINUOUS
 62
     7
 10
169.5
 20
-52.5
 30
0.0
 11
169.5
 21
-60.5
 31
0.0
  0
LINE
  5
226
  8
DATA
  6
CONTINUOUS
 62
     7
 10
165.0
 20
-61.04663336986826
 30
0.0
 11
165.0
 21
-51.953366630131647
 31
0.0
  0
LINE
  5
227
  8
DATA
  6
CONTINUOUS
 62
     7
 10
165.0
 20
-51.953366630131647
 30
0.0
 11
163.0
 21
-51.953366630131647
 31
0.0
  0
LINE
  5
228
  8
DATA
  6
CONTINUOUS
 62
     7
 10
165.0
 20
-56.5
 30
0.0
 11
163.0
 21
-56.5
 31
0.0
  0
LINE
  5
229
  8
DATA
  6
CONTINUOUS
 62
     7
 10
165.0
 20
-61.04663336986826
 30
0.0
 11
163.0
 21
-61.04663336986826
 31
0.0
  0
LINE
  5
22A
  8
DATA
  6
CONTINUOUS
 62
     7
 10
18.75
 20
125.0
 30
0.0
 11
131.25
 21
125.0
 31
0.0
  0
LINE
  5
22B
  8
DATA
  6
CONTINUOUS
 62
     7
 10
18.75
 20
-112.5
 30
0.0
 11
131.25
 21
-112.5
 31
0.0
  0
ENDSEC
  0
EOF
