  0
SECTION
  2
HEADER
  9
$ACADVER
  1
AC1009
  9
$INSBASE
 10
0.0
 20
0.0
 30
0.0
  9
$EXTMIN
 10
49.981691723202402
 20
11.90643626254314
 30
-0.0015258207003583
  9
$EXTMAX
 10
950.02899391114363
 20
1350.04120187373
 30
0.0000000349246037
  9
$LIMMIN
 10
0.0
 20
0.0
  9
$LIMMAX
 10
0.0
 20
0.0
  9
$ORTHOMODE
 70
     0
  9
$REGENMODE
 70
     1
  9
$FILLMODE
 70
     1
  9
$QTEXTMODE
 70
     0
  9
$MIRRTEXT
 70
     1
  9
$DRAGMODE
 70
     2
  9
$LTSCALE
 40
25.399999999999999
  9
$OSMODE
 70
   231
  9
$ATTMODE
 70
     1
  9
$TEXTSIZE
 40
0.0
  9
$TRACEWID
 40
1.0
  9
$TEXTSTYLE
  7
STANDARD
  9
$CLAYER
  8
DATA
  9
$CELTYPE
  6
BYLAYER
  9
$CECOLOR
 62
   256
  9
$DIMSCALE
 40
1.0
  9
$DIMASZ
 40
0.18
  9
$DIMEXO
 40
0.0625
  9
$DIMDLI
 40
0.38
  9
$DIMRND
 40
0.0
  9
$DIMDLE
 40
0.0
  9
$DIMEXE
 40
0.18
  9
$DIMTP
 40
0.0
  9
$DIMTM
 40
0.0
  9
$DIMTXT
 40
0.18
  9
$DIMCEN
 40
0.09
  9
$DIMTSZ
 40
0.0
  9
$DIMTOL
 70
     0
  9
$DIMLIM
 70
     0
  9
$DIMTIH
 70
     1
  9
$DIMTOH
 70
     1
  9
$DIMSE1
 70
     0
  9
$DIMSE2
 70
     0
  9
$DIMTAD
 70
     0
  9
$DIMZIN
 70
     0
  9
$DIMBLK
  1

  9
$DIMASO
 70
     1
  9
$DIMSHO
 70
     1
  9
$DIMPOST
  1

  9
$DIMAPOST
  1

  9
$DIMALT
 70
     0
  9
$DIMALTD
 70
     2
  9
$DIMALTF
 40
25.399999999999999
  9
$DIMLFAC
 40
1.0
  9
$DIMTOFL
 70
     0
  9
$DIMTVP
 40
0.0
  9
$DIMTIX
 70
     0
  9
$DIMSOXD
 70
     0
  9
$DIMSAH
 70
     0
  9
$DIMBLK1
  1

  9
$DIMBLK2
  1

  9
$DIMSTYLE
  2
STANDARD
  9
$DIMCLRD
 70
     0
  9
$DIMCLRE
 70
     0
  9
$DIMCLRT
 70
     0
  9
$DIMTFAC
 40
1.0
  9
$DIMGAP
 40
0.09
  9
$LUNITS
 70
     2
  9
$LUPREC
 70
     4
  9
$SKETCHINC
 40
0.1
  9
$FILLETRAD
 40
0.0
  9
$AUNITS
 70
     0
  9
$AUPREC
 70
     0
  9
$MENU
  1
acad
  9
$ELEVATION
 40
0.0
  9
$PELEVATION
 40
0.0
  9
$THICKNESS
 40
0.0
  9
$LIMCHECK
 70
     0
  9
$BLIPMODE
 70
     0
  9
$CHAMFERA
 40
0.0
  9
$CHAMFERB
 40
0.0
  9
$SKPOLY
 70
     0
  9
$TDCREATE
 40
2455202.6902546301
  9
$TDUPDATE
 40
2455202.6947516212
  9
$TDINDWG
 40
0.0002466667
  9
$TDUSRTIMER
 40
0.0002464815
  9
$USRTIMER
 70
     1
  9
$ANGBASE
 50
0.0
  9
$ANGDIR
 70
     0
  9
$PDMODE
 70
     1
  9
$PDSIZE
 40
-2.0
  9
$PLINEWID
 40
0.0
  9
$COORDS
 70
     0
  9
$SPLFRAME
 70
     0
  9
$SPLINETYPE
 70
     6
  9
$SPLINESEGS
 70
     8
  9
$ATTDIA
 70
     0
  9
$ATTREQ
 70
     1
  9
$HANDLING
 70
     1
  9
$HANDSEED
  5
513
  9
$SURFTAB1
 70
     6
  9
$SURFTAB2
 70
     6
  9
$SURFTYPE
 70
     6
  9
$SURFU
 70
     6
  9
$SURFV
 70
     6
  9
$UCSNAME
  2

  9
$UCSORG
 10
0.0
 20
0.0
 30
0.0
  9
$UCSXDIR
 10
1.0
 20
0.0
 30
0.0
  9
$UCSYDIR
 10
0.0
 20
1.0
 30
0.0
  9
$PUCSNAME
  2

  9
$PUCSORG
 10
0.0
 20
0.0
 30
0.0
  9
$PUCSXDIR
 10
1.0
 20
0.0
 30
0.0
  9
$PUCSYDIR
 10
0.0
 20
1.0
 30
0.0
  9
$USERI1
 70
     0
  9
$USERI2
 70
     0
  9
$USERI3
 70
     0
  9
$USERI4
 70
     0
  9
$USERI5
 70
     0
  9
$USERR1
 40
0.0
  9
$USERR2
 40
0.0
  9
$USERR3
 40
0.0
  9
$USERR4
 40
0.0
  9
$USERR5
 40
0.0
  9
$WORLDVIEW
 70
     1
  9
$SHADEDGE
 70
     3
  9
$SHADEDIF
 70
    70
  9
$TILEMODE
 70
     1
  9
$MAXACTVP
 70
    64
  9
$PLIMCHECK
 70
     0
  9
$PEXTMIN
 10
1.0000000000000000E+020
 20
1.0000000000000000E+020
 30
1.0000000000000000E+020
  9
$PEXTMAX
 10
-1.0000000000000000E+020
 20
-1.0000000000000000E+020
 30
-1.0000000000000000E+020
  9
$PLIMMIN
 10
0.0
 20
0.0
  9
$PLIMMAX
 10
12.0
 20
9.0
  9
$UNITMODE
 70
     0
  9
$VISRETAIN
 70
     0
  9
$PLINEGEN
 70
     1
  9
$PSLTSCALE
 70
     0
  0
ENDSEC
  0
SECTION
  2
TABLES
  0
TABLE
  2
VPORT
 70
     1
  0
VPORT
  2
*ACTIVE
 70
     0
 10
0.0
 20
0.0
 11
1.0
 21
1.0
 12
500.00534281717307
 22
680.97381906813655
 13
0.0
 23
0.0
 14
1.0
 24
1.0
 15
0.0
 25
0.0
 16
0.0
 26
0.0
 36
1.0
 17
0.0
 27
0.0
 37
0.0
 40
1347.9981668319081
 41
1.964329643296433
 42
50.0
 43
0.0
 44
0.0
 50
0.0
 51
0.0
 71
     0
 72
  2000
 73
     1
 74
     1
 75
     0
 76
     0
 77
     0
 78
     0
  0
ENDTAB
  0
TABLE
  2
LTYPE
 70
    11
  0
LTYPE
  2
CONTINUOUS
 70
     0
  3
Solid line
 72
    65
 73
     0
 40
0.0
  0
ENDTAB
  0
TABLE
  2
LAYER
 70
     5
  0
LAYER
  2
0
 70
     0
 62
     7
  6
CONTINUOUS
  0
LAYER
  2
DATA
 70
     0
 62
     7
  6
CONTINUOUS
  0
LAYER
  2
HIBINO-BASE
 70
     0
 62
     7
  6
CONTINUOUS
  0
LAYER
  2
SPEC
 70
     0
 62
     7
  6
CONTINUOUS
  0
LAYER
  2
DIMNSIONS
 70
     0
 62
     7
  6
CONTINUOUS
  0
ENDTAB
  0
TABLE
  2
STYLE
 70
     3
  0
STYLE
  2
STANDARD
 70
     0
 40
0.0
 41
1.0
 50
0.0
 71
     0
 42
0.0
  3
txt
  4
BIGFONT.SHX
  0
ENDTAB
  0
TABLE
  2
VIEW
 70
     0
  0
ENDTAB
  0
TABLE
  2
UCS
 70
     0
  0
ENDTAB
  0
TABLE
  2
APPID
 70
     3
  0
APPID
  2
ACAD
 70
     0
  0
APPID
  2
ACADANNOTATIVE
 70
     0
  0
APPID
  2
ACAD_MLEADERVER
 70
     0
  0
ENDTAB
  0
TABLE
  2
DIMSTYLE
 70
     2
  0
DIMSTYLE
  2
STANDARD
 70
     0
  3

  4

  5

  6

  7

 40
1.0
 41
0.18
 42
0.0625
 43
0.38
 44
0.18
 45
0.0
 46
0.0
 47
0.0
 48
0.0
140
0.18
141
0.09
142
0.0
143
25.399999999999999
144
1.0
145
0.0
146
1.0
147
0.09
 71
     0
 72
     0
 73
     1
 74
     1
 75
     0
 76
     0
 77
     0
 78
     0
170
     0
171
     2
172
     0
173
     0
174
     0
175
     0
176
     0
177
     0
178
     0
  0
ENDTAB
  0
ENDSEC
  0
SECTION
  2
BLOCKS
  0
BLOCK
  8
0
  2
$MODEL_SPACE
 70
     0
 10
0.0
 20
0.0
 30
0.0
  3
$MODEL_SPACE
  1

  0
ENDBLK
  5
447
  8
0
  0
BLOCK
 67
     1
  8
0
  2
$PAPER_SPACE
 70
     0
 10
0.0
 20
0.0
 30
0.0
  3
$PAPER_SPACE
  1

  0
ENDBLK
  5
443
 67
     1
  8
0
  0
ENDSEC
  0
SECTION
  2
ENTITIES
  0
LINE
  5
2C
  8
HIBINO-BASE
  6
CONTINUOUS
 62
     7
 10
50.0
 20
1350.0
 30
0.0
 11
950.0
 21
1350.0
 31
0.0
  0
LINE
  5
2D
  8
HIBINO-BASE
  6
CONTINUOUS
 62
     7
 10
950.0
 20
50.0
 30
0.0
 11
50.0
 21
50.0
 31
0.0
  0
LINE
  5
2E
  8
HIBINO-BASE
  6
CONTINUOUS
 62
     7
 10
50.0
 20
50.0
 30
0.0
 11
50.0
 21
1350.0
 31
0.0
  0
TEXT
  5
2F
  8
HIBINO-BASE
 62
     7
 10
62.82012861104743
 20
17.956611000000098
 30
0.0
 40
18.00022089843749
  1
Hibino-Intersound Corporation
 41
0.7
 11
62.82012861104743
 21
35.956831898437599
 31
0.0
 73
     3
  0
LINE
  5
30
  8
HIBINO-BASE
  6
CONTINUOUS
 62
     7
 10
950.0
 20
1350.0
 30
0.0
 11
950.0
 21
50.0
 31
0.0
  0
LINE
  5
31
  8
HIBINO-BASE
  6
CONTINUOUS
 62
     7
 10
500.0
 20
162.50000000000011
 30
0.0
 11
950.0
 21
162.50000000000011
 31
0.0
  0
LINE
  5
32
  8
HIBINO-BASE
  6
CONTINUOUS
 62
     7
 10
500.0
 20
50.0
 30
0.0
 11
500.0
 21
162.50000000000011
 31
0.0
  0
TEXT
  5
33
  8
HIBINO-BASE
 62
     7
 10
504.49999999999989
 20
149.9565333333334
 30
0.0
 40
8.1442057291666661
  1
NOTE
 41
0.7
 11
504.49999999999989
 21
158.10073906250011
 31
0.0
 73
     3
  0
LINE
  5
34
  8
HIBINO-BASE
  6
CONTINUOUS
 62
     7
 10
675.0
 20
50.0
 30
0.0
 11
675.0
 21
162.50000000000011
 31
0.0
  0
TEXT
  5
35
  8
HIBINO-BASE
 62
     7
 10
679.49999999999989
 20
149.9565333333334
 30
0.0
 40
8.1442057291666661
  1
TITLE
 41
0.7
 11
679.49999999999989
 21
158.10073906250011
 31
0.0
 73
     3
  0
TEXT
  5
36
  8
HIBINO-BASE
 62
     7
 10
595.06609521503515
 20
16.861363937191111
 30
0.0
 40
18.00022089843749
  1
ヒビノインターサウンド株式会社
 41
0.7
 11
595.06609521503515
 21
34.861584835628598
 31
0.0
 73
     3
  0
LINE
  5
37
  8
HIBINO-BASE
  6
CONTINUOUS
 62
     7
 10
500.0
 20
100.0000000000001
 30
0.0
 11
950.0
 21
100.0000000000001
 31
0.0
  0
TEXT
  5
38
  8
HIBINO-BASE
 62
     7
 10
742.0
 20
87.738133333333465
 30
0.0
 40
8.1442057291666661
  1
DRAWN
 41
0.7
 11
742.0
 21
95.882339062500137
 31
0.0
 73
     3
  0
TEXT
  5
39
  8
HIBINO-BASE
 62
     7
 10
617.0
 20
87.738133333333465
 30
0.0
 40
8.1442057291666661
  1
DATE
 41
0.7
 11
617.0
 21
95.882339062500137
 31
0.0
 73
     3
  0
TEXT
  5
3A
  8
HIBINO-BASE
 62
     7
 10
567.0
 20
87.738133333333465
 30
0.0
 40
8.1442057291666661
  1
SCALE
 41
0.7
 11
567.0
 21
95.882339062500137
 31
0.0
 73
     3
  0
TEXT
  5
3B
  8
HIBINO-BASE
 62
     7
 10
679.49999999999989
 20
87.738133333333465
 30
0.0
 40
8.1442057291666661
  1
DESIGN
 41
0.7
 11
679.49999999999989
 21
95.882339062500137
 31
0.0
 73
     3
  0
TEXT
  5
3C
  8
HIBINO-BASE
 62
     7
 10
867.0
 20
87.738133333333465
 30
0.0
 40
8.1442057291666661
  1
DRAWING NO.
 41
0.7
 11
867.0
 21
95.882339062500137
 31
0.0
 73
     3
  0
TEXT
  5
3D
  8
HIBINO-BASE
 62
     7
 10
804.49999999999989
 20
87.738133333333465
 30
0.0
 40
8.1442057291666661
  1
CHECK
 41
0.7
 11
804.49999999999989
 21
95.882339062500137
 31
0.0
 73
     3
  0
LINE
  5
3E
  8
HIBINO-BASE
  6
CONTINUOUS
 62
     7
 10
571.87499999999989
 20
56.25
 30
0.0
 11
590.625
 21
75.000000000000099
 31
0.0
  0
TEXT
  5
3F
  8
HIBINO-BASE
 62
     7
 10
568.74999999999989
 20
69.455283333333384
 30
0.0
 40
8.1442057291666661
  1
1
 41
0.7
 11
568.74999999999989
 21
77.599489062500069
 31
0.0
 73
     3
  0
LINE
  5
40
  8
HIBINO-BASE
  6
CONTINUOUS
 62
     7
 10
562.49999999999989
 20
50.0
 30
0.0
 11
562.49999999999989
 21
100.0000000000001
 31
0.0
  0
LINE
  5
41
  8
HIBINO-BASE
  6
CONTINUOUS
 62
     7
 10
612.49999999999989
 20
50.0
 30
0.0
 11
612.49999999999989
 21
100.0000000000001
 31
0.0
  0
LINE
  5
42
  8
HIBINO-BASE
  6
CONTINUOUS
 62
     7
 10
737.5
 20
100.0000000000001
 30
0.0
 11
737.5
 21
50.0
 31
0.0
  0
LINE
  5
43
  8
HIBINO-BASE
  6
CONTINUOUS
 62
     7
 10
862.5
 20
100.0000000000001
 30
0.0
 11
862.5
 21
50.0
 31
0.0
  0
LINE
  5
44
  8
HIBINO-BASE
  6
CONTINUOUS
 62
     7
 10
800.0
 20
50.0
 30
0.0
 11
800.0
 21
100.0000000000001
 31
0.0
  0
TEXT
  5
45
  8
HIBINO-BASE
 62
     7
 10
616.78269999999986
 20
64.318233333333382
 30
0.0
 40
8.1442057291666661
  1
'09.06.
 41
0.7
 11
616.78269999999986
 21
72.462439062500053
 31
0.0
 73
     3
  0
TEXT
  5
46
  8
HIBINO-BASE
 62
     7
 10
587.5
 20
60.080283333333398
 30
0.0
 40
8.1442057291666661
  1
5
 41
0.7
 11
587.5
 21
68.224489062500069
 31
0.0
 73
     3
  0
TEXT
  5
47
  8
HIBINO-BASE
 62
     7
 10
745.029050055173
 20
64.318233333333382
 30
0.0
 40
8.1442057291666661
  1
T.Ootake
 41
0.7
 11
745.029050055173
 21
72.462439062500053
 31
0.0
 73
     3
  0
TEXT
  5
48
  8
HIBINO-BASE
 62
     7
 10
519.41666666666674
 20
59.880000000000031
 30
0.0
 40
16.288411458333329
  1
A4
 41
0.7
 11
519.41666666666674
 21
76.168411458333352
 31
0.0
 73
     3
  0
TEXT
  5
49
  8
HIBINO-BASE
 62
     7
 10
504.79166666666652
 20
86.902725000000103
 30
0.0
 40
8.1442057291666661
  1
PAPER SIZE
 41
0.7
 11
504.79166666666652
 21
95.046930729166775
 31
0.0
 73
     3
  0
LINE
  5
4A
  8
SPEC
  6
CONTINUOUS
 62
     7
 10
87.5
 20
1300.0
 30
0.0
 11
825.0
 21
1300.0
 31
0.0
  0
LINE
  5
4B
  8
SPEC
  6
CONTINUOUS
 62
     7
 10
87.5
 20
1281.25
 30
0.0
 11
825.0
 21
1281.25
 31
0.0
  0
LINE
  5
4C
  8
SPEC
  6
CONTINUOUS
 62
     7
 10
87.5
 20
1206.25
 30
0.0
 11
825.0
 21
1206.25
 31
0.0
  0
LINE
  5
4D
  8
SPEC
  6
CONTINUOUS
 62
     7
 10
87.5
 20
1225.0
 30
0.0
 11
825.0
 21
1225.0
 31
0.0
  0
LINE
  5
4E
  8
SPEC
  6
CONTINUOUS
 62
     7
 10
87.5
 20
1243.75
 30
0.0
 11
825.0
 21
1243.75
 31
0.0
  0
LINE
  5
4F
  8
SPEC
  6
CONTINUOUS
 62
     7
 10
87.5
 20
1187.5
 30
0.0
 11
825.0
 21
1187.5
 31
0.0
  0
LINE
  5
50
  8
SPEC
  6
CONTINUOUS
 62
     7
 10
87.5
 20
1150.0
 30
0.0
 11
825.0
 21
1150.0
 31
0.0
  0
LINE
  5
51
  8
SPEC
  6
CONTINUOUS
 62
     7
 10
87.5
 20
1168.75
 30
0.0
 11
825.0
 21
1168.75
 31
0.0
  0
LINE
  5
52
  8
SPEC
  6
CONTINUOUS
 62
     7
 10
87.5
 20
1131.25
 30
0.0
 11
825.0
 21
1131.25
 31
0.0
  0
LINE
  5
53
  8
SPEC
  6
CONTINUOUS
 62
     7
 10
87.5
 20
1112.5
 30
0.0
 11
825.0
 21
1112.5
 31
0.0
  0
LINE
  5
54
  8
SPEC
  6
CONTINUOUS
 62
     7
 10
87.5
 20
1262.5
 30
0.0
 11
825.0
 21
1262.5
 31
0.0
  0
TEXT
  5
55
  8
SPEC
 62
     7
 10
330.03507209147273
 20
1285.752362477521
 30
0.0
 40
9.5015562499999984
  1
KVM延長機
 41
0.7
 11
330.03507209147273
 21
1295.2539187275211
 31
0.0
 73
     3
  0
TEXT
  5
56
  8
SPEC
 62
     7
 10
93.75
 20
1306.9663499999999
 30
0.0
 40
12.21630859375
  1
仕様
 41
0.7
 11
93.75
 21
1319.1826585937499
 31
0.0
 73
     3
  0
TEXT
  5
57
  8
SPEC
 62
     7
 10
92.129146862918986
 20
1286.572335102054
 30
0.0
 40
9.5015562499999984
  1
形式
 41
0.7
 11
92.129146862918986
 21
1296.073891352054
 31
0.0
 73
     3
  0
TEXT
  5
58
  8
SPEC
 62
     7
 10
90.254434468074393
 20
1267.3593557981619
 30
0.0
 40
9.5015562499999984
  1
ビデオアンプ帯域
 41
0.7
 11
90.254434468074393
 21
1276.8609120481619
 31
0.0
 73
     3
  0
TEXT
  5
59
  8
SPEC
 62
     7
 10
330.12169274646959
 20
1267.0356275671929
 30
0.0
 40
9.5015562499999984
  1
350MHz
 41
0.7
 11
330.12169274646959
 21
1276.537183817193
 31
0.0
 73
     3
  0
LINE
  5
5A
  8
SPEC
  6
CONTINUOUS
 62
     7
 10
325.0
 20
1300.0
 30
0.0
 11
325.0
 21
962.5
 31
0.0
  0
LINE
  5
5B
  8
SPEC
  6
CONTINUOUS
 62
     7
 10
87.5
 20
1093.75
 30
0.0
 11
825.0
 21
1093.75
 31
0.0
  0
LINE
  5
5C
  8
SPEC
  6
CONTINUOUS
 62
     7
 10
87.5
 20
1075.0
 30
0.0
 11
825.0
 21
1075.0
 31
0.0
  0
LINE
  5
5D
  8
SPEC
  6
CONTINUOUS
 62
     7
 10
87.5
 20
1056.25
 30
0.0
 11
825.0
 21
1056.25
 31
0.0
  0
TEXT
  5
5E
  8
SPEC
 62
     7
 10
91.920955870213163
 20
1024.1647045531649
 30
0.0
 40
9.5015562499999984
  1
寸法
 41
0.7
 11
91.920955870213163
 21
1033.666260803165
 31
0.0
 73
     3
  0
TEXT
  5
5F
  8
SPEC
 62
     7
 10
330.14408357145771
 20
1022.61963015693
 30
0.0
 40
9.5015562499999984
  1
435(W)\U+00D744(H)\U+00D7109(D)mm(突起部含まず)、(センダー)
 41
0.7
 11
330.14408357145771
 21
1032.1211864069289
 31
0.0
 73
     3
  0
LINE
  5
60
  8
SPEC
  6
CONTINUOUS
 62
     7
 10
825.0
 20
1300.0
 30
0.0
 11
825.0
 21
962.5
 31
0.0
  0
TEXT
  5
61
  8
SPEC
 62
     7
 10
329.81393936597959
 20
984.71385322583865
 30
0.0
 40
9.5015562499999984
  1
約800g(センダー)
 41
0.7
 11
329.81393936597959
 21
994.21540947583878
 31
0.0
 73
     3
  0
TEXT
  5
62
  8
SPEC
 62
     7
 10
92.098185304839589
 20
987.55500800000004
 30
0.0
 40
9.5015562499999984
  1
重量
 41
0.7
 11
92.098185304839589
 21
997.05656424999995
 31
0.0
 73
     3
  0
LINE
  5
63
  8
SPEC
  6
CONTINUOUS
 62
     7
 10
87.5
 20
1037.5
 30
0.0
 11
825.0
 21
1037.5
 31
0.0
  0
TEXT
  5
64
  8
SPEC
 62
     7
 10
329.91156148374722
 20
1061.2264524280799
 30
0.0
 40
9.5015562499999984
  1
5V DC
 41
0.7
 11
329.91156148374722
 21
1070.728008678079
 31
0.0
 73
     3
  0
LINE
  5
65
  8
SPEC
  6
CONTINUOUS
 62
     7
 10
87.5
 20
1000.0
 30
0.0
 11
825.0
 21
1000.0
 31
0.0
  0
LINE
  5
66
  8
SPEC
  6
CONTINUOUS
 62
     7
 10
87.5
 20
1300.0
 30
0.0
 11
87.5
 21
962.5
 31
0.0
  0
TEXT
  5
67
  8
SPEC
 62
     7
 10
329.76514061150522
 20
1005.235461941228
 30
0.0
 40
9.5015562499999984
  1
214(W)\U+00D742(H)\U+00D7109(D)mm(突起部含まず)、(レシーバー)
 41
0.7
 11
329.76514061150522
 21
1014.737018191228
 31
0.0
 73
     3
  0
TEXT
  5
68
  8
SPEC
 62
     7
 10
92.092588318883458
 20
1192.5942792421081
 30
0.0
 40
9.5015733506944464
  1
対応水平同期周波数
 41
0.7
 11
92.092588318883458
 21
1202.095852592802
 31
0.0
 73
     3
  0
TEXT
  5
69
  8
SPEC
 62
     7
 10
92.139884440925229
 20
1155.226796778222
 30
0.0
 40
9.5015733506944464
  1
延長用コネクター
 41
0.7
 11
92.139884440925229
 21
1164.728370128917
 31
0.0
 73
     3
  0
TEXT
  5
6A
  8
SPEC
 62
     7
 10
90.407014936635917
 20
1229.8617088744199
 30
0.0
 40
9.5015733506944464
  1
ビデオ入力信号レベル
 41
0.7
 11
90.407014936635917
 21
1239.3632822251141
 31
0.0
 73
     3
  0
TEXT
  5
6B
  8
SPEC
 62
     7
 10
92.121165798705007
 20
1173.7615197532159
 30
0.0
 40
9.5015733506944464
  1
対応垂直同期周波数
 41
0.7
 11
92.121165798705007
 21
1183.26309310391
 31
0.0
 73
     3
  0
TEXT
  5
6C
  8
SPEC
 62
     7
 10
92.029920498727222
 20
1248.6863580483889
 30
0.0
 40
9.5015733506944464
  1
実働作帯域
 41
0.7
 11
92.029920498727222
 21
1258.187931399083
 31
0.0
 73
     3
  0
TEXT
  5
6D
  8
SPEC
 62
     7
 10
329.3089959201161
 20
1192.771628508596
 30
0.0
 40
9.5015733506944464
  1
15～70kHz
 41
0.7
 11
329.3089959201161
 21
1202.273201859291
 31
0.0
 73
     3
  0
TEXT
  5
6E
  8
SPEC
 62
     7
 10
329.90075410148768
 20
1154.6163670931701
 30
0.0
 40
9.5015733506944464
  1
RJ-45(CAT-5)8線
 41
0.7
 11
329.90075410148768
 21
1164.1179404438651
 31
0.0
 73
     3
  0
TEXT
  5
6F
  8
SPEC
 62
     7
 10
329.40418455068482
 20
1229.564409887937
 30
0.0
 40
9.5015733506944464
  1
1.2Vp-p
 41
0.7
 11
329.40418455068482
 21
1239.0659832386309
 31
0.0
 73
     3
  0
TEXT
  5
70
  8
SPEC
 62
     7
 10
329.98521491979727
 20
1173.774160595302
 30
0.0
 40
9.5015733506944464
  1
30～170Hz
 41
0.7
 11
329.98521491979727
 21
1183.2757339459961
 31
0.0
 73
     3
  0
TEXT
  5
71
  8
SPEC
 62
     7
 10
329.46145725934872
 20
1248.4052832145869
 30
0.0
 40
9.5015733506944464
  1
120MHz
 41
0.7
 11
329.46145725934872
 21
1257.906856565281
 31
0.0
 73
     3
  0
TEXT
  5
72
  8
SPEC
 62
     7
 10
92.770259408318637
 20
1099.295939590005
 30
0.0
 40
9.5015733506944464
  1
USB入力端子
 41
0.7
 11
92.770259408318637
 21
1108.7975129406991
 31
0.0
 73
     3
  0
TEXT
  5
73
  8
SPEC
 62
     7
 10
92.807668992239215
 20
1079.903281780932
 30
0.0
 40
9.5015733506944464
  1
USB出力端子
 41
0.7
 11
92.807668992239215
 21
1089.4048551316259
 31
0.0
 73
     3
  0
TEXT
  5
74
  8
SPEC
 62
     7
 10
329.95600861903989
 20
1098.4779664278819
 30
0.0
 40
9.5015733506944464
  1
Bタ イプコネクタ ー(センダー)
 41
0.7
 11
329.95600861903989
 21
1107.979539778577
 31
0.0
 73
     3
  0
TEXT
  5
75
  8
SPEC
 62
     7
 10
330.30153867127348
 20
1079.585912370904
 30
0.0
 40
9.5015733506944464
  1
Aタ イプコネクタ ー(レシーバー)
 41
0.7
 11
330.30153867127348
 21
1089.087485721599
 31
0.0
 73
     3
  0
TEXT
  5
76
  8
SPEC
 62
     7
 10
91.216455766397573
 20
1211.1601791007561
 30
0.0
 40
9.5015733506944464
  1
シンク入力信号レベル
 41
0.7
 11
91.216455766397573
 21
1220.66175245145
 31
0.0
 73
     3
  0
TEXT
  5
77
  8
SPEC
 62
     7
 10
329.89335734565748
 20
1211.109273529273
 30
0.0
 40
9.5015733506944464
  1
5Vp-p(TTL)
 41
0.7
 11
329.89335734565748
 21
1220.6108468799671
 31
0.0
 73
     3
  0
TEXT
  5
78
  8
SPEC
 62
     7
 10
92.670250458173257
 20
1136.3226920992529
 30
0.0
 40
9.5015733506944464
  1
VGA入力端子
 41
0.7
 11
92.670250458173257
 21
1145.824265449947
 31
0.0
 73
     3
  0
TEXT
  5
79
  8
SPEC
 62
     7
 10
329.83891041048508
 20
1135.6168769533861
 30
0.0
 40
9.5015733506944464
  1
D-Sub HD-15(オス)(センダー)
 41
0.7
 11
329.83891041048508
 21
1145.1184503040799
 31
0.0
 73
     3
  0
TEXT
  5
7A
  8
SPEC
 62
     7
 10
92.869077845963275
 20
1117.8840164460989
 30
0.0
 40
9.5015733506944464
  1
VGA出力端子
 41
0.7
 11
92.869077845963275
 21
1127.385589796794
 31
0.0
 73
     3
  0
TEXT
  5
7B
  8
SPEC
 62
     7
 10
329.87489436212962
 20
1117.2936691862051
 30
0.0
 40
9.5015733506944464
  1
D-Sub HD-15(メス)(センダー/レシーバー)
 41
0.7
 11
329.87489436212962
 21
1126.795242536899
 31
0.0
 73
     3
  0
TEXT
  5
7C
  8
SPEC
 62
     7
 10
92.084632062926005
 20
1061.2672381224011
 30
0.0
 40
9.5015562499999984
  1
電源
 41
0.7
 11
92.084632062926005
 21
1070.7687943724011
 31
0.0
 73
     3
  0
TEXT
  5
7D
  8
SPEC
 62
     7
 10
329.33021805354002
 20
1042.645699463362
 30
0.0
 40
9.5015562499999984
  1
1U(別売ラックマウントキット使用時)
 41
0.7
 11
329.33021805354002
 21
1052.147255713362
 31
0.0
 73
     3
  0
TEXT
  5
7E
  8
SPEC
 62
     7
 10
91.305987301498931
 20
1042.9878145354121
 30
0.0
 40
9.5015562499999984
  1
ラックマウントサイズ
 41
0.7
 11
91.305987301498931
 21
1052.4893707854119
 31
0.0
 73
     3
  0
LINE
  5
7F
  8
SPEC
  6
CONTINUOUS
 62
     7
 10
87.5
 20
962.5
 30
0.0
 11
825.0
 21
962.5
 31
0.0
  0
TEXT
  5
80
  8
SPEC
 62
     7
 10
329.79320906198672
 20
967.58322239187351
 30
0.0
 40
9.5015562499999984
  1
約500g(レシーバー)
 41
0.7
 11
329.79320906198672
 21
977.08477864187364
 31
0.0
 73
     3
  0
TEXT
  5
81
  8
DIMNSIONS
 62
     7
 10
400.0
 20
111.34744999999999
 30
0.0
 40
12.21630859375
  1
(単位：mm)
 41
0.7
 11
400.0
 21
123.5637585937499
 31
0.0
 73
     3
  0
LINE
  5
82
  8
DIMNSIONS
  6
CONTINUOUS
 62
     7
 10
225.0
 20
602.5
 30
0.0
 11
225.0
 21
565.0
 31
0.0
  0
LINE
  5
83
  8
DIMNSIONS
  6
CONTINUOUS
 62
     7
 10
660.0
 20
602.5
 30
0.0
 11
660.0
 21
565.0
 31
0.0
  0
LINE
  5
84
  8
DIMNSIONS
  6
CONTINUOUS
 62
     7
 10
225.0
 20
575.0
 30
0.0
 11
660.0
 21
575.0
 31
0.0
  0
LINE
  5
85
  8
DIMNSIONS
  6
CONTINUOUS
 62
     7
 10
225.0
 20
575.0
 30
0.0
 11
237.50311279296869
 21
578.35019897575125
 31
0.0
  0
LINE
  5
86
  8
DIMNSIONS
  6
CONTINUOUS
 62
     7
 10
225.0
 20
575.0
 30
0.0
 11
237.50311279296869
 21
571.64980102424875
 31
0.0
  0
LINE
  5
87
  8
DIMNSIONS
  6
CONTINUOUS
 62
     7
 10
660.0
 20
575.0
 30
0.0
 11
647.49688720703125
 21
571.64980102424875
 31
0.0
  0
LINE
  5
88
  8
DIMNSIONS
  6
CONTINUOUS
 62
     7
 10
660.0
 20
575.0
 30
0.0
 11
647.49688720703125
 21
578.35019897575125
 31
0.0
  0
TEXT
  5
89
  8
DIMNSIONS
 62
     7
 10
429.2708333333332
 20
579.96944444444455
 30
0.0
 40
13.57367621527778
  1
435
 41
0.7
 11
429.2708333333332
 21
593.54312065972238
 31
0.0
 73
     3
  0
LINE
  5
8A
  8
DIMNSIONS
  6
CONTINUOUS
 62
     7
 10
215.0
 20
612.5
 30
0.0
 11
177.5
 21
612.5
 31
0.0
  0
LINE
  5
8B
  8
DIMNSIONS
  6
CONTINUOUS
 62
     7
 10
215.0
 20
656.5
 30
0.0
 11
177.5
 21
656.5
 31
0.0
  0
LINE
  5
8C
  8
DIMNSIONS
  6
CONTINUOUS
 62
     7
 10
187.5
 20
612.5
 30
0.0
 11
187.5
 21
656.5
 31
0.0
  0
LINE
  5
8D
  8
DIMNSIONS
  6
CONTINUOUS
 62
     7
 10
187.5
 20
612.5
 30
0.0
 11
184.1498010242488
 21
625.00311279296875
 31
0.0
  0
LINE
  5
8E
  8
DIMNSIONS
  6
CONTINUOUS
 62
     7
 10
187.5
 20
612.5
 30
0.0
 11
190.8501989757512
 21
625.00311279296875
 31
0.0
  0
LINE
  5
8F
  8
DIMNSIONS
  6
CONTINUOUS
 62
     7
 10
187.5
 20
656.5
 30
0.0
 11
190.8501989757512
 21
643.99688720703125
 31
0.0
  0
LINE
  5
90
  8
DIMNSIONS
  6
CONTINUOUS
 62
     7
 10
187.5
 20
656.5
 30
0.0
 11
184.1498010242488
 21
643.99688720703125
 31
0.0
  0
TEXT
  5
91
  8
DIMNSIONS
 62
     7
 10
182.53055555555551
 20
625.68055555555554
 30
0.0
 40
13.57367621527778
  1
44
 50
90.0
 41
0.7
 11
168.95687934027771
 21
625.68055555555554
 31
0.0
 73
     3
  0
LINE
  5
92
  8
DIMNSIONS
  6
CONTINUOUS
 62
     7
 10
215.0
 20
796.49999999999989
 30
0.0
 11
177.5
 21
796.49999999999989
 31
0.0
  0
LINE
  5
93
  8
DIMNSIONS
  6
CONTINUOUS
 62
     7
 10
401.19570706295252
 20
800.5
 30
0.0
 11
177.5
 21
800.5
 31
0.0
  0
LINE
  5
94
  8
DIMNSIONS
  6
CONTINUOUS
 62
     7
 10
187.5
 20
800.5
 30
0.0
 11
187.5
 21
796.49999999999989
 31
0.0
  0
LINE
  5
95
  8
DIMNSIONS
  6
CONTINUOUS
 62
     7
 10
187.5
 20
796.49999999999989
 30
0.0
 11
187.5
 21
771.49999999999989
 31
0.0
  0
LINE
  5
96
  8
DIMNSIONS
  6
CONTINUOUS
 62
     7
 10
187.5
 20
796.49999999999989
 30
0.0
 11
190.8501989757512
 21
783.99688720703125
 31
0.0
  0
LINE
  5
97
  8
DIMNSIONS
  6
CONTINUOUS
 62
     7
 10
187.5
 20
796.49999999999989
 30
0.0
 11
184.1498010242488
 21
783.99688720703125
 31
0.0
  0
LINE
  5
98
  8
DIMNSIONS
  6
CONTINUOUS
 62
     7
 10
187.5
 20
800.5
 30
0.0
 11
187.5
 21
822.31944444444446
 31
0.0
  0
LINE
  5
99
  8
DIMNSIONS
  6
CONTINUOUS
 62
     7
 10
187.5
 20
800.5
 30
0.0
 11
184.1498010242488
 21
813.00311279296875
 31
0.0
  0
LINE
  5
9A
  8
DIMNSIONS
  6
CONTINUOUS
 62
     7
 10
187.5
 20
800.5
 30
0.0
 11
190.8501989757512
 21
813.00311279296875
 31
0.0
  0
TEXT
  5
9B
  8
DIMNSIONS
 62
     7
 10
182.53055555555551
 20
813.49999999999989
 30
0.0
 40
13.57367621527778
  1
4
 50
90.0
 41
0.7
 11
168.95687934027771
 21
813.49999999999989
 31
0.0
 73
     3
  0
LINE
  5
9C
  8
DIMNSIONS
  6
CONTINUOUS
 62
     7
 10
224.9999999996393
 20
215.00000000019409
 30
0.0
 11
224.9999999996393
 21
177.5
 31
0.0
  0
LINE
  5
9D
  8
DIMNSIONS
  6
CONTINUOUS
 62
     7
 10
438.99999999963751
 20
215.00000000019409
 30
0.0
 11
438.99999999963751
 21
177.5
 31
0.0
  0
LINE
  5
9E
  8
DIMNSIONS
  6
CONTINUOUS
 62
     7
 10
224.9999999996393
 20
187.5
 30
0.0
 11
438.99999999963751
 21
187.5
 31
0.0
  0
LINE
  5
9F
  8
DIMNSIONS
  6
CONTINUOUS
 62
     7
 10
224.9999999996393
 20
187.5
 30
0.0
 11
237.50311279260799
 21
190.8501989757512
 31
0.0
  0
LINE
  5
A0
  8
DIMNSIONS
  6
CONTINUOUS
 62
     7
 10
224.9999999996393
 20
187.5
 30
0.0
 11
237.50311279260799
 21
184.14980102424869
 31
0.0
  0
LINE
  5
A1
  8
DIMNSIONS
  6
CONTINUOUS
 62
     7
 10
438.99999999963751
 20
187.5
 30
0.0
 11
426.49688720666859
 21
184.14980102424869
 31
0.0
  0
LINE
  5
A2
  8
DIMNSIONS
  6
CONTINUOUS
 62
     7
 10
438.99999999963751
 20
187.5
 30
0.0
 11
426.49688720666859
 21
190.8501989757512
 31
0.0
  0
TEXT
  5
A3
  8
DIMNSIONS
 62
     7
 10
318.77083333297179
 20
192.46944444444449
 30
0.0
 40
13.57367621527778
  1
214
 41
0.7
 11
318.77083333297179
 21
206.04312065972229
 31
0.0
 73
     3
  0
LINE
  5
A4
  8
DIMNSIONS
  6
CONTINUOUS
 62
     7
 10
214.9999999996393
 20
225.00000000019409
 30
0.0
 11
177.5
 21
225.00000000019409
 31
0.0
  0
LINE
  5
A5
  8
DIMNSIONS
  6
CONTINUOUS
 62
     7
 10
214.9999999996393
 20
267.00000000019452
 30
0.0
 11
177.5
 21
267.00000000019452
 31
0.0
  0
LINE
  5
A6
  8
DIMNSIONS
  6
CONTINUOUS
 62
     7
 10
187.5
 20
225.00000000019409
 30
0.0
 11
187.5
 21
267.00000000019452
 31
0.0
  0
LINE
  5
A7
  8
DIMNSIONS
  6
CONTINUOUS
 62
     7
 10
187.5
 20
225.00000000019409
 30
0.0
 11
184.1498010242488
 21
237.50311279316281
 31
0.0
  0
LINE
  5
A8
  8
DIMNSIONS
  6
CONTINUOUS
 62
     7
 10
187.5
 20
225.00000000019409
 30
0.0
 11
190.8501989757512
 21
237.50311279316281
 31
0.0
  0
LINE
  5
A9
  8
DIMNSIONS
  6
CONTINUOUS
 62
     7
 10
187.5
 20
267.00000000019452
 30
0.0
 11
190.8501989757512
 21
254.49688720722571
 31
0.0
  0
LINE
  5
AA
  8
DIMNSIONS
  6
CONTINUOUS
 62
     7
 10
187.5
 20
267.00000000019452
 30
0.0
 11
184.1498010242488
 21
254.49688720722571
 31
0.0
  0
TEXT
  5
AB
  8
DIMNSIONS
 62
     7
 10
182.53055555555551
 20
237.18055555574989
 30
0.0
 40
13.57367621527778
  1
42
 50
90.0
 41
0.7
 11
168.95687934027771
 21
237.18055555574989
 31
0.0
 73
     3
  0
LINE
  5
AC
  8
DIMNSIONS
  6
CONTINUOUS
 62
     7
 10
214.9999999996393
 20
300.00000000019452
 30
0.0
 11
177.5
 21
300.00000000019452
 31
0.0
  0
LINE
  5
AD
  8
DIMNSIONS
  6
CONTINUOUS
 62
     7
 10
214.9999999996393
 20
409.0000000001944
 30
0.0
 11
177.5
 21
409.0000000001944
 31
0.0
  0
LINE
  5
AE
  8
DIMNSIONS
  6
CONTINUOUS
 62
     7
 10
187.5
 20
300.00000000019452
 30
0.0
 11
187.5
 21
409.0000000001944
 31
0.0
  0
LINE
  5
AF
  8
DIMNSIONS
  6
CONTINUOUS
 62
     7
 10
187.5
 20
300.00000000019452
 30
0.0
 11
184.1498010242488
 21
312.50311279316321
 31
0.0
  0
LINE
  5
B0
  8
DIMNSIONS
  6
CONTINUOUS
 62
     7
 10
187.5
 20
300.00000000019452
 30
0.0
 11
190.8501989757512
 21
312.50311279316321
 31
0.0
  0
LINE
  5
B1
  8
DIMNSIONS
  6
CONTINUOUS
 62
     7
 10
187.5
 20
409.0000000001944
 30
0.0
 11
190.8501989757512
 21
396.49688720722571
 31
0.0
  0
LINE
  5
B2
  8
DIMNSIONS
  6
CONTINUOUS
 62
     7
 10
187.5
 20
409.0000000001944
 30
0.0
 11
184.1498010242488
 21
396.49688720722571
 31
0.0
  0
TEXT
  5
B3
  8
DIMNSIONS
 62
     7
 10
182.53055555555551
 20
341.27083333352778
 30
0.0
 40
13.57367621527778
  1
109
 50
90.0
 41
0.7
 11
168.95687934027771
 21
341.27083333352778
 31
0.0
 73
     3
  0
LINE
  5
B4
  8
DIMNSIONS
  6
CONTINUOUS
 62
     7
 10
214.9999999996393
 20
409.0000000001944
 30
0.0
 11
177.5
 21
409.0000000001944
 31
0.0
  0
LINE
  5
B5
  8
DIMNSIONS
  6
CONTINUOUS
 62
     7
 10
328.04662682741429
 20
413.00000000019452
 30
0.0
 11
177.5
 21
413.00000000019452
 31
0.0
  0
LINE
  5
B6
  8
DIMNSIONS
  6
CONTINUOUS
 62
     7
 10
187.5
 20
413.00000000019452
 30
0.0
 11
187.5
 21
409.0000000001944
 31
0.0
  0
LINE
  5
B7
  8
DIMNSIONS
  6
CONTINUOUS
 62
     7
 10
187.5
 20
409.0000000001944
 30
0.0
 11
187.5
 21
384.0000000001944
 31
0.0
  0
LINE
  5
B8
  8
DIMNSIONS
  6
CONTINUOUS
 62
     7
 10
187.5
 20
409.0000000001944
 30
0.0
 11
190.8501989757512
 21
396.49688720722571
 31
0.0
  0
LINE
  5
B9
  8
DIMNSIONS
  6
CONTINUOUS
 62
     7
 10
187.5
 20
409.0000000001944
 30
0.0
 11
184.1498010242488
 21
396.49688720722571
 31
0.0
  0
LINE
  5
BA
  8
DIMNSIONS
  6
CONTINUOUS
 62
     7
 10
187.5
 20
413.00000000019452
 30
0.0
 11
187.5
 21
433.81944444444451
 31
0.0
  0
LINE
  5
BB
  8
DIMNSIONS
  6
CONTINUOUS
 62
     7
 10
187.5
 20
413.00000000019452
 30
0.0
 11
184.1498010242488
 21
425.50311279316321
 31
0.0
  0
LINE
  5
BC
  8
DIMNSIONS
  6
CONTINUOUS
 62
     7
 10
187.5
 20
413.00000000019452
 30
0.0
 11
190.8501989757512
 21
425.50311279316321
 31
0.0
  0
TEXT
  5
BD
  8
DIMNSIONS
 62
     7
 10
182.53055555555551
 20
425.0
 30
0.0
 40
13.57367621527778
  1
4
 50
90.0
 41
0.7
 11
168.95687934027771
 21
425.0
 31
0.0
 73
     3
  0
LINE
  5
BE
  8
DIMNSIONS
  6
CONTINUOUS
 62
     7
 10
215.0
 20
687.5
 30
0.0
 11
177.5
 21
687.5
 31
0.0
  0
LINE
  5
BF
  8
DIMNSIONS
  6
CONTINUOUS
 62
     7
 10
215.0
 20
796.49999999999989
 30
0.0
 11
177.5
 21
796.49999999999989
 31
0.0
  0
LINE
  5
C0
  8
DIMNSIONS
  6
CONTINUOUS
 62
     7
 10
187.5
 20
687.5
 30
0.0
 11
187.5
 21
796.49999999999989
 31
0.0
  0
LINE
  5
C1
  8
DIMNSIONS
  6
CONTINUOUS
 62
     7
 10
187.5
 20
687.5
 30
0.0
 11
184.1498010242488
 21
700.00311279296875
 31
0.0
  0
LINE
  5
C2
  8
DIMNSIONS
  6
CONTINUOUS
 62
     7
 10
187.5
 20
687.5
 30
0.0
 11
190.8501989757512
 21
700.00311279296875
 31
0.0
  0
LINE
  5
C3
  8
DIMNSIONS
  6
CONTINUOUS
 62
     7
 10
187.5
 20
796.49999999999989
 30
0.0
 11
190.8501989757512
 21
783.99688720703125
 31
0.0
  0
LINE
  5
C4
  8
DIMNSIONS
  6
CONTINUOUS
 62
     7
 10
187.5
 20
796.49999999999989
 30
0.0
 11
184.1498010242488
 21
783.99688720703125
 31
0.0
  0
TEXT
  5
C5
  8
DIMNSIONS
 62
     7
 10
182.53055555555551
 20
728.77083333333314
 30
0.0
 40
13.57367621527778
  1
109
 50
90.0
 41
0.7
 11
168.95687934027771
 21
728.77083333333314
 31
0.0
 73
     3
  0
LINE
  5
C6
  8
DIMNSIONS
  6
CONTINUOUS
 62
     7
 10
218.31957003464731
 20
608.49999999999989
 30
0.0
 11
177.5
 21
608.49999999999989
 31
0.0
  0
LINE
  5
C7
  8
DIMNSIONS
  6
CONTINUOUS
 62
     7
 10
215.0
 20
612.5
 30
0.0
 11
177.5
 21
612.5
 31
0.0
  0
LINE
  5
C8
  8
DIMNSIONS
  6
CONTINUOUS
 62
     7
 10
187.5
 20
612.5
 30
0.0
 11
187.5
 21
608.49999999999989
 31
0.0
  0
LINE
  5
C9
  8
DIMNSIONS
  6
CONTINUOUS
 62
     7
 10
187.5
 20
608.49999999999989
 30
0.0
 11
187.5
 21
578.68055555555554
 31
0.0
  0
LINE
  5
CA
  8
DIMNSIONS
  6
CONTINUOUS
 62
     7
 10
187.5
 20
608.49999999999989
 30
0.0
 11
190.8501989757512
 21
595.99688720703125
 31
0.0
  0
LINE
  5
CB
  8
DIMNSIONS
  6
CONTINUOUS
 62
     7
 10
187.5
 20
608.49999999999989
 30
0.0
 11
184.1498010242488
 21
595.99688720703125
 31
0.0
  0
LINE
  5
CC
  8
DIMNSIONS
  6
CONTINUOUS
 62
     7
 10
187.5
 20
612.5
 30
0.0
 11
187.5
 21
637.5
 31
0.0
  0
LINE
  5
CD
  8
DIMNSIONS
  6
CONTINUOUS
 62
     7
 10
187.5
 20
612.5
 30
0.0
 11
184.1498010242488
 21
625.00311279296875
 31
0.0
  0
LINE
  5
CE
  8
DIMNSIONS
  6
CONTINUOUS
 62
     7
 10
187.5
 20
612.5
 30
0.0
 11
190.8501989757512
 21
625.00311279296875
 31
0.0
  0
TEXT
  5
CF
  8
DIMNSIONS
 62
     7
 10
182.53055555555551
 20
578.68055555555554
 30
0.0
 40
13.57367621527778
  1
4
 50
90.0
 41
0.7
 11
168.95687934027771
 21
578.68055555555554
 31
0.0
 73
     3
  0
LINE
  5
D0
  8
DIMNSIONS
  6
CONTINUOUS
 62
     7
 10
220.09935527919569
 20
221.00000000019389
 30
0.0
 11
177.5
 21
221.00000000019389
 31
0.0
  0
LINE
  5
D1
  8
DIMNSIONS
  6
CONTINUOUS
 62
     7
 10
214.9999999996393
 20
225.00000000019409
 30
0.0
 11
177.5
 21
225.00000000019409
 31
0.0
  0
LINE
  5
D2
  8
DIMNSIONS
  6
CONTINUOUS
 62
     7
 10
187.5
 20
225.00000000019409
 30
0.0
 11
187.5
 21
221.00000000019389
 31
0.0
  0
LINE
  5
D3
  8
DIMNSIONS
  6
CONTINUOUS
 62
     7
 10
187.5
 20
221.00000000019389
 30
0.0
 11
187.5
 21
191.1805555555556
 31
0.0
  0
LINE
  5
D4
  8
DIMNSIONS
  6
CONTINUOUS
 62
     7
 10
187.5
 20
221.00000000019389
 30
0.0
 11
190.8501989757512
 21
208.4968872072252
 31
0.0
  0
LINE
  5
D5
  8
DIMNSIONS
  6
CONTINUOUS
 62
     7
 10
187.5
 20
221.00000000019389
 30
0.0
 11
184.1498010242488
 21
208.4968872072252
 31
0.0
  0
LINE
  5
D6
  8
DIMNSIONS
  6
CONTINUOUS
 62
     7
 10
187.5
 20
225.00000000019409
 30
0.0
 11
187.5
 21
250.00000000019409
 31
0.0
  0
LINE
  5
D7
  8
DIMNSIONS
  6
CONTINUOUS
 62
     7
 10
187.5
 20
225.00000000019409
 30
0.0
 11
184.1498010242488
 21
237.50311279316281
 31
0.0
  0
LINE
  5
D8
  8
DIMNSIONS
  6
CONTINUOUS
 62
     7
 10
187.5
 20
225.00000000019409
 30
0.0
 11
190.8501989757512
 21
237.50311279316281
 31
0.0
  0
TEXT
  5
D9
  8
DIMNSIONS
 62
     7
 10
182.53055555555551
 20
191.1805555555556
 30
0.0
 40
13.57367621527778
  1
4
 50
90.0
 41
0.7
 11
168.95687934027771
 21
191.1805555555556
 31
0.0
 73
     3
  0
TEXT
  5
DA
  8
DATA
 62
     7
 10
750.0
 20
105.65445
 30
0.0
 40
12.21630859375
  1
EXT-CAT5-5000
 41
0.7
 11
750.0
 21
117.87075859375
 31
0.0
 73
     3
  0
TEXT
  5
DB
  8
DATA
 62
     7
 10
750.0
 20
141.90445
 30
0.0
 40
12.21630859375
  1
Gefen
 41
0.7
 11
750.0
 21
154.12075859375
 31
0.0
 73
     3
  0
TEXT
  5
DC
  8
DATA
 62
     7
 10
737.5
 20
124.51966899999999
 30
0.0
 40
8.1442185546874981
  1
KVM延長機
 41
0.7
 11
737.5
 21
132.66388755468751
 31
0.0
 73
     3
  0
TEXT
  5
DD
  8
DATA
 62
     7
 10
100.0
 20
71.190000000000111
 30
0.0
 40
8.1442057291666661
  1
仕様および外観は予告なく変更されることがありますので、ご了承ください。
 41
0.7
 11
100.0
 21
79.334205729166783
 31
0.0
 73
     3
  0
TEXT
  5
DE
  8
DATA
 62
     7
 10
561.79190438666012
 20
639.97648260834319
 30
0.0
 40
10.85894097222222
  1
CAT5
 41
0.7
 11
561.79190438666012
 21
650.83542358056525
 31
0.0
 73
     3
  0
TEXT
  5
DF
  8
DATA
 62
     7
 10
594.88151815671995
 20
639.97648260834319
 30
0.0
 40
10.85894097222222
  1
5000S
 41
0.7
 11
594.88151815671995
 21
650.83542358056525
 31
0.0
 73
     3
  0
CIRCLE
  5
E0
  8
DATA
  6
CONTINUOUS
 62
     7
 10
592.59390531706981
 20
645.66468731474993
 30
0.0
 40
0.8706339423393181
  0
CIRCLE
  5
E1
  8
DATA
  6
CONTINUOUS
 62
     7
 10
630.96602879455679
 20
863.55449049573576
 30
0.0
 40
3.3000000000000682
  0
CIRCLE
  5
E2
  8
DATA
  6
CONTINUOUS
 62
     7
 10
630.96602879455679
 20
863.55449049573576
 30
0.0
 40
0.5850000000000364
  0
LINE
  5
E3
  8
DATA
  6
CONTINUOUS
 62
     7
 10
350.77523189262109
 20
856.25211580874361
 30
0.0
 11
350.77523189262109
 21
869.55211580874391
 31
0.0
  0
LINE
  5
E4
  8
DATA
  6
CONTINUOUS
 62
     7
 10
366.47523189262091
 20
856.25211580874361
 30
0.0
 11
366.47523189262091
 21
869.55211580874391
 31
0.0
  0
LINE
  5
E5
  8
DATA
  6
CONTINUOUS
 62
     7
 10
364.77523189262109
 20
859.25211580874361
 30
0.0
 11
364.77523189262109
 21
866.55211580874402
 31
0.0
  0
LINE
  5
E6
  8
DATA
  6
CONTINUOUS
 62
     7
 10
352.47523189262108
 20
859.25211580874361
 30
0.0
 11
352.47523189262108
 21
866.55211580874402
 31
0.0
  0
LINE
  5
E7
  8
DATA
  6
CONTINUOUS
 62
     7
 10
367.50011816308768
 20
856.25211580874361
 30
0.0
 11
367.50011816308768
 21
869.55211580874391
 31
0.0
  0
LINE
  5
E8
  8
DATA
  6
CONTINUOUS
 62
     7
 10
383.20011816308772
 20
856.25211580874361
 30
0.0
 11
383.20011816308772
 21
869.55211580874391
 31
0.0
  0
LINE
  5
E9
  8
DATA
  6
CONTINUOUS
 62
     7
 10
381.50011816308768
 20
859.25211580874361
 30
0.0
 11
381.50011816308768
 21
866.55211580874402
 31
0.0
  0
LINE
  5
EA
  8
DATA
  6
CONTINUOUS
 62
     7
 10
369.20011816308772
 20
859.25211580874361
 30
0.0
 11
369.20011816308772
 21
866.55211580874402
 31
0.0
  0
CIRCLE
  5
EB
  8
DATA
  6
CONTINUOUS
 62
     7
 10
391.4765269595207
 20
868.87266388929993
 30
0.0
 40
3.0
  0
CIRCLE
  5
EC
  8
DATA
  6
CONTINUOUS
 62
     7
 10
391.4765269595207
 20
868.87266388929993
 30
0.0
 40
1.649999999999977
  0
CIRCLE
  5
ED
  8
DATA
  6
CONTINUOUS
 62
     7
 10
726.5
 20
650.49999999999989
 30
0.0
 40
2.0
  0
LINE
  5
EE
  8
DATA
  6
CONTINUOUS
 62
     7
 10
725.02945588301452
 20
650.49999999999989
 30
0.0
 11
727.97054411698525
 21
650.49999999999989
 31
0.0
  0
LINE
  5
EF
  8
DATA
  6
CONTINUOUS
 62
     7
 10
726.5
 20
649.02945588301452
 30
0.0
 11
726.5
 21
651.97054411698525
 31
0.0
  0
CIRCLE
  5
F0
  8
DATA
  6
CONTINUOUS
 62
     7
 10
726.5
 20
618.99583716316238
 30
0.0
 40
2.0
  0
LINE
  5
F1
  8
DATA
  6
CONTINUOUS
 62
     7
 10
725.02945588301452
 20
618.99583716316238
 30
0.0
 11
727.97054411698525
 21
618.99583716316238
 31
0.0
  0
LINE
  5
F2
  8
DATA
  6
CONTINUOUS
 62
     7
 10
726.5
 20
617.52529304617713
 30
0.0
 11
726.5
 21
620.46638128014774
 31
0.0
  0
LINE
  5
F3
  8
DATA
  6
CONTINUOUS
 62
     7
 10
225.0
 20
612.5
 30
0.0
 11
225.0
 21
656.5
 31
0.0
  0
LINE
  5
F4
  8
DATA
  6
CONTINUOUS
 62
     7
 10
660.0
 20
612.5
 30
0.0
 11
225.0
 21
612.5
 31
0.0
  0
LINE
  5
F5
  8
DATA
  6
CONTINUOUS
 62
     7
 10
660.0
 20
656.5
 30
0.0
 11
660.0
 21
612.5
 31
0.0
  0
LINE
  5
F6
  8
DATA
  6
CONTINUOUS
 62
     7
 10
660.0
 20
687.5
 30
0.0
 11
225.0
 21
687.5
 31
0.0
  0
LINE
  5
F7
  8
DATA
  6
CONTINUOUS
 62
     7
 10
712.5
 20
612.5
 30
0.0
 11
712.5
 21
656.5
 31
0.0
  0
LINE
  5
F8
  8
DATA
  6
CONTINUOUS
 62
     7
 10
660.0
 20
881.49999999999989
 30
0.0
 11
660.0
 21
837.5
 31
0.0
  0
LINE
  5
F9
  8
DATA
  6
CONTINUOUS
 62
     7
 10
225.0
 20
881.49999999999989
 30
0.0
 11
660.0
 21
881.49999999999989
 31
0.0
  0
LINE
  5
FA
  8
DATA
  6
CONTINUOUS
 62
     7
 10
225.0
 20
837.5
 30
0.0
 11
225.0
 21
881.49999999999989
 31
0.0
  0
CIRCLE
  5
FB
  8
DATA
  6
CONTINUOUS
 62
     7
 10
610.0
 20
628.5
 30
0.0
 40
1.5
  0
LINE
  5
FC
  8
DATA
  6
CONTINUOUS
 62
     7
 10
364.77523189262109
 20
859.25211580874361
 30
0.0
 11
352.47523189262108
 21
859.25211580874361
 31
0.0
  0
LINE
  5
FD
  8
DATA
  6
CONTINUOUS
 62
     7
 10
360.85023189262091
 20
869.55211580874391
 30
0.0
 11
360.85023189262091
 21
868.05211580874379
 31
0.0
  0
LINE
  5
FE
  8
DATA
  6
CONTINUOUS
 62
     7
 10
356.40023189262109
 20
868.05211580874379
 30
0.0
 11
356.40023189262109
 21
869.55211580874391
 31
0.0
  0
LINE
  5
FF
  8
DATA
  6
CONTINUOUS
 62
     7
 10
361.97523189262091
 20
868.05211580874379
 30
0.0
 11
360.85023189262091
 21
868.05211580874379
 31
0.0
  0
LINE
  5
100
  8
DATA
  6
CONTINUOUS
 62
     7
 10
356.40023189262109
 20
868.05211580874379
 30
0.0
 11
355.27523189262109
 21
868.05211580874379
 31
0.0
  0
LINE
  5
101
  8
DATA
  6
CONTINUOUS
 62
     7
 10
364.77523189262109
 20
866.55211580874402
 30
0.0
 11
361.97523189262091
 21
866.55211580874402
 31
0.0
  0
LINE
  5
102
  8
DATA
  6
CONTINUOUS
 62
     7
 10
355.27523189262109
 20
866.55211580874402
 30
0.0
 11
352.47523189262108
 21
866.55211580874402
 31
0.0
  0
LINE
  5
103
  8
DATA
  6
CONTINUOUS
 62
     7
 10
361.97523189262091
 20
868.05211580874379
 30
0.0
 11
361.97523189262091
 21
866.55211580874402
 31
0.0
  0
LINE
  5
104
  8
DATA
  6
CONTINUOUS
 62
     7
 10
355.27523189262109
 20
866.55211580874402
 30
0.0
 11
355.27523189262109
 21
868.05211580874379
 31
0.0
  0
LINE
  5
105
  8
DATA
  6
CONTINUOUS
 62
     7
 10
381.50011816308768
 20
859.25211580874361
 30
0.0
 11
369.20011816308772
 21
859.25211580874361
 31
0.0
  0
LINE
  5
106
  8
DATA
  6
CONTINUOUS
 62
     7
 10
377.57511816308772
 20
869.55211580874391
 30
0.0
 11
377.57511816308772
 21
868.05211580874379
 31
0.0
  0
LINE
  5
107
  8
DATA
  6
CONTINUOUS
 62
     7
 10
373.12511816308768
 20
868.05211580874379
 30
0.0
 11
373.12511816308768
 21
869.55211580874391
 31
0.0
  0
LINE
  5
108
  8
DATA
  6
CONTINUOUS
 62
     7
 10
378.70011816308772
 20
868.05211580874379
 30
0.0
 11
377.57511816308772
 21
868.05211580874379
 31
0.0
  0
LINE
  5
109
  8
DATA
  6
CONTINUOUS
 62
     7
 10
373.12511816308768
 20
868.05211580874379
 30
0.0
 11
372.00011816308768
 21
868.05211580874379
 31
0.0
  0
LINE
  5
10A
  8
DATA
  6
CONTINUOUS
 62
     7
 10
381.50011816308768
 20
866.55211580874402
 30
0.0
 11
378.70011816308772
 21
866.55211580874402
 31
0.0
  0
LINE
  5
10B
  8
DATA
  6
CONTINUOUS
 62
     7
 10
372.00011816308768
 20
866.55211580874402
 30
0.0
 11
369.20011816308772
 21
866.55211580874402
 31
0.0
  0
LINE
  5
10C
  8
DATA
  6
CONTINUOUS
 62
     7
 10
378.70011816308772
 20
868.05211580874379
 30
0.0
 11
378.70011816308772
 21
866.55211580874402
 31
0.0
  0
LINE
  5
10D
  8
DATA
  6
CONTINUOUS
 62
     7
 10
372.00011816308768
 20
866.55211580874402
 30
0.0
 11
372.00011816308768
 21
868.05211580874379
 31
0.0
  0
LINE
  5
10E
  8
DATA
  6
CONTINUOUS
 62
     7
 10
257.91483316624573
 20
869.5981382517574
 30
0.0
 11
257.91483316624573
 21
857.59813825175752
 31
0.0
  0
LINE
  5
10F
  8
DATA
  6
CONTINUOUS
 62
     7
 10
245.9148331662457
 20
869.5981382517574
 30
0.0
 11
257.91483316624573
 21
869.5981382517574
 31
0.0
  0
LINE
  5
110
  8
DATA
  6
CONTINUOUS
 62
     7
 10
245.9148331662457
 20
857.59813825175752
 30
0.0
 11
245.9148331662457
 21
869.5981382517574
 31
0.0
  0
LINE
  5
111
  8
DATA
  6
CONTINUOUS
 62
     7
 10
257.91483316624573
 20
857.59813825175752
 30
0.0
 11
245.9148331662457
 21
857.59813825175752
 31
0.0
  0
LINE
  5
112
  8
DATA
  6
CONTINUOUS
 62
     7
 10
247.6648331662457
 20
867.8481382517574
 30
0.0
 11
256.16483316624573
 21
867.8481382517574
 31
0.0
  0
LINE
  5
113
  8
DATA
  6
CONTINUOUS
 62
     7
 10
256.16483316624573
 20
867.8481382517574
 30
0.0
 11
256.16483316624573
 21
860.99813825175738
 31
0.0
  0
LINE
  5
114
  8
DATA
  6
CONTINUOUS
 62
     7
 10
247.6648331662457
 20
860.99813825175738
 30
0.0
 11
247.6648331662457
 21
867.8481382517574
 31
0.0
  0
LINE
  5
115
  8
DATA
  6
CONTINUOUS
 62
     7
 10
254.1648331662457
 20
858.99813825175738
 30
0.0
 11
249.6648331662457
 21
858.99813825175738
 31
0.0
  0
LINE
  5
116
  8
DATA
  6
CONTINUOUS
 62
     7
 10
256.16483316624573
 20
860.99813825175738
 30
0.0
 11
254.1648331662457
 21
858.99813825175738
 31
0.0
  0
LINE
  5
117
  8
DATA
  6
CONTINUOUS
 62
     7
 10
247.6648331662457
 20
860.99813825175738
 30
0.0
 11
249.6648331662457
 21
858.99813825175738
 31
0.0
  0
POLYLINE
  5
118
  8
DATA
  6
CONTINUOUS
 62
     7
 66
     1
 10
0.0
 20
0.0
 30
0.0
 70
     1
  0
VERTEX
  5
473
  8
DATA
  6
CONTINUOUS
 62
     7
 10
248.9148331662457
 20
865.90649031955627
 30
0.0
  0
VERTEX
  5
474
  8
DATA
  6
CONTINUOUS
 62
     7
 10
254.9148331662457
 20
865.90649031955627
 30
0.0
  0
VERTEX
  5
475
  8
DATA
  6
CONTINUOUS
 62
     7
 10
254.9148331662457
 20
862.10649031955654
 30
0.0
  0
VERTEX
  5
476
  8
DATA
  6
CONTINUOUS
 62
     7
 10
248.9148331662457
 20
862.10649031955654
 30
0.0
  0
SEQEND
  5
477
  8
DATA
  6
CONTINUOUS
 62
     7
  0
TEXT
  5
11F
  8
DATA
 62
     7
 10
258.83289313955692
 20
875.61896966009226
 30
0.0
 40
3.121945529513888
  1
USB In 
 50
180.0
 41
0.7
 11
258.83289313955692
 21
872.49702413057832
 31
0.0
 73
     3
  0
TEXT
  5
120
  8
DATA
 62
     7
 10
637.11061018291946
 20
876.50039692111056
 30
0.0
 40
3.121945529513888
  1
+5 Vdc
 50
180.0
 41
0.7
 11
637.11061018291946
 21
873.37845139159651
 31
0.0
 73
     3
  0
TEXT
  5
121
  8
DATA
 62
     7
 10
363.74236111111122
 20
846.39120008998884
 30
0.0
 40
3.121945529513888
  1
CAT-5
 50
180.0
 41
0.7
 11
363.74236111111122
 21
843.26925456047479
 31
0.0
 73
     3
  0
LINE
  5
122
  8
DATA
  6
CONTINUOUS
 62
     7
 10
660.0
 20
656.5
 30
0.0
 11
225.0
 21
656.5
 31
0.0
  0
LINE
  5
123
  8
DATA
  6
CONTINUOUS
 62
     7
 10
225.0
 20
837.5
 30
0.0
 11
660.0
 21
837.5
 31
0.0
  0
TEXT
  5
124
  8
DATA
 62
     7
 10
604.80351480887975
 20
614.43990013325811
 30
0.0
 40
3.121945529513888
  1
Power
 41
0.7
 11
604.80351480887975
 21
617.56184566277204
 31
0.0
 73
     3
  0
LINE
  5
125
  8
DATA
  6
CONTINUOUS
 62
     7
 10
228.31957003464731
 20
608.49999999999989
 30
0.0
 11
227.31957003464731
 21
612.5
 31
0.0
  0
LINE
  5
126
  8
DATA
  6
CONTINUOUS
 62
     7
 10
245.31957003464879
 20
612.5
 30
0.0
 11
244.31957003464879
 21
608.49999999999989
 31
0.0
  0
LINE
  5
127
  8
DATA
  6
CONTINUOUS
 62
     7
 10
656.6804299653528
 20
608.49999999999989
 30
0.0
 11
657.68042996535269
 21
612.5
 31
0.0
  0
LINE
  5
128
  8
DATA
  6
CONTINUOUS
 62
     7
 10
639.6804299653511
 20
612.5
 30
0.0
 11
640.6804299653511
 21
608.49999999999989
 31
0.0
  0
LINE
  5
129
  8
DATA
  6
CONTINUOUS
 62
     7
 10
228.31957003464731
 20
608.49999999999989
 30
0.0
 11
244.31957003464879
 21
608.49999999999989
 31
0.0
  0
LINE
  5
12A
  8
DATA
  6
CONTINUOUS
 62
     7
 10
640.6804299653511
 20
608.49999999999989
 30
0.0
 11
656.6804299653528
 21
608.49999999999989
 31
0.0
  0
LINE
  5
12B
  8
DATA
  6
CONTINUOUS
 62
     7
 10
660.0
 20
796.49999999999989
 30
0.0
 11
225.0
 21
796.49999999999989
 31
0.0
  0
LINE
  5
12C
  8
DATA
  6
CONTINUOUS
 62
     7
 10
660.0
 20
696.49999999999989
 30
0.0
 11
225.0
 21
696.49999999999989
 31
0.0
  0
LINE
  5
12D
  8
DATA
  6
CONTINUOUS
 62
     7
 10
228.31957003464731
 20
885.49999999961346
 30
0.0
 11
227.31957003464731
 21
881.49999999961335
 31
0.0
  0
LINE
  5
12E
  8
DATA
  6
CONTINUOUS
 62
     7
 10
245.31957003464879
 20
881.49999999961335
 30
0.0
 11
244.31957003464879
 21
885.49999999961346
 31
0.0
  0
LINE
  5
12F
  8
DATA
  6
CONTINUOUS
 62
     7
 10
656.6804299653528
 20
885.49999999961346
 30
0.0
 11
657.68042996535269
 21
881.49999999961335
 31
0.0
  0
LINE
  5
130
  8
DATA
  6
CONTINUOUS
 62
     7
 10
639.6804299653511
 20
881.49999999961335
 30
0.0
 11
640.6804299653511
 21
885.49999999961346
 31
0.0
  0
LINE
  5
131
  8
DATA
  6
CONTINUOUS
 62
     7
 10
228.31957003464731
 20
885.49999999961346
 30
0.0
 11
244.31957003464879
 21
885.49999999961346
 31
0.0
  0
LINE
  5
132
  8
DATA
  6
CONTINUOUS
 62
     7
 10
640.6804299653511
 20
885.49999999961346
 30
0.0
 11
656.6804299653528
 21
885.49999999961346
 31
0.0
  0
TEXT
  5
133
  8
DATA
 62
     7
 10
600.02974400039795
 20
876.4781205290351
 30
0.0
 40
2.4432617187500001
  1
Monitor 1
 50
180.0
 41
0.7
 11
600.02974400039795
 21
874.03485881028496
 31
0.0
 73
     3
  0
CIRCLE
  5
134
  8
DATA
  6
CONTINUOUS
 62
     7
 10
580.46123499656835
 20
863.55000788697532
 30
0.0
 40
1.175000000000068
  0
POLYLINE
  5
135
  8
DATA
  6
CONTINUOUS
 62
     7
 66
     1
 10
0.0
 20
0.0
 30
0.0
 70
     1
  0
VERTEX
  5
478
  8
DATA
  6
CONTINUOUS
 62
     7
 10
580.46123499656835
 20
860.85000788697539
 30
0.0
  0
VERTEX
  5
479
  8
DATA
  6
CONTINUOUS
 62
     7
 10
582.79950358678627
 20
862.20000788697553
 30
0.0
  0
VERTEX
  5
47A
  8
DATA
  6
CONTINUOUS
 62
     7
 10
582.79950358678627
 20
864.90000788697535
 30
0.0
  0
VERTEX
  5
47B
  8
DATA
  6
CONTINUOUS
 62
     7
 10
580.46123499656835
 20
866.25000788697525
 30
0.0
  0
VERTEX
  5
47C
  8
DATA
  6
CONTINUOUS
 62
     7
 10
578.12296640635043
 20
864.90000788697535
 30
0.0
  0
VERTEX
  5
47D
  8
DATA
  6
CONTINUOUS
 62
     7
 10
578.12296640635043
 20
862.20000788697553
 30
0.0
  0
SEQEND
  5
47E
  8
DATA
  6
CONTINUOUS
 62
     7
  0
CIRCLE
  5
13E
  8
DATA
  6
CONTINUOUS
 62
     7
 10
605.46123499656835
 20
863.55000788697532
 30
0.0
 40
1.175000000000068
  0
POLYLINE
  5
13F
  8
DATA
  6
CONTINUOUS
 62
     7
 66
     1
 10
0.0
 20
0.0
 30
0.0
 70
     1
  0
VERTEX
  5
47F
  8
DATA
  6
CONTINUOUS
 62
     7
 10
605.46123499656835
 20
860.85000788697539
 30
0.0
  0
VERTEX
  5
480
  8
DATA
  6
CONTINUOUS
 62
     7
 10
607.79950358678627
 20
862.20000788697553
 30
0.0
  0
VERTEX
  5
481
  8
DATA
  6
CONTINUOUS
 62
     7
 10
607.79950358678627
 20
864.90000788697535
 30
0.0
  0
VERTEX
  5
482
  8
DATA
  6
CONTINUOUS
 62
     7
 10
605.46123499656835
 20
866.25000788697525
 30
0.0
  0
VERTEX
  5
483
  8
DATA
  6
CONTINUOUS
 62
     7
 10
603.12296640635043
 20
864.90000788697535
 30
0.0
  0
VERTEX
  5
484
  8
DATA
  6
CONTINUOUS
 62
     7
 10
603.12296640635043
 20
862.20000788697553
 30
0.0
  0
SEQEND
  5
485
  8
DATA
  6
CONTINUOUS
 62
     7
  0
LINE
  5
148
  8
DATA
  6
CONTINUOUS
 62
     7
 10
588.27467952810093
 20
867.55000788697544
 30
0.0
 11
597.67011260507775
 21
867.55000788697544
 31
0.0
  0
LINE
  5
149
  8
DATA
  6
CONTINUOUS
 62
     7
 10
598.48261260507775
 20
859.55000788697544
 30
0.0
 11
587.46217952810093
 21
859.55000788697544
 31
0.0
  0
LINE
  5
14A
  8
DATA
  6
CONTINUOUS
 62
     7
 10
599.05332945232954
 20
866.36613551935841
 30
0.0
 11
599.86582945232931
 21
861.16613551935836
 31
0.0
  0
LINE
  5
14B
  8
DATA
  6
CONTINUOUS
 62
     7
 10
586.07896268084926
 20
861.16613551935836
 30
0.0
 11
586.89146268084937
 21
866.36613551935852
 31
0.0
  0
CIRCLE
  5
14C
  8
DATA
  6
CONTINUOUS
 62
     7
 10
592.96123499656835
 20
861.08867967470735
 30
0.0
 40
0.5
  0
CIRCLE
  5
14D
  8
DATA
  6
CONTINUOUS
 62
     7
 10
590.96123499656835
 20
861.08867967470735
 30
0.0
 40
0.5
  0
CIRCLE
  5
14E
  8
DATA
  6
CONTINUOUS
 62
     7
 10
588.96123499656835
 20
861.08867967470735
 30
0.0
 40
0.5
  0
CIRCLE
  5
14F
  8
DATA
  6
CONTINUOUS
 62
     7
 10
594.96123499656835
 20
861.08867967470735
 30
0.0
 40
0.5
  0
CIRCLE
  5
150
  8
DATA
  6
CONTINUOUS
 62
     7
 10
596.96123499656835
 20
861.08867967470735
 30
0.0
 40
0.5
  0
CIRCLE
  5
151
  8
DATA
  6
CONTINUOUS
 62
     7
 10
591.8438914211041
 20
863.56287093331264
 30
0.0
 40
0.5
  0
CIRCLE
  5
152
  8
DATA
  6
CONTINUOUS
 62
     7
 10
589.84389142110399
 20
863.56287093331264
 30
0.0
 40
0.5
  0
CIRCLE
  5
153
  8
DATA
  6
CONTINUOUS
 62
     7
 10
587.8438914211041
 20
863.56287093331264
 30
0.0
 40
0.5
  0
CIRCLE
  5
154
  8
DATA
  6
CONTINUOUS
 62
     7
 10
593.84389142110399
 20
863.56287093331264
 30
0.0
 40
0.5
  0
CIRCLE
  5
155
  8
DATA
  6
CONTINUOUS
 62
     7
 10
595.8438914211041
 20
863.56287093331264
 30
0.0
 40
0.5
  0
CIRCLE
  5
156
  8
DATA
  6
CONTINUOUS
 62
     7
 10
592.96123499656835
 20
866.01133609924329
 30
0.0
 40
0.5
  0
CIRCLE
  5
157
  8
DATA
  6
CONTINUOUS
 62
     7
 10
590.96123499656835
 20
866.01133609924329
 30
0.0
 40
0.5
  0
CIRCLE
  5
158
  8
DATA
  6
CONTINUOUS
 62
     7
 10
588.96123499656835
 20
866.01133609924329
 30
0.0
 40
0.5
  0
CIRCLE
  5
159
  8
DATA
  6
CONTINUOUS
 62
     7
 10
594.96123499656835
 20
866.01133609924329
 30
0.0
 40
0.5
  0
CIRCLE
  5
15A
  8
DATA
  6
CONTINUOUS
 62
     7
 10
596.96123499656835
 20
866.01133609924329
 30
0.0
 40
0.5
  0
ARC
  5
15B
  8
DATA
  6
CONTINUOUS
 62
     7
 10
598.48261260507775
 20
860.9500078869753
 30
0.0
 40
1.400000000000005
 50
270.0
 51
8.8806591505193637
  0
ARC
  5
15C
  8
DATA
  6
CONTINUOUS
 62
     7
 10
587.46217952810093
 20
860.9500078869753
 30
0.0
 40
1.400000000000019
 50
171.1193408494795
 51
270.0
  0
ARC
  5
15D
  8
DATA
  6
CONTINUOUS
 62
     7
 10
597.67011260507775
 20
866.15000788697546
 30
0.0
 40
1.400000000000015
 50
8.8806591505193833
 51
89.999999999999986
  0
ARC
  5
15E
  8
DATA
  6
CONTINUOUS
 62
     7
 10
588.27467952810093
 20
866.15000788697546
 30
0.0
 40
1.400000000000005
 50
90.0
 51
171.11934084947831
  0
LINE
  5
15F
  8
DATA
  6
CONTINUOUS
 62
     7
 10
587.06098197814561
 20
869.55000788697544
 30
0.0
 11
598.8614880149911
 21
869.55000788697544
 31
0.0
  0
LINE
  5
160
  8
DATA
  6
CONTINUOUS
 62
     7
 10
599.88032973558745
 20
857.55000788697555
 30
0.0
 11
586.04214025754925
 21
857.55000788697555
 31
0.0
  0
LINE
  5
161
  8
DATA
  6
CONTINUOUS
 62
     7
 10
584.07029503040587
 20
859.8844124326863
 30
0.0
 11
585.48350579643102
 21
868.21753152354415
 31
0.0
  0
ARC
  5
162
  8
DATA
  6
CONTINUOUS
 62
     7
 10
586.04214025754925
 20
859.55000788697544
 30
0.0
 40
1.999999999999962
 50
170.37480705637799
 51
270.0000000000033
  0
ARC
  5
163
  8
DATA
  6
CONTINUOUS
 62
     7
 10
587.06098197814561
 20
867.95000788697541
 30
0.0
 40
1.5999999999999941
 50
90.0
 51
170.37480705637901
  0
LINE
  5
164
  8
DATA
  6
CONTINUOUS
 62
     7
 10
601.85217496273071
 20
859.8844124326863
 30
0.0
 11
600.43896419670568
 21
868.21753152354415
 31
0.0
  0
ARC
  5
165
  8
DATA
  6
CONTINUOUS
 62
     7
 10
599.88032973558745
 20
859.55000788697544
 30
0.0
 40
1.9999999999999709
 50
269.99999999999682
 51
9.6251929436219843
  0
ARC
  5
166
  8
DATA
  6
CONTINUOUS
 62
     7
 10
598.8614880149911
 20
867.95000788697541
 30
0.0
 40
1.600000000000058
 50
9.6251929436210109
 51
90.0
  0
TEXT
  5
167
  8
DATA
 62
     7
 10
487.72289178051591
 20
876.48693374353763
 30
0.0
 40
2.4432617187500001
  1
Monitor 2
 50
180.0
 41
0.7
 11
487.72289178051591
 21
874.04367202478761
 31
0.0
 73
     3
  0
CIRCLE
  5
168
  8
DATA
  6
CONTINUOUS
 62
     7
 10
523.69033125920907
 20
863.55000788697532
 30
0.0
 40
1.175000000000068
  0
POLYLINE
  5
169
  8
DATA
  6
CONTINUOUS
 62
     7
 66
     1
 10
0.0
 20
0.0
 30
0.0
 70
     1
  0
VERTEX
  5
486
  8
DATA
  6
CONTINUOUS
 62
     7
 10
523.69033125920907
 20
860.85000788697539
 30
0.0
  0
VERTEX
  5
487
  8
DATA
  6
CONTINUOUS
 62
     7
 10
526.02859984942722
 20
862.20000788697553
 30
0.0
  0
VERTEX
  5
488
  8
DATA
  6
CONTINUOUS
 62
     7
 10
526.02859984942722
 20
864.90000788697535
 30
0.0
  0
VERTEX
  5
489
  8
DATA
  6
CONTINUOUS
 62
     7
 10
523.69033125920907
 20
866.25000788697525
 30
0.0
  0
VERTEX
  5
48A
  8
DATA
  6
CONTINUOUS
 62
     7
 10
521.35206266899115
 20
864.90000788697535
 30
0.0
  0
VERTEX
  5
48B
  8
DATA
  6
CONTINUOUS
 62
     7
 10
521.35206266899115
 20
862.20000788697553
 30
0.0
  0
SEQEND
  5
48C
  8
DATA
  6
CONTINUOUS
 62
     7
  0
CIRCLE
  5
172
  8
DATA
  6
CONTINUOUS
 62
     7
 10
548.69033125920907
 20
863.55000788697532
 30
0.0
 40
1.175000000000068
  0
POLYLINE
  5
173
  8
DATA
  6
CONTINUOUS
 62
     7
 66
     1
 10
0.0
 20
0.0
 30
0.0
 70
     1
  0
VERTEX
  5
48D
  8
DATA
  6
CONTINUOUS
 62
     7
 10
548.69033125920907
 20
860.85000788697539
 30
0.0
  0
VERTEX
  5
48E
  8
DATA
  6
CONTINUOUS
 62
     7
 10
551.02859984942722
 20
862.20000788697553
 30
0.0
  0
VERTEX
  5
48F
  8
DATA
  6
CONTINUOUS
 62
     7
 10
551.02859984942722
 20
864.90000788697535
 30
0.0
  0
VERTEX
  5
490
  8
DATA
  6
CONTINUOUS
 62
     7
 10
548.69033125920907
 20
866.25000788697525
 30
0.0
  0
VERTEX
  5
491
  8
DATA
  6
CONTINUOUS
 62
     7
 10
546.35206266899115
 20
864.90000788697535
 30
0.0
  0
VERTEX
  5
492
  8
DATA
  6
CONTINUOUS
 62
     7
 10
546.35206266899115
 20
862.20000788697553
 30
0.0
  0
SEQEND
  5
493
  8
DATA
  6
CONTINUOUS
 62
     7
  0
LINE
  5
17C
  8
DATA
  6
CONTINUOUS
 62
     7
 10
531.50377579074166
 20
867.55000788697544
 30
0.0
 11
540.89920886771858
 21
867.55000788697544
 31
0.0
  0
LINE
  5
17D
  8
DATA
  6
CONTINUOUS
 62
     7
 10
541.71170886771847
 20
859.55000788697544
 30
0.0
 11
530.69127579074177
 21
859.55000788697544
 31
0.0
  0
LINE
  5
17E
  8
DATA
  6
CONTINUOUS
 62
     7
 10
542.28242571497026
 20
866.36613551935841
 30
0.0
 11
543.09492571497015
 21
861.16613551935836
 31
0.0
  0
LINE
  5
17F
  8
DATA
  6
CONTINUOUS
 62
     7
 10
529.30805894349021
 20
861.16613551935836
 30
0.0
 11
530.12055894349021
 21
866.36613551935852
 31
0.0
  0
CIRCLE
  5
180
  8
DATA
  6
CONTINUOUS
 62
     7
 10
536.19033125920907
 20
861.08867967470735
 30
0.0
 40
0.5
  0
CIRCLE
  5
181
  8
DATA
  6
CONTINUOUS
 62
     7
 10
534.19033125920919
 20
861.08867967470735
 30
0.0
 40
0.5
  0
CIRCLE
  5
182
  8
DATA
  6
CONTINUOUS
 62
     7
 10
532.19033125920907
 20
861.08867967470735
 30
0.0
 40
0.5
  0
CIRCLE
  5
183
  8
DATA
  6
CONTINUOUS
 62
     7
 10
538.19033125920919
 20
861.08867967470735
 30
0.0
 40
0.5
  0
CIRCLE
  5
184
  8
DATA
  6
CONTINUOUS
 62
     7
 10
540.19033125920907
 20
861.08867967470735
 30
0.0
 40
0.5
  0
CIRCLE
  5
185
  8
DATA
  6
CONTINUOUS
 62
     7
 10
535.07298768374494
 20
863.56287093331264
 30
0.0
 40
0.5
  0
CIRCLE
  5
186
  8
DATA
  6
CONTINUOUS
 62
     7
 10
533.07298768374494
 20
863.56287093331264
 30
0.0
 40
0.5
  0
CIRCLE
  5
187
  8
DATA
  6
CONTINUOUS
 62
     7
 10
531.07298768374494
 20
863.56287093331264
 30
0.0
 40
0.5
  0
CIRCLE
  5
188
  8
DATA
  6
CONTINUOUS
 62
     7
 10
537.07298768374494
 20
863.56287093331264
 30
0.0
 40
0.5
  0
CIRCLE
  5
189
  8
DATA
  6
CONTINUOUS
 62
     7
 10
539.07298768374494
 20
863.56287093331264
 30
0.0
 40
0.5
  0
CIRCLE
  5
18A
  8
DATA
  6
CONTINUOUS
 62
     7
 10
536.19033125920907
 20
866.01133609924329
 30
0.0
 40
0.5
  0
CIRCLE
  5
18B
  8
DATA
  6
CONTINUOUS
 62
     7
 10
534.19033125920919
 20
866.01133609924329
 30
0.0
 40
0.5
  0
CIRCLE
  5
18C
  8
DATA
  6
CONTINUOUS
 62
     7
 10
532.19033125920907
 20
866.01133609924329
 30
0.0
 40
0.5
  0
CIRCLE
  5
18D
  8
DATA
  6
CONTINUOUS
 62
     7
 10
538.19033125920919
 20
866.01133609924329
 30
0.0
 40
0.5
  0
CIRCLE
  5
18E
  8
DATA
  6
CONTINUOUS
 62
     7
 10
540.19033125920907
 20
866.01133609924329
 30
0.0
 40
0.5
  0
ARC
  5
18F
  8
DATA
  6
CONTINUOUS
 62
     7
 10
541.71170886771847
 20
860.9500078869753
 30
0.0
 40
1.400000000000005
 50
270.0
 51
8.8806591505193637
  0
ARC
  5
190
  8
DATA
  6
CONTINUOUS
 62
     7
 10
530.69127579074177
 20
860.9500078869753
 30
0.0
 40
1.400000000000019
 50
171.1193408494795
 51
270.0
  0
ARC
  5
191
  8
DATA
  6
CONTINUOUS
 62
     7
 10
540.89920886771858
 20
866.15000788697546
 30
0.0
 40
1.400000000000015
 50
8.8806591505193833
 51
89.999999999999986
  0
ARC
  5
192
  8
DATA
  6
CONTINUOUS
 62
     7
 10
531.50377579074166
 20
866.15000788697546
 30
0.0
 40
1.400000000000005
 50
90.0
 51
171.11934084947831
  0
LINE
  5
193
  8
DATA
  6
CONTINUOUS
 62
     7
 10
530.29007824078656
 20
869.55000788697544
 30
0.0
 11
542.09058427763193
 21
869.55000788697544
 31
0.0
  0
LINE
  5
194
  8
DATA
  6
CONTINUOUS
 62
     7
 10
543.1094259982284
 20
857.55000788697555
 30
0.0
 11
529.27123652018997
 21
857.55000788697555
 31
0.0
  0
LINE
  5
195
  8
DATA
  6
CONTINUOUS
 62
     7
 10
527.29939129304682
 20
859.8844124326863
 30
0.0
 11
528.71260205907197
 21
868.21753152354415
 31
0.0
  0
ARC
  5
196
  8
DATA
  6
CONTINUOUS
 62
     7
 10
529.27123652018997
 20
859.55000788697544
 30
0.0
 40
1.999999999999962
 50
170.37480705637799
 51
270.0000000000033
  0
ARC
  5
197
  8
DATA
  6
CONTINUOUS
 62
     7
 10
530.29007824078656
 20
867.95000788697541
 30
0.0
 40
1.5999999999999941
 50
90.0
 51
170.37480705637901
  0
LINE
  5
198
  8
DATA
  6
CONTINUOUS
 62
     7
 10
545.08127122537155
 20
859.8844124326863
 30
0.0
 11
543.66806045934652
 21
868.21753152354415
 31
0.0
  0
ARC
  5
199
  8
DATA
  6
CONTINUOUS
 62
     7
 10
543.1094259982284
 20
859.55000788697544
 30
0.0
 40
1.9999999999999709
 50
269.99999999999682
 51
9.6251929436219843
  0
ARC
  5
19A
  8
DATA
  6
CONTINUOUS
 62
     7
 10
542.09058427763193
 20
867.95000788697541
 30
0.0
 40
1.600000000000058
 50
9.6251929436210109
 51
90.0
  0
CIRCLE
  5
19B
  8
DATA
  6
CONTINUOUS
 62
     7
 10
468.4582692803408
 20
863.55000788697532
 30
0.0
 40
1.175000000000068
  0
POLYLINE
  5
19C
  8
DATA
  6
CONTINUOUS
 62
     7
 66
     1
 10
0.0
 20
0.0
 30
0.0
 70
     1
  0
VERTEX
  5
494
  8
DATA
  6
CONTINUOUS
 62
     7
 10
468.4582692803408
 20
860.85000788697539
 30
0.0
  0
VERTEX
  5
495
  8
DATA
  6
CONTINUOUS
 62
     7
 10
470.79653787055878
 20
862.20000788697553
 30
0.0
  0
VERTEX
  5
496
  8
DATA
  6
CONTINUOUS
 62
     7
 10
470.79653787055878
 20
864.90000788697535
 30
0.0
  0
VERTEX
  5
497
  8
DATA
  6
CONTINUOUS
 62
     7
 10
468.4582692803408
 20
866.25000788697525
 30
0.0
  0
VERTEX
  5
498
  8
DATA
  6
CONTINUOUS
 62
     7
 10
466.12000069012282
 20
864.90000788697535
 30
0.0
  0
VERTEX
  5
499
  8
DATA
  6
CONTINUOUS
 62
     7
 10
466.12000069012282
 20
862.20000788697553
 30
0.0
  0
SEQEND
  5
49A
  8
DATA
  6
CONTINUOUS
 62
     7
  0
CIRCLE
  5
1A5
  8
DATA
  6
CONTINUOUS
 62
     7
 10
493.4582692803408
 20
863.55000788697532
 30
0.0
 40
1.175000000000068
  0
POLYLINE
  5
1A6
  8
DATA
  6
CONTINUOUS
 62
     7
 66
     1
 10
0.0
 20
0.0
 30
0.0
 70
     1
  0
VERTEX
  5
49B
  8
DATA
  6
CONTINUOUS
 62
     7
 10
493.4582692803408
 20
860.85000788697539
 30
0.0
  0
VERTEX
  5
49C
  8
DATA
  6
CONTINUOUS
 62
     7
 10
495.79653787055878
 20
862.20000788697553
 30
0.0
  0
VERTEX
  5
49D
  8
DATA
  6
CONTINUOUS
 62
     7
 10
495.79653787055878
 20
864.90000788697535
 30
0.0
  0
VERTEX
  5
49E
  8
DATA
  6
CONTINUOUS
 62
     7
 10
493.4582692803408
 20
866.25000788697525
 30
0.0
  0
VERTEX
  5
49F
  8
DATA
  6
CONTINUOUS
 62
     7
 10
491.12000069012282
 20
864.90000788697535
 30
0.0
  0
VERTEX
  5
4A0
  8
DATA
  6
CONTINUOUS
 62
     7
 10
491.12000069012282
 20
862.20000788697553
 30
0.0
  0
SEQEND
  5
4A1
  8
DATA
  6
CONTINUOUS
 62
     7
  0
LINE
  5
1AF
  8
DATA
  6
CONTINUOUS
 62
     7
 10
476.27171381187333
 20
867.55000788697544
 30
0.0
 11
485.66714688885031
 21
867.55000788697544
 31
0.0
  0
LINE
  5
1B0
  8
DATA
  6
CONTINUOUS
 62
     7
 10
486.4796468888502
 20
859.55000788697544
 30
0.0
 11
475.45921381187333
 21
859.55000788697544
 31
0.0
  0
LINE
  5
1B1
  8
DATA
  6
CONTINUOUS
 62
     7
 10
487.05036373610181
 20
866.36613551935841
 30
0.0
 11
487.8628637361017
 21
861.16613551935836
 31
0.0
  0
LINE
  5
1B2
  8
DATA
  6
CONTINUOUS
 62
     7
 10
474.07599696462171
 20
861.16613551935836
 30
0.0
 11
474.88849696462159
 21
866.36613551935852
 31
0.0
  0
CIRCLE
  5
1B3
  8
DATA
  6
CONTINUOUS
 62
     7
 10
480.9582692803408
 20
861.08867967470735
 30
0.0
 40
0.5000000000000036
  0
CIRCLE
  5
1B4
  8
DATA
  6
CONTINUOUS
 62
     7
 10
478.95826928034069
 20
861.08867967470735
 30
0.0
 40
0.5000000000000036
  0
CIRCLE
  5
1B5
  8
DATA
  6
CONTINUOUS
 62
     7
 10
476.9582692803408
 20
861.08867967470735
 30
0.0
 40
0.5000000000000036
  0
CIRCLE
  5
1B6
  8
DATA
  6
CONTINUOUS
 62
     7
 10
482.95826928034069
 20
861.08867967470735
 30
0.0
 40
0.5
  0
CIRCLE
  5
1B7
  8
DATA
  6
CONTINUOUS
 62
     7
 10
484.9582692803408
 20
861.08867967470735
 30
0.0
 40
0.4999999999999983
  0
CIRCLE
  5
1B8
  8
DATA
  6
CONTINUOUS
 62
     7
 10
479.8409257048765
 20
863.56287093331264
 30
0.0
 40
0.5000000000000036
  0
CIRCLE
  5
1B9
  8
DATA
  6
CONTINUOUS
 62
     7
 10
477.8409257048765
 20
863.56287093331264
 30
0.0
 40
0.5
  0
CIRCLE
  5
1BA
  8
DATA
  6
CONTINUOUS
 62
     7
 10
475.8409257048765
 20
863.56287093331264
 30
0.0
 40
0.5000000000000036
  0
CIRCLE
  5
1BB
  8
DATA
  6
CONTINUOUS
 62
     7
 10
481.8409257048765
 20
863.56287093331264
 30
0.0
 40
0.5
  0
CIRCLE
  5
1BC
  8
DATA
  6
CONTINUOUS
 62
     7
 10
483.8409257048765
 20
863.56287093331264
 30
0.0
 40
0.5
  0
CIRCLE
  5
1BD
  8
DATA
  6
CONTINUOUS
 62
     7
 10
480.9582692803408
 20
866.01133609924329
 30
0.0
 40
0.5000000000000036
  0
CIRCLE
  5
1BE
  8
DATA
  6
CONTINUOUS
 62
     7
 10
478.95826928034069
 20
866.01133609924329
 30
0.0
 40
0.5000000000000036
  0
CIRCLE
  5
1BF
  8
DATA
  6
CONTINUOUS
 62
     7
 10
476.9582692803408
 20
866.01133609924329
 30
0.0
 40
0.5000000000000036
  0
CIRCLE
  5
1C0
  8
DATA
  6
CONTINUOUS
 62
     7
 10
482.95826928034069
 20
866.01133609924329
 30
0.0
 40
0.5
  0
CIRCLE
  5
1C1
  8
DATA
  6
CONTINUOUS
 62
     7
 10
484.9582692803408
 20
866.01133609924329
 30
0.0
 40
0.4999999999999983
  0
ARC
  5
1C2
  8
DATA
  6
CONTINUOUS
 62
     7
 10
486.4796468888502
 20
860.9500078869753
 30
0.0
 40
1.400000000000005
 50
270.0
 51
8.8806591505194206
  0
ARC
  5
1C3
  8
DATA
  6
CONTINUOUS
 62
     7
 10
475.45921381187333
 20
860.9500078869753
 30
0.0
 40
1.4000000000000301
 50
171.11934084947961
 51
270.0
  0
ARC
  5
1C4
  8
DATA
  6
CONTINUOUS
 62
     7
 10
485.66714688885031
 20
866.15000788697546
 30
0.0
 40
1.400000000000011
 50
8.8806591505194081
 51
90.0
  0
ARC
  5
1C5
  8
DATA
  6
CONTINUOUS
 62
     7
 10
476.27171381187333
 20
866.15000788697546
 30
0.0
 40
1.400000000000005
 50
90.0
 51
171.11934084947839
  0
LINE
  5
1C6
  8
DATA
  6
CONTINUOUS
 62
     7
 10
475.05801626191811
 20
869.55000788697544
 30
0.0
 11
486.8585222987636
 21
869.55000788697544
 31
0.0
  0
LINE
  5
1C7
  8
DATA
  6
CONTINUOUS
 62
     7
 10
487.8773640193599
 20
857.55000788697555
 30
0.0
 11
474.0391745413217
 21
857.55000788697555
 31
0.0
  0
LINE
  5
1C8
  8
DATA
  6
CONTINUOUS
 62
     7
 10
472.06732931417838
 20
859.8844124326863
 30
0.0
 11
473.4805400802033
 21
868.21753152354415
 31
0.0
  0
ARC
  5
1C9
  8
DATA
  6
CONTINUOUS
 62
     7
 10
474.0391745413217
 20
859.55000788697544
 30
0.0
 40
1.999999999999972
 50
170.3748070563781
 51
270.0000000000033
  0
ARC
  5
1CA
  8
DATA
  6
CONTINUOUS
 62
     7
 10
475.05801626191811
 20
867.95000788697541
 30
0.0
 40
1.5999999999999941
 50
90.0
 51
170.37480705637901
  0
LINE
  5
1CB
  8
DATA
  6
CONTINUOUS
 62
     7
 10
489.84920924650322
 20
859.8844124326863
 30
0.0
 11
488.4359984804783
 21
868.21753152354415
 31
0.0
  0
ARC
  5
1CC
  8
DATA
  6
CONTINUOUS
 62
     7
 10
487.8773640193599
 20
859.55000788697544
 30
0.0
 40
1.9999999999999709
 50
269.99999999999682
 51
9.6251929436220394
  0
ARC
  5
1CD
  8
DATA
  6
CONTINUOUS
 62
     7
 10
486.8585222987636
 20
867.95000788697541
 30
0.0
 40
1.600000000000054
 50
9.6251929436210322
 51
90.0
  0
TEXT
  5
1CE
  8
DATA
 62
     7
 10
434.6830117368944
 20
876.41862176661232
 30
0.0
 40
2.4432617187500001
  1
Video In 2
 50
180.0
 41
0.7
 11
434.6830117368944
 21
873.9753600478623
 31
0.0
 73
     3
  0
CIRCLE
  5
1CF
  8
DATA
  6
CONTINUOUS
 62
     7
 10
413.53397565317039
 20
863.55000788697532
 30
0.0
 40
1.175000000000068
  0
POLYLINE
  5
1D0
  8
DATA
  6
CONTINUOUS
 62
     7
 66
     1
 10
0.0
 20
0.0
 30
0.0
 70
     1
  0
VERTEX
  5
4A2
  8
DATA
  6
CONTINUOUS
 62
     7
 10
413.53397565317039
 20
860.85000788697539
 30
0.0
  0
VERTEX
  5
4A3
  8
DATA
  6
CONTINUOUS
 62
     7
 10
415.87224424338848
 20
862.20000788697553
 30
0.0
  0
VERTEX
  5
4A4
  8
DATA
  6
CONTINUOUS
 62
     7
 10
415.87224424338848
 20
864.90000788697535
 30
0.0
  0
VERTEX
  5
4A5
  8
DATA
  6
CONTINUOUS
 62
     7
 10
413.53397565317039
 20
866.25000788697525
 30
0.0
  0
VERTEX
  5
4A6
  8
DATA
  6
CONTINUOUS
 62
     7
 10
411.19570706295252
 20
864.90000788697535
 30
0.0
  0
VERTEX
  5
4A7
  8
DATA
  6
CONTINUOUS
 62
     7
 10
411.19570706295252
 20
862.20000788697553
 30
0.0
  0
SEQEND
  5
4A8
  8
DATA
  6
CONTINUOUS
 62
     7
  0
CIRCLE
  5
1D9
  8
DATA
  6
CONTINUOUS
 62
     7
 10
438.53397565317039
 20
863.55000788697532
 30
0.0
 40
1.175000000000068
  0
POLYLINE
  5
1DA
  8
DATA
  6
CONTINUOUS
 62
     7
 66
     1
 10
0.0
 20
0.0
 30
0.0
 70
     1
  0
VERTEX
  5
4A9
  8
DATA
  6
CONTINUOUS
 62
     7
 10
438.53397565317039
 20
860.85000788697539
 30
0.0
  0
VERTEX
  5
4AA
  8
DATA
  6
CONTINUOUS
 62
     7
 10
440.87224424338848
 20
862.20000788697553
 30
0.0
  0
VERTEX
  5
4AB
  8
DATA
  6
CONTINUOUS
 62
     7
 10
440.87224424338848
 20
864.90000788697535
 30
0.0
  0
VERTEX
  5
4AC
  8
DATA
  6
CONTINUOUS
 62
     7
 10
438.53397565317039
 20
866.25000788697525
 30
0.0
  0
VERTEX
  5
4AD
  8
DATA
  6
CONTINUOUS
 62
     7
 10
436.19570706295252
 20
864.90000788697535
 30
0.0
  0
VERTEX
  5
4AE
  8
DATA
  6
CONTINUOUS
 62
     7
 10
436.19570706295252
 20
862.20000788697553
 30
0.0
  0
SEQEND
  5
4AF
  8
DATA
  6
CONTINUOUS
 62
     7
  0
LINE
  5
1E3
  8
DATA
  6
CONTINUOUS
 62
     7
 10
421.34742018470308
 20
867.55000788697544
 30
0.0
 11
430.74285326168001
 21
867.55000788697544
 31
0.0
  0
LINE
  5
1E4
  8
DATA
  6
CONTINUOUS
 62
     7
 10
431.55535326167978
 20
859.55000788697544
 30
0.0
 11
420.53492018470308
 21
859.55000788697544
 31
0.0
  0
LINE
  5
1E5
  8
DATA
  6
CONTINUOUS
 62
     7
 10
432.12607010893157
 20
866.36613551935841
 30
0.0
 11
432.93857010893129
 21
861.16613551935836
 31
0.0
  0
LINE
  5
1E6
  8
DATA
  6
CONTINUOUS
 62
     7
 10
419.15170333745141
 20
861.16613551935836
 30
0.0
 11
419.96420333745141
 21
866.36613551935852
 31
0.0
  0
CIRCLE
  5
1E7
  8
DATA
  6
CONTINUOUS
 62
     7
 10
426.03397565317039
 20
861.08867967470735
 30
0.0
 40
0.5
  0
CIRCLE
  5
1E8
  8
DATA
  6
CONTINUOUS
 62
     7
 10
424.03397565317039
 20
861.08867967470735
 30
0.0
 40
0.5
  0
CIRCLE
  5
1E9
  8
DATA
  6
CONTINUOUS
 62
     7
 10
422.03397565317039
 20
861.08867967470735
 30
0.0
 40
0.5
  0
CIRCLE
  5
1EA
  8
DATA
  6
CONTINUOUS
 62
     7
 10
428.03397565317039
 20
861.08867967470735
 30
0.0
 40
0.5
  0
CIRCLE
  5
1EB
  8
DATA
  6
CONTINUOUS
 62
     7
 10
430.03397565317039
 20
861.08867967470735
 30
0.0
 40
0.5
  0
CIRCLE
  5
1EC
  8
DATA
  6
CONTINUOUS
 62
     7
 10
424.91663207770631
 20
863.56287093331264
 30
0.0
 40
0.5
  0
CIRCLE
  5
1ED
  8
DATA
  6
CONTINUOUS
 62
     7
 10
422.9166320777062
 20
863.56287093331264
 30
0.0
 40
0.5
  0
CIRCLE
  5
1EE
  8
DATA
  6
CONTINUOUS
 62
     7
 10
420.91663207770631
 20
863.56287093331264
 30
0.0
 40
0.5
  0
CIRCLE
  5
1EF
  8
DATA
  6
CONTINUOUS
 62
     7
 10
426.9166320777062
 20
863.56287093331264
 30
0.0
 40
0.5
  0
CIRCLE
  5
1F0
  8
DATA
  6
CONTINUOUS
 62
     7
 10
428.91663207770631
 20
863.56287093331264
 30
0.0
 40
0.5
  0
CIRCLE
  5
1F1
  8
DATA
  6
CONTINUOUS
 62
     7
 10
426.03397565317039
 20
866.01133609924329
 30
0.0
 40
0.5
  0
CIRCLE
  5
1F2
  8
DATA
  6
CONTINUOUS
 62
     7
 10
424.03397565317039
 20
866.01133609924329
 30
0.0
 40
0.5
  0
CIRCLE
  5
1F3
  8
DATA
  6
CONTINUOUS
 62
     7
 10
422.03397565317039
 20
866.01133609924329
 30
0.0
 40
0.5
  0
CIRCLE
  5
1F4
  8
DATA
  6
CONTINUOUS
 62
     7
 10
428.03397565317039
 20
866.01133609924329
 30
0.0
 40
0.5
  0
CIRCLE
  5
1F5
  8
DATA
  6
CONTINUOUS
 62
     7
 10
430.03397565317039
 20
866.01133609924329
 30
0.0
 40
0.5
  0
ARC
  5
1F6
  8
DATA
  6
CONTINUOUS
 62
     7
 10
431.55535326167978
 20
860.9500078869753
 30
0.0
 40
1.400000000000005
 50
270.0
 51
8.8806591505193637
  0
ARC
  5
1F7
  8
DATA
  6
CONTINUOUS
 62
     7
 10
420.53492018470308
 20
860.9500078869753
 30
0.0
 40
1.400000000000019
 50
171.1193408494795
 51
270.0
  0
ARC
  5
1F8
  8
DATA
  6
CONTINUOUS
 62
     7
 10
430.74285326168001
 20
866.15000788697546
 30
0.0
 40
1.400000000000015
 50
8.8806591505193833
 51
89.999999999999986
  0
ARC
  5
1F9
  8
DATA
  6
CONTINUOUS
 62
     7
 10
421.34742018470308
 20
866.15000788697546
 30
0.0
 40
1.400000000000005
 50
90.0
 51
171.11934084947831
  0
LINE
  5
1FA
  8
DATA
  6
CONTINUOUS
 62
     7
 10
420.13372263474793
 20
869.55000788697544
 30
0.0
 11
431.93422867159319
 21
869.55000788697544
 31
0.0
  0
LINE
  5
1FB
  8
DATA
  6
CONTINUOUS
 62
     7
 10
432.9530703921896
 20
857.55000788697555
 30
0.0
 11
419.11488091415129
 21
857.55000788697555
 31
0.0
  0
LINE
  5
1FC
  8
DATA
  6
CONTINUOUS
 62
     7
 10
417.14303568700808
 20
859.8844124326863
 30
0.0
 11
418.55624645303322
 21
868.21753152354415
 31
0.0
  0
ARC
  5
1FD
  8
DATA
  6
CONTINUOUS
 62
     7
 10
419.11488091415129
 20
859.55000788697544
 30
0.0
 40
1.999999999999962
 50
170.37480705637799
 51
270.0000000000033
  0
ARC
  5
1FE
  8
DATA
  6
CONTINUOUS
 62
     7
 10
420.13372263474793
 20
867.95000788697541
 30
0.0
 40
1.5999999999999941
 50
90.0
 51
170.37480705637901
  0
LINE
  5
1FF
  8
DATA
  6
CONTINUOUS
 62
     7
 10
434.92491561933292
 20
859.8844124326863
 30
0.0
 11
433.511704853308
 21
868.21753152354415
 31
0.0
  0
ARC
  5
200
  8
DATA
  6
CONTINUOUS
 62
     7
 10
432.9530703921896
 20
859.55000788697544
 30
0.0
 40
1.9999999999999709
 50
269.99999999999682
 51
9.6251929436219843
  0
ARC
  5
201
  8
DATA
  6
CONTINUOUS
 62
     7
 10
431.93422867159319
 20
867.95000788697541
 30
0.0
 40
1.600000000000058
 50
9.6251929436210109
 51
90.0
  0
LINE
  5
202
  8
DATA
  6
CONTINUOUS
 62
     7
 10
350.77523189262109
 20
869.55211580874391
 30
0.0
 11
383.20011816308772
 21
869.55211580874391
 31
0.0
  0
LINE
  5
203
  8
DATA
  6
CONTINUOUS
 62
     7
 10
350.77523189262109
 20
856.25211580874361
 30
0.0
 11
383.20011816308772
 21
856.25211580874361
 31
0.0
  0
TEXT
  5
204
  8
DATA
 62
     7
 10
543.70913868494915
 20
876.50263813749177
 30
0.0
 40
2.4432617187500001
  1
Video In 1
 50
180.0
 41
0.7
 11
543.70913868494915
 21
874.05937641874175
 31
0.0
 73
     3
  0
TEXT
  5
205
  8
DATA
 62
     7
 10
397.67500000000001
 20
876.45549999999992
 30
0.0
 40
2.4432617187500001
  1
Audio In
 50
180.0
 41
0.7
 11
397.67500000000001
 21
874.01223828124989
 31
0.0
 73
     3
  0
TEXT
  5
206
  8
DATA
 62
     7
 10
367.09975765013741
 20
855.20421739485687
 30
0.0
 40
3.121945529513888
  1
USB/Audio
 50
180.0
 41
0.7
 11
367.09975765013741
 21
852.08227186534305
 31
0.0
 73
     3
  0
TEXT
  5
207
  8
DATA
 62
     7
 10
365.68496457208471
 20
850.78831361691118
 30
0.0
 40
3.121945529513888
  1
Video 1
 50
180.0
 41
0.7
 11
365.68496457208471
 21
847.66636808739736
 31
0.0
 73
     3
  0
TEXT
  5
208
  8
DATA
 62
     7
 10
382.63644689898138
 20
855.21723469972494
 30
0.0
 40
3.121945529513888
  1
Video 2
 50
180.0
 41
0.7
 11
382.63644689898138
 21
852.095289170211
 31
0.0
 73
     3
  0
TEXT
  5
209
  8
DATA
 62
     7
 10
381.2972151652919
 20
850.83446539026374
 30
0.0
 40
3.121945529513888
  1
CAT-5
 50
180.0
 41
0.7
 11
381.2972151652919
 21
847.71251986074969
 31
0.0
 73
     3
  0
LINE
  5
20A
  8
DATA
  6
CONTINUOUS
 62
     7
 10
821.49999999999989
 20
612.5
 30
0.0
 11
821.49999999999989
 21
656.5
 31
0.0
  0
LINE
  5
20B
  8
DATA
  6
CONTINUOUS
 62
     7
 10
730.548429090789
 20
608.49999999999989
 30
0.0
 11
731.548429090789
 21
612.5
 31
0.0
  0
LINE
  5
20C
  8
DATA
  6
CONTINUOUS
 62
     7
 10
713.54842909078752
 20
612.5
 30
0.0
 11
714.54842909078752
 21
608.49999999999989
 31
0.0
  0
LINE
  5
20D
  8
DATA
  6
CONTINUOUS
 62
     7
 10
714.54842909078752
 20
608.49999999999989
 30
0.0
 11
730.548429090789
 21
608.49999999999989
 31
0.0
  0
LINE
  5
20E
  8
DATA
  6
CONTINUOUS
 62
     7
 10
806.39750738945145
 20
608.49999999999989
 30
0.0
 11
807.39750738945145
 21
612.5
 31
0.0
  0
LINE
  5
20F
  8
DATA
  6
CONTINUOUS
 62
     7
 10
789.39750738944974
 20
612.5
 30
0.0
 11
790.39750738944974
 21
608.49999999999989
 31
0.0
  0
LINE
  5
210
  8
DATA
  6
CONTINUOUS
 62
     7
 10
790.39750738944974
 20
608.49999999999989
 30
0.0
 11
806.39750738945145
 21
608.49999999999989
 31
0.0
  0
CIRCLE
  5
211
  8
DATA
  6
CONTINUOUS
 62
     7
 10
764.0
 20
618.99583716316238
 30
0.0
 40
2.0
  0
LINE
  5
212
  8
DATA
  6
CONTINUOUS
 62
     7
 10
762.52945588301452
 20
618.99583716316238
 30
0.0
 11
765.47054411698525
 21
618.99583716316238
 31
0.0
  0
LINE
  5
213
  8
DATA
  6
CONTINUOUS
 62
     7
 10
764.0
 20
617.52529304617713
 30
0.0
 11
764.0
 21
620.46638128014774
 31
0.0
  0
CIRCLE
  5
214
  8
DATA
  6
CONTINUOUS
 62
     7
 10
801.5
 20
618.99583716316238
 30
0.0
 40
2.0
  0
LINE
  5
215
  8
DATA
  6
CONTINUOUS
 62
     7
 10
800.02945588301452
 20
618.99583716316238
 30
0.0
 11
802.97054411698537
 21
618.99583716316238
 31
0.0
  0
LINE
  5
216
  8
DATA
  6
CONTINUOUS
 62
     7
 10
801.5
 20
617.52529304617713
 30
0.0
 11
801.5
 21
620.46638128014774
 31
0.0
  0
ARC
  5
217
  8
DATA
  6
CONTINUOUS
 62
     7
 10
713.55000000000018
 20
628.5
 30
0.0
 40
1.750000000000028
 50
126.8698976458449
 51
233.1301023541551
  0
ARC
  5
218
  8
DATA
  6
CONTINUOUS
 62
     7
 10
610.0
 20
688.54999999999995
 30
0.0
 40
1.7500000000000111
 50
216.86989764584419
 51
323.13010235415572
  0
LINE
  5
219
  8
DATA
  6
CONTINUOUS
 62
     7
 10
411.19570706295252
 20
800.5
 30
0.0
 11
411.19570706295252
 21
796.49999999999989
 31
0.0
  0
LINE
  5
21A
  8
DATA
  6
CONTINUOUS
 62
     7
 10
415.87224424338848
 20
800.5
 30
0.0
 11
415.87224424338848
 21
796.49999999999989
 31
0.0
  0
LINE
  5
21B
  8
DATA
  6
CONTINUOUS
 62
     7
 10
440.87224424338848
 20
800.5
 30
0.0
 11
440.87224424338848
 21
796.49999999999989
 31
0.0
  0
LINE
  5
21C
  8
DATA
  6
CONTINUOUS
 62
     7
 10
436.19570706295252
 20
800.5
 30
0.0
 11
436.19570706295252
 21
796.49999999999989
 31
0.0
  0
LINE
  5
21D
  8
DATA
  6
CONTINUOUS
 62
     7
 10
434.9524454917231
 20
800.5
 30
0.0
 11
434.9524454917231
 21
796.49999999999989
 31
0.0
  0
LINE
  5
21E
  8
DATA
  6
CONTINUOUS
 62
     7
 10
417.11496983981419
 20
800.5
 30
0.0
 11
417.11498561376482
 21
796.49999999999989
 31
0.0
  0
LINE
  5
21F
  8
DATA
  6
CONTINUOUS
 62
     7
 10
411.19570706295252
 20
800.5
 30
0.0
 11
415.87224424338848
 21
800.5
 31
0.0
  0
LINE
  5
220
  8
DATA
  6
CONTINUOUS
 62
     7
 10
417.11496983981419
 20
800.5
 30
0.0
 11
434.9524454917231
 21
800.5
 31
0.0
  0
LINE
  5
221
  8
DATA
  6
CONTINUOUS
 62
     7
 10
440.87224424338848
 20
800.5
 30
0.0
 11
436.19570706295252
 21
800.5
 31
0.0
  0
LINE
  5
222
  8
DATA
  6
CONTINUOUS
 62
     7
 10
465.99570706295231
 20
800.5
 30
0.0
 11
465.99570706295231
 21
796.49999999999989
 31
0.0
  0
LINE
  5
223
  8
DATA
  6
CONTINUOUS
 62
     7
 10
470.67224424338849
 20
800.5
 30
0.0
 11
470.67224424338849
 21
796.49999999999989
 31
0.0
  0
LINE
  5
224
  8
DATA
  6
CONTINUOUS
 62
     7
 10
495.67224424338849
 20
800.5
 30
0.0
 11
495.67224424338849
 21
796.49999999999989
 31
0.0
  0
LINE
  5
225
  8
DATA
  6
CONTINUOUS
 62
     7
 10
490.99570706295231
 20
800.5
 30
0.0
 11
490.99570706295231
 21
796.49999999999989
 31
0.0
  0
LINE
  5
226
  8
DATA
  6
CONTINUOUS
 62
     7
 10
489.75244549172311
 20
800.5
 30
0.0
 11
489.75244549172311
 21
796.49999999999989
 31
0.0
  0
LINE
  5
227
  8
DATA
  6
CONTINUOUS
 62
     7
 10
471.91496983981409
 20
800.5
 30
0.0
 11
471.91498561376483
 21
796.49999999999989
 31
0.0
  0
LINE
  5
228
  8
DATA
  6
CONTINUOUS
 62
     7
 10
465.99570706295231
 20
800.5
 30
0.0
 11
470.67224424338849
 21
800.5
 31
0.0
  0
LINE
  5
229
  8
DATA
  6
CONTINUOUS
 62
     7
 10
471.91496983981409
 20
800.5
 30
0.0
 11
489.75244549172311
 21
800.5
 31
0.0
  0
LINE
  5
22A
  8
DATA
  6
CONTINUOUS
 62
     7
 10
495.67224424338849
 20
800.5
 30
0.0
 11
490.99570706295231
 21
800.5
 31
0.0
  0
LINE
  5
22B
  8
DATA
  6
CONTINUOUS
 62
     7
 10
520.99570706295219
 20
800.5
 30
0.0
 11
520.99570706295219
 21
796.49999999999989
 31
0.0
  0
LINE
  5
22C
  8
DATA
  6
CONTINUOUS
 62
     7
 10
525.67224424338838
 20
800.5
 30
0.0
 11
525.67224424338838
 21
796.49999999999989
 31
0.0
  0
LINE
  5
22D
  8
DATA
  6
CONTINUOUS
 62
     7
 10
550.67224424338838
 20
800.5
 30
0.0
 11
550.67224424338838
 21
796.49999999999989
 31
0.0
  0
LINE
  5
22E
  8
DATA
  6
CONTINUOUS
 62
     7
 10
545.99570706295219
 20
800.5
 30
0.0
 11
545.99570706295219
 21
796.49999999999989
 31
0.0
  0
LINE
  5
22F
  8
DATA
  6
CONTINUOUS
 62
     7
 10
544.75244549172305
 20
800.5
 30
0.0
 11
544.75244549172305
 21
796.49999999999989
 31
0.0
  0
LINE
  5
230
  8
DATA
  6
CONTINUOUS
 62
     7
 10
526.91496983981415
 20
800.5
 30
0.0
 11
526.91498561376488
 21
796.49999999999989
 31
0.0
  0
LINE
  5
231
  8
DATA
  6
CONTINUOUS
 62
     7
 10
520.99570706295219
 20
800.5
 30
0.0
 11
525.67224424338838
 21
800.5
 31
0.0
  0
LINE
  5
232
  8
DATA
  6
CONTINUOUS
 62
     7
 10
526.91496983981415
 20
800.5
 30
0.0
 11
544.75244549172305
 21
800.5
 31
0.0
  0
LINE
  5
233
  8
DATA
  6
CONTINUOUS
 62
     7
 10
550.67224424338838
 20
800.5
 30
0.0
 11
545.99570706295219
 21
800.5
 31
0.0
  0
LINE
  5
234
  8
DATA
  6
CONTINUOUS
 62
     7
 10
577.99570706295231
 20
800.5
 30
0.0
 11
577.99570706295231
 21
796.49999999999989
 31
0.0
  0
LINE
  5
235
  8
DATA
  6
CONTINUOUS
 62
     7
 10
582.67224424338849
 20
800.5
 30
0.0
 11
582.67224424338849
 21
796.49999999999989
 31
0.0
  0
LINE
  5
236
  8
DATA
  6
CONTINUOUS
 62
     7
 10
607.67224424338849
 20
800.5
 30
0.0
 11
607.67224424338849
 21
796.49999999999989
 31
0.0
  0
LINE
  5
237
  8
DATA
  6
CONTINUOUS
 62
     7
 10
602.99570706295231
 20
800.5
 30
0.0
 11
602.99570706295231
 21
796.49999999999989
 31
0.0
  0
LINE
  5
238
  8
DATA
  6
CONTINUOUS
 62
     7
 10
601.75244549172317
 20
800.5
 30
0.0
 11
601.75244549172317
 21
796.49999999999989
 31
0.0
  0
LINE
  5
239
  8
DATA
  6
CONTINUOUS
 62
     7
 10
583.91496983981415
 20
800.5
 30
0.0
 11
583.91498561376477
 21
796.49999999999989
 31
0.0
  0
LINE
  5
23A
  8
DATA
  6
CONTINUOUS
 62
     7
 10
577.99570706295231
 20
800.5
 30
0.0
 11
582.67224424338849
 21
800.5
 31
0.0
  0
LINE
  5
23B
  8
DATA
  6
CONTINUOUS
 62
     7
 10
583.91496983981415
 20
800.5
 30
0.0
 11
601.75244549172317
 21
800.5
 31
0.0
  0
LINE
  5
23C
  8
DATA
  6
CONTINUOUS
 62
     7
 10
607.67224424338849
 20
800.5
 30
0.0
 11
602.99570706295231
 21
800.5
 31
0.0
  0
LINE
  5
23D
  8
DATA
  6
CONTINUOUS
 62
     7
 10
825.50000000022226
 20
627.9000000000002
 30
0.0
 11
821.50000000031355
 21
627.9000000000002
 31
0.0
  0
LINE
  5
23E
  8
DATA
  6
CONTINUOUS
 62
     7
 10
821.50000000031355
 20
633.10000000000014
 30
0.0
 11
825.50000000022226
 21
633.10000000000014
 31
0.0
  0
LINE
  5
23F
  8
DATA
  6
CONTINUOUS
 62
     7
 10
825.50000000022226
 20
626.5
 30
0.0
 11
821.50000000031355
 21
626.5
 31
0.0
  0
LINE
  5
240
  8
DATA
  6
CONTINUOUS
 62
     7
 10
821.50000000031355
 20
634.49999999999989
 30
0.0
 11
825.50000000022226
 21
634.49999999999989
 31
0.0
  0
LINE
  5
241
  8
DATA
  6
CONTINUOUS
 62
     7
 10
825.50000000022226
 20
634.49999999999989
 30
0.0
 11
825.50000000022226
 21
626.5
 31
0.0
  0
LINE
  5
242
  8
DATA
  6
CONTINUOUS
 62
     7
 10
224.9999999996393
 20
227.6000000001942
 30
0.0
 11
224.9999999996393
 21
267.00000000019452
 31
0.0
  0
LINE
  5
243
  8
DATA
  6
CONTINUOUS
 62
     7
 10
438.99999999963751
 20
225.00000000019409
 30
0.0
 11
224.9999999996393
 21
225.00000000019409
 31
0.0
  0
LINE
  5
244
  8
DATA
  6
CONTINUOUS
 62
     7
 10
224.9999999996393
 20
300.00000000019452
 30
0.0
 11
224.9999999996393
 21
409.0000000001944
 31
0.0
  0
LINE
  5
245
  8
DATA
  6
CONTINUOUS
 62
     7
 10
438.99999999963751
 20
300.00000000019452
 30
0.0
 11
224.9999999996393
 21
300.00000000019452
 31
0.0
  0
LINE
  5
246
  8
DATA
  6
CONTINUOUS
 62
     7
 10
487.49999999963762
 20
225.00000000019409
 30
0.0
 11
487.49999999963762
 21
267.00000000019452
 31
0.0
  0
LINE
  5
247
  8
DATA
  6
CONTINUOUS
 62
     7
 10
596.49999999963757
 20
225.00000000019409
 30
0.0
 11
487.49999999963762
 21
225.00000000019409
 31
0.0
  0
CIRCLE
  5
248
  8
DATA
  6
CONTINUOUS
 62
     7
 10
421.11019755114478
 20
242.0355774338496
 30
0.0
 40
1.4249999999999681
  0
TEXT
  5
249
  8
DATA
 62
     7
 10
418.49171493158889
 20
233.13129705664841
 30
0.0
 40
1.764577907986111
  1
Power
 41
0.7
 11
418.49171493158889
 21
234.89587496463449
 31
0.0
 73
     3
  0
TEXT
  5
24A
  8
DATA
 62
     7
 10
370.64184580939218
 20
248.5574300897182
 30
0.0
 40
9.7730468750000004
  1
CAT5
 41
0.7
 11
370.64184580939218
 21
258.33047696471817
 31
0.0
 73
     3
  0
TEXT
  5
24B
  8
DATA
 62
     7
 10
400.42249820244581
 20
248.5574300897182
 30
0.0
 40
9.7730468750000004
  1
5000R
 41
0.7
 11
400.42249820244581
 21
258.33047696471817
 31
0.0
 73
     3
  0
CIRCLE
  5
24C
  8
DATA
  6
CONTINUOUS
 62
     7
 10
398.3636466467608
 20
253.67681432548429
 30
0.0
 40
0.7835705481053945
  0
LINE
  5
24D
  8
DATA
  6
CONTINUOUS
 62
     7
 10
230.09935527919569
 20
221.00000000019389
 30
0.0
 11
228.6993552791956
 21
225.00000000019409
 31
0.0
  0
LINE
  5
24E
  8
DATA
  6
CONTINUOUS
 62
     7
 10
239.89935527919539
 20
221.00000000019389
 30
0.0
 11
241.2993552791954
 21
225.00000000019409
 31
0.0
  0
LINE
  5
24F
  8
DATA
  6
CONTINUOUS
 62
     7
 10
230.09935527919569
 20
221.00000000019389
 30
0.0
 11
239.89935527919539
 21
221.00000000019389
 31
0.0
  0
LINE
  5
250
  8
DATA
  6
CONTINUOUS
 62
     7
 10
433.90104681588292
 20
221.00000000019389
 30
0.0
 11
435.3010468158829
 21
225.00000000019409
 31
0.0
  0
LINE
  5
251
  8
DATA
  6
CONTINUOUS
 62
     7
 10
424.1010468158828
 20
221.00000000019389
 30
0.0
 11
422.70104681588282
 21
225.00000000019409
 31
0.0
  0
LINE
  5
252
  8
DATA
  6
CONTINUOUS
 62
     7
 10
433.90104681588292
 20
221.00000000019389
 30
0.0
 11
424.1010468158828
 21
221.00000000019389
 31
0.0
  0
CIRCLE
  5
253
  8
DATA
  6
CONTINUOUS
 62
     7
 10
500.55551428663682
 20
231.07711037310921
 30
0.0
 40
2.5000000000000102
  0
LINE
  5
254
  8
DATA
  6
CONTINUOUS
 62
     7
 10
499.05440358674372
 20
231.07711037310921
 30
0.0
 11
502.0566249865301
 21
231.07711037310921
 31
0.0
  0
LINE
  5
255
  8
DATA
  6
CONTINUOUS
 62
     7
 10
500.55551428663682
 20
229.57599967321599
 30
0.0
 11
500.55551428663682
 21
232.57822107300231
 31
0.0
  0
TEXT
  5
256
  8
DATA
 62
     7
 10
361.80866217639931
 20
487.0077850482931
 30
0.0
 40
2.4432617187500001
  1
Video Out 2 
 50
180.0
 41
0.7
 11
361.80866217639931
 21
484.56452332954308
 31
0.0
 73
     3
  0
TEXT
  5
257
  8
DATA
 62
     7
 10
253.5725720994368
 20
459.41170877210789
 30
0.0
 40
2.198935546875
  1
CAT-5
 50
180.0
 41
0.7
 11
253.5725720994368
 21
457.21277322523292
 31
0.0
 73
     3
  0
TEXT
  5
258
  8
DATA
 62
     7
 10
328.94280806669951
 20
486.94602315168271
 30
0.0
 40
2.4432617187500001
  1
Audio 
 50
180.0
 41
0.7
 11
328.94280806669951
 21
484.50276143293257
 31
0.0
 73
     3
  0
TEXT
  5
259
  8
DATA
 62
     7
 10
328.94280806669951
 20
490.12102315168261
 30
0.0
 40
2.4432617187500001
  1
 
 50
180.0
 41
0.7
 11
328.94280806669951
 21
487.67776143293258
 31
0.0
 73
     3
  0
LINE
  5
25A
  8
DATA
  6
CONTINUOUS
 62
     7
 10
501.40670452995658
 20
221.00000000019389
 30
0.0
 11
502.80670452995668
 21
225.00000000019409
 31
0.0
  0
LINE
  5
25B
  8
DATA
  6
CONTINUOUS
 62
     7
 10
491.60670452995652
 20
221.00000000019389
 30
0.0
 11
490.2067045299566
 21
225.00000000019409
 31
0.0
  0
LINE
  5
25C
  8
DATA
  6
CONTINUOUS
 62
     7
 10
501.40670452995658
 20
221.00000000019389
 30
0.0
 11
491.60670452995652
 21
221.00000000019389
 31
0.0
  0
LINE
  5
25D
  8
DATA
  6
CONTINUOUS
 62
     7
 10
224.9999999996393
 20
225.00000000019409
 30
0.0
 11
224.9999999996393
 21
267.00000000019452
 31
0.0
  0
LINE
  5
25E
  8
DATA
  6
CONTINUOUS
 62
     7
 10
438.99999999963751
 20
225.00000000019409
 30
0.0
 11
438.99999999963751
 21
267.00000000019452
 31
0.0
  0
LINE
  5
25F
  8
DATA
  6
CONTINUOUS
 62
     7
 10
438.99999999963751
 20
267.00000000019452
 30
0.0
 11
224.9999999996393
 21
267.00000000019452
 31
0.0
  0
LINE
  5
260
  8
DATA
  6
CONTINUOUS
 62
     7
 10
438.99999999963751
 20
409.0000000001944
 30
0.0
 11
224.9999999996393
 21
409.0000000001944
 31
0.0
  0
LINE
  5
261
  8
DATA
  6
CONTINUOUS
 62
     7
 10
438.99999999963751
 20
300.00000000019452
 30
0.0
 11
438.99999999963751
 21
409.0000000001944
 31
0.0
  0
LINE
  5
262
  8
DATA
  6
CONTINUOUS
 62
     7
 10
438.99999999963751
 20
307.00000000019452
 30
0.0
 11
224.9999999996393
 21
307.00000000019452
 31
0.0
  0
LINE
  5
263
  8
DATA
  6
CONTINUOUS
 62
     7
 10
487.49999999963762
 20
267.00000000019452
 30
0.0
 11
596.49999999963757
 21
267.00000000019452
 31
0.0
  0
LINE
  5
264
  8
DATA
  6
CONTINUOUS
 62
     7
 10
596.49999999963757
 20
225.00000000019409
 30
0.0
 11
596.49999999963757
 21
267.00000000019452
 31
0.0
  0
LINE
  5
265
  8
DATA
  6
CONTINUOUS
 62
     7
 10
581.40670452995676
 20
221.00000000019389
 30
0.0
 11
582.80670452995673
 21
225.00000000019409
 31
0.0
  0
LINE
  5
266
  8
DATA
  6
CONTINUOUS
 62
     7
 10
571.60670452995657
 20
221.00000000019389
 30
0.0
 11
570.20670452995671
 21
225.00000000019409
 31
0.0
  0
LINE
  5
267
  8
DATA
  6
CONTINUOUS
 62
     7
 10
581.40670452995676
 20
221.00000000019389
 30
0.0
 11
571.60670452995657
 21
221.00000000019389
 31
0.0
  0
LINE
  5
268
  8
DATA
  6
CONTINUOUS
 62
     7
 10
224.9999999996393
 20
489.40000000019359
 30
0.0
 11
224.9999999996393
 21
450.00000000019361
 31
0.0
  0
LINE
  5
269
  8
DATA
  6
CONTINUOUS
 62
     7
 10
438.99999999963751
 20
492.00000000019361
 30
0.0
 11
224.9999999996393
 21
492.00000000019361
 31
0.0
  0
LINE
  5
26A
  8
DATA
  6
CONTINUOUS
 62
     7
 10
230.09935527919569
 20
496.00000000019361
 30
0.0
 11
228.6993552791956
 21
492.00000000019361
 31
0.0
  0
LINE
  5
26B
  8
DATA
  6
CONTINUOUS
 62
     7
 10
239.89935527919539
 20
496.00000000019361
 30
0.0
 11
241.2993552791954
 21
492.00000000019361
 31
0.0
  0
LINE
  5
26C
  8
DATA
  6
CONTINUOUS
 62
     7
 10
230.09935527919569
 20
496.00000000019361
 30
0.0
 11
239.89935527919539
 21
496.00000000019361
 31
0.0
  0
LINE
  5
26D
  8
DATA
  6
CONTINUOUS
 62
     7
 10
433.90104681588292
 20
496.00000000019361
 30
0.0
 11
435.3010468158829
 21
492.00000000019361
 31
0.0
  0
LINE
  5
26E
  8
DATA
  6
CONTINUOUS
 62
     7
 10
424.1010468158828
 20
496.00000000019361
 30
0.0
 11
422.70104681588282
 21
492.00000000019361
 31
0.0
  0
LINE
  5
26F
  8
DATA
  6
CONTINUOUS
 62
     7
 10
433.90104681588292
 20
496.00000000019361
 30
0.0
 11
424.1010468158828
 21
496.00000000019361
 31
0.0
  0
LINE
  5
270
  8
DATA
  6
CONTINUOUS
 62
     7
 10
224.9999999996393
 20
492.00000000019361
 30
0.0
 11
224.9999999996393
 21
450.00000000019361
 31
0.0
  0
LINE
  5
271
  8
DATA
  6
CONTINUOUS
 62
     7
 10
438.99999999963751
 20
492.00000000019361
 30
0.0
 11
438.99999999963751
 21
450.00000000019361
 31
0.0
  0
LINE
  5
272
  8
DATA
  6
CONTINUOUS
 62
     7
 10
438.99999999963751
 20
450.00000000019361
 30
0.0
 11
224.9999999996393
 21
450.00000000019361
 31
0.0
  0
CIRCLE
  5
273
  8
DATA
  6
CONTINUOUS
 62
     7
 10
420.0230238308456
 20
475.00000000019361
 30
0.0
 40
3.3000000000000682
  0
CIRCLE
  5
274
  8
DATA
  6
CONTINUOUS
 62
     7
 10
420.0230238308456
 20
475.00000000019361
 30
0.0
 40
0.5850000000000364
  0
LINE
  5
275
  8
DATA
  6
CONTINUOUS
 62
     7
 10
259.0121371041289
 20
467.71777129404143
 30
0.0
 11
259.0121371041289
 21
481.01777129404132
 31
0.0
  0
LINE
  5
276
  8
DATA
  6
CONTINUOUS
 62
     7
 10
274.71213710412837
 20
467.71777129404143
 30
0.0
 11
274.71213710412837
 21
481.01777129404132
 31
0.0
  0
LINE
  5
277
  8
DATA
  6
CONTINUOUS
 62
     7
 10
274.71213710412837
 20
481.01777129404132
 30
0.0
 11
259.0121371041289
 21
481.01777129404132
 31
0.0
  0
LINE
  5
278
  8
DATA
  6
CONTINUOUS
 62
     7
 10
274.71213710412837
 20
467.71777129404143
 30
0.0
 11
259.0121371041289
 21
467.71777129404143
 31
0.0
  0
LINE
  5
279
  8
DATA
  6
CONTINUOUS
 62
     7
 10
273.01213710412861
 20
470.71777129404131
 30
0.0
 11
260.71213710412877
 21
470.71777129404131
 31
0.0
  0
LINE
  5
27A
  8
DATA
  6
CONTINUOUS
 62
     7
 10
273.01213710412861
 20
470.71777129404131
 30
0.0
 11
273.01213710412861
 21
478.01777129404132
 31
0.0
  0
LINE
  5
27B
  8
DATA
  6
CONTINUOUS
 62
     7
 10
260.71213710412877
 20
470.71777129404131
 30
0.0
 11
260.71213710412877
 21
478.01777129404132
 31
0.0
  0
LINE
  5
27C
  8
DATA
  6
CONTINUOUS
 62
     7
 10
269.0871371041286
 20
481.01777129404132
 30
0.0
 11
269.0871371041286
 21
479.51777129404138
 31
0.0
  0
LINE
  5
27D
  8
DATA
  6
CONTINUOUS
 62
     7
 10
264.63713710412878
 20
479.51777129404138
 30
0.0
 11
264.63713710412878
 21
481.01777129404132
 31
0.0
  0
LINE
  5
27E
  8
DATA
  6
CONTINUOUS
 62
     7
 10
270.2121371041286
 20
479.51777129404138
 30
0.0
 11
269.0871371041286
 21
479.51777129404138
 31
0.0
  0
LINE
  5
27F
  8
DATA
  6
CONTINUOUS
 62
     7
 10
264.63713710412878
 20
479.51777129404138
 30
0.0
 11
263.51213710412878
 21
479.51777129404138
 31
0.0
  0
LINE
  5
280
  8
DATA
  6
CONTINUOUS
 62
     7
 10
273.01213710412861
 20
478.01777129404132
 30
0.0
 11
270.2121371041286
 21
478.01777129404132
 31
0.0
  0
LINE
  5
281
  8
DATA
  6
CONTINUOUS
 62
     7
 10
263.51213710412878
 20
478.01777129404132
 30
0.0
 11
260.71213710412877
 21
478.01777129404132
 31
0.0
  0
LINE
  5
282
  8
DATA
  6
CONTINUOUS
 62
     7
 10
270.2121371041286
 20
479.51777129404138
 30
0.0
 11
270.2121371041286
 21
478.01777129404132
 31
0.0
  0
LINE
  5
283
  8
DATA
  6
CONTINUOUS
 62
     7
 10
263.51213710412878
 20
478.01777129404132
 30
0.0
 11
263.51213710412878
 21
479.51777129404138
 31
0.0
  0
CIRCLE
  5
284
  8
DATA
  6
CONTINUOUS
 62
     7
 10
325.08787101940919
 20
479.69986125547791
 30
0.0
 40
3.0
  0
CIRCLE
  5
285
  8
DATA
  6
CONTINUOUS
 62
     7
 10
325.08787101940919
 20
479.69986125547791
 30
0.0
 40
1.649999999999977
  0
LINE
  5
286
  8
DATA
  6
CONTINUOUS
 62
     7
 10
242.01213710412949
 20
467.71777129404143
 30
0.0
 11
242.01213710412949
 21
481.01777129404132
 31
0.0
  0
LINE
  5
287
  8
DATA
  6
CONTINUOUS
 62
     7
 10
257.712137104129
 20
467.71777129404143
 30
0.0
 11
257.712137104129
 21
481.01777129404132
 31
0.0
  0
LINE
  5
288
  8
DATA
  6
CONTINUOUS
 62
     7
 10
257.712137104129
 20
481.01777129404132
 30
0.0
 11
242.01213710412949
 21
481.01777129404132
 31
0.0
  0
LINE
  5
289
  8
DATA
  6
CONTINUOUS
 62
     7
 10
257.712137104129
 20
467.71777129404143
 30
0.0
 11
242.01213710412949
 21
467.71777129404143
 31
0.0
  0
LINE
  5
28A
  8
DATA
  6
CONTINUOUS
 62
     7
 10
256.0121371041289
 20
470.71777129404131
 30
0.0
 11
243.71213710412931
 21
470.71777129404131
 31
0.0
  0
LINE
  5
28B
  8
DATA
  6
CONTINUOUS
 62
     7
 10
256.0121371041289
 20
470.71777129404131
 30
0.0
 11
256.0121371041289
 21
478.01777129404132
 31
0.0
  0
LINE
  5
28C
  8
DATA
  6
CONTINUOUS
 62
     7
 10
243.71213710412931
 20
470.71777129404131
 30
0.0
 11
243.71213710412931
 21
478.01777129404132
 31
0.0
  0
LINE
  5
28D
  8
DATA
  6
CONTINUOUS
 62
     7
 10
252.087137104129
 20
481.01777129404132
 30
0.0
 11
252.087137104129
 21
479.51777129404138
 31
0.0
  0
LINE
  5
28E
  8
DATA
  6
CONTINUOUS
 62
     7
 10
247.63713710412921
 20
479.51777129404138
 30
0.0
 11
247.63713710412921
 21
481.01777129404132
 31
0.0
  0
LINE
  5
28F
  8
DATA
  6
CONTINUOUS
 62
     7
 10
253.212137104129
 20
479.51777129404138
 30
0.0
 11
252.087137104129
 21
479.51777129404138
 31
0.0
  0
LINE
  5
290
  8
DATA
  6
CONTINUOUS
 62
     7
 10
247.63713710412921
 20
479.51777129404138
 30
0.0
 11
246.5121371041291
 21
479.51777129404138
 31
0.0
  0
LINE
  5
291
  8
DATA
  6
CONTINUOUS
 62
     7
 10
256.0121371041289
 20
478.01777129404132
 30
0.0
 11
253.212137104129
 21
478.01777129404132
 31
0.0
  0
LINE
  5
292
  8
DATA
  6
CONTINUOUS
 62
     7
 10
246.5121371041291
 20
478.01777129404132
 30
0.0
 11
243.71213710412931
 21
478.01777129404132
 31
0.0
  0
LINE
  5
293
  8
DATA
  6
CONTINUOUS
 62
     7
 10
253.212137104129
 20
479.51777129404138
 30
0.0
 11
253.212137104129
 21
478.01777129404132
 31
0.0
  0
LINE
  5
294
  8
DATA
  6
CONTINUOUS
 62
     7
 10
246.5121371041291
 20
478.01777129404132
 30
0.0
 11
246.5121371041291
 21
479.51777129404138
 31
0.0
  0
TEXT
  5
295
  8
DATA
 62
     7
 10
270.52503849377842
 20
462.7319492774327
 30
0.0
 40
2.198935546875
  1
CAT-5
 50
180.0
 41
0.7
 11
270.52503849377842
 21
460.53301373055768
 31
0.0
 73
     3
  0
TEXT
  5
296
  8
DATA
 62
     7
 10
272.59840235408637
 20
465.71825156930203
 30
0.0
 40
2.4432617187500001
  1
Video 2
 50
180.0
 41
0.7
 11
272.59840235408637
 21
463.274989850552
 31
0.0
 73
     3
  0
TEXT
  5
297
  8
DATA
 62
     7
 10
256.00520086013802
 20
465.62879694047751
 30
0.0
 40
2.198935546875
  1
USB/Audio
 50
180.0
 41
0.7
 11
256.00520086013802
 21
463.42986139360249
 31
0.0
 73
     3
  0
CIRCLE
  5
298
  8
DATA
  6
CONTINUOUS
 62
     7
 10
340.50185111498399
 20
474.93989413030482
 30
0.0
 40
1.175000000000068
  0
POLYLINE
  5
299
  8
DATA
  6
CONTINUOUS
 62
     7
 66
     1
 10
0.0
 20
0.0
 30
0.0
 70
     1
  0
VERTEX
  5
4B0
  8
DATA
  6
CONTINUOUS
 62
     7
 10
340.50185111498399
 20
472.23989413030478
 30
0.0
  0
VERTEX
  5
4B1
  8
DATA
  6
CONTINUOUS
 62
     7
 10
342.84011970520208
 20
473.5898941303048
 30
0.0
  0
VERTEX
  5
4B2
  8
DATA
  6
CONTINUOUS
 62
     7
 10
342.84011970520208
 20
476.28989413030467
 30
0.0
  0
VERTEX
  5
4B3
  8
DATA
  6
CONTINUOUS
 62
     7
 10
340.50185111498399
 20
477.63989413030481
 30
0.0
  0
VERTEX
  5
4B4
  8
DATA
  6
CONTINUOUS
 62
     7
 10
338.16358252476601
 20
476.28989413030467
 30
0.0
  0
VERTEX
  5
4B5
  8
DATA
  6
CONTINUOUS
 62
     7
 10
338.16358252476601
 20
473.5898941303048
 30
0.0
  0
SEQEND
  5
4B6
  8
DATA
  6
CONTINUOUS
 62
     7
  0
CIRCLE
  5
2A2
  8
DATA
  6
CONTINUOUS
 62
     7
 10
365.50185111498399
 20
474.93989413030482
 30
0.0
 40
1.175000000000068
  0
POLYLINE
  5
2A3
  8
DATA
  6
CONTINUOUS
 62
     7
 66
     1
 10
0.0
 20
0.0
 30
0.0
 70
     1
  0
VERTEX
  5
4B7
  8
DATA
  6
CONTINUOUS
 62
     7
 10
365.50185111498399
 20
472.23989413030478
 30
0.0
  0
VERTEX
  5
4B8
  8
DATA
  6
CONTINUOUS
 62
     7
 10
367.84011970520203
 20
473.5898941303048
 30
0.0
  0
VERTEX
  5
4B9
  8
DATA
  6
CONTINUOUS
 62
     7
 10
367.84011970520203
 20
476.28989413030467
 30
0.0
  0
VERTEX
  5
4BA
  8
DATA
  6
CONTINUOUS
 62
     7
 10
365.50185111498399
 20
477.63989413030481
 30
0.0
  0
VERTEX
  5
4BB
  8
DATA
  6
CONTINUOUS
 62
     7
 10
363.16358252476601
 20
476.28989413030467
 30
0.0
  0
VERTEX
  5
4BC
  8
DATA
  6
CONTINUOUS
 62
     7
 10
363.16358252476601
 20
473.5898941303048
 30
0.0
  0
SEQEND
  5
4BD
  8
DATA
  6
CONTINUOUS
 62
     7
  0
LINE
  5
2AC
  8
DATA
  6
CONTINUOUS
 62
     7
 10
348.31529564651657
 20
478.93989413030482
 30
0.0
 11
357.7107287234935
 21
478.93989413030482
 31
0.0
  0
LINE
  5
2AD
  8
DATA
  6
CONTINUOUS
 62
     7
 10
358.52322872349339
 20
470.93989413030482
 30
0.0
 11
347.50279564651657
 21
470.93989413030482
 31
0.0
  0
LINE
  5
2AE
  8
DATA
  6
CONTINUOUS
 62
     7
 10
359.09394557074501
 20
477.75602176268791
 30
0.0
 11
359.90644557074489
 21
472.55602176268781
 31
0.0
  0
LINE
  5
2AF
  8
DATA
  6
CONTINUOUS
 62
     7
 10
346.11957879926501
 20
472.55602176268781
 30
0.0
 11
346.9320787992649
 21
477.75602176268791
 31
0.0
  0
CIRCLE
  5
2B0
  8
DATA
  6
CONTINUOUS
 62
     7
 10
353.00185111498399
 20
472.47856591803691
 30
0.0
 40
0.5
  0
CIRCLE
  5
2B1
  8
DATA
  6
CONTINUOUS
 62
     7
 10
351.00185111498399
 20
472.47856591803691
 30
0.0
 40
0.5
  0
CIRCLE
  5
2B2
  8
DATA
  6
CONTINUOUS
 62
     7
 10
349.00185111498399
 20
472.47856591803691
 30
0.0
 40
0.5
  0
CIRCLE
  5
2B3
  8
DATA
  6
CONTINUOUS
 62
     7
 10
355.00185111498399
 20
472.47856591803691
 30
0.0
 40
0.5
  0
CIRCLE
  5
2B4
  8
DATA
  6
CONTINUOUS
 62
     7
 10
357.00185111498399
 20
472.47856591803691
 30
0.0
 40
0.5
  0
CIRCLE
  5
2B5
  8
DATA
  6
CONTINUOUS
 62
     7
 10
351.88450753951969
 20
474.95275717664202
 30
0.0
 40
0.5
  0
CIRCLE
  5
2B6
  8
DATA
  6
CONTINUOUS
 62
     7
 10
349.88450753951969
 20
474.95275717664202
 30
0.0
 40
0.5
  0
CIRCLE
  5
2B7
  8
DATA
  6
CONTINUOUS
 62
     7
 10
347.88450753951969
 20
474.95275717664202
 30
0.0
 40
0.5
  0
CIRCLE
  5
2B8
  8
DATA
  6
CONTINUOUS
 62
     7
 10
353.88450753951969
 20
474.95275717664202
 30
0.0
 40
0.5
  0
CIRCLE
  5
2B9
  8
DATA
  6
CONTINUOUS
 62
     7
 10
355.88450753951969
 20
474.95275717664202
 30
0.0
 40
0.5
  0
CIRCLE
  5
2BA
  8
DATA
  6
CONTINUOUS
 62
     7
 10
353.00185111498399
 20
477.40122234257268
 30
0.0
 40
0.5
  0
CIRCLE
  5
2BB
  8
DATA
  6
CONTINUOUS
 62
     7
 10
351.00185111498399
 20
477.40122234257268
 30
0.0
 40
0.5
  0
CIRCLE
  5
2BC
  8
DATA
  6
CONTINUOUS
 62
     7
 10
349.00185111498399
 20
477.40122234257268
 30
0.0
 40
0.5
  0
CIRCLE
  5
2BD
  8
DATA
  6
CONTINUOUS
 62
     7
 10
355.00185111498399
 20
477.40122234257268
 30
0.0
 40
0.5
  0
CIRCLE
  5
2BE
  8
DATA
  6
CONTINUOUS
 62
     7
 10
357.00185111498399
 20
477.40122234257268
 30
0.0
 40
0.5
  0
ARC
  5
2BF
  8
DATA
  6
CONTINUOUS
 62
     7
 10
358.52322872349339
 20
472.3398941303048
 30
0.0
 40
1.400000000000005
 50
270.0
 51
8.8806591505193637
  0
ARC
  5
2C0
  8
DATA
  6
CONTINUOUS
 62
     7
 10
347.50279564651657
 20
472.3398941303048
 30
0.0
 40
1.400000000000019
 50
171.1193408494795
 51
270.0
  0
ARC
  5
2C1
  8
DATA
  6
CONTINUOUS
 62
     7
 10
357.7107287234935
 20
477.53989413030467
 30
0.0
 40
1.400000000000015
 50
8.8806591505193833
 51
89.999999999999986
  0
ARC
  5
2C2
  8
DATA
  6
CONTINUOUS
 62
     7
 10
348.31529564651657
 20
477.53989413030467
 30
0.0
 40
1.400000000000005
 50
90.0
 51
171.11934084947831
  0
LINE
  5
2C3
  8
DATA
  6
CONTINUOUS
 62
     7
 10
347.10159809656142
 20
480.93989413030482
 30
0.0
 11
358.90210413340668
 21
480.93989413030482
 31
0.0
  0
LINE
  5
2C4
  8
DATA
  6
CONTINUOUS
 62
     7
 10
359.92094585400321
 20
468.93989413030482
 30
0.0
 11
346.08275637596489
 21
468.93989413030482
 31
0.0
  0
LINE
  5
2C5
  8
DATA
  6
CONTINUOUS
 62
     7
 10
344.11091114882157
 20
471.27429867601592
 30
0.0
 11
345.5241219148466
 21
479.6074177668736
 31
0.0
  0
ARC
  5
2C6
  8
DATA
  6
CONTINUOUS
 62
     7
 10
346.08275637596489
 20
470.93989413030482
 30
0.0
 40
1.999999999999962
 50
170.37480705637799
 51
270.0000000000033
  0
ARC
  5
2C7
  8
DATA
  6
CONTINUOUS
 62
     7
 10
347.10159809656142
 20
479.3398941303048
 30
0.0
 40
1.5999999999999941
 50
90.0
 51
170.37480705637901
  0
TEXT
  5
2C8
  8
DATA
 62
     7
 10
425.40061910206612
 20
486.95387238740682
 30
0.0
 40
2.4432617187500001
  1
+5 Vdc
 50
180.0
 41
0.7
 11
425.40061910206612
 21
484.5106106686568
 31
0.0
 73
     3
  0
LINE
  5
2C9
  8
DATA
  6
CONTINUOUS
 62
     7
 10
367.7231640078503
 20
413.00000000019452
 30
0.0
 11
363.04662682741417
 21
413.00000000019452
 31
0.0
  0
LINE
  5
2CA
  8
DATA
  6
CONTINUOUS
 62
     7
 10
361.78679163895089
 20
413.00000000019452
 30
0.0
 11
343.96591864085173
 21
413.00000000019452
 31
0.0
  0
LINE
  5
2CB
  8
DATA
  6
CONTINUOUS
 62
     7
 10
361.89279108114653
 20
471.27429867601592
 30
0.0
 11
360.4795803151215
 21
479.6074177668736
 31
0.0
  0
ARC
  5
2CC
  8
DATA
  6
CONTINUOUS
 62
     7
 10
359.92094585400321
 20
470.93989413030482
 30
0.0
 40
1.9999999999999709
 50
269.99999999999682
 51
9.6251929436219843
  0
ARC
  5
2CD
  8
DATA
  6
CONTINUOUS
 62
     7
 10
358.90210413340668
 20
479.3398941303048
 30
0.0
 40
1.600000000000058
 50
9.6251929436210109
 51
90.0
  0
CIRCLE
  5
2CE
  8
DATA
  6
CONTINUOUS
 62
     7
 10
380.47366125176262
 20
474.93989413030482
 30
0.0
 40
1.1749999999999541
  0
POLYLINE
  5
2CF
  8
DATA
  6
CONTINUOUS
 62
     7
 66
     1
 10
0.0
 20
0.0
 30
0.0
 70
     1
  0
VERTEX
  5
4BE
  8
DATA
  6
CONTINUOUS
 62
     7
 10
380.47366125176262
 20
472.23989413030478
 30
0.0
  0
VERTEX
  5
4BF
  8
DATA
  6
CONTINUOUS
 62
     7
 10
382.81192984198032
 20
473.5898941303048
 30
0.0
  0
VERTEX
  5
4C0
  8
DATA
  6
CONTINUOUS
 62
     7
 10
382.81192984198032
 20
476.28989413030467
 30
0.0
  0
VERTEX
  5
4C1
  8
DATA
  6
CONTINUOUS
 62
     7
 10
380.47366125176262
 20
477.63989413030481
 30
0.0
  0
VERTEX
  5
4C2
  8
DATA
  6
CONTINUOUS
 62
     7
 10
378.13539266154481
 20
476.28989413030467
 30
0.0
  0
VERTEX
  5
4C3
  8
DATA
  6
CONTINUOUS
 62
     7
 10
378.13539266154481
 20
473.5898941303048
 30
0.0
  0
SEQEND
  5
4C4
  8
DATA
  6
CONTINUOUS
 62
     7
  0
CIRCLE
  5
2D8
  8
DATA
  6
CONTINUOUS
 62
     7
 10
405.47366125176171
 20
474.93989413030482
 30
0.0
 40
1.175000000000068
  0
POLYLINE
  5
2D9
  8
DATA
  6
CONTINUOUS
 62
     7
 66
     1
 10
0.0
 20
0.0
 30
0.0
 70
     1
  0
VERTEX
  5
4C5
  8
DATA
  6
CONTINUOUS
 62
     7
 10
405.47366125176171
 20
472.23989413030478
 30
0.0
  0
VERTEX
  5
4C6
  8
DATA
  6
CONTINUOUS
 62
     7
 10
407.81192984197969
 20
473.5898941303048
 30
0.0
  0
VERTEX
  5
4C7
  8
DATA
  6
CONTINUOUS
 62
     7
 10
407.81192984197969
 20
476.28989413030467
 30
0.0
  0
VERTEX
  5
4C8
  8
DATA
  6
CONTINUOUS
 62
     7
 10
405.47366125176171
 20
477.63989413030481
 30
0.0
  0
VERTEX
  5
4C9
  8
DATA
  6
CONTINUOUS
 62
     7
 10
403.13539266154368
 20
476.28989413030467
 30
0.0
  0
VERTEX
  5
4CA
  8
DATA
  6
CONTINUOUS
 62
     7
 10
403.13539266154368
 20
473.5898941303048
 30
0.0
  0
SEQEND
  5
4CB
  8
DATA
  6
CONTINUOUS
 62
     7
  0
LINE
  5
2E2
  8
DATA
  6
CONTINUOUS
 62
     7
 10
388.28710578329429
 20
478.93989413030482
 30
0.0
 11
397.68253886027122
 21
478.93989413030482
 31
0.0
  0
LINE
  5
2E3
  8
DATA
  6
CONTINUOUS
 62
     7
 10
398.49503886027122
 20
470.93989413030482
 30
0.0
 11
387.47460578329452
 21
470.93989413030482
 31
0.0
  0
LINE
  5
2E4
  8
DATA
  6
CONTINUOUS
 62
     7
 10
399.06575570752273
 20
477.75602176268791
 30
0.0
 11
399.87825570752261
 21
472.55602176268781
 31
0.0
  0
LINE
  5
2E5
  8
DATA
  6
CONTINUOUS
 62
     7
 10
386.09138893604307
 20
472.55602176268781
 30
0.0
 11
386.90388893604302
 21
477.75602176268791
 31
0.0
  0
CIRCLE
  5
2E6
  8
DATA
  6
CONTINUOUS
 62
     7
 10
392.97366125176171
 20
472.47856591803691
 30
0.0
 40
0.5
  0
CIRCLE
  5
2E7
  8
DATA
  6
CONTINUOUS
 62
     7
 10
390.97366125176171
 20
472.47856591803691
 30
0.0
 40
0.5
  0
CIRCLE
  5
2E8
  8
DATA
  6
CONTINUOUS
 62
     7
 10
388.97366125176171
 20
472.47856591803691
 30
0.0
 40
0.4999999999999575
  0
CIRCLE
  5
2E9
  8
DATA
  6
CONTINUOUS
 62
     7
 10
394.97366125176171
 20
472.47856591803691
 30
0.0
 40
0.5
  0
CIRCLE
  5
2EA
  8
DATA
  6
CONTINUOUS
 62
     7
 10
396.97366125176171
 20
472.47856591803691
 30
0.0
 40
0.5
  0
CIRCLE
  5
2EB
  8
DATA
  6
CONTINUOUS
 62
     7
 10
391.85631767629752
 20
474.95275717664202
 30
0.0
 40
0.5
  0
CIRCLE
  5
2EC
  8
DATA
  6
CONTINUOUS
 62
     7
 10
389.85631767629752
 20
474.95275717664202
 30
0.0
 40
0.5
  0
CIRCLE
  5
2ED
  8
DATA
  6
CONTINUOUS
 62
     7
 10
387.85631767629758
 20
474.95275717664202
 30
0.0
 40
0.4999999999999575
  0
CIRCLE
  5
2EE
  8
DATA
  6
CONTINUOUS
 62
     7
 10
393.85631767629752
 20
474.95275717664202
 30
0.0
 40
0.5
  0
CIRCLE
  5
2EF
  8
DATA
  6
CONTINUOUS
 62
     7
 10
395.85631767629752
 20
474.95275717664202
 30
0.0
 40
0.5
  0
CIRCLE
  5
2F0
  8
DATA
  6
CONTINUOUS
 62
     7
 10
392.97366125176171
 20
477.40122234257268
 30
0.0
 40
0.5
  0
CIRCLE
  5
2F1
  8
DATA
  6
CONTINUOUS
 62
     7
 10
390.97366125176171
 20
477.40122234257268
 30
0.0
 40
0.5
  0
CIRCLE
  5
2F2
  8
DATA
  6
CONTINUOUS
 62
     7
 10
388.97366125176171
 20
477.40122234257268
 30
0.0
 40
0.4999999999999575
  0
CIRCLE
  5
2F3
  8
DATA
  6
CONTINUOUS
 62
     7
 10
394.97366125176171
 20
477.40122234257268
 30
0.0
 40
0.5
  0
CIRCLE
  5
2F4
  8
DATA
  6
CONTINUOUS
 62
     7
 10
396.97366125176171
 20
477.40122234257268
 30
0.0
 40
0.5
  0
ARC
  5
2F5
  8
DATA
  6
CONTINUOUS
 62
     7
 10
398.49503886027122
 20
472.3398941303048
 30
0.0
 40
1.400000000000005
 50
270.0
 51
8.8806591505193637
  0
ARC
  5
2F6
  8
DATA
  6
CONTINUOUS
 62
     7
 10
387.47460578329452
 20
472.3398941303048
 30
0.0
 40
1.3999999999998789
 50
171.11934084947859
 51
270.0
  0
ARC
  5
2F7
  8
DATA
  6
CONTINUOUS
 62
     7
 10
397.68253886027122
 20
477.53989413030467
 30
0.0
 40
1.400000000000015
 50
8.8806591505193833
 51
89.999999999999986
  0
ARC
  5
2F8
  8
DATA
  6
CONTINUOUS
 62
     7
 10
388.28710578329429
 20
477.53989413030467
 30
0.0
 40
1.400000000000005
 50
90.0
 51
171.11934084947751
  0
LINE
  5
2F9
  8
DATA
  6
CONTINUOUS
 62
     7
 10
387.07340823333931
 20
480.93989413030482
 30
0.0
 11
398.8739142701844
 21
480.93989413030482
 31
0.0
  0
LINE
  5
2FA
  8
DATA
  6
CONTINUOUS
 62
     7
 10
399.89275599078093
 20
468.93989413030482
 30
0.0
 11
386.05456651274278
 21
468.93989413030482
 31
0.0
  0
LINE
  5
2FB
  8
DATA
  6
CONTINUOUS
 62
     7
 10
384.08272128559997
 20
471.27429867601592
 30
0.0
 11
385.49593205162478
 21
479.6074177668736
 31
0.0
  0
ARC
  5
2FC
  8
DATA
  6
CONTINUOUS
 62
     7
 10
386.05456651274278
 20
470.93989413030482
 30
0.0
 40
1.99999999999978
 50
170.37480705637719
 51
270.0000000000033
  0
ARC
  5
2FD
  8
DATA
  6
CONTINUOUS
 62
     7
 10
387.07340823333931
 20
479.3398941303048
 30
0.0
 40
1.5999999999999941
 50
90.0
 51
170.3748070563781
  0
LINE
  5
2FE
  8
DATA
  6
CONTINUOUS
 62
     7
 10
401.86460121792402
 20
471.27429867601592
 30
0.0
 11
400.4513904518991
 21
479.6074177668736
 31
0.0
  0
ARC
  5
2FF
  8
DATA
  6
CONTINUOUS
 62
     7
 10
399.89275599078093
 20
470.93989413030482
 30
0.0
 40
1.9999999999999709
 50
269.99999999999682
 51
9.6251929436219843
  0
ARC
  5
300
  8
DATA
  6
CONTINUOUS
 62
     7
 10
398.8739142701844
 20
479.3398941303048
 30
0.0
 40
1.600000000000058
 50
9.6251929436210109
 51
90.0
  0
LINE
  5
301
  8
DATA
  6
CONTINUOUS
 62
     7
 10
367.7231640078503
 20
413.00000000019452
 30
0.0
 11
367.7231640078503
 21
409.0000000001944
 31
0.0
  0
LINE
  5
302
  8
DATA
  6
CONTINUOUS
 62
     7
 10
342.7231640078503
 20
413.00000000019452
 30
0.0
 11
342.7231640078503
 21
409.0000000001944
 31
0.0
  0
LINE
  5
303
  8
DATA
  6
CONTINUOUS
 62
     7
 10
363.04662682741417
 20
413.00000000019452
 30
0.0
 11
363.04662682741417
 21
409.0000000001944
 31
0.0
  0
LINE
  5
304
  8
DATA
  6
CONTINUOUS
 62
     7
 10
343.96591864085173
 20
413.00000000019452
 30
0.0
 11
343.96591864085173
 21
409.0000000001944
 31
0.0
  0
LINE
  5
305
  8
DATA
  6
CONTINUOUS
 62
     7
 10
361.78679163895089
 20
413.00000000019452
 30
0.0
 11
361.78679163895089
 21
409.0000000001944
 31
0.0
  0
LINE
  5
306
  8
DATA
  6
CONTINUOUS
 62
     7
 10
338.04662682741417
 20
413.00000000019452
 30
0.0
 11
338.04662682741417
 21
409.0000000001944
 31
0.0
  0
LINE
  5
307
  8
DATA
  6
CONTINUOUS
 62
     7
 10
338.04662682741417
 20
413.00000000019452
 30
0.0
 11
342.7231640078503
 21
413.00000000019452
 31
0.0
  0
LINE
  5
308
  8
DATA
  6
CONTINUOUS
 62
     7
 10
407.56865350243629
 20
413.00000000019452
 30
0.0
 11
402.89211632200028
 21
413.00000000019452
 31
0.0
  0
LINE
  5
309
  8
DATA
  6
CONTINUOUS
 62
     7
 10
401.63228113353688
 20
413.00000000019452
 30
0.0
 11
383.81140813543772
 21
413.00000000019452
 31
0.0
  0
LINE
  5
30A
  8
DATA
  6
CONTINUOUS
 62
     7
 10
407.56865350243629
 20
413.00000000019452
 30
0.0
 11
407.56865350243629
 21
409.0000000001944
 31
0.0
  0
LINE
  5
30B
  8
DATA
  6
CONTINUOUS
 62
     7
 10
382.56865350243629
 20
413.00000000019452
 30
0.0
 11
382.56865350243629
 21
409.0000000001944
 31
0.0
  0
LINE
  5
30C
  8
DATA
  6
CONTINUOUS
 62
     7
 10
402.89211632200028
 20
413.00000000019452
 30
0.0
 11
402.89211632200028
 21
409.0000000001944
 31
0.0
  0
LINE
  5
30D
  8
DATA
  6
CONTINUOUS
 62
     7
 10
383.81140813543772
 20
413.00000000019452
 30
0.0
 11
383.81140813543772
 21
409.0000000001944
 31
0.0
  0
LINE
  5
30E
  8
DATA
  6
CONTINUOUS
 62
     7
 10
401.63228113353688
 20
413.00000000019452
 30
0.0
 11
401.63228113353688
 21
409.0000000001944
 31
0.0
  0
LINE
  5
30F
  8
DATA
  6
CONTINUOUS
 62
     7
 10
377.89211632200028
 20
413.00000000019452
 30
0.0
 11
377.89211632200028
 21
409.0000000001944
 31
0.0
  0
LINE
  5
310
  8
DATA
  6
CONTINUOUS
 62
     7
 10
377.89211632200028
 20
413.00000000019452
 30
0.0
 11
382.56865350243629
 21
413.00000000019452
 31
0.0
  0
CIRCLE
  5
311
  8
DATA
  6
CONTINUOUS
 62
     7
 10
409.10942628039112
 20
240.39488669706711
 30
0.0
 40
1.949999999999988
  0
LINE
  5
312
  8
DATA
  6
CONTINUOUS
 62
     7
 10
407.91401840020961
 20
240.39488669706711
 30
0.0
 11
410.30483416057081
 21
240.39488669706711
 31
0.0
  0
LINE
  5
313
  8
DATA
  6
CONTINUOUS
 62
     7
 10
409.10942628039112
 20
239.19947881688549
 30
0.0
 11
409.10942628039112
 21
241.59029457724861
 31
0.0
  0
CIRCLE
  5
314
  8
DATA
  6
CONTINUOUS
 62
     7
 10
400.14682070568603
 20
240.39488669706711
 30
0.0
 40
1.949999999999988
  0
LINE
  5
315
  8
DATA
  6
CONTINUOUS
 62
     7
 10
398.95141282550441
 20
240.39488669706711
 30
0.0
 11
401.34222858586543
 21
240.39488669706711
 31
0.0
  0
LINE
  5
316
  8
DATA
  6
CONTINUOUS
 62
     7
 10
400.14682070568603
 20
239.19947881688549
 30
0.0
 11
400.14682070568603
 21
241.59029457724861
 31
0.0
  0
TEXT
  5
317
  8
DATA
 62
     7
 10
398.8377056043621
 20
229.38852220182741
 30
0.0
 40
1.764577907986111
  1
Brightness
 41
0.7
 11
398.8377056043621
 21
231.15310010981349
 31
0.0
 73
     3
  0
TEXT
  5
318
  8
DATA
 62
     7
 10
327.25063695285638
 20
489.94433636795827
 30
0.0
 40
2.4432617187500001
  1
Out
 50
180.0
 41
0.7
 11
327.25063695285638
 21
487.50107464920819
 31
0.0
 73
     3
  0
TEXT
  5
319
  8
DATA
 62
     7
 10
327.25063695285638
 20
493.11933636795811
 30
0.0
 40
2.4432617187500001
  1
 
 50
180.0
 41
0.7
 11
327.25063695285638
 21
490.67607464920798
 31
0.0
 73
     3
  0
TEXT
  5
31A
  8
DATA
 62
     7
 10
401.87285420791397
 20
487.01549155186029
 30
0.0
 40
2.4432617187500001
  1
Video Out 1
 50
180.0
 41
0.7
 11
401.87285420791397
 21
484.57222983311033
 31
0.0
 73
     3
  0
ARC
  5
31B
  8
DATA
  6
CONTINUOUS
 62
     7
 10
423.08618693265839
 20
300.97875000019462
 30
0.0
 40
1.7287500000000999
 50
214.48291879788411
 51
325.51708120211612
  0
LINE
  5
31C
  8
DATA
  6
CONTINUOUS
 62
     7
 10
600.49999999954628
 20
239.5100839670541
 30
0.0
 11
596.49999999963757
 21
239.5100839670541
 31
0.0
  0
LINE
  5
31D
  8
DATA
  6
CONTINUOUS
 62
     7
 10
596.49999999963757
 20
244.71008396705409
 30
0.0
 11
600.49999999954628
 21
244.71008396705409
 31
0.0
  0
LINE
  5
31E
  8
DATA
  6
CONTINUOUS
 62
     7
 10
600.49999999954628
 20
238.11008396705409
 30
0.0
 11
596.49999999963757
 21
238.11008396705409
 31
0.0
  0
LINE
  5
31F
  8
DATA
  6
CONTINUOUS
 62
     7
 10
596.49999999963757
 20
246.11008396705421
 30
0.0
 11
600.49999999954628
 21
246.11008396705421
 31
0.0
  0
LINE
  5
320
  8
DATA
  6
CONTINUOUS
 62
     7
 10
600.49999999954628
 20
246.11008396705421
 30
0.0
 11
600.49999999954628
 21
238.11008396705409
 31
0.0
  0
ARC
  5
321
  8
DATA
  6
CONTINUOUS
 62
     7
 10
488.47874999963761
 20
242.0355774338496
 30
0.0
 40
1.728750000000036
 50
124.482918797881
 51
235.51708120211899
  0
TEXT
  5
322
  8
DATA
 62
     7
 10
408.42144369837717
 20
233.07779033071159
 30
0.0
 40
1.764577907986111
  1
1
 41
0.7
 11
408.42144369837717
 21
234.8423682386977
 31
0.0
 73
     3
  0
TEXT
  5
323
  8
DATA
 62
     7
 10
399.42144369837717
 20
233.07779033071159
 30
0.0
 40
1.764577907986111
  1
2
 41
0.7
 11
399.42144369837717
 21
234.8423682386977
 31
0.0
 73
     3
  0
LINE
  5
324
  8
DATA
  6
CONTINUOUS
 62
     7
 10
313.5160114962157
 20
479.0184963860226
 30
0.0
 11
313.5160114962157
 21
466.5184963860226
 31
0.0
  0
LINE
  5
325
  8
DATA
  6
CONTINUOUS
 62
     7
 10
301.61601149621561
 20
479.61849638602251
 30
0.0
 11
312.91601149621567
 21
479.61849638602251
 31
0.0
  0
LINE
  5
326
  8
DATA
  6
CONTINUOUS
 62
     7
 10
301.0160114962157
 20
466.5184963860226
 30
0.0
 11
301.0160114962157
 21
479.0184963860226
 31
0.0
  0
LINE
  5
327
  8
DATA
  6
CONTINUOUS
 62
     7
 10
312.91601149621567
 20
465.91849638602258
 30
0.0
 11
301.61601149621561
 21
465.91849638602258
 31
0.0
  0
LINE
  5
328
  8
DATA
  6
CONTINUOUS
 62
     7
 10
313.5160114962157
 20
471.01849638602249
 30
0.0
 11
301.0160114962157
 21
471.01849638602249
 31
0.0
  0
LINE
  5
329
  8
DATA
  6
CONTINUOUS
 62
     7
 10
301.0160114962157
 20
474.5184963860226
 30
0.0
 11
313.5160114962157
 21
474.5184963860226
 31
0.0
  0
LINE
  5
32A
  8
DATA
  6
CONTINUOUS
 62
     7
 10
313.0160114962157
 20
468.61849638602263
 30
0.0
 11
301.5160114962157
 21
468.61849638602263
 31
0.0
  0
LINE
  5
32B
  8
DATA
  6
CONTINUOUS
 62
     7
 10
301.5160114962157
 20
477.21849638602248
 30
0.0
 11
313.0160114962157
 21
477.21849638602248
 31
0.0
  0
LINE
  5
32C
  8
DATA
  6
CONTINUOUS
 62
     7
 10
301.5160114962157
 20
475.91849638602253
 30
0.0
 11
313.0160114962157
 21
475.91849638602253
 31
0.0
  0
LINE
  5
32D
  8
DATA
  6
CONTINUOUS
 62
     7
 10
313.0160114962157
 20
467.3184963860225
 30
0.0
 11
301.5160114962157
 21
467.3184963860225
 31
0.0
  0
LINE
  5
32E
  8
DATA
  6
CONTINUOUS
 62
     7
 10
307.85386718685987
 20
477.21849638602248
 30
0.0
 11
307.85386718685987
 21
477.29349638602253
 31
0.0
  0
LINE
  5
32F
  8
DATA
  6
CONTINUOUS
 62
     7
 10
309.10386718685987
 20
477.21849638602248
 30
0.0
 11
309.10386718685987
 21
477.29349638602253
 31
0.0
  0
LINE
  5
330
  8
DATA
  6
CONTINUOUS
 62
     7
 10
309.10386718685987
 20
477.29349638602253
 30
0.0
 11
307.85386718685987
 21
477.29349638602253
 31
0.0
  0
LINE
  5
331
  8
DATA
  6
CONTINUOUS
 62
     7
 10
306.67815580557129
 20
477.21849638602248
 30
0.0
 11
306.67815580557129
 21
477.29349638602253
 31
0.0
  0
LINE
  5
332
  8
DATA
  6
CONTINUOUS
 62
     7
 10
305.42815580557141
 20
477.21849638602248
 30
0.0
 11
305.42815580557141
 21
477.29349638602253
 31
0.0
  0
LINE
  5
333
  8
DATA
  6
CONTINUOUS
 62
     7
 10
305.42815580557141
 20
477.29349638602253
 30
0.0
 11
306.67815580557129
 21
477.29349638602253
 31
0.0
  0
LINE
  5
334
  8
DATA
  6
CONTINUOUS
 62
     7
 10
310.27386718686
 20
477.21849638602248
 30
0.0
 11
310.27386718686
 21
477.29349638602253
 31
0.0
  0
LINE
  5
335
  8
DATA
  6
CONTINUOUS
 62
     7
 10
311.52386718686
 20
477.21849638602248
 30
0.0
 11
311.52386718686
 21
477.29349638602253
 31
0.0
  0
LINE
  5
336
  8
DATA
  6
CONTINUOUS
 62
     7
 10
311.52386718686
 20
477.29349638602253
 30
0.0
 11
310.27386718686
 21
477.29349638602253
 31
0.0
  0
LINE
  5
337
  8
DATA
  6
CONTINUOUS
 62
     7
 10
304.25815580557139
 20
477.21849638602248
 30
0.0
 11
304.25815580557139
 21
477.29349638602253
 31
0.0
  0
LINE
  5
338
  8
DATA
  6
CONTINUOUS
 62
     7
 10
303.00815580557139
 20
477.21849638602248
 30
0.0
 11
303.00815580557139
 21
477.29349638602253
 31
0.0
  0
LINE
  5
339
  8
DATA
  6
CONTINUOUS
 62
     7
 10
303.00815580557139
 20
477.29349638602253
 30
0.0
 11
304.25815580557139
 21
477.29349638602253
 31
0.0
  0
LINE
  5
33A
  8
DATA
  6
CONTINUOUS
 62
     7
 10
307.85386718685987
 20
468.61849638592253
 30
0.0
 11
307.85386718685987
 21
468.69349638592257
 31
0.0
  0
LINE
  5
33B
  8
DATA
  6
CONTINUOUS
 62
     7
 10
309.10386718685987
 20
468.61849638592253
 30
0.0
 11
309.10386718685987
 21
468.69349638592257
 31
0.0
  0
LINE
  5
33C
  8
DATA
  6
CONTINUOUS
 62
     7
 10
309.10386718685987
 20
468.69349638592257
 30
0.0
 11
307.85386718685987
 21
468.69349638592257
 31
0.0
  0
LINE
  5
33D
  8
DATA
  6
CONTINUOUS
 62
     7
 10
306.67815580557129
 20
468.61849638592253
 30
0.0
 11
306.67815580557129
 21
468.69349638592257
 31
0.0
  0
LINE
  5
33E
  8
DATA
  6
CONTINUOUS
 62
     7
 10
305.42815580557141
 20
468.61849638592253
 30
0.0
 11
305.42815580557141
 21
468.69349638592257
 31
0.0
  0
LINE
  5
33F
  8
DATA
  6
CONTINUOUS
 62
     7
 10
305.42815580557141
 20
468.69349638592257
 30
0.0
 11
306.67815580557129
 21
468.69349638592257
 31
0.0
  0
LINE
  5
340
  8
DATA
  6
CONTINUOUS
 62
     7
 10
310.27386718686
 20
468.61849638592253
 30
0.0
 11
310.27386718686
 21
468.69349638592257
 31
0.0
  0
LINE
  5
341
  8
DATA
  6
CONTINUOUS
 62
     7
 10
311.52386718686
 20
468.61849638592253
 30
0.0
 11
311.52386718686
 21
468.69349638592257
 31
0.0
  0
LINE
  5
342
  8
DATA
  6
CONTINUOUS
 62
     7
 10
311.52386718686
 20
468.69349638592257
 30
0.0
 11
310.27386718686
 21
468.69349638592257
 31
0.0
  0
LINE
  5
343
  8
DATA
  6
CONTINUOUS
 62
     7
 10
304.25815580557139
 20
468.61849638592253
 30
0.0
 11
304.25815580557139
 21
468.69349638592257
 31
0.0
  0
LINE
  5
344
  8
DATA
  6
CONTINUOUS
 62
     7
 10
303.00815580557139
 20
468.61849638592253
 30
0.0
 11
303.00815580557139
 21
468.69349638592257
 31
0.0
  0
LINE
  5
345
  8
DATA
  6
CONTINUOUS
 62
     7
 10
303.00815580557139
 20
468.69349638592257
 30
0.0
 11
304.25815580557139
 21
468.69349638592257
 31
0.0
  0
POLYLINE
  5
346
  8
DATA
  6
CONTINUOUS
 62
     7
 66
     1
 10
0.0
 20
0.0
 30
0.0
 70
     1
  0
VERTEX
  5
4CC
  8
DATA
  6
CONTINUOUS
 62
     7
 10
307.88251671031458
 20
473.3384963860226
 30
0.0
  0
VERTEX
  5
4CD
  8
DATA
  6
CONTINUOUS
 62
     7
 10
311.48251671031471
 20
473.3384963860226
 30
0.0
  0
VERTEX
  5
4CE
  8
DATA
  6
CONTINUOUS
 62
     7
 10
311.48251671031471
 20
472.1984963860225
 30
0.0
  0
VERTEX
  5
4CF
  8
DATA
  6
CONTINUOUS
 62
     7
 10
307.88251671031458
 20
472.1984963860225
 30
0.0
  0
SEQEND
  5
4D0
  8
DATA
  6
CONTINUOUS
 62
     7
  0
POLYLINE
  5
34D
  8
DATA
  6
CONTINUOUS
 62
     7
 66
     1
 10
0.0
 20
0.0
 30
0.0
 70
     1
  0
VERTEX
  5
4D1
  8
DATA
  6
CONTINUOUS
 62
     7
 10
303.04950628211668
 20
473.3384963860226
 30
0.0
  0
VERTEX
  5
4D2
  8
DATA
  6
CONTINUOUS
 62
     7
 10
306.6495062821167
 20
473.3384963860226
 30
0.0
  0
VERTEX
  5
4D3
  8
DATA
  6
CONTINUOUS
 62
     7
 10
306.6495062821167
 20
472.1984963860225
 30
0.0
  0
VERTEX
  5
4D4
  8
DATA
  6
CONTINUOUS
 62
     7
 10
303.04950628211668
 20
472.1984963860225
 30
0.0
  0
SEQEND
  5
4D5
  8
DATA
  6
CONTINUOUS
 62
     7
  0
ARC
  5
354
  8
DATA
  6
CONTINUOUS
 62
     7
 10
312.91601149621567
 20
466.5184963860226
 30
0.0
 40
0.6000000000000229
 50
270.0
 51
0.0
  0
ARC
  5
355
  8
DATA
  6
CONTINUOUS
 62
     7
 10
301.61601149621572
 20
466.5184963860226
 30
0.0
 40
0.6000000000000229
 50
180.0
 51
269.99999999999449
  0
ARC
  5
356
  8
DATA
  6
CONTINUOUS
 62
     7
 10
312.91601149621567
 20
479.0184963860226
 30
0.0
 40
0.6000000000000229
 50
0.0
 51
90.0
  0
ARC
  5
357
  8
DATA
  6
CONTINUOUS
 62
     7
 10
301.61601149621561
 20
479.0184963860226
 30
0.0
 40
0.5999999999999944
 50
90.0
 51
180.0
  0
LINE
  5
358
  8
DATA
  6
CONTINUOUS
 62
     7
 10
313.0160114962157
 20
468.61849638602263
 30
0.0
 11
313.0160114962157
 21
467.3184963860225
 31
0.0
  0
LINE
  5
359
  8
DATA
  6
CONTINUOUS
 62
     7
 10
301.5160114962157
 20
468.61849638602263
 30
0.0
 11
301.5160114962157
 21
467.3184963860225
 31
0.0
  0
LINE
  5
35A
  8
DATA
  6
CONTINUOUS
 62
     7
 10
313.0160114962157
 20
477.21849638602248
 30
0.0
 11
313.0160114962157
 21
475.91849638602253
 31
0.0
  0
LINE
  5
35B
  8
DATA
  6
CONTINUOUS
 62
     7
 10
301.5160114962157
 20
477.21849638602248
 30
0.0
 11
301.5160114962157
 21
475.91849638602253
 31
0.0
  0
LINE
  5
35C
  8
DATA
  6
CONTINUOUS
 62
     7
 10
312.8642810115573
 20
480.46849638602259
 30
0.0
 11
312.8642810115573
 21
479.61849638602251
 31
0.0
  0
LINE
  5
35D
  8
DATA
  6
CONTINUOUS
 62
     7
 10
312.8642810115573
 20
465.91849638602258
 30
0.0
 11
312.8642810115573
 21
465.0684963860225
 31
0.0
  0
LINE
  5
35E
  8
DATA
  6
CONTINUOUS
 62
     7
 10
301.66428101156129
 20
480.46849638602259
 30
0.0
 11
312.8642810115573
 21
480.46849638602259
 31
0.0
  0
LINE
  5
35F
  8
DATA
  6
CONTINUOUS
 62
     7
 10
301.66428101156129
 20
465.0684963860225
 30
0.0
 11
301.66428101156129
 21
465.91849638602258
 31
0.0
  0
LINE
  5
360
  8
DATA
  6
CONTINUOUS
 62
     7
 10
301.66428101156129
 20
479.61849638602251
 30
0.0
 11
301.66428101156129
 21
480.46849638602259
 31
0.0
  0
LINE
  5
361
  8
DATA
  6
CONTINUOUS
 62
     7
 10
312.8642810115573
 20
465.0684963860225
 30
0.0
 11
301.66428101156129
 21
465.0684963860225
 31
0.0
  0
LINE
  5
362
  8
DATA
  6
CONTINUOUS
 62
     7
 10
314.46601149621557
 20
470.48032174135068
 30
0.0
 11
314.46601149621557
 21
466.48032174135068
 31
0.0
  0
LINE
  5
363
  8
DATA
  6
CONTINUOUS
 62
     7
 10
300.06601149621571
 20
470.48032174135068
 30
0.0
 11
301.0160114962157
 21
470.48032174135068
 31
0.0
  0
LINE
  5
364
  8
DATA
  6
CONTINUOUS
 62
     7
 10
313.5160114962157
 20
470.48032174135068
 30
0.0
 11
314.46601149621557
 21
470.48032174135068
 31
0.0
  0
LINE
  5
365
  8
DATA
  6
CONTINUOUS
 62
     7
 10
300.06601149621571
 20
466.48032174135068
 30
0.0
 11
300.06601149621571
 21
470.48032174135068
 31
0.0
  0
LINE
  5
366
  8
DATA
  6
CONTINUOUS
 62
     7
 10
314.46601149621557
 20
466.48032174135068
 30
0.0
 11
313.51479584515113
 21
466.48032174135068
 31
0.0
  0
LINE
  5
367
  8
DATA
  6
CONTINUOUS
 62
     7
 10
301.01722714729198
 20
466.48032174135068
 30
0.0
 11
300.06601149621571
 21
466.48032174135068
 31
0.0
  0
LINE
  5
368
  8
DATA
  6
CONTINUOUS
 62
     7
 10
314.46601149621557
 20
475.05667103069447
 30
0.0
 11
314.46601149621557
 21
479.05667103069442
 31
0.0
  0
LINE
  5
369
  8
DATA
  6
CONTINUOUS
 62
     7
 10
300.06601149621571
 20
475.05667103069447
 30
0.0
 11
301.0160114962157
 21
475.05667103069447
 31
0.0
  0
LINE
  5
36A
  8
DATA
  6
CONTINUOUS
 62
     7
 10
313.5160114962157
 20
475.05667103069447
 30
0.0
 11
314.46601149621557
 21
475.05667103069447
 31
0.0
  0
LINE
  5
36B
  8
DATA
  6
CONTINUOUS
 62
     7
 10
300.06601149621571
 20
479.05667103069442
 30
0.0
 11
300.06601149621571
 21
475.05667103069447
 31
0.0
  0
LINE
  5
36C
  8
DATA
  6
CONTINUOUS
 62
     7
 10
314.46601149621557
 20
479.05667103069442
 30
0.0
 11
313.51479584515113
 21
479.05667103069442
 31
0.0
  0
LINE
  5
36D
  8
DATA
  6
CONTINUOUS
 62
     7
 10
301.01722714729198
 20
479.05667103069442
 30
0.0
 11
300.06601149621571
 21
479.05667103069442
 31
0.0
  0
LINE
  5
36E
  8
DATA
  6
CONTINUOUS
 62
     7
 10
315.2210713293847
 20
480.9684465654442
 30
0.0
 11
315.2210713293847
 21
464.6684465654443
 31
0.0
  0
LINE
  5
36F
  8
DATA
  6
CONTINUOUS
 62
     7
 10
315.2210713293847
 20
480.9684465654442
 30
0.0
 11
299.42107132938457
 21
480.9684465654442
 31
0.0
  0
LINE
  5
370
  8
DATA
  6
CONTINUOUS
 62
     7
 10
299.42107132938457
 20
480.9684465654442
 30
0.0
 11
299.42107132938457
 21
464.6684465654443
 31
0.0
  0
LINE
  5
371
  8
DATA
  6
CONTINUOUS
 62
     7
 10
315.2210713293847
 20
464.6684465654443
 30
0.0
 11
299.42107132938457
 21
464.6684465654443
 31
0.0
  0
LINE
  5
372
  8
DATA
  6
CONTINUOUS
 62
     7
 10
293.5160114962157
 20
479.0184963860226
 30
0.0
 11
293.5160114962157
 21
466.5184963860226
 31
0.0
  0
LINE
  5
373
  8
DATA
  6
CONTINUOUS
 62
     7
 10
281.61601149621561
 20
479.61849638602251
 30
0.0
 11
292.91601149621579
 21
479.61849638602251
 31
0.0
  0
LINE
  5
374
  8
DATA
  6
CONTINUOUS
 62
     7
 10
281.0160114962157
 20
466.5184963860226
 30
0.0
 11
281.0160114962157
 21
479.0184963860226
 31
0.0
  0
LINE
  5
375
  8
DATA
  6
CONTINUOUS
 62
     7
 10
292.91601149621579
 20
465.91849638602258
 30
0.0
 11
281.61601149621561
 21
465.91849638602258
 31
0.0
  0
LINE
  5
376
  8
DATA
  6
CONTINUOUS
 62
     7
 10
293.5160114962157
 20
471.01849638602249
 30
0.0
 11
281.0160114962157
 21
471.01849638602249
 31
0.0
  0
LINE
  5
377
  8
DATA
  6
CONTINUOUS
 62
     7
 10
281.0160114962157
 20
474.5184963860226
 30
0.0
 11
293.5160114962157
 21
474.5184963860226
 31
0.0
  0
LINE
  5
378
  8
DATA
  6
CONTINUOUS
 62
     7
 10
293.0160114962157
 20
468.61849638602263
 30
0.0
 11
281.5160114962157
 21
468.61849638602263
 31
0.0
  0
LINE
  5
379
  8
DATA
  6
CONTINUOUS
 62
     7
 10
281.5160114962157
 20
477.21849638602248
 30
0.0
 11
293.0160114962157
 21
477.21849638602248
 31
0.0
  0
LINE
  5
37A
  8
DATA
  6
CONTINUOUS
 62
     7
 10
281.5160114962157
 20
475.91849638602253
 30
0.0
 11
293.0160114962157
 21
475.91849638602253
 31
0.0
  0
LINE
  5
37B
  8
DATA
  6
CONTINUOUS
 62
     7
 10
293.0160114962157
 20
467.3184963860225
 30
0.0
 11
281.5160114962157
 21
467.3184963860225
 31
0.0
  0
LINE
  5
37C
  8
DATA
  6
CONTINUOUS
 62
     7
 10
287.85386718685987
 20
477.21849638602248
 30
0.0
 11
287.85386718685987
 21
477.29349638602253
 31
0.0
  0
LINE
  5
37D
  8
DATA
  6
CONTINUOUS
 62
     7
 10
289.10386718685987
 20
477.21849638602248
 30
0.0
 11
289.10386718685987
 21
477.29349638602253
 31
0.0
  0
LINE
  5
37E
  8
DATA
  6
CONTINUOUS
 62
     7
 10
289.10386718685987
 20
477.29349638602253
 30
0.0
 11
287.85386718685987
 21
477.29349638602253
 31
0.0
  0
LINE
  5
37F
  8
DATA
  6
CONTINUOUS
 62
     7
 10
286.67815580557141
 20
477.21849638602248
 30
0.0
 11
286.67815580557141
 21
477.29349638602253
 31
0.0
  0
LINE
  5
380
  8
DATA
  6
CONTINUOUS
 62
     7
 10
285.42815580557129
 20
477.21849638602248
 30
0.0
 11
285.42815580557129
 21
477.29349638602253
 31
0.0
  0
LINE
  5
381
  8
DATA
  6
CONTINUOUS
 62
     7
 10
285.42815580557129
 20
477.29349638602253
 30
0.0
 11
286.67815580557141
 21
477.29349638602253
 31
0.0
  0
LINE
  5
382
  8
DATA
  6
CONTINUOUS
 62
     7
 10
290.27386718686
 20
477.21849638602248
 30
0.0
 11
290.27386718686
 21
477.29349638602253
 31
0.0
  0
LINE
  5
383
  8
DATA
  6
CONTINUOUS
 62
     7
 10
291.52386718686
 20
477.21849638602248
 30
0.0
 11
291.52386718686
 21
477.29349638602253
 31
0.0
  0
LINE
  5
384
  8
DATA
  6
CONTINUOUS
 62
     7
 10
291.52386718686
 20
477.29349638602253
 30
0.0
 11
290.27386718686
 21
477.29349638602253
 31
0.0
  0
LINE
  5
385
  8
DATA
  6
CONTINUOUS
 62
     7
 10
284.25815580557139
 20
477.21849638602248
 30
0.0
 11
284.25815580557139
 21
477.29349638602253
 31
0.0
  0
LINE
  5
386
  8
DATA
  6
CONTINUOUS
 62
     7
 10
283.00815580557139
 20
477.21849638602248
 30
0.0
 11
283.00815580557139
 21
477.29349638602253
 31
0.0
  0
LINE
  5
387
  8
DATA
  6
CONTINUOUS
 62
     7
 10
283.00815580557139
 20
477.29349638602253
 30
0.0
 11
284.25815580557139
 21
477.29349638602253
 31
0.0
  0
LINE
  5
388
  8
DATA
  6
CONTINUOUS
 62
     7
 10
287.85386718685987
 20
468.61849638592253
 30
0.0
 11
287.85386718685987
 21
468.69349638592257
 31
0.0
  0
LINE
  5
389
  8
DATA
  6
CONTINUOUS
 62
     7
 10
289.10386718685987
 20
468.61849638592253
 30
0.0
 11
289.10386718685987
 21
468.69349638592257
 31
0.0
  0
LINE
  5
38A
  8
DATA
  6
CONTINUOUS
 62
     7
 10
289.10386718685987
 20
468.69349638592257
 30
0.0
 11
287.85386718685987
 21
468.69349638592257
 31
0.0
  0
LINE
  5
38B
  8
DATA
  6
CONTINUOUS
 62
     7
 10
286.67815580557141
 20
468.61849638592253
 30
0.0
 11
286.67815580557141
 21
468.69349638592257
 31
0.0
  0
LINE
  5
38C
  8
DATA
  6
CONTINUOUS
 62
     7
 10
285.42815580557129
 20
468.61849638592253
 30
0.0
 11
285.42815580557129
 21
468.69349638592257
 31
0.0
  0
LINE
  5
38D
  8
DATA
  6
CONTINUOUS
 62
     7
 10
285.42815580557129
 20
468.69349638592257
 30
0.0
 11
286.67815580557141
 21
468.69349638592257
 31
0.0
  0
LINE
  5
38E
  8
DATA
  6
CONTINUOUS
 62
     7
 10
290.27386718686
 20
468.61849638592253
 30
0.0
 11
290.27386718686
 21
468.69349638592257
 31
0.0
  0
LINE
  5
38F
  8
DATA
  6
CONTINUOUS
 62
     7
 10
291.52386718686
 20
468.61849638592253
 30
0.0
 11
291.52386718686
 21
468.69349638592257
 31
0.0
  0
LINE
  5
390
  8
DATA
  6
CONTINUOUS
 62
     7
 10
291.52386718686
 20
468.69349638592257
 30
0.0
 11
290.27386718686
 21
468.69349638592257
 31
0.0
  0
LINE
  5
391
  8
DATA
  6
CONTINUOUS
 62
     7
 10
284.25815580557139
 20
468.61849638592253
 30
0.0
 11
284.25815580557139
 21
468.69349638592257
 31
0.0
  0
LINE
  5
392
  8
DATA
  6
CONTINUOUS
 62
     7
 10
283.00815580557139
 20
468.61849638592253
 30
0.0
 11
283.00815580557139
 21
468.69349638592257
 31
0.0
  0
LINE
  5
393
  8
DATA
  6
CONTINUOUS
 62
     7
 10
283.00815580557139
 20
468.69349638592257
 30
0.0
 11
284.25815580557139
 21
468.69349638592257
 31
0.0
  0
POLYLINE
  5
394
  8
DATA
  6
CONTINUOUS
 62
     7
 66
     1
 10
0.0
 20
0.0
 30
0.0
 70
     1
  0
VERTEX
  5
4D6
  8
DATA
  6
CONTINUOUS
 62
     7
 10
287.88251671031458
 20
473.3384963860226
 30
0.0
  0
VERTEX
  5
4D7
  8
DATA
  6
CONTINUOUS
 62
     7
 10
291.4825167103146
 20
473.3384963860226
 30
0.0
  0
VERTEX
  5
4D8
  8
DATA
  6
CONTINUOUS
 62
     7
 10
291.4825167103146
 20
472.1984963860225
 30
0.0
  0
VERTEX
  5
4D9
  8
DATA
  6
CONTINUOUS
 62
     7
 10
287.88251671031458
 20
472.1984963860225
 30
0.0
  0
SEQEND
  5
4DA
  8
DATA
  6
CONTINUOUS
 62
     7
  0
POLYLINE
  5
39B
  8
DATA
  6
CONTINUOUS
 62
     7
 66
     1
 10
0.0
 20
0.0
 30
0.0
 70
     1
  0
VERTEX
  5
4DB
  8
DATA
  6
CONTINUOUS
 62
     7
 10
283.04950628211668
 20
473.3384963860226
 30
0.0
  0
VERTEX
  5
4DC
  8
DATA
  6
CONTINUOUS
 62
     7
 10
286.6495062821167
 20
473.3384963860226
 30
0.0
  0
VERTEX
  5
4DD
  8
DATA
  6
CONTINUOUS
 62
     7
 10
286.6495062821167
 20
472.1984963860225
 30
0.0
  0
VERTEX
  5
4DE
  8
DATA
  6
CONTINUOUS
 62
     7
 10
283.04950628211668
 20
472.1984963860225
 30
0.0
  0
SEQEND
  5
4DF
  8
DATA
  6
CONTINUOUS
 62
     7
  0
ARC
  5
3A2
  8
DATA
  6
CONTINUOUS
 62
     7
 10
292.91601149621579
 20
466.5184963860226
 30
0.0
 40
0.6000000000000229
 50
270.0
 51
0.0
  0
ARC
  5
3A3
  8
DATA
  6
CONTINUOUS
 62
     7
 10
281.61601149621572
 20
466.5184963860226
 30
0.0
 40
0.6000000000000229
 50
180.0
 51
269.99999999999449
  0
ARC
  5
3A4
  8
DATA
  6
CONTINUOUS
 62
     7
 10
292.91601149621579
 20
479.0184963860226
 30
0.0
 40
0.6000000000000229
 50
0.0
 51
90.0
  0
ARC
  5
3A5
  8
DATA
  6
CONTINUOUS
 62
     7
 10
281.61601149621561
 20
479.0184963860226
 30
0.0
 40
0.5999999999999944
 50
90.0
 51
180.0
  0
LINE
  5
3A6
  8
DATA
  6
CONTINUOUS
 62
     7
 10
293.0160114962157
 20
468.61849638602263
 30
0.0
 11
293.0160114962157
 21
467.3184963860225
 31
0.0
  0
LINE
  5
3A7
  8
DATA
  6
CONTINUOUS
 62
     7
 10
281.5160114962157
 20
468.61849638602263
 30
0.0
 11
281.5160114962157
 21
467.3184963860225
 31
0.0
  0
LINE
  5
3A8
  8
DATA
  6
CONTINUOUS
 62
     7
 10
293.0160114962157
 20
477.21849638602248
 30
0.0
 11
293.0160114962157
 21
475.91849638602253
 31
0.0
  0
LINE
  5
3A9
  8
DATA
  6
CONTINUOUS
 62
     7
 10
281.5160114962157
 20
477.21849638602248
 30
0.0
 11
281.5160114962157
 21
475.91849638602253
 31
0.0
  0
LINE
  5
3AA
  8
DATA
  6
CONTINUOUS
 62
     7
 10
292.8642810115573
 20
480.46849638602259
 30
0.0
 11
292.8642810115573
 21
479.61849638602251
 31
0.0
  0
LINE
  5
3AB
  8
DATA
  6
CONTINUOUS
 62
     7
 10
292.8642810115573
 20
465.91849638602258
 30
0.0
 11
292.8642810115573
 21
465.0684963860225
 31
0.0
  0
LINE
  5
3AC
  8
DATA
  6
CONTINUOUS
 62
     7
 10
281.66428101156129
 20
480.46849638602259
 30
0.0
 11
292.8642810115573
 21
480.46849638602259
 31
0.0
  0
LINE
  5
3AD
  8
DATA
  6
CONTINUOUS
 62
     7
 10
281.66428101156129
 20
465.0684963860225
 30
0.0
 11
281.66428101156129
 21
465.91849638602258
 31
0.0
  0
LINE
  5
3AE
  8
DATA
  6
CONTINUOUS
 62
     7
 10
281.66428101156129
 20
479.61849638602251
 30
0.0
 11
281.66428101156129
 21
480.46849638602259
 31
0.0
  0
LINE
  5
3AF
  8
DATA
  6
CONTINUOUS
 62
     7
 10
292.8642810115573
 20
465.0684963860225
 30
0.0
 11
281.66428101156129
 21
465.0684963860225
 31
0.0
  0
LINE
  5
3B0
  8
DATA
  6
CONTINUOUS
 62
     7
 10
294.46601149621557
 20
470.48032174135068
 30
0.0
 11
294.46601149621557
 21
466.48032174135068
 31
0.0
  0
LINE
  5
3B1
  8
DATA
  6
CONTINUOUS
 62
     7
 10
280.06601149621559
 20
470.48032174135068
 30
0.0
 11
281.0160114962157
 21
470.48032174135068
 31
0.0
  0
LINE
  5
3B2
  8
DATA
  6
CONTINUOUS
 62
     7
 10
293.5160114962157
 20
470.48032174135068
 30
0.0
 11
294.46601149621557
 21
470.48032174135068
 31
0.0
  0
LINE
  5
3B3
  8
DATA
  6
CONTINUOUS
 62
     7
 10
280.06601149621559
 20
466.48032174135068
 30
0.0
 11
280.06601149621559
 21
470.48032174135068
 31
0.0
  0
LINE
  5
3B4
  8
DATA
  6
CONTINUOUS
 62
     7
 10
294.46601149621557
 20
466.48032174135068
 30
0.0
 11
293.51479584515113
 21
466.48032174135068
 31
0.0
  0
LINE
  5
3B5
  8
DATA
  6
CONTINUOUS
 62
     7
 10
281.01722714729198
 20
466.48032174135068
 30
0.0
 11
280.06601149621559
 21
466.48032174135068
 31
0.0
  0
LINE
  5
3B6
  8
DATA
  6
CONTINUOUS
 62
     7
 10
294.46601149621557
 20
475.05667103069447
 30
0.0
 11
294.46601149621557
 21
479.05667103069442
 31
0.0
  0
LINE
  5
3B7
  8
DATA
  6
CONTINUOUS
 62
     7
 10
280.06601149621559
 20
475.05667103069447
 30
0.0
 11
281.0160114962157
 21
475.05667103069447
 31
0.0
  0
LINE
  5
3B8
  8
DATA
  6
CONTINUOUS
 62
     7
 10
293.5160114962157
 20
475.05667103069447
 30
0.0
 11
294.46601149621557
 21
475.05667103069447
 31
0.0
  0
LINE
  5
3B9
  8
DATA
  6
CONTINUOUS
 62
     7
 10
280.06601149621559
 20
479.05667103069442
 30
0.0
 11
280.06601149621559
 21
475.05667103069447
 31
0.0
  0
LINE
  5
3BA
  8
DATA
  6
CONTINUOUS
 62
     7
 10
294.46601149621557
 20
479.05667103069442
 30
0.0
 11
293.51479584515113
 21
479.05667103069442
 31
0.0
  0
LINE
  5
3BB
  8
DATA
  6
CONTINUOUS
 62
     7
 10
281.01722714729198
 20
479.05667103069442
 30
0.0
 11
280.06601149621559
 21
479.05667103069442
 31
0.0
  0
LINE
  5
3BC
  8
DATA
  6
CONTINUOUS
 62
     7
 10
295.2210713293847
 20
480.9684465654442
 30
0.0
 11
295.2210713293847
 21
464.6684465654443
 31
0.0
  0
LINE
  5
3BD
  8
DATA
  6
CONTINUOUS
 62
     7
 10
295.2210713293847
 20
480.9684465654442
 30
0.0
 11
279.42107132938457
 21
480.9684465654442
 31
0.0
  0
LINE
  5
3BE
  8
DATA
  6
CONTINUOUS
 62
     7
 10
279.42107132938457
 20
480.9684465654442
 30
0.0
 11
279.42107132938457
 21
464.6684465654443
 31
0.0
  0
LINE
  5
3BF
  8
DATA
  6
CONTINUOUS
 62
     7
 10
295.2210713293847
 20
464.6684465654443
 30
0.0
 11
279.42107132938457
 21
464.6684465654443
 31
0.0
  0
TEXT
  5
3C0
  8
DATA
 62
     7
 10
304.21408563664642
 20
486.95663860408268
 30
0.0
 40
2.4432617187500001
  1
4 USB Out
 50
180.0
 41
0.7
 11
304.21408563664642
 21
484.51337688533272
 31
0.0
 73
     3
  0
TEXT
  5
3C1
  8
DATA
 62
     7
 10
255.16249949534739
 20
462.45695863825267
 30
0.0
 40
2.198935546875
  1
Video 1
 50
180.0
 41
0.7
 11
255.16249949534739
 21
460.25802309137771
 31
0.0
 73
     3
  0
CIRCLE
  5
3C2
  8
DATA
  6
CONTINUOUS
 62
     7
 10
500.55551428663682
 20
261.07711037310918
 30
0.0
 40
2.5000000000000102
  0
LINE
  5
3C3
  8
DATA
  6
CONTINUOUS
 62
     7
 10
499.05440358674372
 20
261.07711037310918
 30
0.0
 11
502.0566249865301
 21
261.07711037310918
 31
0.0
  0
LINE
  5
3C4
  8
DATA
  6
CONTINUOUS
 62
     7
 10
500.55551428663682
 20
259.57599967321602
 30
0.0
 11
500.55551428663682
 21
262.57822107300228
 31
0.0
  0
CIRCLE
  5
3C5
  8
DATA
  6
CONTINUOUS
 62
     7
 10
573.55551428663694
 20
231.07711037310921
 30
0.0
 40
2.5000000000000142
  0
LINE
  5
3C6
  8
DATA
  6
CONTINUOUS
 62
     7
 10
572.05440358674377
 20
231.07711037310921
 30
0.0
 11
575.05662498652998
 21
231.07711037310921
 31
0.0
  0
LINE
  5
3C7
  8
DATA
  6
CONTINUOUS
 62
     7
 10
573.55551428663694
 20
229.57599967321599
 30
0.0
 11
573.55551428663694
 21
232.57822107300231
 31
0.0
  0
TEXT
  5
3C8
  8
DATA
 62
     7
 10
452.92850482899911
 20
547.33055555555552
 30
0.0
 40
13.57367621527778
  1
CAT5-5000S(センダー)
 41
0.7
 11
452.92850482899911
 21
560.90423177083335
 31
0.0
 73
     3
  0
TEXT
  5
3C9
  8
DATA
 62
     7
 10
232.95338277099859
 20
157.1592998622173
 30
0.0
 40
13.57367621527778
  1
CAT5-5000R(レシーバー)
 41
0.7
 11
232.95338277099859
 21
170.7329760774951
 31
0.0
 73
     3
  0
LINE
  5
3CA
  8
DATA
  6
CONTINUOUS
 62
     7
 10
225.0
 20
687.5
 30
0.0
 11
225.0
 21
796.49999999999989
 31
0.0
  0
LINE
  5
3CB
  8
DATA
  6
CONTINUOUS
 62
     7
 10
660.0
 20
687.5
 30
0.0
 11
660.0
 21
796.49999999999989
 31
0.0
  0
LINE
  5
3CC
  8
DATA
  6
CONTINUOUS
 62
     7
 10
712.5
 20
656.5
 30
0.0
 11
821.49999999999989
 21
656.5
 31
0.0
  0
LINE
  5
3CD
  8
DATA
  6
CONTINUOUS
 62
     7
 10
712.5
 20
612.5
 30
0.0
 11
821.49999999999989
 21
612.5
 31
0.0
  0
ENDSEC
  0
EOF
