  0
SECTION
  2
HEADER
  9
$ACADVER
  1
AC1009
  9
$INSBASE
 10
0.0
 20
0.0
 30
0.0
  9
$EXTMIN
 10
14.994507516960759
 20
3.633728974538144
 30
-0.0015258207003583
  9
$EXTMAX
 10
285.00869817334308
 20
405.012360562119
 30
0.0000000349246037
  9
$LIMMIN
 10
0.0
 20
0.0
  9
$LIMMAX
 10
0.0
 20
0.0
  9
$ORTHOMODE
 70
     0
  9
$REGENMODE
 70
     1
  9
$FILLMODE
 70
     1
  9
$QTEXTMODE
 70
     0
  9
$MIRRTEXT
 70
     1
  9
$DRAGMODE
 70
     2
  9
$LTSCALE
 40
7.6199999999999983
  9
$OSMODE
 70
   231
  9
$ATTMODE
 70
     1
  9
$TEXTSIZE
 40
0.0
  9
$TRACEWID
 40
1.0
  9
$TEXTSTYLE
  7
STANDARD
  9
$CLAYER
  8
DATA
  9
$CELTYPE
  6
BYLAYER
  9
$CECOLOR
 62
   256
  9
$DIMSCALE
 40
1.0
  9
$DIMASZ
 40
0.18
  9
$DIMEXO
 40
0.0625
  9
$DIMDLI
 40
0.38
  9
$DIMRND
 40
0.0
  9
$DIMDLE
 40
0.0
  9
$DIMEXE
 40
0.18
  9
$DIMTP
 40
0.0
  9
$DIMTM
 40
0.0
  9
$DIMTXT
 40
0.18
  9
$DIMCEN
 40
0.09
  9
$DIMTSZ
 40
0.0
  9
$DIMTOL
 70
     0
  9
$DIMLIM
 70
     0
  9
$DIMTIH
 70
     1
  9
$DIMTOH
 70
     1
  9
$DIMSE1
 70
     0
  9
$DIMSE2
 70
     0
  9
$DIMTAD
 70
     0
  9
$DIMZIN
 70
     0
  9
$DIMBLK
  1

  9
$DIMASO
 70
     1
  9
$DIMSHO
 70
     1
  9
$DIMPOST
  1

  9
$DIMAPOST
  1

  9
$DIMALT
 70
     0
  9
$DIMALTD
 70
     2
  9
$DIMALTF
 40
25.399999999999999
  9
$DIMLFAC
 40
1.0
  9
$DIMTOFL
 70
     0
  9
$DIMTVP
 40
0.0
  9
$DIMTIX
 70
     0
  9
$DIMSOXD
 70
     0
  9
$DIMSAH
 70
     0
  9
$DIMBLK1
  1

  9
$DIMBLK2
  1

  9
$DIMSTYLE
  2
STANDARD
  9
$DIMCLRD
 70
     0
  9
$DIMCLRE
 70
     0
  9
$DIMCLRT
 70
     0
  9
$DIMTFAC
 40
1.0
  9
$DIMGAP
 40
0.09
  9
$LUNITS
 70
     2
  9
$LUPREC
 70
     4
  9
$SKETCHINC
 40
0.1
  9
$FILLETRAD
 40
0.0
  9
$AUNITS
 70
     0
  9
$AUPREC
 70
     0
  9
$MENU
  1
acad
  9
$ELEVATION
 40
0.0
  9
$PELEVATION
 40
0.0
  9
$THICKNESS
 40
0.0
  9
$LIMCHECK
 70
     0
  9
$BLIPMODE
 70
     0
  9
$CHAMFERA
 40
0.0
  9
$CHAMFERB
 40
0.0
  9
$SKPOLY
 70
     0
  9
$TDCREATE
 40
2455202.693576389
  9
$TDUPDATE
 40
2455202.6957784491
  9
$TDINDWG
 40
0.000275081
  9
$TDUSRTIMER
 40
0.000275081
  9
$USRTIMER
 70
     1
  9
$ANGBASE
 50
0.0
  9
$ANGDIR
 70
     0
  9
$PDMODE
 70
     1
  9
$PDSIZE
 40
-2.0
  9
$PLINEWID
 40
0.0
  9
$COORDS
 70
     0
  9
$SPLFRAME
 70
     0
  9
$SPLINETYPE
 70
     6
  9
$SPLINESEGS
 70
     8
  9
$ATTDIA
 70
     0
  9
$ATTREQ
 70
     1
  9
$HANDLING
 70
     1
  9
$HANDSEED
  5
450
  9
$SURFTAB1
 70
     6
  9
$SURFTAB2
 70
     6
  9
$SURFTYPE
 70
     6
  9
$SURFU
 70
     6
  9
$SURFV
 70
     6
  9
$UCSNAME
  2

  9
$UCSORG
 10
0.0
 20
0.0
 30
0.0
  9
$UCSXDIR
 10
1.0
 20
0.0
 30
0.0
  9
$UCSYDIR
 10
0.0
 20
1.0
 30
0.0
  9
$PUCSNAME
  2

  9
$PUCSORG
 10
0.0
 20
0.0
 30
0.0
  9
$PUCSXDIR
 10
1.0
 20
0.0
 30
0.0
  9
$PUCSYDIR
 10
0.0
 20
1.0
 30
0.0
  9
$USERI1
 70
     0
  9
$USERI2
 70
     0
  9
$USERI3
 70
     0
  9
$USERI4
 70
     0
  9
$USERI5
 70
     0
  9
$USERR1
 40
0.0
  9
$USERR2
 40
0.0
  9
$USERR3
 40
0.0
  9
$USERR4
 40
0.0
  9
$USERR5
 40
0.0
  9
$WORLDVIEW
 70
     1
  9
$SHADEDGE
 70
     3
  9
$SHADEDIF
 70
    70
  9
$TILEMODE
 70
     1
  9
$MAXACTVP
 70
    64
  9
$PLIMCHECK
 70
     0
  9
$PEXTMIN
 10
1.0000000000000000E+020
 20
1.0000000000000000E+020
 30
1.0000000000000000E+020
  9
$PEXTMAX
 10
-1.0000000000000000E+020
 20
-1.0000000000000000E+020
 30
-1.0000000000000000E+020
  9
$PLIMMIN
 10
0.0
 20
0.0
  9
$PLIMMAX
 10
12.0
 20
9.0
  9
$UNITMODE
 70
     0
  9
$VISRETAIN
 70
     0
  9
$PLINEGEN
 70
     1
  9
$PSLTSCALE
 70
     0
  0
ENDSEC
  0
SECTION
  2
TABLES
  0
TABLE
  2
VPORT
 70
     1
  0
VPORT
  2
*ACTIVE
 70
     0
 10
0.0
 20
0.0
 11
1.0
 21
1.0
 12
150.00160284515189
 22
204.3230447683286
 13
0.0
 23
0.0
 14
1.0
 24
1.0
 15
0.0
 25
0.0
 16
0.0
 26
0.0
 36
1.0
 17
0.0
 27
0.0
 37
0.0
 40
404.33719643957778
 41
1.964329643296433
 42
50.0
 43
0.0
 44
0.0
 50
0.0
 51
0.0
 71
     0
 72
  2000
 73
     1
 74
     1
 75
     0
 76
     0
 77
     0
 78
     0
  0
ENDTAB
  0
TABLE
  2
LTYPE
 70
    11
  0
LTYPE
  2
CONTINUOUS
 70
     0
  3
Solid line
 72
    65
 73
     0
 40
0.0
  0
ENDTAB
  0
TABLE
  2
LAYER
 70
     5
  0
LAYER
  2
0
 70
     0
 62
     7
  6
CONTINUOUS
  0
LAYER
  2
DATA
 70
     0
 62
     7
  6
CONTINUOUS
  0
LAYER
  2
HIBINO-BASE
 70
     0
 62
     7
  6
CONTINUOUS
  0
LAYER
  2
SPEC
 70
     0
 62
     7
  6
CONTINUOUS
  0
LAYER
  2
DIMNSIONS
 70
     0
 62
     7
  6
CONTINUOUS
  0
ENDTAB
  0
TABLE
  2
STYLE
 70
     3
  0
STYLE
  2
STANDARD
 70
     0
 40
0.0
 41
1.0
 50
0.0
 71
     0
 42
0.0
  3
txt
  4
BIGFONT.SHX
  0
ENDTAB
  0
TABLE
  2
VIEW
 70
     0
  0
ENDTAB
  0
TABLE
  2
UCS
 70
     0
  0
ENDTAB
  0
TABLE
  2
APPID
 70
     3
  0
APPID
  2
ACAD
 70
     0
  0
APPID
  2
ACADANNOTATIVE
 70
     0
  0
APPID
  2
ACAD_MLEADERVER
 70
     0
  0
ENDTAB
  0
TABLE
  2
DIMSTYLE
 70
     2
  0
DIMSTYLE
  2
STANDARD
 70
     0
  3

  4

  5

  6

  7

 40
1.0
 41
0.18
 42
0.0625
 43
0.38
 44
0.18
 45
0.0
 46
0.0
 47
0.0
 48
0.0
140
0.18
141
0.09
142
0.0
143
25.399999999999999
144
1.0
145
0.0
146
1.0
147
0.09
 71
     0
 72
     0
 73
     1
 74
     1
 75
     0
 76
     0
 77
     0
 78
     0
170
     0
171
     2
172
     0
173
     0
174
     0
175
     0
176
     0
177
     0
178
     0
  0
ENDTAB
  0
ENDSEC
  0
SECTION
  2
BLOCKS
  0
BLOCK
  8
0
  2
$MODEL_SPACE
 70
     0
 10
0.0
 20
0.0
 30
0.0
  3
$MODEL_SPACE
  1

  0
ENDBLK
  5
30D
  8
0
  0
BLOCK
 67
     1
  8
0
  2
$PAPER_SPACE
 70
     0
 10
0.0
 20
0.0
 30
0.0
  3
$PAPER_SPACE
  1

  0
ENDBLK
  5
309
 67
     1
  8
0
  0
ENDSEC
  0
SECTION
  2
ENTITIES
  0
LINE
  5
2C
  8
HIBINO-BASE
  6
CONTINUOUS
 62
     7
 10
15.0
 20
405.0
 30
0.0
 11
285.0
 21
405.0
 31
0.0
  0
LINE
  5
2D
  8
HIBINO-BASE
  6
CONTINUOUS
 62
     7
 10
285.0
 20
15.0
 30
0.0
 11
15.0
 21
15.0
 31
0.0
  0
LINE
  5
2E
  8
HIBINO-BASE
  6
CONTINUOUS
 62
     7
 10
15.0
 20
15.0
 30
0.0
 11
15.0
 21
405.0
 31
0.0
  0
LINE
  5
2F
  8
HIBINO-BASE
  6
CONTINUOUS
 62
     7
 10
285.0
 20
405.0
 30
0.0
 11
285.0
 21
15.0
 31
0.0
  0
LINE
  5
30
  8
HIBINO-BASE
  6
CONTINUOUS
 62
     7
 10
150.0
 20
48.750000000000021
 30
0.0
 11
285.0
 21
48.750000000000021
 31
0.0
  0
LINE
  5
31
  8
HIBINO-BASE
  6
CONTINUOUS
 62
     7
 10
150.0
 20
15.0
 30
0.0
 11
150.0
 21
48.750000000000021
 31
0.0
  0
TEXT
  5
32
  8
HIBINO-BASE
 62
     7
 10
151.34999999999991
 20
44.98696000000001
 30
0.0
 40
2.4432617187500001
  1
NOTE
 41
0.7
 11
151.34999999999991
 21
47.430221718750012
 31
0.0
 73
     3
  0
LINE
  5
33
  8
HIBINO-BASE
  6
CONTINUOUS
 62
     7
 10
202.5
 20
15.0
 30
0.0
 11
202.5
 21
48.750000000000021
 31
0.0
  0
TEXT
  5
34
  8
HIBINO-BASE
 62
     7
 10
203.84999999999999
 20
44.98696000000001
 30
0.0
 40
2.4432617187500001
  1
TITLE
 41
0.7
 11
203.84999999999999
 21
47.430221718750012
 31
0.0
 73
     3
  0
LINE
  5
35
  8
HIBINO-BASE
  6
CONTINUOUS
 62
     7
 10
150.0
 20
30.000000000000028
 30
0.0
 11
285.0
 21
30.000000000000028
 31
0.0
  0
TEXT
  5
36
  8
HIBINO-BASE
 62
     7
 10
222.59999999999999
 20
26.321439999999988
 30
0.0
 40
2.4432617187500001
  1
DRAWN
 41
0.7
 11
222.59999999999999
 21
28.76470171874999
 31
0.0
 73
     3
  0
TEXT
  5
37
  8
HIBINO-BASE
 62
     7
 10
185.09999999999999
 20
26.321439999999988
 30
0.0
 40
2.4432617187500001
  1
DATE
 41
0.7
 11
185.09999999999999
 21
28.76470171874999
 31
0.0
 73
     3
  0
TEXT
  5
38
  8
HIBINO-BASE
 62
     7
 10
170.09999999999991
 20
26.321439999999988
 30
0.0
 40
2.4432617187500001
  1
SCALE
 41
0.7
 11
170.09999999999991
 21
28.76470171874999
 31
0.0
 73
     3
  0
TEXT
  5
39
  8
HIBINO-BASE
 62
     7
 10
203.84999999999999
 20
26.321439999999988
 30
0.0
 40
2.4432617187500001
  1
DESIGN
 41
0.7
 11
203.84999999999999
 21
28.76470171874999
 31
0.0
 73
     3
  0
TEXT
  5
3A
  8
HIBINO-BASE
 62
     7
 10
260.10000000000002
 20
26.321439999999988
 30
0.0
 40
2.4432617187500001
  1
DRAWING NO.
 41
0.7
 11
260.10000000000002
 21
28.76470171874999
 31
0.0
 73
     3
  0
TEXT
  5
3B
  8
HIBINO-BASE
 62
     7
 10
241.34999999999999
 20
26.321439999999988
 30
0.0
 40
2.4432617187500001
  1
CHECK
 41
0.7
 11
241.34999999999999
 21
28.76470171874999
 31
0.0
 73
     3
  0
LINE
  5
3C
  8
HIBINO-BASE
  6
CONTINUOUS
 62
     7
 10
171.5625
 20
16.875
 30
0.0
 11
177.18749999999989
 21
22.500000000000028
 31
0.0
  0
TEXT
  5
3D
  8
HIBINO-BASE
 62
     7
 10
170.625
 20
20.83658500000001
 30
0.0
 40
2.4432617187500001
  1
1
 41
0.7
 11
170.625
 21
23.279846718750012
 31
0.0
 73
     3
  0
LINE
  5
3E
  8
HIBINO-BASE
  6
CONTINUOUS
 62
     7
 10
168.75
 20
15.0
 30
0.0
 11
168.75
 21
30.000000000000028
 31
0.0
  0
LINE
  5
3F
  8
HIBINO-BASE
  6
CONTINUOUS
 62
     7
 10
183.75
 20
15.0
 30
0.0
 11
183.75
 21
30.000000000000028
 31
0.0
  0
LINE
  5
40
  8
HIBINO-BASE
  6
CONTINUOUS
 62
     7
 10
221.25
 20
30.000000000000028
 30
0.0
 11
221.25
 21
15.0
 31
0.0
  0
LINE
  5
41
  8
HIBINO-BASE
  6
CONTINUOUS
 62
     7
 10
258.75
 20
30.000000000000028
 30
0.0
 11
258.75
 21
15.0
 31
0.0
  0
LINE
  5
42
  8
HIBINO-BASE
  6
CONTINUOUS
 62
     7
 10
240.0
 20
15.0
 30
0.0
 11
240.0
 21
30.000000000000028
 31
0.0
  0
TEXT
  5
43
  8
HIBINO-BASE
 62
     7
 10
185.03480999999999
 20
19.295469999999991
 30
0.0
 40
2.4432617187500001
  1
'09.09.
 41
0.7
 11
185.03480999999999
 21
21.738731718749989
 31
0.0
 73
     3
  0
TEXT
  5
44
  8
HIBINO-BASE
 62
     7
 10
176.25
 20
18.02408500000001
 30
0.0
 40
2.4432617187500001
  1
1.5
 41
0.7
 11
176.25
 21
20.467346718750012
 31
0.0
 73
     3
  0
TEXT
  5
45
  8
HIBINO-BASE
 62
     7
 10
155.82499999999999
 20
17.964000000000009
 30
0.0
 40
4.8865234374999993
  1
A4
 41
0.7
 11
155.82499999999999
 21
22.850523437500019
 31
0.0
 73
     3
  0
TEXT
  5
46
  8
HIBINO-BASE
 62
     7
 10
151.4375
 20
26.070817500000029
 30
0.0
 40
2.4432617187500001
  1
PAPER SIZE
 41
0.7
 11
151.4375
 21
28.51407921875003
 31
0.0
 73
     3
  0
TEXT
  5
47
  8
HIBINO-BASE
 62
     7
 10
19.371316120197179
 20
5.408259692617797
 30
0.0
 40
5.293733723958332
  1
Hibino-Intersound Corporation
 41
0.7
 11
19.371316120197179
 21
10.70199341657613
 31
0.0
 73
     3
  0
TEXT
  5
48
  8
HIBINO-BASE
 62
     7
 10
180.9689499059817
 20
5.8737681933067387
 30
0.0
 40
5.293733723958332
  1
ヒビノインターサウンド株式会社
 41
0.7
 11
180.9689499059817
 21
11.167501917265071
 31
0.0
 73
     3
  0
TEXT
  5
49
  8
HIBINO-BASE
 62
     7
 10
224.4003416977045
 20
19.424252062764499
 30
0.0
 40
2.4432617187500001
  1
T.Ootake
 41
0.7
 11
224.4003416977045
 21
21.8675137815145
 31
0.0
 73
     3
  0
TEXT
  5
4A
  8
SPEC
 62
     7
 10
28.125
 20
392.08990499999999
 30
0.0
 40
3.664892578124999
  1
仕様
 41
0.7
 11
28.125
 21
395.75479757812491
 31
0.0
 73
     3
  0
LINE
  5
4B
  8
SPEC
  6
CONTINUOUS
 62
     7
 10
26.249999999999972
 20
389.99999999983282
 30
0.0
 11
211.62181333603399
 21
389.99999999983282
 31
0.0
  0
LINE
  5
4C
  8
SPEC
  6
CONTINUOUS
 62
     7
 10
26.249999999999972
 20
384.37499999983282
 30
0.0
 11
211.62181333603399
 21
384.37499999983282
 31
0.0
  0
LINE
  5
4D
  8
SPEC
  6
CONTINUOUS
 62
     7
 10
26.249999999999972
 20
361.87499999983282
 30
0.0
 11
211.62181333603399
 21
361.87499999983282
 31
0.0
  0
LINE
  5
4E
  8
SPEC
  6
CONTINUOUS
 62
     7
 10
26.249999999999972
 20
367.49999999983282
 30
0.0
 11
211.62181333603399
 21
367.49999999983282
 31
0.0
  0
LINE
  5
4F
  8
SPEC
  6
CONTINUOUS
 62
     7
 10
26.249999999999972
 20
373.12499999983282
 30
0.0
 11
211.62181333603399
 21
373.12499999983282
 31
0.0
  0
LINE
  5
50
  8
SPEC
  6
CONTINUOUS
 62
     7
 10
211.62181333603399
 20
356.24999999983282
 30
0.0
 11
26.249999999999972
 21
356.24999999983282
 31
0.0
  0
LINE
  5
51
  8
SPEC
  6
CONTINUOUS
 62
     7
 10
26.249999999999972
 20
378.74999999983282
 30
0.0
 11
211.62181333603399
 21
378.74999999983282
 31
0.0
  0
LINE
  5
52
  8
SPEC
  6
CONTINUOUS
 62
     7
 10
26.249999999999972
 20
389.99999999983282
 30
0.0
 11
26.249999999999972
 21
311.2099999998328
 31
0.0
  0
LINE
  5
53
  8
SPEC
  6
CONTINUOUS
 62
     7
 10
74.999999999999972
 20
389.99999999983282
 30
0.0
 11
74.999999999999972
 21
356.24999999983282
 31
0.0
  0
LINE
  5
54
  8
SPEC
  6
CONTINUOUS
 62
     7
 10
211.62181333603399
 20
389.99999999983282
 30
0.0
 11
211.62181333603399
 21
311.2099999998328
 31
0.0
  0
TEXT
  5
55
  8
SPEC
 62
     7
 10
27.506974273775509
 20
385.78621227525412
 30
0.0
 40
2.850466875
  1
形式
 41
0.7
 11
27.506974273775509
 21
388.636679150254
 31
0.0
 73
     3
  0
LINE
  5
56
  8
SPEC
  6
CONTINUOUS
 62
     7
 10
74.999999999999972
 20
389.99999999983282
 30
0.0
 11
74.999999999999972
 21
311.2099999998328
 31
0.0
  0
TEXT
  5
57
  8
SPEC
 62
     7
 10
27.459812966256131
 20
318.39961574627353
 30
0.0
 40
2.8504720052083332
  1
寸法
 41
0.7
 11
27.459812966256131
 21
321.25008775148177
 31
0.0
 73
     3
  0
TEXT
  5
58
  8
SPEC
 62
     7
 10
27.506014583388009
 20
312.81360404942137
 30
0.0
 40
2.8504720052083332
  1
重量
 41
0.7
 11
27.506014583388009
 21
315.66407605462967
 31
0.0
 73
     3
  0
TEXT
  5
59
  8
SPEC
 62
     7
 10
27.477830484476669
 20
329.54965587130653
 30
0.0
 40
2.8504720052083332
  1
電源
 41
0.7
 11
27.477830484476669
 21
332.40012787651477
 31
0.0
 73
     3
  0
TEXT
  5
5A
  8
SPEC
 62
     7
 10
76.382357408381921
 20
329.44510283145439
 30
0.0
 40
2.8504720052083332
  1
5V DC
 41
0.7
 11
76.382357408381921
 21
332.29557483666269
 31
0.0
 73
     3
  0
TEXT
  5
5B
  8
SPEC
 62
     7
 10
76.379537029207341
 20
318.28734214138552
 30
0.0
 40
2.8504720052083332
  1
35(W)\U+00D724(H)\U+00D793(D)mm(突起部含まず)、(センダー、レシーバー共に)
 41
0.7
 11
76.379537029207341
 21
321.13781414659383
 31
0.0
 73
     3
  0
TEXT
  5
5C
  8
SPEC
 62
     7
 10
76.294082715071426
 20
312.75588898602041
 30
0.0
 40
2.8504720052083332
  1
約80g(センダー、レシーバー共に)
 41
0.7
 11
76.294082715071426
 21
315.60636099122883
 31
0.0
 73
     3
  0
TEXT
  5
5D
  8
SPEC
 62
     7
 10
76.469769476581376
 20
385.69023569776459
 30
0.0
 40
2.8504720052083332
  1
VGA延長機
 41
0.7
 11
76.469769476581376
 21
388.5407077029729
 31
0.0
 73
     3
  0
TEXT
  5
5E
  8
SPEC
 62
     7
 10
27.518149546427392
 20
380.12746172715862
 30
0.0
 40
2.850466875
  1
入力ビデオ帯域
 41
0.7
 11
27.518149546427392
 21
382.97792860215861
 31
0.0
 73
     3
  0
TEXT
  5
5F
  8
SPEC
 62
     7
 10
76.367646162361524
 20
380.10522986067872
 30
0.0
 40
2.8504720052083332
  1
350MHz
 41
0.7
 11
76.367646162361524
 21
382.95570186588708
 31
0.0
 73
     3
  0
TEXT
  5
60
  8
SPEC
 62
     7
 10
27.533895292720931
 20
374.61791412340853
 30
0.0
 40
2.850466875
  1
実動作帯域
 41
0.7
 11
27.533895292720931
 21
377.46838099840852
 31
0.0
 73
     3
  0
TEXT
  5
61
  8
SPEC
 62
     7
 10
76.218961064581407
 20
374.4831208807222
 30
0.0
 40
2.8504720052083332
  1
120MHz
 41
0.7
 11
76.218961064581407
 21
377.33359288593061
 31
0.0
 73
     3
  0
LINE
  5
62
  8
SPEC
  6
CONTINUOUS
 62
     7
 10
211.62181333603399
 20
350.61999999983283
 30
0.0
 11
26.249999999999972
 21
350.61999999983283
 31
0.0
  0
LINE
  5
63
  8
SPEC
  6
CONTINUOUS
 62
     7
 10
211.62181333603399
 20
344.98999999983278
 30
0.0
 11
26.249999999999972
 21
344.98999999983278
 31
0.0
  0
LINE
  5
64
  8
SPEC
  6
CONTINUOUS
 62
     7
 10
211.62181333603399
 20
339.35999999983278
 30
0.0
 11
26.249999999999972
 21
339.35999999983278
 31
0.0
  0
LINE
  5
65
  8
SPEC
  6
CONTINUOUS
 62
     7
 10
211.62181333603399
 20
333.72999999983278
 30
0.0
 11
26.249999999999972
 21
333.72999999983278
 31
0.0
  0
LINE
  5
66
  8
SPEC
  6
CONTINUOUS
 62
     7
 10
211.62181333603399
 20
328.09999999983279
 30
0.0
 11
26.249999999999972
 21
328.09999999983279
 31
0.0
  0
LINE
  5
67
  8
SPEC
  6
CONTINUOUS
 62
     7
 10
211.62181333603399
 20
322.46999999983279
 30
0.0
 11
26.249999999999972
 21
322.46999999983279
 31
0.0
  0
LINE
  5
68
  8
SPEC
  6
CONTINUOUS
 62
     7
 10
211.62181333603399
 20
316.8399999998328
 30
0.0
 11
26.249999999999972
 21
316.8399999998328
 31
0.0
  0
LINE
  5
69
  8
SPEC
  6
CONTINUOUS
 62
     7
 10
211.62181333603399
 20
311.2099999998328
 30
0.0
 11
26.249999999999972
 21
311.2099999998328
 31
0.0
  0
TEXT
  5
6A
  8
SPEC
 62
     7
 10
27.564232531424089
 20
368.98791412340847
 30
0.0
 40
2.850466875
  1
入力ビデオ信号
 41
0.7
 11
27.564232531424089
 21
371.83838099840852
 31
0.0
 73
     3
  0
TEXT
  5
6B
  8
SPEC
 62
     7
 10
76.15984287567268
 20
368.94198546920921
 30
0.0
 40
2.8504720052083332
  1
1.2V p-p
 41
0.7
 11
76.15984287567268
 21
371.79245747441752
 31
0.0
 73
     3
  0
TEXT
  5
6C
  8
SPEC
 62
     7
 10
27.533031242172491
 20
363.35791412340848
 30
0.0
 40
2.850466875
  1
入力DDC信号
 41
0.7
 11
27.533031242172491
 21
366.20838099840859
 31
0.0
 73
     3
  0
TEXT
  5
6D
  8
SPEC
 62
     7
 10
76.37767091489701
 20
363.29184290151369
 30
0.0
 40
2.8504720052083332
  1
5V p-p(TTL)
 41
0.7
 11
76.37767091489701
 21
366.14231490672199
 31
0.0
 73
     3
  0
TEXT
  5
6E
  8
SPEC
 62
     7
 10
27.532935614133891
 20
357.70768879324311
 30
0.0
 40
2.850466875
  1
対応水平同期周波数
 41
0.7
 11
27.532935614133891
 21
360.5581556682431
 31
0.0
 73
     3
  0
TEXT
  5
6F
  8
SPEC
 62
     7
 10
76.140852900141553
 20
357.7207128725791
 30
0.0
 40
2.8504720052083332
  1
15～70kHz
 41
0.7
 11
76.140852900141553
 21
360.5711848777874
 31
0.0
 73
     3
  0
TEXT
  5
70
  8
SPEC
 62
     7
 10
27.693847482659692
 20
346.42759071633452
 30
0.0
 40
2.850466875
  1
VGA入力端子
 41
0.7
 11
27.693847482659692
 21
349.27805759133452
 31
0.0
 73
     3
  0
TEXT
  5
71
  8
SPEC
 62
     7
 10
76.358150735021155
 20
346.38083251797559
 30
0.0
 40
2.8504720052083332
  1
HD-15オス
 41
0.7
 11
76.358150735021155
 21
349.23130452318389
 31
0.0
 73
     3
  0
TEXT
  5
72
  8
SPEC
 62
     7
 10
27.501954665592699
 20
335.2079141234085
 30
0.0
 40
2.850466875
  1
延長用コネクター
 41
0.7
 11
27.501954665592699
 21
338.0583809984085
 31
0.0
 73
     3
  0
TEXT
  5
73
  8
SPEC
 62
     7
 10
76.397439462049903
 20
334.92438888283192
 30
0.0
 40
2.8504720052083332
  1
RJ-45
 41
0.7
 11
76.397439462049903
 21
337.77486088804022
 31
0.0
 73
     3
  0
TEXT
  5
74
  8
SPEC
 62
     7
 10
27.53274458389032
 20
352.07772063161713
 30
0.0
 40
2.850466875
  1
対応垂直同期周波数
 41
0.7
 11
27.53274458389032
 21
354.92818750661712
 31
0.0
 73
     3
  0
TEXT
  5
75
  8
SPEC
 62
     7
 10
76.358088789856112
 20
351.95867468087567
 30
0.0
 40
2.8504720052083332
  1
30～170Hz
 41
0.7
 11
76.358088789856112
 21
354.80914668608398
 31
0.0
 73
     3
  0
TEXT
  5
76
  8
SPEC
 62
     7
 10
27.69318124253488
 20
340.91837058323517
 30
0.0
 40
2.850466875
  1
VGA出力端子
 41
0.7
 11
27.69318124253488
 21
343.76883745823523
 31
0.0
 73
     3
  0
TEXT
  5
77
  8
SPEC
 62
     7
 10
76.367996118782514
 20
340.76049228570378
 30
0.0
 40
2.8504720052083332
  1
HD-15メス
 41
0.7
 11
76.367996118782514
 21
343.61096429091219
 31
0.0
 73
     3
  0
TEXT
  5
78
  8
SPEC
 62
     7
 10
27.551302897639371
 20
323.88609582694198
 30
0.0
 40
2.8504720052083332
  1
消費電力
 41
0.7
 11
27.551302897639371
 21
326.7365678321504
 31
0.0
 73
     3
  0
TEXT
  5
79
  8
SPEC
 62
     7
 10
76.382357408381921
 20
323.8738968195596
 30
0.0
 40
2.8504720052083332
  1
5W(最大)
 41
0.7
 11
76.382357408381921
 21
326.72436882476802
 31
0.0
 73
     3
  0
TEXT
  5
7A
  8
DIMNSIONS
 62
     7
 10
119.9999999999999
 20
33.404235000000021
 30
0.0
 40
3.664892578124999
  1
(単位：mm)
 41
0.7
 11
119.9999999999999
 21
37.06912757812502
 31
0.0
 73
     3
  0
LINE
  5
7B
  8
DIMNSIONS
  6
CONTINUOUS
 62
     7
 10
59.499999999768342
 20
143.7499999999026
 30
0.0
 11
47.0
 21
143.7499999999026
 31
0.0
  0
LINE
  5
7C
  8
DIMNSIONS
  6
CONTINUOUS
 62
     7
 10
59.499999999768342
 20
236.7499999999026
 30
0.0
 11
47.0
 21
236.7499999999026
 31
0.0
  0
LINE
  5
7D
  8
DIMNSIONS
  6
CONTINUOUS
 62
     7
 10
50.0
 20
143.7499999999026
 30
0.0
 11
50.0
 21
236.7499999999026
 31
0.0
  0
LINE
  5
7E
  8
DIMNSIONS
  6
CONTINUOUS
 62
     7
 10
50.0
 20
143.7499999999026
 30
0.0
 11
48.994940307274632
 21
147.50093383779321
 31
0.0
  0
LINE
  5
7F
  8
DIMNSIONS
  6
CONTINUOUS
 62
     7
 10
50.0
 20
143.7499999999026
 30
0.0
 11
51.005059692725361
 21
147.50093383779321
 31
0.0
  0
LINE
  5
80
  8
DIMNSIONS
  6
CONTINUOUS
 62
     7
 10
50.0
 20
236.7499999999026
 30
0.0
 11
51.005059692725361
 21
232.99906616201201
 31
0.0
  0
LINE
  5
81
  8
DIMNSIONS
  6
CONTINUOUS
 62
     7
 10
50.0
 20
236.7499999999026
 30
0.0
 11
48.994940307274632
 21
232.99906616201201
 31
0.0
  0
TEXT
  5
82
  8
DIMNSIONS
 62
     7
 10
48.509166666666673
 20
187.60416666656931
 30
0.0
 40
4.072102864583333
  1
93
 50
90.0
 41
0.7
 11
44.43706380208333
 21
187.60416666656931
 31
0.0
 73
     3
  0
LINE
  5
83
  8
DIMNSIONS
  6
CONTINUOUS
 62
     7
 10
59.499999999768342
 20
93.750000000102602
 30
0.0
 11
47.0
 21
93.750000000102602
 31
0.0
  0
LINE
  5
84
  8
DIMNSIONS
  6
CONTINUOUS
 62
     7
 10
60.999999999768342
 20
117.7500000001026
 30
0.0
 11
47.0
 21
117.7500000001026
 31
0.0
  0
LINE
  5
85
  8
DIMNSIONS
  6
CONTINUOUS
 62
     7
 10
50.0
 20
93.750000000102602
 30
0.0
 11
50.0
 21
117.7500000001026
 31
0.0
  0
LINE
  5
86
  8
DIMNSIONS
  6
CONTINUOUS
 62
     7
 10
50.0
 20
93.750000000102602
 30
0.0
 11
48.994940307274632
 21
97.500933837993244
 31
0.0
  0
LINE
  5
87
  8
DIMNSIONS
  6
CONTINUOUS
 62
     7
 10
50.0
 20
93.750000000102602
 30
0.0
 11
51.005059692725361
 21
97.500933837993244
 31
0.0
  0
LINE
  5
88
  8
DIMNSIONS
  6
CONTINUOUS
 62
     7
 10
50.0
 20
117.7500000001026
 30
0.0
 11
51.005059692725361
 21
113.9990661622119
 31
0.0
  0
LINE
  5
89
  8
DIMNSIONS
  6
CONTINUOUS
 62
     7
 10
50.0
 20
117.7500000001026
 30
0.0
 11
48.994940307274632
 21
113.9990661622119
 31
0.0
  0
TEXT
  5
8A
  8
DIMNSIONS
 62
     7
 10
48.509166666666673
 20
103.1041666667692
 30
0.0
 40
4.072102864583333
  1
24
 50
90.0
 41
0.7
 11
44.43706380208333
 21
103.1041666667692
 31
0.0
 73
     3
  0
LINE
  5
8B
  8
DIMNSIONS
  6
CONTINUOUS
 62
     7
 10
184.50000000021089
 20
143.74999999950259
 30
0.0
 11
172.0
 21
143.74999999950259
 31
0.0
  0
LINE
  5
8C
  8
DIMNSIONS
  6
CONTINUOUS
 62
     7
 10
184.50000000021089
 20
236.74999999950259
 30
0.0
 11
172.0
 21
236.74999999950259
 31
0.0
  0
LINE
  5
8D
  8
DIMNSIONS
  6
CONTINUOUS
 62
     7
 10
175.0
 20
143.74999999950259
 30
0.0
 11
175.0
 21
236.74999999950259
 31
0.0
  0
LINE
  5
8E
  8
DIMNSIONS
  6
CONTINUOUS
 62
     7
 10
175.0
 20
143.74999999950259
 30
0.0
 11
173.99494030727459
 21
147.50093383739309
 31
0.0
  0
LINE
  5
8F
  8
DIMNSIONS
  6
CONTINUOUS
 62
     7
 10
175.0
 20
143.74999999950259
 30
0.0
 11
176.00505969272541
 21
147.50093383739309
 31
0.0
  0
LINE
  5
90
  8
DIMNSIONS
  6
CONTINUOUS
 62
     7
 10
175.0
 20
236.74999999950259
 30
0.0
 11
176.00505969272541
 21
232.99906616161201
 31
0.0
  0
LINE
  5
91
  8
DIMNSIONS
  6
CONTINUOUS
 62
     7
 10
175.0
 20
236.74999999950259
 30
0.0
 11
173.99494030727459
 21
232.99906616161201
 31
0.0
  0
TEXT
  5
92
  8
DIMNSIONS
 62
     7
 10
173.50916666666669
 20
187.60416666616919
 30
0.0
 40
4.072102864583333
  1
93
 50
90.0
 41
0.7
 11
169.43706380208329
 21
187.60416666616919
 31
0.0
 73
     3
  0
LINE
  5
93
  8
DIMNSIONS
  6
CONTINUOUS
 62
     7
 10
184.50000000021089
 20
93.749999999702567
 30
0.0
 11
172.0
 21
93.749999999702567
 31
0.0
  0
LINE
  5
94
  8
DIMNSIONS
  6
CONTINUOUS
 62
     7
 10
186.00000000021089
 20
117.7499999999978
 30
0.0
 11
172.0
 21
117.7499999999978
 31
0.0
  0
LINE
  5
95
  8
DIMNSIONS
  6
CONTINUOUS
 62
     7
 10
175.0
 20
93.749999999702567
 30
0.0
 11
175.0
 21
117.7499999999978
 31
0.0
  0
LINE
  5
96
  8
DIMNSIONS
  6
CONTINUOUS
 62
     7
 10
175.0
 20
93.749999999702567
 30
0.0
 11
173.99494030727459
 21
97.500933837593195
 31
0.0
  0
LINE
  5
97
  8
DIMNSIONS
  6
CONTINUOUS
 62
     7
 10
175.0
 20
93.749999999702567
 30
0.0
 11
176.00505969272541
 21
97.500933837593195
 31
0.0
  0
LINE
  5
98
  8
DIMNSIONS
  6
CONTINUOUS
 62
     7
 10
175.0
 20
117.7499999999978
 30
0.0
 11
176.00505969272541
 21
113.9990661621072
 31
0.0
  0
LINE
  5
99
  8
DIMNSIONS
  6
CONTINUOUS
 62
     7
 10
175.0
 20
117.7499999999978
 30
0.0
 11
173.99494030727459
 21
113.9990661621072
 31
0.0
  0
TEXT
  5
9A
  8
DIMNSIONS
 62
     7
 10
173.50916666666669
 20
103.1041666665168
 30
0.0
 40
4.072102864583333
  1
24
 50
90.0
 41
0.7
 11
169.43706380208329
 21
103.1041666665168
 31
0.0
 73
     3
  0
LINE
  5
9B
  8
DIMNSIONS
  6
CONTINUOUS
 62
     7
 10
191.3398039191014
 20
91.749999999702567
 30
0.0
 11
172.0
 21
91.749999999702567
 31
0.0
  0
LINE
  5
9C
  8
DIMNSIONS
  6
CONTINUOUS
 62
     7
 10
184.52000000000001
 20
93.749999999702567
 30
0.0
 11
172.0
 21
93.749999999702567
 31
0.0
  0
LINE
  5
9D
  8
DIMNSIONS
  6
CONTINUOUS
 62
     7
 10
175.0
 20
93.749999999702567
 30
0.0
 11
175.0
 21
91.749999999702567
 31
0.0
  0
LINE
  5
9E
  8
DIMNSIONS
  6
CONTINUOUS
 62
     7
 10
175.0
 20
91.749999999702567
 30
0.0
 11
175.0
 21
84.854166666666671
 31
0.0
  0
LINE
  5
9F
  8
DIMNSIONS
  6
CONTINUOUS
 62
     7
 10
175.0
 20
91.749999999702567
 30
0.0
 11
176.00505969272541
 21
87.999066161811925
 31
0.0
  0
LINE
  5
A0
  8
DIMNSIONS
  6
CONTINUOUS
 62
     7
 10
175.0
 20
91.749999999702567
 30
0.0
 11
173.99494030727459
 21
87.999066161811925
 31
0.0
  0
LINE
  5
A1
  8
DIMNSIONS
  6
CONTINUOUS
 62
     7
 10
175.0
 20
93.749999999702567
 30
0.0
 11
175.0
 21
101.2499999997025
 31
0.0
  0
LINE
  5
A2
  8
DIMNSIONS
  6
CONTINUOUS
 62
     7
 10
175.0
 20
93.749999999702567
 30
0.0
 11
173.99494030727459
 21
97.500933837593195
 31
0.0
  0
LINE
  5
A3
  8
DIMNSIONS
  6
CONTINUOUS
 62
     7
 10
175.0
 20
93.749999999702567
 30
0.0
 11
176.00505969272541
 21
97.500933837593195
 31
0.0
  0
TEXT
  5
A4
  8
DIMNSIONS
 62
     7
 10
173.50916666666669
 20
84.854166666666671
 30
0.0
 40
4.072102864583333
  1
2
 50
90.0
 41
0.7
 11
169.43706380208329
 21
84.854166666666671
 31
0.0
 73
     3
  0
LINE
  5
A5
  8
DIMNSIONS
  6
CONTINUOUS
 62
     7
 10
62.499999999768342
 20
90.750000000102617
 30
0.0
 11
62.499999999768342
 21
78.25
 31
0.0
  0
LINE
  5
A6
  8
DIMNSIONS
  6
CONTINUOUS
 62
     7
 10
97.499999999768363
 20
90.750000000102617
 30
0.0
 11
97.499999999768363
 21
78.25
 31
0.0
  0
LINE
  5
A7
  8
DIMNSIONS
  6
CONTINUOUS
 62
     7
 10
62.499999999768342
 20
81.25
 30
0.0
 11
97.499999999768363
 21
81.25
 31
0.0
  0
LINE
  5
A8
  8
DIMNSIONS
  6
CONTINUOUS
 62
     7
 10
62.499999999768342
 20
81.25
 30
0.0
 11
66.250933837658962
 21
82.255059692725368
 31
0.0
  0
LINE
  5
A9
  8
DIMNSIONS
  6
CONTINUOUS
 62
     7
 10
62.499999999768342
 20
81.25
 30
0.0
 11
66.250933837658962
 21
80.244940307274632
 31
0.0
  0
LINE
  5
AA
  8
DIMNSIONS
  6
CONTINUOUS
 62
     7
 10
97.499999999768363
 20
81.25
 30
0.0
 11
93.749066161877721
 21
80.244940307274632
 31
0.0
  0
LINE
  5
AB
  8
DIMNSIONS
  6
CONTINUOUS
 62
     7
 10
97.499999999768363
 20
81.25
 30
0.0
 11
93.749066161877721
 21
82.255059692725368
 31
0.0
  0
TEXT
  5
AC
  8
DIMNSIONS
 62
     7
 10
77.354166666435006
 20
82.740833333333356
 30
0.0
 40
4.072102864583333
  1
35
 41
0.7
 11
77.354166666435006
 21
86.812936197916684
 31
0.0
 73
     3
  0
LINE
  5
AD
  8
DIMNSIONS
  6
CONTINUOUS
 62
     7
 10
187.50000000021089
 20
90.749999999998209
 30
0.0
 11
187.50000000021089
 21
78.25
 31
0.0
  0
LINE
  5
AE
  8
DIMNSIONS
  6
CONTINUOUS
 62
     7
 10
222.500000000211
 20
90.749999999998209
 30
0.0
 11
222.500000000211
 21
78.25
 31
0.0
  0
LINE
  5
AF
  8
DIMNSIONS
  6
CONTINUOUS
 62
     7
 10
187.50000000021089
 20
81.25
 30
0.0
 11
222.500000000211
 21
81.25
 31
0.0
  0
LINE
  5
B0
  8
DIMNSIONS
  6
CONTINUOUS
 62
     7
 10
187.50000000021089
 20
81.25
 30
0.0
 11
191.25093383810159
 21
82.255059692725368
 31
0.0
  0
LINE
  5
B1
  8
DIMNSIONS
  6
CONTINUOUS
 62
     7
 10
187.50000000021089
 20
81.25
 30
0.0
 11
191.25093383810159
 21
80.244940307274632
 31
0.0
  0
LINE
  5
B2
  8
DIMNSIONS
  6
CONTINUOUS
 62
     7
 10
222.500000000211
 20
81.25
 30
0.0
 11
218.74906616232039
 21
80.244940307274632
 31
0.0
  0
LINE
  5
B3
  8
DIMNSIONS
  6
CONTINUOUS
 62
     7
 10
222.500000000211
 20
81.25
 30
0.0
 11
218.74906616232039
 21
82.255059692725368
 31
0.0
  0
TEXT
  5
B4
  8
DIMNSIONS
 62
     7
 10
202.3541666668776
 20
82.740833333333356
 30
0.0
 40
4.072102864583333
  1
35
 41
0.7
 11
202.3541666668776
 21
86.812936197916684
 31
0.0
 73
     3
  0
LINE
  5
B5
  8
DIMNSIONS
  6
CONTINUOUS
 62
     7
 10
66.340000000000003
 20
91.750045163699284
 30
0.0
 11
47.0
 21
91.750045163699284
 31
0.0
  0
LINE
  5
B6
  8
DIMNSIONS
  6
CONTINUOUS
 62
     7
 10
59.499999999768342
 20
93.750000000102602
 30
0.0
 11
47.0
 21
93.750000000102602
 31
0.0
  0
LINE
  5
B7
  8
DIMNSIONS
  6
CONTINUOUS
 62
     7
 10
50.0
 20
93.750000000102602
 30
0.0
 11
50.0
 21
91.750045163699284
 31
0.0
  0
LINE
  5
B8
  8
DIMNSIONS
  6
CONTINUOUS
 62
     7
 10
50.0
 20
91.750045163699284
 30
0.0
 11
50.0
 21
84.854166666666671
 31
0.0
  0
LINE
  5
B9
  8
DIMNSIONS
  6
CONTINUOUS
 62
     7
 10
50.0
 20
91.750045163699284
 30
0.0
 11
51.005059692725361
 21
87.999111325808656
 31
0.0
  0
LINE
  5
BA
  8
DIMNSIONS
  6
CONTINUOUS
 62
     7
 10
50.0
 20
91.750045163699284
 30
0.0
 11
48.994940307274632
 21
87.999111325808656
 31
0.0
  0
LINE
  5
BB
  8
DIMNSIONS
  6
CONTINUOUS
 62
     7
 10
50.0
 20
93.750000000102602
 30
0.0
 11
50.0
 21
101.2500000001026
 31
0.0
  0
LINE
  5
BC
  8
DIMNSIONS
  6
CONTINUOUS
 62
     7
 10
50.0
 20
93.750000000102602
 30
0.0
 11
48.994940307274632
 21
97.500933837993244
 31
0.0
  0
LINE
  5
BD
  8
DIMNSIONS
  6
CONTINUOUS
 62
     7
 10
50.0
 20
93.750000000102602
 30
0.0
 11
51.005059692725361
 21
97.500933837993244
 31
0.0
  0
TEXT
  5
BE
  8
DIMNSIONS
 62
     7
 10
48.509166666666658
 20
84.854166666666671
 30
0.0
 40
4.072102864583333
  1
2
 50
90.0
 41
0.7
 11
44.437063802083323
 21
84.854166666666671
 31
0.0
 73
     3
  0
LINE
  5
BF
  8
DIMNSIONS
  6
CONTINUOUS
 62
     7
 10
61.833534856707452
 20
139.7499999999026
 30
0.0
 11
47.0
 21
139.7499999999026
 31
0.0
  0
LINE
  5
C0
  8
DIMNSIONS
  6
CONTINUOUS
 62
     7
 10
59.52413377994894
 20
143.7499999999026
 30
0.0
 11
47.0
 21
143.7499999999026
 31
0.0
  0
LINE
  5
C1
  8
DIMNSIONS
  6
CONTINUOUS
 62
     7
 10
50.0
 20
143.7499999999026
 30
0.0
 11
50.0
 21
139.7499999999026
 31
0.0
  0
LINE
  5
C2
  8
DIMNSIONS
  6
CONTINUOUS
 62
     7
 10
50.0
 20
139.7499999999026
 30
0.0
 11
50.0
 21
133.05416666666659
 31
0.0
  0
LINE
  5
C3
  8
DIMNSIONS
  6
CONTINUOUS
 62
     7
 10
50.0
 20
139.7499999999026
 30
0.0
 11
51.005059692725361
 21
135.99906616201201
 31
0.0
  0
LINE
  5
C4
  8
DIMNSIONS
  6
CONTINUOUS
 62
     7
 10
50.0
 20
139.7499999999026
 30
0.0
 11
48.994940307274632
 21
135.99906616201201
 31
0.0
  0
LINE
  5
C5
  8
DIMNSIONS
  6
CONTINUOUS
 62
     7
 10
50.0
 20
143.7499999999026
 30
0.0
 11
50.0
 21
151.2499999999026
 31
0.0
  0
LINE
  5
C6
  8
DIMNSIONS
  6
CONTINUOUS
 62
     7
 10
50.0
 20
143.7499999999026
 30
0.0
 11
48.994940307274632
 21
147.50093383779321
 31
0.0
  0
LINE
  5
C7
  8
DIMNSIONS
  6
CONTINUOUS
 62
     7
 10
50.0
 20
143.7499999999026
 30
0.0
 11
51.005059692725361
 21
147.50093383779321
 31
0.0
  0
TEXT
  5
C8
  8
DIMNSIONS
 62
     7
 10
48.509166666666658
 20
133.05416666666659
 30
0.0
 40
4.072102864583333
  1
4
 50
90.0
 41
0.7
 11
44.437063802083323
 21
133.05416666666659
 31
0.0
 73
     3
  0
LINE
  5
C9
  8
DIMNSIONS
  6
CONTINUOUS
 62
     7
 10
184.50000000021089
 20
236.74999999950259
 30
0.0
 11
172.0
 21
236.74999999950259
 31
0.0
  0
LINE
  5
CA
  8
DIMNSIONS
  6
CONTINUOUS
 62
     7
 10
186.83353485715
 20
240.74999999950259
 30
0.0
 11
172.0
 21
240.74999999950259
 31
0.0
  0
LINE
  5
CB
  8
DIMNSIONS
  6
CONTINUOUS
 62
     7
 10
175.0
 20
240.74999999950259
 30
0.0
 11
175.0
 21
236.74999999950259
 31
0.0
  0
LINE
  5
CC
  8
DIMNSIONS
  6
CONTINUOUS
 62
     7
 10
175.0
 20
236.74999999950259
 30
0.0
 11
175.0
 21
229.24999999950271
 31
0.0
  0
LINE
  5
CD
  8
DIMNSIONS
  6
CONTINUOUS
 62
     7
 10
175.0
 20
236.74999999950259
 30
0.0
 11
176.00505969272541
 21
232.99906616161201
 31
0.0
  0
LINE
  5
CE
  8
DIMNSIONS
  6
CONTINUOUS
 62
     7
 10
175.0
 20
236.74999999950259
 30
0.0
 11
173.99494030727459
 21
232.99906616161201
 31
0.0
  0
LINE
  5
CF
  8
DIMNSIONS
  6
CONTINUOUS
 62
     7
 10
175.0
 20
240.74999999950259
 30
0.0
 11
175.0
 21
248.14583333333329
 31
0.0
  0
LINE
  5
D0
  8
DIMNSIONS
  6
CONTINUOUS
 62
     7
 10
175.0
 20
240.74999999950259
 30
0.0
 11
173.99494030727459
 21
244.50093383739329
 31
0.0
  0
LINE
  5
D1
  8
DIMNSIONS
  6
CONTINUOUS
 62
     7
 10
175.0
 20
240.74999999950259
 30
0.0
 11
176.00505969272541
 21
244.50093383739329
 31
0.0
  0
TEXT
  5
D2
  8
DIMNSIONS
 62
     7
 10
173.50916666666669
 20
245.5
 30
0.0
 40
4.072102864583333
  1
4
 50
90.0
 41
0.7
 11
169.43706380208329
 21
245.5
 31
0.0
 73
     3
  0
TEXT
  5
D3
  8
DATA
 62
     7
 10
30.0
 20
21.356999999999989
 30
0.0
 40
2.4432617187500001
  1
仕様および外観は予告なく変更されることがありますので、ご了承ください。
 41
0.7
 11
30.0
 21
23.80026171874999
 31
0.0
 73
     3
  0
LINE
  5
D4
  8
DATA
  6
CONTINUOUS
 62
     7
 10
62.499999999768342
 20
143.7499999999026
 30
0.0
 11
62.499999999768342
 21
236.7499999999026
 31
0.0
  0
LINE
  5
D5
  8
DATA
  6
CONTINUOUS
 62
     7
 10
97.499999999768363
 20
143.7499999999026
 30
0.0
 11
62.499999999768342
 21
143.7499999999026
 31
0.0
  0
LINE
  5
D6
  8
DATA
  6
CONTINUOUS
 62
     7
 10
97.499999999768363
 20
236.7499999999026
 30
0.0
 11
97.499999999768363
 21
143.7499999999026
 31
0.0
  0
LINE
  5
D7
  8
DATA
  6
CONTINUOUS
 62
     7
 10
62.499999999768342
 20
236.7499999999026
 30
0.0
 11
97.499999999768363
 21
236.7499999999026
 31
0.0
  0
LINE
  5
D8
  8
DATA
  6
CONTINUOUS
 62
     7
 10
62.499999999768342
 20
93.750000000102602
 30
0.0
 11
62.499999999768342
 21
116.2500000001026
 31
0.0
  0
LINE
  5
D9
  8
DATA
  6
CONTINUOUS
 62
     7
 10
97.499999999768363
 20
93.750000000102602
 30
0.0
 11
86.499999999768335
 21
93.750000000102602
 31
0.0
  0
LINE
  5
DA
  8
DATA
  6
CONTINUOUS
 62
     7
 10
73.499999999768349
 20
93.750000000102602
 30
0.0
 11
62.499999999768342
 21
93.750000000102602
 31
0.0
  0
LINE
  5
DB
  8
DATA
  6
CONTINUOUS
 62
     7
 10
97.499999999768363
 20
116.2500000001026
 30
0.0
 11
97.499999999768363
 21
93.750000000102602
 31
0.0
  0
LINE
  5
DC
  8
DATA
  6
CONTINUOUS
 62
     7
 10
63.999999999768342
 20
117.7500000001026
 30
0.0
 11
95.999999999768349
 21
117.7500000001026
 31
0.0
  0
LINE
  5
DD
  8
DATA
  6
CONTINUOUS
 62
     7
 10
62.499999999768342
 20
94.750000000102588
 30
0.0
 11
97.499999999768363
 21
94.750000000102588
 31
0.0
  0
LINE
  5
DE
  8
DATA
  6
CONTINUOUS
 62
     7
 10
73.499999999768349
 20
93.750000000102602
 30
0.0
 11
73.499999999768349
 21
94.750000000102588
 31
0.0
  0
LINE
  5
DF
  8
DATA
  6
CONTINUOUS
 62
     7
 10
86.499999999768335
 20
94.750000000102588
 30
0.0
 11
86.499999999768335
 21
93.750000000102602
 31
0.0
  0
LINE
  5
E0
  8
DATA
  6
CONTINUOUS
 62
     7
 10
62.499999999768342
 20
280.24999999990052
 30
0.0
 11
62.499999999768342
 21
257.74999999990098
 31
0.0
  0
LINE
  5
E1
  8
DATA
  6
CONTINUOUS
 62
     7
 10
97.499999999768363
 20
280.24999999990052
 30
0.0
 11
86.499999999768335
 21
280.24999999990052
 31
0.0
  0
LINE
  5
E2
  8
DATA
  6
CONTINUOUS
 62
     7
 10
73.499999999768349
 20
280.24999999990052
 30
0.0
 11
62.499999999768342
 21
280.24999999990052
 31
0.0
  0
LINE
  5
E3
  8
DATA
  6
CONTINUOUS
 62
     7
 10
97.499999999768363
 20
257.74999999990098
 30
0.0
 11
97.499999999768363
 21
280.24999999990052
 31
0.0
  0
LINE
  5
E4
  8
DATA
  6
CONTINUOUS
 62
     7
 10
63.999999999768342
 20
256.24999999990109
 30
0.0
 11
95.999999999768349
 21
256.24999999990109
 31
0.0
  0
LINE
  5
E5
  8
DATA
  6
CONTINUOUS
 62
     7
 10
62.499999999768342
 20
279.24999999990052
 30
0.0
 11
97.499999999768363
 21
279.24999999990052
 31
0.0
  0
LINE
  5
E6
  8
DATA
  6
CONTINUOUS
 62
     7
 10
73.499999999768349
 20
280.24999999990052
 30
0.0
 11
73.499999999768349
 21
279.24999999990052
 31
0.0
  0
LINE
  5
E7
  8
DATA
  6
CONTINUOUS
 62
     7
 10
86.499999999768335
 20
279.24999999990052
 30
0.0
 11
86.499999999768335
 21
280.24999999990052
 31
0.0
  0
LINE
  5
E8
  8
DATA
  6
CONTINUOUS
 62
     7
 10
112.49999999986829
 20
143.7499999999026
 30
0.0
 11
112.49999999986829
 21
236.7499999999026
 31
0.0
  0
LINE
  5
E9
  8
DATA
  6
CONTINUOUS
 62
     7
 10
136.49999999986829
 20
143.7499999999026
 30
0.0
 11
112.49999999986829
 21
143.7499999999026
 31
0.0
  0
LINE
  5
EA
  8
DATA
  6
CONTINUOUS
 62
     7
 10
136.49999999986829
 20
236.7499999999026
 30
0.0
 11
136.49999999986829
 21
143.7499999999026
 31
0.0
  0
LINE
  5
EB
  8
DATA
  6
CONTINUOUS
 62
     7
 10
112.49999999986829
 20
236.7499999999026
 30
0.0
 11
136.49999999986829
 21
236.7499999999026
 31
0.0
  0
TEXT
  5
EC
  8
DATA
 62
     7
 10
75.677106198043433
 20
196.0971964903687
 30
0.0
 40
7.3297851562499989
  1
VGASR
 50
90.0
 41
0.7
 11
68.347321041793435
 21
196.0971964903687
 31
0.0
 73
     3
  0
TEXT
  5
ED
  8
DATA
 62
     7
 10
91.716635568808883
 20
194.26812844949271
 30
0.0
 40
4.072102864583333
  1
extender
 50
90.0
 41
0.7
 11
87.644532704225554
 21
194.26812844949271
 31
0.0
 73
     3
  0
TEXT
  5
EE
  8
DATA
 62
     7
 10
92.643719267618565
 20
216.2393875156483
 30
0.0
 40
4.8865234374999993
  1
S
 50
90.0
 41
0.7
 11
87.757195830118562
 21
216.2393875156483
 31
0.0
 73
     3
  0
TEXT
  5
EF
  8
DATA
 62
     7
 10
74.725432195570079
 20
146.4269489576113
 30
0.0
 40
2.8097509765624999
  1
VGA In
 41
0.7
 11
74.725432195570079
 21
149.2366999341738
 31
0.0
 73
     3
  0
POLYLINE
  5
F0
  8
DATA
  6
CONTINUOUS
 62
     7
 66
     1
 10
0.0
 20
0.0
 30
0.0
 70
   129
  0
VERTEX
  5
339
  8
DATA
  6
CONTINUOUS
 62
     7
 10
82.708972356943022
 20
108.77481866291011
 30
0.0
 42
-0.4142135623730951
  0
VERTEX
  5
33A
  8
DATA
  6
CONTINUOUS
 62
     7
 10
83.208972356943008
 20
109.27481866291011
 30
0.0
 42
-0.4142135623730951
  0
VERTEX
  5
33B
  8
DATA
  6
CONTINUOUS
 62
     7
 10
83.708972356943022
 20
108.77481866291011
 30
0.0
 42
-0.4142135623730951
  0
VERTEX
  5
33C
  8
DATA
  6
CONTINUOUS
 62
     7
 10
83.208972356943008
 20
108.27481866291011
 30
0.0
 42
-0.4142135623730951
  0
VERTEX
  5
33D
  8
DATA
  6
CONTINUOUS
 62
     7
 10
82.708972356943022
 20
108.77481866291011
 30
0.0
  0
SEQEND
  5
33E
  8
DATA
  6
CONTINUOUS
 62
     7
  0
LINE
  5
F7
  8
DATA
  6
CONTINUOUS
 62
     7
 10
73.278918243001399
 20
112.94481866291009
 30
0.0
 11
86.178918243001419
 21
112.94481866291009
 31
0.0
  0
LINE
  5
F8
  8
DATA
  6
CONTINUOUS
 62
     7
 10
73.6554882430014
 20
104.60481866291011
 30
0.0
 11
85.802358243001422
 21
104.60481866291011
 31
0.0
  0
POLYLINE
  5
F9
  8
DATA
  6
CONTINUOUS
 62
     7
 66
     1
 10
0.0
 20
0.0
 30
0.0
 70
   129
  0
VERTEX
  5
33F
  8
DATA
  6
CONTINUOUS
 62
     7
 10
80.428972356943035
 20
108.77481866291011
 30
0.0
 42
-0.4142135623731035
  0
VERTEX
  5
340
  8
DATA
  6
CONTINUOUS
 62
     7
 10
80.928972356943021
 20
109.27481866291011
 30
0.0
 42
-0.4142135623730951
  0
VERTEX
  5
341
  8
DATA
  6
CONTINUOUS
 62
     7
 10
81.428972356943021
 20
108.77481866291011
 30
0.0
 42
-0.4142135623730868
  0
VERTEX
  5
342
  8
DATA
  6
CONTINUOUS
 62
     7
 10
80.928972356943021
 20
108.27481866291011
 30
0.0
 42
-0.4142135623730951
  0
VERTEX
  5
343
  8
DATA
  6
CONTINUOUS
 62
     7
 10
80.428972356943035
 20
108.77481866291011
 30
0.0
  0
SEQEND
  5
344
  8
DATA
  6
CONTINUOUS
 62
     7
  0
POLYLINE
  5
100
  8
DATA
  6
CONTINUOUS
 62
     7
 66
     1
 10
0.0
 20
0.0
 30
0.0
 70
   129
  0
VERTEX
  5
345
  8
DATA
  6
CONTINUOUS
 62
     7
 10
74.92690381261697
 20
106.7948186629101
 30
0.0
 42
-0.4142135623730868
  0
VERTEX
  5
346
  8
DATA
  6
CONTINUOUS
 62
     7
 10
75.42690381261697
 20
107.2948186629101
 30
0.0
 42
-0.4142135623730951
  0
VERTEX
  5
347
  8
DATA
  6
CONTINUOUS
 62
     7
 10
75.92690381261697
 20
106.7948186629101
 30
0.0
 42
-0.4142135623731035
  0
VERTEX
  5
348
  8
DATA
  6
CONTINUOUS
 62
     7
 10
75.42690381261697
 20
106.2948186629101
 30
0.0
 42
-0.4142135623730951
  0
VERTEX
  5
349
  8
DATA
  6
CONTINUOUS
 62
     7
 10
74.92690381261697
 20
106.7948186629101
 30
0.0
  0
SEQEND
  5
34A
  8
DATA
  6
CONTINUOUS
 62
     7
  0
POLYLINE
  5
107
  8
DATA
  6
CONTINUOUS
 62
     7
 66
     1
 10
0.0
 20
0.0
 30
0.0
 70
   129
  0
VERTEX
  5
34B
  8
DATA
  6
CONTINUOUS
 62
     7
 10
77.216903812616934
 20
106.7948186629101
 30
0.0
 42
-0.4142135623731035
  0
VERTEX
  5
34C
  8
DATA
  6
CONTINUOUS
 62
     7
 10
77.716903812616948
 20
107.2948186629101
 30
0.0
 42
-0.4142135623730951
  0
VERTEX
  5
34D
  8
DATA
  6
CONTINUOUS
 62
     7
 10
78.216903812616948
 20
106.7948186629101
 30
0.0
 42
-0.4142135623730868
  0
VERTEX
  5
34E
  8
DATA
  6
CONTINUOUS
 62
     7
 10
77.716903812616948
 20
106.2948186629101
 30
0.0
 42
-0.4142135623730951
  0
VERTEX
  5
34F
  8
DATA
  6
CONTINUOUS
 62
     7
 10
77.216903812616934
 20
106.7948186629101
 30
0.0
  0
SEQEND
  5
350
  8
DATA
  6
CONTINUOUS
 62
     7
  0
POLYLINE
  5
10E
  8
DATA
  6
CONTINUOUS
 62
     7
 66
     1
 10
0.0
 20
0.0
 30
0.0
 70
   129
  0
VERTEX
  5
351
  8
DATA
  6
CONTINUOUS
 62
     7
 10
79.506903812616983
 20
106.7948186629101
 30
0.0
 42
-0.4142135623730951
  0
VERTEX
  5
352
  8
DATA
  6
CONTINUOUS
 62
     7
 10
80.006903812616983
 20
107.2948186629101
 30
0.0
 42
-0.4142135623730951
  0
VERTEX
  5
353
  8
DATA
  6
CONTINUOUS
 62
     7
 10
80.506903812616983
 20
106.7948186629101
 30
0.0
 42
-0.4142135623730951
  0
VERTEX
  5
354
  8
DATA
  6
CONTINUOUS
 62
     7
 10
80.006903812616983
 20
106.2948186629101
 30
0.0
 42
-0.4142135623730951
  0
VERTEX
  5
355
  8
DATA
  6
CONTINUOUS
 62
     7
 10
79.506903812616983
 20
106.7948186629101
 30
0.0
  0
SEQEND
  5
356
  8
DATA
  6
CONTINUOUS
 62
     7
  0
POLYLINE
  5
115
  8
DATA
  6
CONTINUOUS
 62
     7
 66
     1
 10
0.0
 20
0.0
 30
0.0
 70
   129
  0
VERTEX
  5
357
  8
DATA
  6
CONTINUOUS
 62
     7
 10
81.78690381261697
 20
106.7948186629101
 30
0.0
 42
-0.4142135623730951
  0
VERTEX
  5
358
  8
DATA
  6
CONTINUOUS
 62
     7
 10
82.286903812616984
 20
107.2948186629101
 30
0.0
 42
-0.4142135623730951
  0
VERTEX
  5
359
  8
DATA
  6
CONTINUOUS
 62
     7
 10
82.786903812616984
 20
106.7948186629101
 30
0.0
 42
-0.4142135623731035
  0
VERTEX
  5
35A
  8
DATA
  6
CONTINUOUS
 62
     7
 10
82.286903812616984
 20
106.2948186629101
 30
0.0
 42
-0.4142135623730951
  0
VERTEX
  5
35B
  8
DATA
  6
CONTINUOUS
 62
     7
 10
81.78690381261697
 20
106.7948186629101
 30
0.0
  0
SEQEND
  5
35C
  8
DATA
  6
CONTINUOUS
 62
     7
  0
POLYLINE
  5
11C
  8
DATA
  6
CONTINUOUS
 62
     7
 66
     1
 10
0.0
 20
0.0
 30
0.0
 70
   129
  0
VERTEX
  5
35D
  8
DATA
  6
CONTINUOUS
 62
     7
 10
74.92690381261697
 20
110.7548186629101
 30
0.0
 42
-0.4142135623731035
  0
VERTEX
  5
35E
  8
DATA
  6
CONTINUOUS
 62
     7
 10
75.42690381261697
 20
111.2548186629101
 30
0.0
 42
-0.4142135623730951
  0
VERTEX
  5
35F
  8
DATA
  6
CONTINUOUS
 62
     7
 10
75.92690381261697
 20
110.7548186629101
 30
0.0
 42
-0.4142135623730868
  0
VERTEX
  5
360
  8
DATA
  6
CONTINUOUS
 62
     7
 10
75.42690381261697
 20
110.2548186629101
 30
0.0
 42
-0.4142135623730951
  0
VERTEX
  5
361
  8
DATA
  6
CONTINUOUS
 62
     7
 10
74.92690381261697
 20
110.7548186629101
 30
0.0
  0
SEQEND
  5
362
  8
DATA
  6
CONTINUOUS
 62
     7
  0
POLYLINE
  5
123
  8
DATA
  6
CONTINUOUS
 62
     7
 66
     1
 10
0.0
 20
0.0
 30
0.0
 70
   129
  0
VERTEX
  5
363
  8
DATA
  6
CONTINUOUS
 62
     7
 10
77.216903812616934
 20
110.7548186629101
 30
0.0
 42
-0.4142135623730868
  0
VERTEX
  5
364
  8
DATA
  6
CONTINUOUS
 62
     7
 10
77.716903812616948
 20
111.2548186629101
 30
0.0
 42
-0.4142135623730951
  0
VERTEX
  5
365
  8
DATA
  6
CONTINUOUS
 62
     7
 10
78.216903812616948
 20
110.7548186629101
 30
0.0
 42
-0.4142135623731035
  0
VERTEX
  5
366
  8
DATA
  6
CONTINUOUS
 62
     7
 10
77.716903812616948
 20
110.2548186629101
 30
0.0
 42
-0.4142135623730951
  0
VERTEX
  5
367
  8
DATA
  6
CONTINUOUS
 62
     7
 10
77.216903812616934
 20
110.7548186629101
 30
0.0
  0
SEQEND
  5
368
  8
DATA
  6
CONTINUOUS
 62
     7
  0
POLYLINE
  5
12A
  8
DATA
  6
CONTINUOUS
 62
     7
 66
     1
 10
0.0
 20
0.0
 30
0.0
 70
   129
  0
VERTEX
  5
369
  8
DATA
  6
CONTINUOUS
 62
     7
 10
79.506903812616983
 20
110.7548186629101
 30
0.0
 42
-0.4142135623730951
  0
VERTEX
  5
36A
  8
DATA
  6
CONTINUOUS
 62
     7
 10
80.006903812616983
 20
111.2548186629101
 30
0.0
 42
-0.4142135623730951
  0
VERTEX
  5
36B
  8
DATA
  6
CONTINUOUS
 62
     7
 10
80.506903812616983
 20
110.7548186629101
 30
0.0
 42
-0.4142135623730951
  0
VERTEX
  5
36C
  8
DATA
  6
CONTINUOUS
 62
     7
 10
80.006903812616983
 20
110.2548186629101
 30
0.0
 42
-0.4142135623730951
  0
VERTEX
  5
36D
  8
DATA
  6
CONTINUOUS
 62
     7
 10
79.506903812616983
 20
110.7548186629101
 30
0.0
  0
SEQEND
  5
36E
  8
DATA
  6
CONTINUOUS
 62
     7
  0
POLYLINE
  5
131
  8
DATA
  6
CONTINUOUS
 62
     7
 66
     1
 10
0.0
 20
0.0
 30
0.0
 70
   129
  0
VERTEX
  5
36F
  8
DATA
  6
CONTINUOUS
 62
     7
 10
81.78690381261697
 20
110.7548186629101
 30
0.0
 42
-0.4142135623730951
  0
VERTEX
  5
370
  8
DATA
  6
CONTINUOUS
 62
     7
 10
82.286903812616984
 20
111.2548186629101
 30
0.0
 42
-0.4142135623730951
  0
VERTEX
  5
371
  8
DATA
  6
CONTINUOUS
 62
     7
 10
82.786903812616984
 20
110.7548186629101
 30
0.0
 42
-0.4142135623730868
  0
VERTEX
  5
372
  8
DATA
  6
CONTINUOUS
 62
     7
 10
82.286903812616984
 20
110.2548186629101
 30
0.0
 42
-0.4142135623730951
  0
VERTEX
  5
373
  8
DATA
  6
CONTINUOUS
 62
     7
 10
81.78690381261697
 20
110.7548186629101
 30
0.0
  0
SEQEND
  5
374
  8
DATA
  6
CONTINUOUS
 62
     7
  0
POLYLINE
  5
138
  8
DATA
  6
CONTINUOUS
 62
     7
 66
     1
 10
0.0
 20
0.0
 30
0.0
 70
   129
  0
VERTEX
  5
375
  8
DATA
  6
CONTINUOUS
 62
     7
 10
73.568972356943021
 20
108.77481866291011
 30
0.0
 42
-0.4142135623730868
  0
VERTEX
  5
376
  8
DATA
  6
CONTINUOUS
 62
     7
 10
74.068972356943021
 20
109.27481866291011
 30
0.0
 42
-0.4142135623730951
  0
VERTEX
  5
377
  8
DATA
  6
CONTINUOUS
 62
     7
 10
74.568972356943021
 20
108.77481866291011
 30
0.0
 42
-0.4142135623731035
  0
VERTEX
  5
378
  8
DATA
  6
CONTINUOUS
 62
     7
 10
74.068972356943021
 20
108.27481866291011
 30
0.0
 42
-0.4142135623730951
  0
VERTEX
  5
379
  8
DATA
  6
CONTINUOUS
 62
     7
 10
73.568972356943021
 20
108.77481866291011
 30
0.0
  0
SEQEND
  5
37A
  8
DATA
  6
CONTINUOUS
 62
     7
  0
POLYLINE
  5
13F
  8
DATA
  6
CONTINUOUS
 62
     7
 66
     1
 10
0.0
 20
0.0
 30
0.0
 70
   129
  0
VERTEX
  5
37B
  8
DATA
  6
CONTINUOUS
 62
     7
 10
75.848972356943023
 20
108.77481866291011
 30
0.0
 42
-0.4142135623730951
  0
VERTEX
  5
37C
  8
DATA
  6
CONTINUOUS
 62
     7
 10
76.348972356943023
 20
109.27481866291011
 30
0.0
 42
-0.4142135623730951
  0
VERTEX
  5
37D
  8
DATA
  6
CONTINUOUS
 62
     7
 10
76.848972356943023
 20
108.77481866291011
 30
0.0
 42
-0.4142135623730951
  0
VERTEX
  5
37E
  8
DATA
  6
CONTINUOUS
 62
     7
 10
76.348972356943023
 20
108.27481866291011
 30
0.0
 42
-0.4142135623730951
  0
VERTEX
  5
37F
  8
DATA
  6
CONTINUOUS
 62
     7
 10
75.848972356943023
 20
108.77481866291011
 30
0.0
  0
SEQEND
  5
380
  8
DATA
  6
CONTINUOUS
 62
     7
  0
POLYLINE
  5
146
  8
DATA
  6
CONTINUOUS
 62
     7
 66
     1
 10
0.0
 20
0.0
 30
0.0
 70
   129
  0
VERTEX
  5
381
  8
DATA
  6
CONTINUOUS
 62
     7
 10
78.138972356943043
 20
108.77481866291011
 30
0.0
 42
-0.4142135623730868
  0
VERTEX
  5
382
  8
DATA
  6
CONTINUOUS
 62
     7
 10
78.638972356943043
 20
109.27481866291011
 30
0.0
 42
-0.4142135623730951
  0
VERTEX
  5
383
  8
DATA
  6
CONTINUOUS
 62
     7
 10
79.138972356943043
 20
108.77481866291011
 30
0.0
 42
-0.4142135623731035
  0
VERTEX
  5
384
  8
DATA
  6
CONTINUOUS
 62
     7
 10
78.638972356943043
 20
108.27481866291011
 30
0.0
 42
-0.4142135623730951
  0
VERTEX
  5
385
  8
DATA
  6
CONTINUOUS
 62
     7
 10
78.138972356943043
 20
108.77481866291011
 30
0.0
  0
SEQEND
  5
386
  8
DATA
  6
CONTINUOUS
 62
     7
  0
POLYLINE
  5
14D
  8
DATA
  6
CONTINUOUS
 62
     7
 66
     1
 10
0.0
 20
0.0
 30
0.0
 70
   129
  0
VERTEX
  5
387
  8
DATA
  6
CONTINUOUS
 62
     7
 10
84.076903812617005
 20
106.7948186629101
 30
0.0
 42
-0.4142135623731035
  0
VERTEX
  5
388
  8
DATA
  6
CONTINUOUS
 62
     7
 10
84.57690381261699
 20
107.2948186629101
 30
0.0
 42
-0.4142135623730951
  0
VERTEX
  5
389
  8
DATA
  6
CONTINUOUS
 62
     7
 10
85.07690381261699
 20
106.7948186629101
 30
0.0
 42
-0.4142135623730868
  0
VERTEX
  5
38A
  8
DATA
  6
CONTINUOUS
 62
     7
 10
84.57690381261699
 20
106.2948186629101
 30
0.0
 42
-0.4142135623730951
  0
VERTEX
  5
38B
  8
DATA
  6
CONTINUOUS
 62
     7
 10
84.076903812617005
 20
106.7948186629101
 30
0.0
  0
SEQEND
  5
38C
  8
DATA
  6
CONTINUOUS
 62
     7
  0
POLYLINE
  5
154
  8
DATA
  6
CONTINUOUS
 62
     7
 66
     1
 10
0.0
 20
0.0
 30
0.0
 70
   129
  0
VERTEX
  5
38D
  8
DATA
  6
CONTINUOUS
 62
     7
 10
84.076903812617005
 20
110.7548186629101
 30
0.0
 42
-0.4142135623730868
  0
VERTEX
  5
38E
  8
DATA
  6
CONTINUOUS
 62
     7
 10
84.57690381261699
 20
111.2548186629101
 30
0.0
 42
-0.4142135623730951
  0
VERTEX
  5
38F
  8
DATA
  6
CONTINUOUS
 62
     7
 10
85.07690381261699
 20
110.7548186629101
 30
0.0
 42
-0.4142135623731035
  0
VERTEX
  5
390
  8
DATA
  6
CONTINUOUS
 62
     7
 10
84.57690381261699
 20
110.2548186629101
 30
0.0
 42
-0.4142135623730951
  0
VERTEX
  5
391
  8
DATA
  6
CONTINUOUS
 62
     7
 10
84.076903812617005
 20
110.7548186629101
 30
0.0
  0
SEQEND
  5
392
  8
DATA
  6
CONTINUOUS
 62
     7
  0
ARC
  5
15B
  8
DATA
  6
CONTINUOUS
 62
     7
 10
73.6554882430014
 20
106.10481866291011
 30
0.0
 40
1.499998001665334
 50
189.9999255496015
 51
270.0
  0
ARC
  5
15C
  8
DATA
  6
CONTINUOUS
 62
     7
 10
73.278918243001399
 20
110.94481866291009
 30
0.0
 40
2.0
 50
90.0
 51
180.0
  0
LINE
  5
15D
  8
DATA
  6
CONTINUOUS
 62
     7
 10
71.278918243001399
 20
110.94481866291009
 30
0.0
 11
72.178268243001384
 21
105.84434866291009
 31
0.0
  0
ARC
  5
15E
  8
DATA
  6
CONTINUOUS
 62
     7
 10
85.802358243001422
 20
106.10481866291011
 30
0.0
 40
1.5
 50
270.0
 51
350.0000744503991
  0
ARC
  5
15F
  8
DATA
  6
CONTINUOUS
 62
     7
 10
86.178918243001419
 20
110.94481866291009
 30
0.0
 40
2.0
 50
0.0
 51
90.0
  0
LINE
  5
160
  8
DATA
  6
CONTINUOUS
 62
     7
 10
88.178918243001419
 20
110.94481866291009
 30
0.0
 11
87.279568243001407
 21
105.84434866291009
 31
0.0
  0
CIRCLE
  5
161
  8
DATA
  6
CONTINUOUS
 62
     7
 10
92.260219888375872
 20
108.75710897130109
 30
0.0
 40
1.1750000000001251
  0
POLYLINE
  5
162
  8
DATA
  6
CONTINUOUS
 62
     7
 66
     1
 10
0.0
 20
0.0
 30
0.0
 70
     1
  0
VERTEX
  5
393
  8
DATA
  6
CONTINUOUS
 62
     7
 10
92.260219888375872
 20
111.4571089713011
 30
0.0
  0
VERTEX
  5
394
  8
DATA
  6
CONTINUOUS
 62
     7
 10
89.921951298157808
 20
110.1071089713011
 30
0.0
  0
VERTEX
  5
395
  8
DATA
  6
CONTINUOUS
 62
     7
 10
89.921951298157808
 20
107.4071089713012
 30
0.0
  0
VERTEX
  5
396
  8
DATA
  6
CONTINUOUS
 62
     7
 10
92.260219888375872
 20
106.0571089713012
 30
0.0
  0
VERTEX
  5
397
  8
DATA
  6
CONTINUOUS
 62
     7
 10
94.598488478593964
 20
107.4071089713012
 30
0.0
  0
VERTEX
  5
398
  8
DATA
  6
CONTINUOUS
 62
     7
 10
94.598488478593964
 20
110.1071089713011
 30
0.0
  0
SEQEND
  5
399
  8
DATA
  6
CONTINUOUS
 62
     7
  0
CIRCLE
  5
16B
  8
DATA
  6
CONTINUOUS
 62
     7
 10
67.260219888375474
 20
108.75710897130109
 30
0.0
 40
1.1750000000001251
  0
POLYLINE
  5
16C
  8
DATA
  6
CONTINUOUS
 62
     7
 66
     1
 10
0.0
 20
0.0
 30
0.0
 70
     1
  0
VERTEX
  5
39A
  8
DATA
  6
CONTINUOUS
 62
     7
 10
67.260219888375474
 20
111.4571089713011
 30
0.0
  0
VERTEX
  5
39B
  8
DATA
  6
CONTINUOUS
 62
     7
 10
64.921951298157509
 20
110.1071089713011
 30
0.0
  0
VERTEX
  5
39C
  8
DATA
  6
CONTINUOUS
 62
     7
 10
64.921951298157509
 20
107.4071089713012
 30
0.0
  0
VERTEX
  5
39D
  8
DATA
  6
CONTINUOUS
 62
     7
 10
67.260219888375474
 20
106.0571089713012
 30
0.0
  0
VERTEX
  5
39E
  8
DATA
  6
CONTINUOUS
 62
     7
 10
69.59848847859358
 20
107.4071089713012
 30
0.0
  0
VERTEX
  5
39F
  8
DATA
  6
CONTINUOUS
 62
     7
 10
69.59848847859358
 20
110.1071089713011
 30
0.0
  0
SEQEND
  5
3A0
  8
DATA
  6
CONTINUOUS
 62
     7
  0
ARC
  5
175
  8
DATA
  6
CONTINUOUS
 62
     7
 10
69.319803918869724
 20
96.265625000102602
 30
0.0
 40
4.515625
 50
213.8550261282941
 51
326.14497387170587
  0
ARC
  5
176
  8
DATA
  6
CONTINUOUS
 62
     7
 10
90.680196080666946
 20
96.265625000102602
 30
0.0
 40
4.515625
 50
213.8550261282941
 51
326.14497387170587
  0
CIRCLE
  5
177
  8
DATA
  6
CONTINUOUS
 62
     7
 10
89.499999999768349
 20
265.24999999990098
 30
0.0
 40
3.5
  0
CIRCLE
  5
178
  8
DATA
  6
CONTINUOUS
 62
     7
 10
89.499999999768349
 20
265.24999999990098
 30
0.0
 40
0.5
  0
LINE
  5
179
  8
DATA
  6
CONTINUOUS
 62
     7
 10
81.499999999768335
 20
271.24999999990098
 30
0.0
 11
81.499999999768335
 21
258.24999999990109
 31
0.0
  0
LINE
  5
17A
  8
DATA
  6
CONTINUOUS
 62
     7
 10
81.499999999768335
 20
271.24999999990098
 30
0.0
 11
64.799999999768318
 21
271.24999999990098
 31
0.0
  0
LINE
  5
17B
  8
DATA
  6
CONTINUOUS
 62
     7
 10
64.799999999768318
 20
271.24999999990098
 30
0.0
 11
64.799999999768318
 21
258.24999999990109
 31
0.0
  0
LINE
  5
17C
  8
DATA
  6
CONTINUOUS
 62
     7
 10
81.499999999768335
 20
258.24999999990109
 30
0.0
 11
64.799999999768318
 21
258.24999999990109
 31
0.0
  0
LINE
  5
17D
  8
DATA
  6
CONTINUOUS
 62
     7
 10
79.499999999768349
 20
269.24999999990098
 30
0.0
 11
66.799999999768318
 21
269.24999999990098
 31
0.0
  0
LINE
  5
17E
  8
DATA
  6
CONTINUOUS
 62
     7
 10
66.799999999768318
 20
269.24999999990098
 30
0.0
 11
66.799999999768318
 21
261.99999999990098
 31
0.0
  0
LINE
  5
17F
  8
DATA
  6
CONTINUOUS
 62
     7
 10
79.499999999768349
 20
269.24999999990098
 30
0.0
 11
79.499999999768349
 21
261.99999999990098
 31
0.0
  0
LINE
  5
180
  8
DATA
  6
CONTINUOUS
 62
     7
 10
79.499999999768349
 20
261.99999999990098
 30
0.0
 11
76.499999999768335
 21
261.99999999990098
 31
0.0
  0
LINE
  5
181
  8
DATA
  6
CONTINUOUS
 62
     7
 10
69.799999999768318
 20
261.99999999990098
 30
0.0
 11
66.799999999768318
 21
261.99999999990098
 31
0.0
  0
LINE
  5
182
  8
DATA
  6
CONTINUOUS
 62
     7
 10
69.799999999768318
 20
261.99999999990098
 30
0.0
 11
69.799999999768318
 21
258.24999999990109
 31
0.0
  0
LINE
  5
183
  8
DATA
  6
CONTINUOUS
 62
     7
 10
76.499999999768335
 20
261.99999999990098
 30
0.0
 11
76.499999999768335
 21
258.24999999990109
 31
0.0
  0
TEXT
  5
184
  8
DATA
 62
     7
 10
68.99164918348616
 20
234.47540263223621
 30
0.0
 40
2.8097509765624999
  1
PW
 50
180.0
 41
0.7
 11
68.99164918348616
 21
231.66565165567371
 31
0.0
 73
     3
  0
LINE
  5
185
  8
DATA
  6
CONTINUOUS
 62
     7
 10
64.799999999768318
 20
259.14999999989641
 30
0.0
 11
69.799999999768318
 21
259.14999999989641
 31
0.0
  0
LINE
  5
186
  8
DATA
  6
CONTINUOUS
 62
     7
 10
76.499999999768335
 20
259.14999999989641
 30
0.0
 11
81.499999999768335
 21
259.14999999989641
 31
0.0
  0
TEXT
  5
187
  8
DATA
 62
     7
 10
81.835382421187049
 20
234.47540263223621
 30
0.0
 40
2.8097509765624999
  1
G.L
 50
180.0
 41
0.7
 11
81.835382421187049
 21
231.66565165567371
 31
0.0
 73
     3
  0
TEXT
  5
188
  8
DATA
 62
     7
 10
96.612349456046246
 20
234.47540263223621
 30
0.0
 40
2.8097509765624999
  1
+5 Vdc
 50
180.0
 41
0.7
 11
96.612349456046246
 21
231.66565165567371
 31
0.0
 73
     3
  0
TEXT
  5
189
  8
DATA
 62
     7
 10
77.777776937362304
 20
229.8163633319131
 30
0.0
 40
2.8097509765624999
  1
CAT-5
 50
180.0
 41
0.7
 11
77.777776937362304
 21
227.0066123553506
 31
0.0
 73
     3
  0
LINE
  5
18A
  8
DATA
  6
CONTINUOUS
 62
     7
 10
94.510072037143786
 20
139.7499999999026
 30
0.0
 11
94.510072037143786
 21
143.7499999999026
 31
0.0
  0
LINE
  5
18B
  8
DATA
  6
CONTINUOUS
 62
     7
 10
89.833534856707701
 20
139.7499999999026
 30
0.0
 11
89.833534856707701
 21
143.7499999999026
 31
0.0
  0
LINE
  5
18C
  8
DATA
  6
CONTINUOUS
 62
     7
 10
69.51007203714353
 20
139.7499999999026
 30
0.0
 11
69.51007203714353
 21
143.7499999999026
 31
0.0
  0
LINE
  5
18D
  8
DATA
  6
CONTINUOUS
 62
     7
 10
64.833534856707445
 20
139.7499999999026
 30
0.0
 11
64.833534856707445
 21
143.7499999999026
 31
0.0
  0
LINE
  5
18E
  8
DATA
  6
CONTINUOUS
 62
     7
 10
88.090501801551341
 20
139.7499999999026
 30
0.0
 11
88.090501801551341
 21
143.7499999999026
 31
0.0
  0
LINE
  5
18F
  8
DATA
  6
CONTINUOUS
 62
     7
 10
71.190501801551335
 20
139.7499999999026
 30
0.0
 11
71.190501801551335
 21
143.7499999999026
 31
0.0
  0
ARC
  5
190
  8
DATA
  6
CONTINUOUS
 62
     7
 10
133.98437499976831
 20
149.54185928797759
 30
0.0
 40
4.5156249999999849
 50
303.85502612829418
 51
56.144973871705957
  0
ARC
  5
191
  8
DATA
  6
CONTINUOUS
 62
     7
 10
133.98437499976831
 20
230.95814071182761
 30
0.0
 40
4.5156249999999982
 50
303.85502612829413
 51
56.144973871705943
  0
ARC
  5
192
  8
DATA
  6
CONTINUOUS
 62
     7
 10
69.319803918869724
 20
277.73437499969361
 30
0.0
 40
4.515625
 50
33.855026128294092
 51
146.1449738717059
  0
ARC
  5
193
  8
DATA
  6
CONTINUOUS
 62
     7
 10
90.680196080666946
 20
277.73437499969361
 30
0.0
 40
4.515625
 50
33.855026128294092
 51
146.1449738717059
  0
TEXT
  5
194
  8
DATA
 62
     7
 10
70.647171945255906
 20
70.4584744885844
 30
0.0
 40
4.072102864583333
  1
センダー
 41
0.7
 11
70.647171945255906
 21
74.530577353167729
 31
0.0
 73
     3
  0
LINE
  5
195
  8
DATA
  6
CONTINUOUS
 62
     7
 10
123.7036497772054
 20
139.7499999999026
 30
0.0
 11
123.7036497772054
 21
143.7499999999026
 31
0.0
  0
LINE
  5
196
  8
DATA
  6
CONTINUOUS
 62
     7
 10
119.0271125967693
 20
139.7499999999026
 30
0.0
 11
119.0271125967693
 21
143.7499999999026
 31
0.0
  0
LINE
  5
197
  8
DATA
  6
CONTINUOUS
 62
     7
 10
116.87499999986829
 20
139.7499999999026
 30
0.0
 11
116.87499999986829
 21
143.7499999999026
 31
0.0
  0
LINE
  5
198
  8
DATA
  6
CONTINUOUS
 62
     7
 10
126.12499999986829
 20
143.7499999999026
 30
0.0
 11
126.12499999986829
 21
139.7499999999026
 31
0.0
  0
LINE
  5
199
  8
DATA
  6
CONTINUOUS
 62
     7
 10
187.50000000021089
 20
143.74999999950259
 30
0.0
 11
187.50000000021089
 21
236.74999999950259
 31
0.0
  0
LINE
  5
19A
  8
DATA
  6
CONTINUOUS
 62
     7
 10
222.500000000211
 20
143.74999999950259
 30
0.0
 11
187.50000000021089
 21
143.74999999950259
 31
0.0
  0
LINE
  5
19B
  8
DATA
  6
CONTINUOUS
 62
     7
 10
222.500000000211
 20
236.74999999950259
 30
0.0
 11
222.500000000211
 21
143.74999999950259
 31
0.0
  0
LINE
  5
19C
  8
DATA
  6
CONTINUOUS
 62
     7
 10
187.50000000021089
 20
236.74999999950259
 30
0.0
 11
222.500000000211
 21
236.74999999950259
 31
0.0
  0
LINE
  5
19D
  8
DATA
  6
CONTINUOUS
 62
     7
 10
237.49999999961099
 20
143.74999999950259
 30
0.0
 11
237.49999999961099
 21
236.74999999950259
 31
0.0
  0
LINE
  5
19E
  8
DATA
  6
CONTINUOUS
 62
     7
 10
261.49999999961091
 20
143.74999999950259
 30
0.0
 11
237.49999999961099
 21
143.74999999950259
 31
0.0
  0
LINE
  5
19F
  8
DATA
  6
CONTINUOUS
 62
     7
 10
261.49999999961091
 20
236.74999999950259
 30
0.0
 11
261.49999999961091
 21
143.74999999950259
 31
0.0
  0
LINE
  5
1A0
  8
DATA
  6
CONTINUOUS
 62
     7
 10
237.49999999961099
 20
236.74999999950259
 30
0.0
 11
261.49999999961091
 21
236.74999999950259
 31
0.0
  0
TEXT
  5
1A1
  8
DATA
 62
     7
 10
200.677106198486
 20
196.0971964899687
 30
0.0
 40
7.3297851562499989
  1
VGASR
 50
90.0
 41
0.7
 11
193.34732104223599
 21
196.0971964899687
 31
0.0
 73
     3
  0
TEXT
  5
1A2
  8
DATA
 62
     7
 10
216.71663556925159
 20
194.26812844909281
 30
0.0
 40
4.072102864583333
  1
extender
 50
90.0
 41
0.7
 11
212.64453270466819
 21
194.26812844909281
 31
0.0
 73
     3
  0
TEXT
  5
1A3
  8
DATA
 62
     7
 10
217.39990695234309
 20
216.72991352170419
 30
0.0
 40
4.8865234374999993
  1
R
 50
90.0
 41
0.7
 11
212.5133835148431
 21
216.72991352170419
 31
0.0
 73
     3
  0
TEXT
  5
1A4
  8
DATA
 62
     7
 10
211.10995378731491
 20
233.00302173365489
 30
0.0
 40
2.8097509765624999
  1
VGA Out
 50
180.0
 41
0.7
 11
211.10995378731491
 21
230.19327075709231
 31
0.0
 73
     3
  0
ARC
  5
1A5
  8
DATA
  6
CONTINUOUS
 62
     7
 10
258.98437499951098
 20
149.54185928757761
 30
0.0
 40
4.5156249999999929
 50
303.85502612829413
 51
56.144973871706043
  0
ARC
  5
1A6
  8
DATA
  6
CONTINUOUS
 62
     7
 10
258.98437499951098
 20
230.9581407114276
 30
0.0
 40
4.5156249999999956
 50
303.85502612829413
 51
56.14497387170578
  0
LINE
  5
1A7
  8
DATA
  6
CONTINUOUS
 62
     7
 10
187.50000000021089
 20
280.2499999994962
 30
0.0
 11
187.50000000021089
 21
257.74999999949642
 31
0.0
  0
LINE
  5
1A8
  8
DATA
  6
CONTINUOUS
 62
     7
 10
222.500000000211
 20
280.2499999994962
 30
0.0
 11
211.500000000211
 21
280.2499999994962
 31
0.0
  0
LINE
  5
1A9
  8
DATA
  6
CONTINUOUS
 62
     7
 10
198.50000000021089
 20
280.2499999994962
 30
0.0
 11
187.50000000021089
 21
280.2499999994962
 31
0.0
  0
LINE
  5
1AA
  8
DATA
  6
CONTINUOUS
 62
     7
 10
222.500000000211
 20
257.74999999949642
 30
0.0
 11
222.500000000211
 21
280.2499999994962
 31
0.0
  0
LINE
  5
1AB
  8
DATA
  6
CONTINUOUS
 62
     7
 10
189.00000000021089
 20
256.24999999949642
 30
0.0
 11
221.000000000211
 21
256.24999999949642
 31
0.0
  0
LINE
  5
1AC
  8
DATA
  6
CONTINUOUS
 62
     7
 10
187.50000000021089
 20
279.24999999949631
 30
0.0
 11
222.500000000211
 21
279.24999999949631
 31
0.0
  0
LINE
  5
1AD
  8
DATA
  6
CONTINUOUS
 62
     7
 10
198.50000000021089
 20
280.2499999994962
 30
0.0
 11
198.50000000021089
 21
279.24999999949631
 31
0.0
  0
LINE
  5
1AE
  8
DATA
  6
CONTINUOUS
 62
     7
 10
211.500000000211
 20
279.24999999949631
 30
0.0
 11
211.500000000211
 21
280.2499999994962
 31
0.0
  0
POLYLINE
  5
1AF
  8
DATA
  6
CONTINUOUS
 62
     7
 66
     1
 10
0.0
 20
0.0
 30
0.0
 70
   129
  0
VERTEX
  5
3A1
  8
DATA
  6
CONTINUOUS
 62
     7
 10
207.7089723573857
 20
265.22518133668882
 30
0.0
 42
-0.4142135623730951
  0
VERTEX
  5
3A2
  8
DATA
  6
CONTINUOUS
 62
     7
 10
208.2089723573857
 20
265.72518133668882
 30
0.0
 42
-0.4142135623730951
  0
VERTEX
  5
3A3
  8
DATA
  6
CONTINUOUS
 62
     7
 10
208.7089723573857
 20
265.22518133668882
 30
0.0
 42
-0.4142135623730951
  0
VERTEX
  5
3A4
  8
DATA
  6
CONTINUOUS
 62
     7
 10
208.2089723573857
 20
264.72518133668882
 30
0.0
 42
-0.4142135623730951
  0
VERTEX
  5
3A5
  8
DATA
  6
CONTINUOUS
 62
     7
 10
207.7089723573857
 20
265.22518133668882
 30
0.0
  0
SEQEND
  5
3A6
  8
DATA
  6
CONTINUOUS
 62
     7
  0
LINE
  5
1B6
  8
DATA
  6
CONTINUOUS
 62
     7
 10
198.278918243444
 20
261.0551813366888
 30
0.0
 11
211.17891824344409
 21
261.0551813366888
 31
0.0
  0
LINE
  5
1B7
  8
DATA
  6
CONTINUOUS
 62
     7
 10
198.65548824344401
 20
269.39518133668878
 30
0.0
 11
210.8023582434441
 21
269.39518133668878
 31
0.0
  0
POLYLINE
  5
1B8
  8
DATA
  6
CONTINUOUS
 62
     7
 66
     1
 10
0.0
 20
0.0
 30
0.0
 70
   129
  0
VERTEX
  5
3A7
  8
DATA
  6
CONTINUOUS
 62
     7
 10
205.4289723573857
 20
265.22518133668882
 30
0.0
 42
-0.4142135623730951
  0
VERTEX
  5
3A8
  8
DATA
  6
CONTINUOUS
 62
     7
 10
205.9289723573857
 20
265.72518133668882
 30
0.0
 42
-0.4142135623730951
  0
VERTEX
  5
3A9
  8
DATA
  6
CONTINUOUS
 62
     7
 10
206.4289723573857
 20
265.22518133668882
 30
0.0
 42
-0.4142135623730951
  0
VERTEX
  5
3AA
  8
DATA
  6
CONTINUOUS
 62
     7
 10
205.9289723573857
 20
264.72518133668882
 30
0.0
 42
-0.4142135623730951
  0
VERTEX
  5
3AB
  8
DATA
  6
CONTINUOUS
 62
     7
 10
205.4289723573857
 20
265.22518133668882
 30
0.0
  0
SEQEND
  5
3AC
  8
DATA
  6
CONTINUOUS
 62
     7
  0
POLYLINE
  5
1BF
  8
DATA
  6
CONTINUOUS
 62
     7
 66
     1
 10
0.0
 20
0.0
 30
0.0
 70
   129
  0
VERTEX
  5
3AD
  8
DATA
  6
CONTINUOUS
 62
     7
 10
199.92690381305951
 20
267.20518133668878
 30
0.0
 42
-0.4142135623730992
  0
VERTEX
  5
3AE
  8
DATA
  6
CONTINUOUS
 62
     7
 10
200.4269038130596
 20
267.7051813366889
 30
0.0
 42
-0.4142135623730868
  0
VERTEX
  5
3AF
  8
DATA
  6
CONTINUOUS
 62
     7
 10
200.9269038130596
 20
267.20518133668878
 30
0.0
 42
-0.4142135623731076
  0
VERTEX
  5
3B0
  8
DATA
  6
CONTINUOUS
 62
     7
 10
200.4269038130596
 20
266.70518133668878
 30
0.0
 42
-0.4142135623730868
  0
VERTEX
  5
3B1
  8
DATA
  6
CONTINUOUS
 62
     7
 10
199.92690381305951
 20
267.20518133668878
 30
0.0
  0
SEQEND
  5
3B2
  8
DATA
  6
CONTINUOUS
 62
     7
  0
POLYLINE
  5
1C6
  8
DATA
  6
CONTINUOUS
 62
     7
 66
     1
 10
0.0
 20
0.0
 30
0.0
 70
   129
  0
VERTEX
  5
3B3
  8
DATA
  6
CONTINUOUS
 62
     7
 10
202.21690381305959
 20
267.20518133668878
 30
0.0
 42
-0.414213562373091
  0
VERTEX
  5
3B4
  8
DATA
  6
CONTINUOUS
 62
     7
 10
202.71690381305959
 20
267.7051813366889
 30
0.0
 42
-0.414213562373091
  0
VERTEX
  5
3B5
  8
DATA
  6
CONTINUOUS
 62
     7
 10
203.21690381305959
 20
267.20518133668878
 30
0.0
 42
-0.4142135623730992
  0
VERTEX
  5
3B6
  8
DATA
  6
CONTINUOUS
 62
     7
 10
202.71690381305959
 20
266.70518133668878
 30
0.0
 42
-0.4142135623730951
  0
VERTEX
  5
3B7
  8
DATA
  6
CONTINUOUS
 62
     7
 10
202.21690381305959
 20
267.20518133668878
 30
0.0
  0
SEQEND
  5
3B8
  8
DATA
  6
CONTINUOUS
 62
     7
  0
POLYLINE
  5
1CD
  8
DATA
  6
CONTINUOUS
 62
     7
 66
     1
 10
0.0
 20
0.0
 30
0.0
 70
   129
  0
VERTEX
  5
3B9
  8
DATA
  6
CONTINUOUS
 62
     7
 10
204.50690381305961
 20
267.20518133668878
 30
0.0
 42
-0.4142135623730992
  0
VERTEX
  5
3BA
  8
DATA
  6
CONTINUOUS
 62
     7
 10
205.00690381305961
 20
267.7051813366889
 30
0.0
 42
-0.4142135623730868
  0
VERTEX
  5
3BB
  8
DATA
  6
CONTINUOUS
 62
     7
 10
205.50690381305961
 20
267.20518133668878
 30
0.0
 42
-0.4142135623731076
  0
VERTEX
  5
3BC
  8
DATA
  6
CONTINUOUS
 62
     7
 10
205.00690381305961
 20
266.70518133668878
 30
0.0
 42
-0.4142135623730868
  0
VERTEX
  5
3BD
  8
DATA
  6
CONTINUOUS
 62
     7
 10
204.50690381305961
 20
267.20518133668878
 30
0.0
  0
SEQEND
  5
3BE
  8
DATA
  6
CONTINUOUS
 62
     7
  0
POLYLINE
  5
1D4
  8
DATA
  6
CONTINUOUS
 62
     7
 66
     1
 10
0.0
 20
0.0
 30
0.0
 70
   129
  0
VERTEX
  5
3BF
  8
DATA
  6
CONTINUOUS
 62
     7
 10
206.78690381305969
 20
267.20518133668878
 30
0.0
 42
-0.4142135623731035
  0
VERTEX
  5
3C0
  8
DATA
  6
CONTINUOUS
 62
     7
 10
207.28690381305969
 20
267.7051813366889
 30
0.0
 42
-0.4142135623730868
  0
VERTEX
  5
3C1
  8
DATA
  6
CONTINUOUS
 62
     7
 10
207.78690381305969
 20
267.20518133668878
 30
0.0
 42
-0.4142135623731035
  0
VERTEX
  5
3C2
  8
DATA
  6
CONTINUOUS
 62
     7
 10
207.28690381305969
 20
266.70518133668878
 30
0.0
 42
-0.4142135623730868
  0
VERTEX
  5
3C3
  8
DATA
  6
CONTINUOUS
 62
     7
 10
206.78690381305969
 20
267.20518133668878
 30
0.0
  0
SEQEND
  5
3C4
  8
DATA
  6
CONTINUOUS
 62
     7
  0
POLYLINE
  5
1DB
  8
DATA
  6
CONTINUOUS
 62
     7
 66
     1
 10
0.0
 20
0.0
 30
0.0
 70
   129
  0
VERTEX
  5
3C5
  8
DATA
  6
CONTINUOUS
 62
     7
 10
199.92690381305951
 20
263.2451813366888
 30
0.0
 42
-0.4142135623730951
  0
VERTEX
  5
3C6
  8
DATA
  6
CONTINUOUS
 62
     7
 10
200.4269038130596
 20
263.7451813366888
 30
0.0
 42
-0.4142135623730951
  0
VERTEX
  5
3C7
  8
DATA
  6
CONTINUOUS
 62
     7
 10
200.9269038130596
 20
263.2451813366888
 30
0.0
 42
-0.4142135623730951
  0
VERTEX
  5
3C8
  8
DATA
  6
CONTINUOUS
 62
     7
 10
200.4269038130596
 20
262.7451813366888
 30
0.0
 42
-0.4142135623730951
  0
VERTEX
  5
3C9
  8
DATA
  6
CONTINUOUS
 62
     7
 10
199.92690381305951
 20
263.2451813366888
 30
0.0
  0
SEQEND
  5
3CA
  8
DATA
  6
CONTINUOUS
 62
     7
  0
POLYLINE
  5
1E2
  8
DATA
  6
CONTINUOUS
 62
     7
 66
     1
 10
0.0
 20
0.0
 30
0.0
 70
   129
  0
VERTEX
  5
3CB
  8
DATA
  6
CONTINUOUS
 62
     7
 10
202.21690381305959
 20
263.2451813366888
 30
0.0
 42
-0.4142135623730951
  0
VERTEX
  5
3CC
  8
DATA
  6
CONTINUOUS
 62
     7
 10
202.71690381305959
 20
263.7451813366888
 30
0.0
 42
-0.4142135623731035
  0
VERTEX
  5
3CD
  8
DATA
  6
CONTINUOUS
 62
     7
 10
203.21690381305959
 20
263.2451813366888
 30
0.0
 42
-0.4142135623730868
  0
VERTEX
  5
3CE
  8
DATA
  6
CONTINUOUS
 62
     7
 10
202.71690381305959
 20
262.7451813366888
 30
0.0
 42
-0.4142135623730992
  0
VERTEX
  5
3CF
  8
DATA
  6
CONTINUOUS
 62
     7
 10
202.21690381305959
 20
263.2451813366888
 30
0.0
  0
SEQEND
  5
3D0
  8
DATA
  6
CONTINUOUS
 62
     7
  0
POLYLINE
  5
1E9
  8
DATA
  6
CONTINUOUS
 62
     7
 66
     1
 10
0.0
 20
0.0
 30
0.0
 70
   129
  0
VERTEX
  5
3D1
  8
DATA
  6
CONTINUOUS
 62
     7
 10
204.50690381305961
 20
263.2451813366888
 30
0.0
 42
-0.4142135623730951
  0
VERTEX
  5
3D2
  8
DATA
  6
CONTINUOUS
 62
     7
 10
205.00690381305961
 20
263.7451813366888
 30
0.0
 42
-0.4142135623730951
  0
VERTEX
  5
3D3
  8
DATA
  6
CONTINUOUS
 62
     7
 10
205.50690381305961
 20
263.2451813366888
 30
0.0
 42
-0.4142135623730951
  0
VERTEX
  5
3D4
  8
DATA
  6
CONTINUOUS
 62
     7
 10
205.00690381305961
 20
262.7451813366888
 30
0.0
 42
-0.4142135623730951
  0
VERTEX
  5
3D5
  8
DATA
  6
CONTINUOUS
 62
     7
 10
204.50690381305961
 20
263.2451813366888
 30
0.0
  0
SEQEND
  5
3D6
  8
DATA
  6
CONTINUOUS
 62
     7
  0
POLYLINE
  5
1F0
  8
DATA
  6
CONTINUOUS
 62
     7
 66
     1
 10
0.0
 20
0.0
 30
0.0
 70
   129
  0
VERTEX
  5
3D7
  8
DATA
  6
CONTINUOUS
 62
     7
 10
206.78690381305969
 20
263.2451813366888
 30
0.0
 42
-0.4142135623730951
  0
VERTEX
  5
3D8
  8
DATA
  6
CONTINUOUS
 62
     7
 10
207.28690381305969
 20
263.7451813366888
 30
0.0
 42
-0.4142135623730951
  0
VERTEX
  5
3D9
  8
DATA
  6
CONTINUOUS
 62
     7
 10
207.78690381305969
 20
263.2451813366888
 30
0.0
 42
-0.4142135623730951
  0
VERTEX
  5
3DA
  8
DATA
  6
CONTINUOUS
 62
     7
 10
207.28690381305969
 20
262.7451813366888
 30
0.0
 42
-0.4142135623730951
  0
VERTEX
  5
3DB
  8
DATA
  6
CONTINUOUS
 62
     7
 10
206.78690381305969
 20
263.2451813366888
 30
0.0
  0
SEQEND
  5
3DC
  8
DATA
  6
CONTINUOUS
 62
     7
  0
POLYLINE
  5
1F7
  8
DATA
  6
CONTINUOUS
 62
     7
 66
     1
 10
0.0
 20
0.0
 30
0.0
 70
   129
  0
VERTEX
  5
3DD
  8
DATA
  6
CONTINUOUS
 62
     7
 10
198.5689723573856
 20
265.22518133668882
 30
0.0
 42
-0.4142135623730951
  0
VERTEX
  5
3DE
  8
DATA
  6
CONTINUOUS
 62
     7
 10
199.0689723573856
 20
265.72518133668882
 30
0.0
 42
-0.4142135623730951
  0
VERTEX
  5
3DF
  8
DATA
  6
CONTINUOUS
 62
     7
 10
199.5689723573856
 20
265.22518133668882
 30
0.0
 42
-0.4142135623730951
  0
VERTEX
  5
3E0
  8
DATA
  6
CONTINUOUS
 62
     7
 10
199.0689723573856
 20
264.72518133668882
 30
0.0
 42
-0.4142135623730951
  0
VERTEX
  5
3E1
  8
DATA
  6
CONTINUOUS
 62
     7
 10
198.5689723573856
 20
265.22518133668882
 30
0.0
  0
SEQEND
  5
3E2
  8
DATA
  6
CONTINUOUS
 62
     7
  0
POLYLINE
  5
1FE
  8
DATA
  6
CONTINUOUS
 62
     7
 66
     1
 10
0.0
 20
0.0
 30
0.0
 70
   129
  0
VERTEX
  5
3E3
  8
DATA
  6
CONTINUOUS
 62
     7
 10
200.84897235738569
 20
265.22518133668882
 30
0.0
 42
-0.4142135623730868
  0
VERTEX
  5
3E4
  8
DATA
  6
CONTINUOUS
 62
     7
 10
201.34897235738569
 20
265.72518133668882
 30
0.0
 42
-0.4142135623730992
  0
VERTEX
  5
3E5
  8
DATA
  6
CONTINUOUS
 62
     7
 10
201.84897235738569
 20
265.22518133668882
 30
0.0
 42
-0.4142135623730951
  0
VERTEX
  5
3E6
  8
DATA
  6
CONTINUOUS
 62
     7
 10
201.34897235738569
 20
264.72518133668882
 30
0.0
 42
-0.4142135623731035
  0
VERTEX
  5
3E7
  8
DATA
  6
CONTINUOUS
 62
     7
 10
200.84897235738569
 20
265.22518133668882
 30
0.0
  0
SEQEND
  5
3E8
  8
DATA
  6
CONTINUOUS
 62
     7
  0
POLYLINE
  5
205
  8
DATA
  6
CONTINUOUS
 62
     7
 66
     1
 10
0.0
 20
0.0
 30
0.0
 70
   129
  0
VERTEX
  5
3E9
  8
DATA
  6
CONTINUOUS
 62
     7
 10
203.13897235738571
 20
265.22518133668882
 30
0.0
 42
-0.4142135623730951
  0
VERTEX
  5
3EA
  8
DATA
  6
CONTINUOUS
 62
     7
 10
203.63897235738571
 20
265.72518133668882
 30
0.0
 42
-0.4142135623731035
  0
VERTEX
  5
3EB
  8
DATA
  6
CONTINUOUS
 62
     7
 10
204.13897235738571
 20
265.22518133668882
 30
0.0
 42
-0.4142135623730868
  0
VERTEX
  5
3EC
  8
DATA
  6
CONTINUOUS
 62
     7
 10
203.63897235738571
 20
264.72518133668882
 30
0.0
 42
-0.4142135623730992
  0
VERTEX
  5
3ED
  8
DATA
  6
CONTINUOUS
 62
     7
 10
203.13897235738571
 20
265.22518133668882
 30
0.0
  0
SEQEND
  5
3EE
  8
DATA
  6
CONTINUOUS
 62
     7
  0
POLYLINE
  5
20C
  8
DATA
  6
CONTINUOUS
 62
     7
 66
     1
 10
0.0
 20
0.0
 30
0.0
 70
   129
  0
VERTEX
  5
3EF
  8
DATA
  6
CONTINUOUS
 62
     7
 10
209.0769038130596
 20
267.20518133668878
 30
0.0
 42
-0.4142135623731076
  0
VERTEX
  5
3F0
  8
DATA
  6
CONTINUOUS
 62
     7
 10
209.5769038130596
 20
267.7051813366889
 30
0.0
 42
-0.4142135623730868
  0
VERTEX
  5
3F1
  8
DATA
  6
CONTINUOUS
 62
     7
 10
210.0769038130596
 20
267.20518133668878
 30
0.0
 42
-0.4142135623730992
  0
VERTEX
  5
3F2
  8
DATA
  6
CONTINUOUS
 62
     7
 10
209.5769038130596
 20
266.70518133668878
 30
0.0
 42
-0.4142135623730868
  0
VERTEX
  5
3F3
  8
DATA
  6
CONTINUOUS
 62
     7
 10
209.0769038130596
 20
267.20518133668878
 30
0.0
  0
SEQEND
  5
3F4
  8
DATA
  6
CONTINUOUS
 62
     7
  0
POLYLINE
  5
213
  8
DATA
  6
CONTINUOUS
 62
     7
 66
     1
 10
0.0
 20
0.0
 30
0.0
 70
   129
  0
VERTEX
  5
3F5
  8
DATA
  6
CONTINUOUS
 62
     7
 10
209.0769038130596
 20
263.2451813366888
 30
0.0
 42
-0.4142135623730951
  0
VERTEX
  5
3F6
  8
DATA
  6
CONTINUOUS
 62
     7
 10
209.5769038130596
 20
263.7451813366888
 30
0.0
 42
-0.4142135623730951
  0
VERTEX
  5
3F7
  8
DATA
  6
CONTINUOUS
 62
     7
 10
210.0769038130596
 20
263.2451813366888
 30
0.0
 42
-0.4142135623730951
  0
VERTEX
  5
3F8
  8
DATA
  6
CONTINUOUS
 62
     7
 10
209.5769038130596
 20
262.7451813366888
 30
0.0
 42
-0.4142135623730951
  0
VERTEX
  5
3F9
  8
DATA
  6
CONTINUOUS
 62
     7
 10
209.0769038130596
 20
263.2451813366888
 30
0.0
  0
SEQEND
  5
3FA
  8
DATA
  6
CONTINUOUS
 62
     7
  0
ARC
  5
21A
  8
DATA
  6
CONTINUOUS
 62
     7
 10
198.65548824344401
 20
267.89518133668889
 30
0.0
 40
1.499998001665318
 50
90.0
 51
170.0000744503985
  0
ARC
  5
21B
  8
DATA
  6
CONTINUOUS
 62
     7
 10
198.278918243444
 20
263.0551813366888
 30
0.0
 40
2.0
 50
180.0
 51
270.0
  0
LINE
  5
21C
  8
DATA
  6
CONTINUOUS
 62
     7
 10
196.278918243444
 20
263.0551813366888
 30
0.0
 11
197.17826824344399
 21
268.15565133668889
 31
0.0
  0
ARC
  5
21D
  8
DATA
  6
CONTINUOUS
 62
     7
 10
210.8023582434441
 20
267.89518133668889
 30
0.0
 40
1.499999999999994
 50
9.9999255496009685
 51
90.0
  0
ARC
  5
21E
  8
DATA
  6
CONTINUOUS
 62
     7
 10
211.17891824344409
 20
263.0551813366888
 30
0.0
 40
2.0000000000000071
 50
270.0
 51
0.0
  0
LINE
  5
21F
  8
DATA
  6
CONTINUOUS
 62
     7
 10
213.17891824344409
 20
263.0551813366888
 30
0.0
 11
212.27956824344409
 21
268.15565133668889
 31
0.0
  0
CIRCLE
  5
220
  8
DATA
  6
CONTINUOUS
 62
     7
 10
217.26021988881851
 20
265.24289102829778
 30
0.0
 40
1.1750000000001251
  0
POLYLINE
  5
221
  8
DATA
  6
CONTINUOUS
 62
     7
 66
     1
 10
0.0
 20
0.0
 30
0.0
 70
     1
  0
VERTEX
  5
3FB
  8
DATA
  6
CONTINUOUS
 62
     7
 10
217.26021988881851
 20
262.5428910282979
 30
0.0
  0
VERTEX
  5
3FC
  8
DATA
  6
CONTINUOUS
 62
     7
 10
214.92195129860039
 20
263.89289102829781
 30
0.0
  0
VERTEX
  5
3FD
  8
DATA
  6
CONTINUOUS
 62
     7
 10
214.92195129860039
 20
266.5928910282978
 30
0.0
  0
VERTEX
  5
3FE
  8
DATA
  6
CONTINUOUS
 62
     7
 10
217.26021988881851
 20
267.94289102829782
 30
0.0
  0
VERTEX
  5
3FF
  8
DATA
  6
CONTINUOUS
 62
     7
 10
219.5984884790366
 20
266.5928910282978
 30
0.0
  0
VERTEX
  5
400
  8
DATA
  6
CONTINUOUS
 62
     7
 10
219.5984884790366
 20
263.89289102829781
 30
0.0
  0
SEQEND
  5
401
  8
DATA
  6
CONTINUOUS
 62
     7
  0
CIRCLE
  5
22A
  8
DATA
  6
CONTINUOUS
 62
     7
 10
192.26021988881811
 20
265.24289102829778
 30
0.0
 40
1.1750000000001251
  0
POLYLINE
  5
22B
  8
DATA
  6
CONTINUOUS
 62
     7
 66
     1
 10
0.0
 20
0.0
 30
0.0
 70
     1
  0
VERTEX
  5
402
  8
DATA
  6
CONTINUOUS
 62
     7
 10
192.26021988881811
 20
262.5428910282979
 30
0.0
  0
VERTEX
  5
403
  8
DATA
  6
CONTINUOUS
 62
     7
 10
189.92195129860011
 20
263.89289102829781
 30
0.0
  0
VERTEX
  5
404
  8
DATA
  6
CONTINUOUS
 62
     7
 10
189.92195129860011
 20
266.5928910282978
 30
0.0
  0
VERTEX
  5
405
  8
DATA
  6
CONTINUOUS
 62
     7
 10
192.26021988881811
 20
267.94289102829782
 30
0.0
  0
VERTEX
  5
406
  8
DATA
  6
CONTINUOUS
 62
     7
 10
194.59848847903621
 20
266.5928910282978
 30
0.0
  0
VERTEX
  5
407
  8
DATA
  6
CONTINUOUS
 62
     7
 10
194.59848847903621
 20
263.89289102829781
 30
0.0
  0
SEQEND
  5
408
  8
DATA
  6
CONTINUOUS
 62
     7
  0
ARC
  5
234
  8
DATA
  6
CONTINUOUS
 62
     7
 10
194.31980391931239
 20
277.73437499949631
 30
0.0
 40
4.5156250000000062
 50
33.855026128294043
 51
146.1449738717059
  0
ARC
  5
235
  8
DATA
  6
CONTINUOUS
 62
     7
 10
215.68019608110961
 20
277.73437499949631
 30
0.0
 40
4.5156249999999876
 50
33.855026128294192
 51
146.1449738717059
  0
LINE
  5
236
  8
DATA
  6
CONTINUOUS
 62
     7
 10
187.50000000021089
 20
93.749999999998195
 30
0.0
 11
187.50000000021089
 21
116.2499999999978
 31
0.0
  0
LINE
  5
237
  8
DATA
  6
CONTINUOUS
 62
     7
 10
222.500000000211
 20
93.749999999998195
 30
0.0
 11
211.500000000211
 21
93.749999999998195
 31
0.0
  0
LINE
  5
238
  8
DATA
  6
CONTINUOUS
 62
     7
 10
198.50000000021089
 20
93.749999999998195
 30
0.0
 11
187.50000000021089
 21
93.749999999998195
 31
0.0
  0
LINE
  5
239
  8
DATA
  6
CONTINUOUS
 62
     7
 10
222.500000000211
 20
116.2499999999978
 30
0.0
 11
222.500000000211
 21
93.749999999998195
 31
0.0
  0
LINE
  5
23A
  8
DATA
  6
CONTINUOUS
 62
     7
 10
189.00000000021089
 20
117.7499999999978
 30
0.0
 11
221.000000000211
 21
117.7499999999978
 31
0.0
  0
LINE
  5
23B
  8
DATA
  6
CONTINUOUS
 62
     7
 10
187.50000000021089
 20
94.749999999998224
 30
0.0
 11
222.500000000211
 21
94.749999999998224
 31
0.0
  0
LINE
  5
23C
  8
DATA
  6
CONTINUOUS
 62
     7
 10
198.50000000021089
 20
93.749999999998195
 30
0.0
 11
198.50000000021089
 21
94.749999999998224
 31
0.0
  0
LINE
  5
23D
  8
DATA
  6
CONTINUOUS
 62
     7
 10
211.500000000211
 20
94.749999999998224
 30
0.0
 11
211.500000000211
 21
93.749999999998195
 31
0.0
  0
LINE
  5
23E
  8
DATA
  6
CONTINUOUS
 62
     7
 10
220.20000000021099
 20
102.7499999999978
 30
0.0
 11
220.20000000021099
 21
115.7499999999978
 31
0.0
  0
LINE
  5
23F
  8
DATA
  6
CONTINUOUS
 62
     7
 10
220.20000000021099
 20
102.7499999999978
 30
0.0
 11
203.500000000211
 21
102.7499999999978
 31
0.0
  0
LINE
  5
240
  8
DATA
  6
CONTINUOUS
 62
     7
 10
203.500000000211
 20
102.7499999999978
 30
0.0
 11
203.500000000211
 21
115.7499999999978
 31
0.0
  0
LINE
  5
241
  8
DATA
  6
CONTINUOUS
 62
     7
 10
220.20000000021099
 20
115.7499999999978
 30
0.0
 11
203.500000000211
 21
115.7499999999978
 31
0.0
  0
LINE
  5
242
  8
DATA
  6
CONTINUOUS
 62
     7
 10
218.20000000021099
 20
104.7499999999978
 30
0.0
 11
205.500000000211
 21
104.7499999999978
 31
0.0
  0
LINE
  5
243
  8
DATA
  6
CONTINUOUS
 62
     7
 10
205.500000000211
 20
104.7499999999978
 30
0.0
 11
205.500000000211
 21
111.9999999999978
 31
0.0
  0
LINE
  5
244
  8
DATA
  6
CONTINUOUS
 62
     7
 10
218.20000000021099
 20
104.7499999999978
 30
0.0
 11
218.20000000021099
 21
111.9999999999978
 31
0.0
  0
LINE
  5
245
  8
DATA
  6
CONTINUOUS
 62
     7
 10
218.20000000021099
 20
111.9999999999978
 30
0.0
 11
215.20000000021099
 21
111.9999999999978
 31
0.0
  0
LINE
  5
246
  8
DATA
  6
CONTINUOUS
 62
     7
 10
208.500000000211
 20
111.9999999999978
 30
0.0
 11
205.500000000211
 21
111.9999999999978
 31
0.0
  0
LINE
  5
247
  8
DATA
  6
CONTINUOUS
 62
     7
 10
208.500000000211
 20
111.9999999999978
 30
0.0
 11
208.500000000211
 21
115.7499999999978
 31
0.0
  0
LINE
  5
248
  8
DATA
  6
CONTINUOUS
 62
     7
 10
215.20000000021099
 20
111.9999999999978
 30
0.0
 11
215.20000000021099
 21
115.7499999999978
 31
0.0
  0
LINE
  5
249
  8
DATA
  6
CONTINUOUS
 62
     7
 10
203.500000000211
 20
114.8500000000025
 30
0.0
 11
208.500000000211
 21
114.8500000000025
 31
0.0
  0
LINE
  5
24A
  8
DATA
  6
CONTINUOUS
 62
     7
 10
215.20000000021099
 20
114.8500000000025
 30
0.0
 11
220.20000000021099
 21
114.8500000000025
 31
0.0
  0
ARC
  5
24B
  8
DATA
  6
CONTINUOUS
 62
     7
 10
194.31980391931239
 20
96.265625000205148
 30
0.0
 40
4.515625
 50
213.8550261282941
 51
326.14497387170599
  0
ARC
  5
24C
  8
DATA
  6
CONTINUOUS
 62
     7
 10
215.68019608110961
 20
96.265625000205148
 30
0.0
 40
4.515625
 50
213.8550261282941
 51
326.14497387170582
  0
CIRCLE
  5
24D
  8
DATA
  6
CONTINUOUS
 62
     7
 10
191.90265041736879
 20
106.2099999997026
 30
0.0
 40
2.0
  0
LINE
  5
24E
  8
DATA
  6
CONTINUOUS
 62
     7
 10
190.75239165865329
 20
105.05974124098699
 30
0.0
 11
193.0529091760844
 21
107.3602587584181
 31
0.0
  0
LINE
  5
24F
  8
DATA
  6
CONTINUOUS
 62
     7
 10
193.05290917608451
 20
105.0597412409869
 30
0.0
 11
190.75239165865329
 21
107.3602587584182
 31
0.0
  0
CIRCLE
  5
250
  8
DATA
  6
CONTINUOUS
 62
     7
 10
199.20418613161101
 20
106.2099999997026
 30
0.0
 40
2.0
  0
LINE
  5
251
  8
DATA
  6
CONTINUOUS
 62
     7
 10
198.0539273728954
 20
105.05974124098699
 30
0.0
 11
200.35444489032659
 21
107.3602587584181
 31
0.0
  0
LINE
  5
252
  8
DATA
  6
CONTINUOUS
 62
     7
 10
200.35444489032659
 20
105.0597412409869
 30
0.0
 11
198.0539273728954
 21
107.3602587584182
 31
0.0
  0
LINE
  5
253
  8
DATA
  6
CONTINUOUS
 62
     7
 10
219.51007203758641
 20
240.74999999950259
 30
0.0
 11
219.51007203758641
 21
236.74999999916119
 31
0.0
  0
LINE
  5
254
  8
DATA
  6
CONTINUOUS
 62
     7
 10
214.8335348571504
 20
240.74999999950259
 30
0.0
 11
214.8335348571504
 21
236.74999999916119
 31
0.0
  0
LINE
  5
255
  8
DATA
  6
CONTINUOUS
 62
     7
 10
194.51007203758621
 20
240.74999999950259
 30
0.0
 11
194.51007203758621
 21
236.74999999916119
 31
0.0
  0
LINE
  5
256
  8
DATA
  6
CONTINUOUS
 62
     7
 10
189.83353485715011
 20
240.74999999950259
 30
0.0
 11
189.83353485715011
 21
236.74999999916119
 31
0.0
  0
LINE
  5
257
  8
DATA
  6
CONTINUOUS
 62
     7
 10
213.09050180199401
 20
240.74999999950259
 30
0.0
 11
213.09050180199401
 21
236.74999999916119
 31
0.0
  0
LINE
  5
258
  8
DATA
  6
CONTINUOUS
 62
     7
 10
196.19050180199389
 20
240.74999999950259
 30
0.0
 11
196.19050180199389
 21
236.74999999916119
 31
0.0
  0
TEXT
  5
259
  8
DATA
 62
     7
 10
216.0389166793322
 20
145.88724437883701
 30
0.0
 40
2.8097509765624999
  1
PW
 41
0.7
 11
216.0389166793322
 21
148.69699535539951
 31
0.0
 73
     3
  0
TEXT
  5
25A
  8
DATA
 62
     7
 10
202.8096535770365
 20
145.88724437883701
 30
0.0
 40
2.8097509765624999
  1
G.L
 41
0.7
 11
202.8096535770365
 21
148.69699535539951
 31
0.0
 73
     3
  0
TEXT
  5
25B
  8
DATA
 62
     7
 10
190.21735577488221
 20
145.88724437883701
 30
0.0
 40
2.8097509765624999
  1
FQ.
 41
0.7
 11
190.21735577488221
 21
148.69699535539951
 31
0.0
 73
     3
  0
TEXT
  5
25C
  8
DATA
 62
     7
 10
206.73874910599639
 20
150.5462836791603
 30
0.0
 40
2.8097509765624999
  1
CAT-5
 41
0.7
 11
206.73874910599639
 21
153.35603465572279
 31
0.0
 73
     3
  0
TEXT
  5
25D
  8
DATA
 62
     7
 10
197.43662052572969
 20
145.88724437883701
 30
0.0
 40
2.8097509765624999
  1
BR.
 41
0.7
 11
197.43662052572969
 21
148.69699535539951
 31
0.0
 73
     3
  0
TEXT
  5
25E
  8
DATA
 62
     7
 10
190.4803114515901
 20
70.248756577373683
 30
0.0
 40
4.072102864583333
  1
レシーバー
 41
0.7
 11
190.4803114515901
 21
74.320859441957012
 31
0.0
 73
     3
  0
LINE
  5
25F
  8
DATA
  6
CONTINUOUS
 62
     7
 10
244.2848981973427
 20
240.74999999950259
 30
0.0
 11
244.2848981973427
 21
236.7499999994634
 31
0.0
  0
LINE
  5
260
  8
DATA
  6
CONTINUOUS
 62
     7
 10
248.9614353777788
 20
240.74999999950259
 30
0.0
 11
248.9614353777788
 21
236.7499999994634
 31
0.0
  0
LINE
  5
261
  8
DATA
  6
CONTINUOUS
 62
     7
 10
251.11354797467979
 20
240.74999999950259
 30
0.0
 11
251.11354797467979
 21
236.7499999994634
 31
0.0
  0
LINE
  5
262
  8
DATA
  6
CONTINUOUS
 62
     7
 10
241.8635479746797
 20
236.7499999994634
 30
0.0
 11
241.8635479746797
 21
240.74999999950259
 31
0.0
  0
TEXT
  5
263
  8
DATA
 62
     7
 10
224.77500000000001
 20
31.606633065059562
 30
0.0
 40
3.664892578124999
  1
EXT-VGA-141SRN
 41
0.7
 11
224.77500000000001
 21
35.27152564318456
 31
0.0
 73
     3
  0
TEXT
  5
264
  8
DATA
 62
     7
 10
224.8320650654141
 20
43.516508316566217
 30
0.0
 40
3.664892578124999
  1
Gefen
 41
0.7
 11
224.8320650654141
 21
47.181400894691222
 31
0.0
 73
     3
  0
TEXT
  5
265
  8
DATA
 62
     7
 10
221.84999999999999
 20
37.983158215963527
 30
0.0
 40
2.4432617187500001
  1
VGA延長機
 41
0.7
 11
221.84999999999999
 21
40.426419934713522
 31
0.0
 73
     3
  0
ARC
  5
266
  8
DATA
  6
CONTINUOUS
 62
     7
 10
63.999999999768342
 20
116.2500000001026
 30
0.0
 40
1.5
 50
90.0
 51
180.0
  0
ARC
  5
267
  8
DATA
  6
CONTINUOUS
 62
     7
 10
95.999999999768349
 20
116.2500000001026
 30
0.0
 40
1.5
 50
0.0
 51
90.0
  0
ARC
  5
268
  8
DATA
  6
CONTINUOUS
 62
     7
 10
63.999999999768342
 20
257.74999999990098
 30
0.0
 40
1.5
 50
180.0
 51
270.0
  0
ARC
  5
269
  8
DATA
  6
CONTINUOUS
 62
     7
 10
95.999999999768349
 20
257.74999999990098
 30
0.0
 40
1.5
 50
270.0
 51
0.0
  0
ARC
  5
26A
  8
DATA
  6
CONTINUOUS
 62
     7
 10
189.00000000021089
 20
257.74999999949642
 30
0.0
 40
1.5
 50
180.0
 51
270.0
  0
ARC
  5
26B
  8
DATA
  6
CONTINUOUS
 62
     7
 10
221.000000000211
 20
257.74999999949642
 30
0.0
 40
1.5
 50
270.0
 51
0.0
  0
ARC
  5
26C
  8
DATA
  6
CONTINUOUS
 62
     7
 10
189.00000000021089
 20
116.2499999999978
 30
0.0
 40
1.5
 50
90.0
 51
180.0
  0
ARC
  5
26D
  8
DATA
  6
CONTINUOUS
 62
     7
 10
221.000000000211
 20
116.2499999999978
 30
0.0
 40
1.5
 50
0.0
 51
90.0
  0
LINE
  5
26E
  8
DATA
  6
CONTINUOUS
 62
     7
 10
62.152874734461669
 20
68.75
 30
0.0
 11
99.652874734461633
 21
68.75
 31
0.0
  0
LINE
  5
26F
  8
DATA
  6
CONTINUOUS
 62
     7
 10
188.95643303556699
 20
68.75
 30
0.0
 11
220.20643303556699
 21
68.75
 31
0.0
  0
LINE
  5
270
  8
DATA
  6
CONTINUOUS
 62
     7
 10
64.833534856707445
 20
139.7499999999026
 30
0.0
 11
69.51007203714353
 21
139.7499999999026
 31
0.0
  0
LINE
  5
271
  8
DATA
  6
CONTINUOUS
 62
     7
 10
71.190501801551335
 20
139.7499999999026
 30
0.0
 11
88.090501801551341
 21
139.7499999999026
 31
0.0
  0
LINE
  5
272
  8
DATA
  6
CONTINUOUS
 62
     7
 10
89.833534856707701
 20
139.7499999999026
 30
0.0
 11
94.510072037143786
 21
139.7499999999026
 31
0.0
  0
LINE
  5
273
  8
DATA
  6
CONTINUOUS
 62
     7
 10
116.87499999986829
 20
139.7499999999026
 30
0.0
 11
126.12499999986829
 21
139.7499999999026
 31
0.0
  0
LINE
  5
274
  8
DATA
  6
CONTINUOUS
 62
     7
 10
189.83353485715011
 20
240.74999999950259
 30
0.0
 11
194.51007203758621
 21
240.74999999950259
 31
0.0
  0
LINE
  5
275
  8
DATA
  6
CONTINUOUS
 62
     7
 10
196.19050180199389
 20
240.74999999950259
 30
0.0
 11
213.09050180199401
 21
240.74999999950259
 31
0.0
  0
LINE
  5
276
  8
DATA
  6
CONTINUOUS
 62
     7
 10
214.8335348571504
 20
240.74999999950259
 30
0.0
 11
219.51007203758641
 21
240.74999999950259
 31
0.0
  0
LINE
  5
277
  8
DATA
  6
CONTINUOUS
 62
     7
 10
241.8635479746797
 20
240.74999999950259
 30
0.0
 11
251.11354797467979
 21
240.74999999950259
 31
0.0
  0
POLYLINE
  5
278
  8
DATA
  6
CONTINUOUS
 62
     7
 66
     1
 10
0.0
 20
0.0
 30
0.0
 70
     1
  0
VERTEX
  5
409
  8
DATA
  6
CONTINUOUS
 62
     7
 10
203.90000000021101
 20
114.4500000000025
 30
0.0
  0
VERTEX
  5
40A
  8
DATA
  6
CONTINUOUS
 62
     7
 10
208.100000000211
 20
114.4500000000025
 30
0.0
  0
VERTEX
  5
40B
  8
DATA
  6
CONTINUOUS
 62
     7
 10
208.100000000211
 20
112.3999999999978
 30
0.0
  0
VERTEX
  5
40C
  8
DATA
  6
CONTINUOUS
 62
     7
 10
203.90000000021101
 20
112.3999999999978
 30
0.0
  0
SEQEND
  5
40D
  8
DATA
  6
CONTINUOUS
 62
     7
  0
POLYLINE
  5
27F
  8
DATA
  6
CONTINUOUS
 62
     7
 66
     1
 10
0.0
 20
0.0
 30
0.0
 70
     1
  0
VERTEX
  5
40E
  8
DATA
  6
CONTINUOUS
 62
     7
 10
215.600000000211
 20
114.4500000000025
 30
0.0
  0
VERTEX
  5
40F
  8
DATA
  6
CONTINUOUS
 62
     7
 10
219.80000000021101
 20
114.4500000000025
 30
0.0
  0
VERTEX
  5
410
  8
DATA
  6
CONTINUOUS
 62
     7
 10
219.80000000021101
 20
112.3999999999978
 30
0.0
  0
VERTEX
  5
411
  8
DATA
  6
CONTINUOUS
 62
     7
 10
215.600000000211
 20
112.3999999999978
 30
0.0
  0
SEQEND
  5
412
  8
DATA
  6
CONTINUOUS
 62
     7
  0
POLYLINE
  5
286
  8
DATA
  6
CONTINUOUS
 62
     7
 66
     1
 10
0.0
 20
0.0
 30
0.0
 70
     1
  0
VERTEX
  5
413
  8
DATA
  6
CONTINUOUS
 62
     7
 10
65.199999999768337
 20
261.599999999901
 30
0.0
  0
VERTEX
  5
414
  8
DATA
  6
CONTINUOUS
 62
     7
 10
69.39999999976834
 20
261.599999999901
 30
0.0
  0
VERTEX
  5
415
  8
DATA
  6
CONTINUOUS
 62
     7
 10
69.39999999976834
 20
259.54999999989639
 30
0.0
  0
VERTEX
  5
416
  8
DATA
  6
CONTINUOUS
 62
     7
 10
65.199999999768337
 20
259.54999999989639
 30
0.0
  0
SEQEND
  5
417
  8
DATA
  6
CONTINUOUS
 62
     7
  0
POLYLINE
  5
28D
  8
DATA
  6
CONTINUOUS
 62
     7
 66
     1
 10
0.0
 20
0.0
 30
0.0
 70
     1
  0
VERTEX
  5
418
  8
DATA
  6
CONTINUOUS
 62
     7
 10
76.89999999976834
 20
261.599999999901
 30
0.0
  0
VERTEX
  5
419
  8
DATA
  6
CONTINUOUS
 62
     7
 10
81.099999999768329
 20
261.599999999901
 30
0.0
  0
VERTEX
  5
41A
  8
DATA
  6
CONTINUOUS
 62
     7
 10
81.099999999768329
 20
259.54999999989639
 30
0.0
  0
VERTEX
  5
41B
  8
DATA
  6
CONTINUOUS
 62
     7
 10
76.89999999976834
 20
259.54999999989639
 30
0.0
  0
SEQEND
  5
41C
  8
DATA
  6
CONTINUOUS
 62
     7
  0
ENDSEC
  0
EOF
