  0
SECTION
  2
HEADER
  9
$ACADVER
  1
AC1009
  9
$INSBASE
 10
0.0
 20
0.0
 30
0.0
  9
$EXTMIN
 10
-260.02197097989512
 20
-399.7427877598484
 30
-0.0015258207003583
  9
$EXTMAX
 10
460.0219743326561
 20
670.58742336272144
 30
0.0000000349246037
  9
$LIMMIN
 10
0.0
 20
0.0
  9
$LIMMAX
 10
0.0
 20
0.0
  9
$ORTHOMODE
 70
     0
  9
$REGENMODE
 70
     1
  9
$FILLMODE
 70
     1
  9
$QTEXTMODE
 70
     0
  9
$MIRRTEXT
 70
     1
  9
$DRAGMODE
 70
     2
  9
$LTSCALE
 40
20.32
  9
$OSMODE
 70
   231
  9
$ATTMODE
 70
     1
  9
$TEXTSIZE
 40
0.0
  9
$TRACEWID
 40
1.0
  9
$TEXTSTYLE
  7
STANDARD
  9
$CLAYER
  8
DATA
  9
$CELTYPE
  6
BYLAYER
  9
$CECOLOR
 62
   256
  9
$DIMSCALE
 40
1.0
  9
$DIMASZ
 40
0.18
  9
$DIMEXO
 40
0.0625
  9
$DIMDLI
 40
0.38
  9
$DIMRND
 40
0.0
  9
$DIMDLE
 40
0.0
  9
$DIMEXE
 40
0.18
  9
$DIMTP
 40
0.0
  9
$DIMTM
 40
0.0
  9
$DIMTXT
 40
0.18
  9
$DIMCEN
 40
0.09
  9
$DIMTSZ
 40
0.0
  9
$DIMTOL
 70
     0
  9
$DIMLIM
 70
     0
  9
$DIMTIH
 70
     1
  9
$DIMTOH
 70
     1
  9
$DIMSE1
 70
     0
  9
$DIMSE2
 70
     0
  9
$DIMTAD
 70
     0
  9
$DIMZIN
 70
     0
  9
$DIMBLK
  1

  9
$DIMASO
 70
     1
  9
$DIMSHO
 70
     1
  9
$DIMPOST
  1

  9
$DIMAPOST
  1

  9
$DIMALT
 70
     0
  9
$DIMALTD
 70
     2
  9
$DIMALTF
 40
25.399999999999999
  9
$DIMLFAC
 40
1.0
  9
$DIMTOFL
 70
     0
  9
$DIMTVP
 40
0.0
  9
$DIMTIX
 70
     0
  9
$DIMSOXD
 70
     0
  9
$DIMSAH
 70
     0
  9
$DIMBLK1
  1

  9
$DIMBLK2
  1

  9
$DIMSTYLE
  2
STANDARD
  9
$DIMCLRD
 70
     0
  9
$DIMCLRE
 70
     0
  9
$DIMCLRT
 70
     0
  9
$DIMTFAC
 40
1.0
  9
$DIMGAP
 40
0.09
  9
$LUNITS
 70
     2
  9
$LUPREC
 70
     4
  9
$SKETCHINC
 40
0.1
  9
$FILLETRAD
 40
0.0
  9
$AUNITS
 70
     0
  9
$AUPREC
 70
     0
  9
$MENU
  1
acad
  9
$ELEVATION
 40
0.0
  9
$PELEVATION
 40
0.0
  9
$THICKNESS
 40
0.0
  9
$LIMCHECK
 70
     0
  9
$BLIPMODE
 70
     0
  9
$CHAMFERA
 40
0.0
  9
$CHAMFERB
 40
0.0
  9
$SKPOLY
 70
     0
  9
$TDCREATE
 40
2455202.6985532409
  9
$TDUPDATE
 40
2455202.700257685
  9
$TDINDWG
 40
0.0002361921
  9
$TDUSRTIMER
 40
0.0002360069
  9
$USRTIMER
 70
     1
  9
$ANGBASE
 50
0.0
  9
$ANGDIR
 70
     0
  9
$PDMODE
 70
     1
  9
$PDSIZE
 40
-2.0
  9
$PLINEWID
 40
0.0
  9
$COORDS
 70
     0
  9
$SPLFRAME
 70
     0
  9
$SPLINETYPE
 70
     6
  9
$SPLINESEGS
 70
     8
  9
$ATTDIA
 70
     0
  9
$ATTREQ
 70
     1
  9
$HANDLING
 70
     1
  9
$HANDSEED
  5
7B5
  9
$SURFTAB1
 70
     6
  9
$SURFTAB2
 70
     6
  9
$SURFTYPE
 70
     6
  9
$SURFU
 70
     6
  9
$SURFV
 70
     6
  9
$UCSNAME
  2

  9
$UCSORG
 10
0.0
 20
0.0
 30
0.0
  9
$UCSXDIR
 10
1.0
 20
0.0
 30
0.0
  9
$UCSYDIR
 10
0.0
 20
1.0
 30
0.0
  9
$PUCSNAME
  2

  9
$PUCSORG
 10
0.0
 20
0.0
 30
0.0
  9
$PUCSXDIR
 10
1.0
 20
0.0
 30
0.0
  9
$PUCSYDIR
 10
0.0
 20
1.0
 30
0.0
  9
$USERI1
 70
     0
  9
$USERI2
 70
     0
  9
$USERI3
 70
     0
  9
$USERI4
 70
     0
  9
$USERI5
 70
     0
  9
$USERR1
 40
0.0
  9
$USERR2
 40
0.0
  9
$USERR3
 40
0.0
  9
$USERR4
 40
0.0
  9
$USERR5
 40
0.0
  9
$WORLDVIEW
 70
     1
  9
$SHADEDGE
 70
     3
  9
$SHADEDIF
 70
    70
  9
$TILEMODE
 70
     1
  9
$MAXACTVP
 70
    64
  9
$PLIMCHECK
 70
     0
  9
$PEXTMIN
 10
1.0000000000000000E+020
 20
1.0000000000000000E+020
 30
1.0000000000000000E+020
  9
$PEXTMAX
 10
-1.0000000000000000E+020
 20
-1.0000000000000000E+020
 30
-1.0000000000000000E+020
  9
$PLIMMIN
 10
0.0
 20
0.0
  9
$PLIMMAX
 10
12.0
 20
9.0
  9
$UNITMODE
 70
     0
  9
$VISRETAIN
 70
     0
  9
$PLINEGEN
 70
     1
  9
$PSLTSCALE
 70
     0
  0
ENDSEC
  0
SECTION
  2
TABLES
  0
TABLE
  2
VPORT
 70
     1
  0
VPORT
  2
*ACTIVE
 70
     0
 10
0.0
 20
0.0
 11
1.0
 21
1.0
 12
100.00000167638051
 22
135.42231780143649
 13
0.0
 23
0.0
 14
1.0
 24
1.0
 15
0.0
 25
0.0
 16
0.0
 26
0.0
 36
1.0
 17
0.0
 27
0.0
 37
0.0
 40
1078.219622998166
 41
1.964329643296433
 42
50.0
 43
0.0
 44
0.0
 50
0.0
 51
0.0
 71
     0
 72
  2000
 73
     1
 74
     1
 75
     0
 76
     0
 77
     0
 78
     0
  0
ENDTAB
  0
TABLE
  2
LTYPE
 70
    11
  0
LTYPE
  2
CONTINUOUS
 70
     0
  3
Solid line
 72
    65
 73
     0
 40
0.0
  0
ENDTAB
  0
TABLE
  2
LAYER
 70
     5
  0
LAYER
  2
0
 70
     0
 62
     7
  6
CONTINUOUS
  0
LAYER
  2
DATA
 70
     0
 62
     7
  6
CONTINUOUS
  0
LAYER
  2
HIBINO-BASE
 70
     0
 62
     7
  6
CONTINUOUS
  0
LAYER
  2
SPEC
 70
     0
 62
     7
  6
CONTINUOUS
  0
LAYER
  2
DIMNSIONS
 70
     0
 62
     7
  6
CONTINUOUS
  0
ENDTAB
  0
TABLE
  2
STYLE
 70
     3
  0
STYLE
  2
STANDARD
 70
     0
 40
0.0
 41
1.0
 50
0.0
 71
     0
 42
0.0
  3
txt
  4
BIGFONT.SHX
  0
ENDTAB
  0
TABLE
  2
VIEW
 70
     0
  0
ENDTAB
  0
TABLE
  2
UCS
 70
     0
  0
ENDTAB
  0
TABLE
  2
APPID
 70
     3
  0
APPID
  2
ACAD
 70
     0
  0
APPID
  2
ACADANNOTATIVE
 70
     0
  0
APPID
  2
ACAD_MLEADERVER
 70
     0
  0
ENDTAB
  0
TABLE
  2
DIMSTYLE
 70
     2
  0
DIMSTYLE
  2
STANDARD
 70
     0
  3

  4

  5

  6

  7

 40
1.0
 41
0.18
 42
0.0625
 43
0.38
 44
0.18
 45
0.0
 46
0.0
 47
0.0
 48
0.0
140
0.18
141
0.09
142
0.0
143
25.399999999999999
144
1.0
145
0.0
146
1.0
147
0.09
 71
     0
 72
     0
 73
     1
 74
     1
 75
     0
 76
     0
 77
     0
 78
     0
170
     0
171
     2
172
     0
173
     0
174
     0
175
     0
176
     0
177
     0
178
     0
  0
ENDTAB
  0
ENDSEC
  0
SECTION
  2
BLOCKS
  0
BLOCK
  8
0
  2
$MODEL_SPACE
 70
     0
 10
0.0
 20
0.0
 30
0.0
  3
$MODEL_SPACE
  1

  0
ENDBLK
  5
56E
  8
0
  0
BLOCK
 67
     1
  8
0
  2
$PAPER_SPACE
 70
     0
 10
0.0
 20
0.0
 30
0.0
  3
$PAPER_SPACE
  1

  0
ENDBLK
  5
56A
 67
     1
  8
0
  0
ENDSEC
  0
SECTION
  2
ENTITIES
  0
LINE
  5
2C
  8
HIBINO-BASE
  6
CONTINUOUS
 62
     7
 10
-260.0
 20
670.55482364071543
 30
0.0
 11
460.0
 21
670.55482364071543
 31
0.0
  0
LINE
  5
2D
  8
HIBINO-BASE
  6
CONTINUOUS
 62
     7
 10
460.0
 20
-369.44517635928452
 30
0.0
 11
-260.0
 21
-369.44517635928452
 31
0.0
  0
LINE
  5
2E
  8
HIBINO-BASE
  6
CONTINUOUS
 62
     7
 10
-260.0
 20
-369.44517635928452
 30
0.0
 11
-260.0
 21
670.55482364071543
 31
0.0
  0
LINE
  5
2F
  8
HIBINO-BASE
  6
CONTINUOUS
 62
     7
 10
460.0
 20
670.55482364071543
 30
0.0
 11
460.0
 21
-369.44517635928452
 31
0.0
  0
LINE
  5
30
  8
HIBINO-BASE
  6
CONTINUOUS
 62
     7
 10
100.0
 20
-279.4451763592844
 30
0.0
 11
460.0
 21
-279.4451763592844
 31
0.0
  0
LINE
  5
31
  8
HIBINO-BASE
  6
CONTINUOUS
 62
     7
 10
100.0
 20
-369.44517635928452
 30
0.0
 11
100.0
 21
-279.4451763592844
 31
0.0
  0
TEXT
  5
32
  8
HIBINO-BASE
 62
     7
 10
103.59999999999999
 20
-289.47994969261782
 30
0.0
 40
6.5153645833333318
  1
NOTE
 41
0.7
 11
103.59999999999999
 21
-282.96458510928443
 31
0.0
 73
     3
  0
LINE
  5
33
  8
HIBINO-BASE
  6
CONTINUOUS
 62
     7
 10
240.0
 20
-369.44517635928452
 30
0.0
 11
240.0
 21
-279.4451763592844
 31
0.0
  0
TEXT
  5
34
  8
HIBINO-BASE
 62
     7
 10
243.59999999999999
 20
-289.47994969261782
 30
0.0
 40
6.5153645833333318
  1
TITLE
 41
0.7
 11
243.59999999999999
 21
-282.96458510928443
 31
0.0
 73
     3
  0
LINE
  5
35
  8
HIBINO-BASE
  6
CONTINUOUS
 62
     7
 10
100.0
 20
-329.4451763592844
 30
0.0
 11
460.0
 21
-329.4451763592844
 31
0.0
  0
TEXT
  5
36
  8
HIBINO-BASE
 62
     7
 10
293.60000000000002
 20
-339.25466969261782
 30
0.0
 40
6.5153645833333318
  1
DRAWN
 41
0.7
 11
293.60000000000002
 21
-332.73930510928437
 31
0.0
 73
     3
  0
TEXT
  5
37
  8
HIBINO-BASE
 62
     7
 10
193.59999999999999
 20
-339.25466969261782
 30
0.0
 40
6.5153645833333318
  1
DATE
 41
0.7
 11
193.59999999999999
 21
-332.73930510928437
 31
0.0
 73
     3
  0
TEXT
  5
38
  8
HIBINO-BASE
 62
     7
 10
153.59999999999991
 20
-339.25466969261782
 30
0.0
 40
6.5153645833333318
  1
SCALE
 41
0.7
 11
153.59999999999991
 21
-332.73930510928437
 31
0.0
 73
     3
  0
TEXT
  5
39
  8
HIBINO-BASE
 62
     7
 10
243.59999999999999
 20
-339.25466969261782
 30
0.0
 40
6.5153645833333318
  1
DESIGN
 41
0.7
 11
243.59999999999999
 21
-332.73930510928437
 31
0.0
 73
     3
  0
TEXT
  5
3A
  8
HIBINO-BASE
 62
     7
 10
393.60000000000002
 20
-339.25466969261782
 30
0.0
 40
6.5153645833333318
  1
DRAWING NO.
 41
0.7
 11
393.60000000000002
 21
-332.73930510928437
 31
0.0
 73
     3
  0
TEXT
  5
3B
  8
HIBINO-BASE
 62
     7
 10
343.60000000000002
 20
-339.25466969261782
 30
0.0
 40
6.5153645833333318
  1
CHECK
 41
0.7
 11
343.60000000000002
 21
-332.73930510928437
 31
0.0
 73
     3
  0
LINE
  5
3C
  8
HIBINO-BASE
  6
CONTINUOUS
 62
     7
 10
157.5
 20
-364.44517635928452
 30
0.0
 11
172.5
 21
-349.44517635928429
 31
0.0
  0
TEXT
  5
3D
  8
HIBINO-BASE
 62
     7
 10
155.0
 20
-353.88094969261778
 30
0.0
 40
6.5153645833333318
  1
1
 41
0.7
 11
155.0
 21
-347.3655851092845
 31
0.0
 73
     3
  0
LINE
  5
3E
  8
HIBINO-BASE
  6
CONTINUOUS
 62
     7
 10
150.0
 20
-369.44517635928452
 30
0.0
 11
150.0
 21
-329.4451763592844
 31
0.0
  0
LINE
  5
3F
  8
HIBINO-BASE
  6
CONTINUOUS
 62
     7
 10
190.0
 20
-369.44517635928452
 30
0.0
 11
190.0
 21
-329.4451763592844
 31
0.0
  0
LINE
  5
40
  8
HIBINO-BASE
  6
CONTINUOUS
 62
     7
 10
290.0
 20
-329.4451763592844
 30
0.0
 11
290.0
 21
-369.44517635928452
 31
0.0
  0
LINE
  5
41
  8
HIBINO-BASE
  6
CONTINUOUS
 62
     7
 10
390.0
 20
-329.4451763592844
 30
0.0
 11
390.0
 21
-369.44517635928452
 31
0.0
  0
LINE
  5
42
  8
HIBINO-BASE
  6
CONTINUOUS
 62
     7
 10
339.99999999999989
 20
-369.44517635928452
 30
0.0
 11
339.99999999999989
 21
-329.4451763592844
 31
0.0
  0
TEXT
  5
43
  8
HIBINO-BASE
 62
     7
 10
193.42616000000001
 20
-357.99058969261779
 30
0.0
 40
6.5153645833333318
  1
'09.07.
 41
0.7
 11
193.42616000000001
 21
-351.47522510928439
 31
0.0
 73
     3
  0
TEXT
  5
44
  8
HIBINO-BASE
 62
     7
 10
170.0
 20
-361.38094969261778
 30
0.0
 40
6.5153645833333318
  1
4
 41
0.7
 11
170.0
 21
-354.86558510928438
 31
0.0
 73
     3
  0
TEXT
  5
45
  8
HIBINO-BASE
 62
     7
 10
115.5333333333334
 20
-361.54117635928441
 30
0.0
 40
13.03072916666666
  1
A4
 41
0.7
 11
115.5333333333334
 21
-348.51044719261768
 31
0.0
 73
     3
  0
TEXT
  5
46
  8
HIBINO-BASE
 62
     7
 10
103.8333333333333
 20
-339.92299635928441
 30
0.0
 40
6.5153645833333318
  1
PAPER SIZE
 41
0.7
 11
103.8333333333333
 21
-333.40763177595107
 31
0.0
 73
     3
  0
TEXT
  5
47
  8
HIBINO-BASE
 62
     7
 10
-248.3431570128075
 20
-395.02315051230357
 30
0.0
 40
14.116623263888879
  1
Hibino-Intersound Corporation
 41
0.7
 11
-248.3431570128075
 21
-380.9065272484147
 31
0.0
 73
     3
  0
TEXT
  5
48
  8
HIBINO-BASE
 62
     7
 10
182.58386641595121
 20
-393.7817945104664
 30
0.0
 40
14.116623263888879
  1
ヒビノインターサウンド株式会社
 41
0.7
 11
182.58386641595121
 21
-379.66517124657747
 31
0.0
 73
     3
  0
TEXT
  5
49
  8
HIBINO-BASE
 62
     7
 10
298.40091119387893
 20
-357.6471708585791
 30
0.0
 40
6.5153645833333318
  1
T.Ootake
 41
0.7
 11
298.40091119387893
 21
-351.13180627524582
 31
0.0
 73
     3
  0
LINE
  5
4A
  8
SPEC
  6
CONTINUOUS
 62
     7
 10
-230.0
 20
630.55482364071554
 30
0.0
 11
360.0
 21
630.55482364071554
 31
0.0
  0
LINE
  5
4B
  8
SPEC
  6
CONTINUOUS
 62
     7
 10
-230.0
 20
615.55482364071554
 30
0.0
 11
360.0
 21
615.55482364071554
 31
0.0
  0
LINE
  5
4C
  8
SPEC
  6
CONTINUOUS
 62
     7
 10
-230.0
 20
555.55482364071554
 30
0.0
 11
360.0
 21
555.55482364071554
 31
0.0
  0
LINE
  5
4D
  8
SPEC
  6
CONTINUOUS
 62
     7
 10
-230.0
 20
570.55482364071554
 30
0.0
 11
360.0
 21
570.55482364071554
 31
0.0
  0
LINE
  5
4E
  8
SPEC
  6
CONTINUOUS
 62
     7
 10
-230.0
 20
585.55482364071554
 30
0.0
 11
360.0
 21
585.55482364071554
 31
0.0
  0
LINE
  5
4F
  8
SPEC
  6
CONTINUOUS
 62
     7
 10
-230.0
 20
540.55482364071554
 30
0.0
 11
360.0
 21
540.55482364071554
 31
0.0
  0
LINE
  5
50
  8
SPEC
  6
CONTINUOUS
 62
     7
 10
-230.0
 20
510.55482364071543
 30
0.0
 11
360.0
 21
510.55482364071543
 31
0.0
  0
LINE
  5
51
  8
SPEC
  6
CONTINUOUS
 62
     7
 10
-230.0
 20
525.55482364071554
 30
0.0
 11
360.0
 21
525.55482364071554
 31
0.0
  0
LINE
  5
52
  8
SPEC
  6
CONTINUOUS
 62
     7
 10
-230.0
 20
495.55482364071543
 30
0.0
 11
360.0
 21
495.55482364071543
 31
0.0
  0
LINE
  5
53
  8
SPEC
  6
CONTINUOUS
 62
     7
 10
-230.0
 20
480.55482364071543
 30
0.0
 11
360.0
 21
480.55482364071543
 31
0.0
  0
LINE
  5
54
  8
SPEC
  6
CONTINUOUS
 62
     7
 10
-230.0
 20
600.55482364071554
 30
0.0
 11
360.0
 21
600.55482364071554
 31
0.0
  0
LINE
  5
55
  8
SPEC
  6
CONTINUOUS
 62
     7
 10
-230.0
 20
450.55482364071548
 30
0.0
 11
360.0
 21
450.55482364071548
 31
0.0
  0
LINE
  5
56
  8
SPEC
  6
CONTINUOUS
 62
     7
 10
-230.0
 20
630.55482364071554
 30
0.0
 11
-230.0
 21
450.55482364071548
 31
0.0
  0
TEXT
  5
57
  8
SPEC
 62
     7
 10
-225.0
 20
636.12790364071554
 30
0.0
 40
9.7730468750000004
  1
仕様
 41
0.7
 11
-225.0
 21
645.90095051571552
 31
0.0
 73
     3
  0
LINE
  5
58
  8
SPEC
  6
CONTINUOUS
 62
     7
 10
-100.0
 20
630.55482364071554
 30
0.0
 11
-100.0
 21
450.55482364071548
 31
0.0
  0
LINE
  5
59
  8
SPEC
  6
CONTINUOUS
 62
     7
 10
360.0
 20
630.55482364071554
 30
0.0
 11
360.0
 21
450.55482364071548
 31
0.0
  0
TEXT
  5
5A
  8
SPEC
 62
     7
 10
-226.6615152844293
 20
619.43534917944476
 30
0.0
 40
7.6012449999999978
  1
形式
 41
0.7
 11
-226.6615152844293
 21
627.03659417944459
 31
0.0
 73
     3
  0
LINE
  5
5B
  8
SPEC
  6
CONTINUOUS
 62
     7
 10
-230.0
 20
465.55482364071543
 30
0.0
 11
360.0
 21
465.55482364071543
 31
0.0
  0
TEXT
  5
5C
  8
SPEC
 62
     7
 10
-96.299072146369284
 20
618.97941525885778
 30
0.0
 40
7.6012586805555546
  1
DVI to HDSDI変換機
 41
0.7
 11
-96.299072146369284
 21
626.58067393941326
 31
0.0
 73
     3
  0
TEXT
  5
5D
  8
SPEC
 62
     7
 10
-226.37994156027941
 20
529.37290748007126
 30
0.0
 40
7.6012586805555546
  1
SDI/HD-SDI端子
 41
0.7
 11
-226.37994156027941
 21
536.97416616062685
 31
0.0
 73
     3
  0
TEXT
  5
5E
  8
SPEC
 62
     7
 10
-226.83619815357849
 20
469.39871963409053
 30
0.0
 40
7.6012586805555546
  1
寸法
 41
0.7
 11
-226.83619815357849
 21
476.999978314646
 31
0.0
 73
     3
  0
TEXT
  5
5F
  8
SPEC
 62
     7
 10
-226.6311341953305
 20
454.584317358806
 30
0.0
 40
7.6012586805555546
  1
重量
 41
0.7
 11
-226.6311341953305
 21
462.18557603936142
 31
0.0
 73
     3
  0
TEXT
  5
60
  8
SPEC
 62
     7
 10
-226.71419103001861
 20
499.84073932021897
 30
0.0
 40
7.6012586805555546
  1
電源
 41
0.7
 11
-226.71419103001861
 21
507.4419980007745
 31
0.0
 73
     3
  0
TEXT
  5
61
  8
SPEC
 62
     7
 10
-226.61992253626229
 20
604.67649175091469
 30
0.0
 40
7.6012586805555546
  1
入力ビデオ帯域
 41
0.7
 11
-226.61992253626229
 21
612.27775043147028
 31
0.0
 73
     3
  0
TEXT
  5
62
  8
SPEC
 62
     7
 10
-227.0364218534842
 20
589.35930582793401
 30
0.0
 40
7.6012586805555546
  1
出力ビデオ帯域
 41
0.7
 11
-227.0364218534842
 21
596.9605645084896
 31
0.0
 73
     3
  0
TEXT
  5
63
  8
SPEC
 62
     7
 10
-96.321713769058164
 20
529.37808047958288
 30
0.0
 40
7.6012586805555546
  1
BNCメス
 41
0.7
 11
-96.321713769058164
 21
536.97933916013847
 31
0.0
 73
     3
  0
TEXT
  5
64
  8
SPEC
 62
     7
 10
-96.376035430649281
 20
499.18285601043249
 30
0.0
 40
7.6012586805555546
  1
5V DC
 41
0.7
 11
-96.376035430649281
 21
506.78411469098808
 31
0.0
 73
     3
  0
TEXT
  5
65
  8
SPEC
 62
     7
 10
-96.898791549722844
 20
589.41272233776976
 30
0.0
 40
7.6012586805555546
  1
1.485Gbps\U+00D72
 41
0.7
 11
-96.898791549722844
 21
597.01398101832535
 31
0.0
 73
     3
  0
TEXT
  5
66
  8
SPEC
 62
     7
 10
-96.83517002670898
 20
604.21244255321733
 30
0.0
 40
7.6012586805555546
  1
165MHz
 41
0.7
 11
-96.83517002670898
 21
611.8137012337728
 31
0.0
 73
     3
  0
TEXT
  5
67
  8
SPEC
 62
     7
 10
-226.4441570962814
 20
574.85397262756021
 30
0.0
 40
7.6012586805555546
  1
最大入力解像度
 41
0.7
 11
-226.4441570962814
 21
582.4552313081158
 31
0.0
 73
     3
  0
TEXT
  5
68
  8
SPEC
 62
     7
 10
-96.399293826132947
 20
574.33469794510916
 30
0.0
 40
7.6012586805555546
  1
2048\U+00D71080
 41
0.7
 11
-96.399293826132947
 21
581.93595662566486
 31
0.0
 73
     3
  0
TEXT
  5
69
  8
SPEC
 62
     7
 10
-96.287866055805651
 20
455.34388997629048
 30
0.0
 40
7.6012586805555546
  1
約1.1kg
 41
0.7
 11
-96.287866055805651
 21
462.94514865684602
 31
0.0
 73
     3
  0
TEXT
  5
6A
  8
SPEC
 62
     7
 10
-226.38826004225569
 20
544.44239942777995
 30
0.0
 40
7.6012586805555546
  1
DVIコネクタ ー
 41
0.7
 11
-226.38826004225569
 21
552.04365810833553
 31
0.0
 73
     3
  0
TEXT
  5
6B
  8
SPEC
 62
     7
 10
-96.359639202718327
 20
544.36011392220382
 30
0.0
 40
7.6012586805555546
  1
DVI-I 29pinメス(digital only)　
 41
0.7
 11
-96.359639202718327
 21
551.96137260275941
 31
0.0
 73
     3
  0
TEXT
  5
6C
  8
SPEC
 62
     7
 10
-227.51905964712489
 20
514.65887098227154
 30
0.0
 40
7.6012586805555546
  1
コントロール端子
 41
0.7
 11
-227.51905964712489
 21
522.26012966282713
 31
0.0
 73
     3
  0
TEXT
  5
6D
  8
SPEC
 62
     7
 10
-96.380454743023591
 20
514.46650787718181
 30
0.0
 40
7.6012586805555546
  1
DB-9,Sereal RS-232
 41
0.7
 11
-96.380454743023591
 21
522.06776655773729
 31
0.0
 73
     3
  0
TEXT
  5
6E
  8
SPEC
 62
     7
 10
-226.60453123331641
 20
484.68251802381212
 30
0.0
 40
7.6012586805555546
  1
消費電力
 41
0.7
 11
-226.60453123331641
 21
492.2837767043676
 31
0.0
 73
     3
  0
TEXT
  5
6F
  8
SPEC
 62
     7
 10
-96.325836087830083
 20
484.11082624089642
 30
0.0
 40
7.6012586805555546
  1
20W(最大)
 41
0.7
 11
-96.325836087830083
 21
491.71208492145189
 31
0.0
 73
     3
  0
TEXT
  5
70
  8
SPEC
 62
     7
 10
-226.3386917801794
 20
559.64595035004345
 30
0.0
 40
7.6012586805555546
  1
最大出力解像度
 41
0.7
 11
-226.3386917801794
 21
567.24720903059904
 31
0.0
 73
     3
  0
TEXT
  5
71
  8
SPEC
 62
     7
 10
-96.816598093802952
 20
559.61450667972485
 30
0.0
 40
7.6012586805555546
  1
1080p/デュアルリンクHD-DSI
 41
0.7
 11
-96.816598093802952
 21
567.21576536028056
 31
0.0
 73
     3
  0
TEXT
  5
72
  8
SPEC
 62
     7
 10
-96.332966587635283
 20
469.20533115852987
 30
0.0
 40
7.6012586805555546
  1
385(W)\U+00D744(H)\U+00D7174(D)mm(突起部含まず)
 41
0.7
 11
-96.332966587635283
 21
476.80658983908552
 31
0.0
 73
     3
  0
TEXT
  5
73
  8
DIMNSIONS
 62
     7
 10
19.999999999999979
 20
-320.36721635928433
 30
0.0
 40
9.7730468750000004
  1
(単位：mm)
 41
0.7
 11
19.999999999999979
 21
-310.59416948428441
 31
0.0
 73
     3
  0
LINE
  5
74
  8
DIMNSIONS
  6
CONTINUOUS
 62
     7
 10
-195.5
 20
-150.0
 30
0.0
 11
-226.75
 21
-150.0
 31
0.0
  0
LINE
  5
75
  8
DIMNSIONS
  6
CONTINUOUS
 62
     7
 10
-195.5
 20
-106.0
 30
0.0
 11
-226.75
 21
-106.0
 31
0.0
  0
LINE
  5
76
  8
DIMNSIONS
  6
CONTINUOUS
 62
     7
 10
-218.75
 20
-150.0
 30
0.0
 11
-218.75
 21
-106.0
 31
0.0
  0
LINE
  5
77
  8
DIMNSIONS
  6
CONTINUOUS
 62
     7
 10
-218.75
 20
-150.0
 30
0.0
 11
-221.43015918060101
 21
-139.99750976562501
 31
0.0
  0
LINE
  5
78
  8
DIMNSIONS
  6
CONTINUOUS
 62
     7
 10
-218.75
 20
-150.0
 30
0.0
 11
-216.06984081939899
 21
-139.99750976562501
 31
0.0
  0
LINE
  5
79
  8
DIMNSIONS
  6
CONTINUOUS
 62
     7
 10
-218.75
 20
-106.0
 30
0.0
 11
-216.06984081939899
 21
-116.002490234375
 31
0.0
  0
LINE
  5
7A
  8
DIMNSIONS
  6
CONTINUOUS
 62
     7
 10
-218.75
 20
-106.0
 30
0.0
 11
-221.43015918060101
 21
-116.002490234375
 31
0.0
  0
TEXT
  5
7B
  8
DIMNSIONS
 62
     7
 10
-222.7255555555555
 20
-135.05555555555549
 30
0.0
 40
10.85894097222222
  1
44
 50
90.0
 41
0.7
 11
-233.5844965277777
 21
-135.05555555555549
 31
0.0
 73
     3
  0
LINE
  5
7C
  8
DIMNSIONS
  6
CONTINUOUS
 62
     7
 10
-187.5
 20
-158.0
 30
0.0
 11
-187.5
 21
-189.25
 31
0.0
  0
LINE
  5
7D
  8
DIMNSIONS
  6
CONTINUOUS
 62
     7
 10
197.5
 20
-158.0
 30
0.0
 11
197.5
 21
-189.25
 31
0.0
  0
LINE
  5
7E
  8
DIMNSIONS
  6
CONTINUOUS
 62
     7
 10
-187.5
 20
-181.25
 30
0.0
 11
197.5
 21
-181.25
 31
0.0
  0
LINE
  5
7F
  8
DIMNSIONS
  6
CONTINUOUS
 62
     7
 10
-187.5
 20
-181.25
 30
0.0
 11
-177.49750976562501
 21
-178.56984081939899
 31
0.0
  0
LINE
  5
80
  8
DIMNSIONS
  6
CONTINUOUS
 62
     7
 10
-187.5
 20
-181.25
 30
0.0
 11
-177.49750976562501
 21
-183.93015918060101
 31
0.0
  0
LINE
  5
81
  8
DIMNSIONS
  6
CONTINUOUS
 62
     7
 10
197.5
 20
-181.25
 30
0.0
 11
187.4975097656249
 21
-183.93015918060101
 31
0.0
  0
LINE
  5
82
  8
DIMNSIONS
  6
CONTINUOUS
 62
     7
 10
197.5
 20
-181.25
 30
0.0
 11
187.4975097656249
 21
-178.56984081939899
 31
0.0
  0
TEXT
  5
83
  8
DIMNSIONS
 62
     7
 10
-5.5833333333333428
 20
-177.2744444444445
 30
0.0
 40
10.85894097222222
  1
385
 41
0.7
 11
-5.5833333333333419
 21
-166.4155034722223
 31
0.0
 73
     3
  0
LINE
  5
84
  8
DIMNSIONS
  6
CONTINUOUS
 62
     7
 10
-195.5
 20
-56.25
 30
0.0
 11
-226.75
 21
-56.25
 31
0.0
  0
LINE
  5
85
  8
DIMNSIONS
  6
CONTINUOUS
 62
     7
 10
-195.5
 20
117.75
 30
0.0
 11
-226.75
 21
117.75
 31
0.0
  0
LINE
  5
86
  8
DIMNSIONS
  6
CONTINUOUS
 62
     7
 10
-218.75
 20
-56.25
 30
0.0
 11
-218.75
 21
117.75
 31
0.0
  0
LINE
  5
87
  8
DIMNSIONS
  6
CONTINUOUS
 62
     7
 10
-218.75
 20
-56.25
 30
0.0
 11
-221.43015918060101
 21
-46.247509765625011
 31
0.0
  0
LINE
  5
88
  8
DIMNSIONS
  6
CONTINUOUS
 62
     7
 10
-218.75
 20
-56.25
 30
0.0
 11
-216.06984081939899
 21
-46.247509765625011
 31
0.0
  0
LINE
  5
89
  8
DIMNSIONS
  6
CONTINUOUS
 62
     7
 10
-218.75
 20
117.75
 30
0.0
 11
-216.06984081939899
 21
107.747509765625
 31
0.0
  0
LINE
  5
8A
  8
DIMNSIONS
  6
CONTINUOUS
 62
     7
 10
-218.75
 20
117.75
 30
0.0
 11
-221.43015918060101
 21
107.747509765625
 31
0.0
  0
TEXT
  5
8B
  8
DIMNSIONS
 62
     7
 10
-222.7255555555555
 20
20.166666666666671
 30
0.0
 40
10.85894097222222
  1
174
 50
90.0
 41
0.7
 11
-233.5844965277777
 21
20.166666666666671
 31
0.0
 73
     3
  0
LINE
  5
8C
  8
DIMNSIONS
  6
CONTINUOUS
 62
     7
 10
-188.87893398294321
 20
-154.0
 30
0.0
 11
-226.75
 21
-154.0
 31
0.0
  0
LINE
  5
8D
  8
DIMNSIONS
  6
CONTINUOUS
 62
     7
 10
-195.5
 20
-150.0
 30
0.0
 11
-226.75
 21
-150.0
 31
0.0
  0
LINE
  5
8E
  8
DIMNSIONS
  6
CONTINUOUS
 62
     7
 10
-218.75
 20
-150.0
 30
0.0
 11
-218.75
 21
-154.0
 31
0.0
  0
LINE
  5
8F
  8
DIMNSIONS
  6
CONTINUOUS
 62
     7
 10
-218.75
 20
-154.0
 30
0.0
 11
-218.75
 21
-175.80555555555549
 31
0.0
  0
LINE
  5
90
  8
DIMNSIONS
  6
CONTINUOUS
 62
     7
 10
-218.75
 20
-154.0
 30
0.0
 11
-216.06984081939899
 21
-164.00249023437499
 31
0.0
  0
LINE
  5
91
  8
DIMNSIONS
  6
CONTINUOUS
 62
     7
 10
-218.75
 20
-154.0
 30
0.0
 11
-221.43015918060101
 21
-164.00249023437499
 31
0.0
  0
LINE
  5
92
  8
DIMNSIONS
  6
CONTINUOUS
 62
     7
 10
-218.75
 20
-150.0
 30
0.0
 11
-218.75
 21
-130.0
 31
0.0
  0
LINE
  5
93
  8
DIMNSIONS
  6
CONTINUOUS
 62
     7
 10
-218.75
 20
-150.0
 30
0.0
 11
-221.43015918060101
 21
-139.99750976562501
 31
0.0
  0
LINE
  5
94
  8
DIMNSIONS
  6
CONTINUOUS
 62
     7
 10
-218.75
 20
-150.0
 30
0.0
 11
-216.06984081939899
 21
-139.99750976562501
 31
0.0
  0
TEXT
  5
95
  8
DIMNSIONS
 62
     7
 10
-222.7255555555555
 20
-175.80555555555549
 30
0.0
 40
10.85894097222222
  1
4
 50
90.0
 41
0.7
 11
-233.5844965277777
 21
-175.80555555555549
 31
0.0
 73
     3
  0
LINE
  5
96
  8
DIMNSIONS
  6
CONTINUOUS
 62
     7
 10
-195.5
 20
117.75
 30
0.0
 11
-226.75
 21
117.75
 31
0.0
  0
LINE
  5
97
  8
DIMNSIONS
  6
CONTINUOUS
 62
     7
 10
-168.48938629473409
 20
134.75235623654461
 30
0.0
 11
-226.75
 21
134.75235623654461
 31
0.0
  0
LINE
  5
98
  8
DIMNSIONS
  6
CONTINUOUS
 62
     7
 10
-218.75
 20
134.75235623654461
 30
0.0
 11
-218.75
 21
117.75
 31
0.0
  0
LINE
  5
99
  8
DIMNSIONS
  6
CONTINUOUS
 62
     7
 10
-218.75
 20
117.75
 30
0.0
 11
-218.75
 21
97.75
 31
0.0
  0
LINE
  5
9A
  8
DIMNSIONS
  6
CONTINUOUS
 62
     7
 10
-218.75
 20
117.75
 30
0.0
 11
-216.06984081939899
 21
107.747509765625
 31
0.0
  0
LINE
  5
9B
  8
DIMNSIONS
  6
CONTINUOUS
 62
     7
 10
-218.75
 20
117.75
 30
0.0
 11
-221.43015918060101
 21
107.747509765625
 31
0.0
  0
LINE
  5
9C
  8
DIMNSIONS
  6
CONTINUOUS
 62
     7
 10
-218.75
 20
134.75235623654461
 30
0.0
 11
-218.75
 21
164.11111111111109
 31
0.0
  0
LINE
  5
9D
  8
DIMNSIONS
  6
CONTINUOUS
 62
     7
 10
-218.75
 20
134.75235623654461
 30
0.0
 11
-221.43015918060101
 21
144.7548464709196
 31
0.0
  0
LINE
  5
9E
  8
DIMNSIONS
  6
CONTINUOUS
 62
     7
 10
-218.75
 20
134.75235623654461
 30
0.0
 11
-216.06984081939899
 21
144.7548464709196
 31
0.0
  0
TEXT
  5
9F
  8
DIMNSIONS
 62
     7
 10
-222.7255555555555
 20
150.0
 30
0.0
 40
10.85894097222222
  1
17
 50
90.0
 41
0.7
 11
-233.5844965277777
 21
150.0
 31
0.0
 73
     3
  0
TEXT
  5
A0
  8
DATA
 62
     7
 10
-220.0
 20
-352.49317635928452
 30
0.0
 40
6.5153645833333318
  1
仕様および外観は予告なく変更されることがありますので、ご了承ください。
 41
0.7
 11
-220.0
 21
-345.97781177595118
 31
0.0
 73
     3
  0
TEXT
  5
A1
  8
DATA
 62
     7
 10
299.40000000000009
 20
-325.16082151912559
 30
0.0
 40
9.7730468750000004
  1
EXT-DVI-2-HDSDIRRO
 41
0.7
 11
299.40000000000009
 21
-315.38777464412561
 31
0.0
 73
     3
  0
TEXT
  5
A2
  8
DATA
 62
     7
 10
299.55217350777099
 20
-293.40115418177447
 30
0.0
 40
9.7730468750000004
  1
Gefen
 41
0.7
 11
299.55217350777099
 21
-283.6281073067745
 31
0.0
 73
     3
  0
TEXT
  5
A3
  8
DATA
 62
     7
 10
291.60000000000008
 20
-308.15675445004831
 30
0.0
 40
6.5153645833333318
  1
DVI to HDSDI変換機
 41
0.7
 11
291.60000000000008
 21
-301.64138986671497
 31
0.0
 73
     3
  0
LINE
  5
A4
  8
DATA
  6
CONTINUOUS
 62
     7
 10
-187.5
 20
-150.0
 30
0.0
 11
-187.5
 21
-106.0
 31
0.0
  0
LINE
  5
A5
  8
DATA
  6
CONTINUOUS
 62
     7
 10
197.5
 20
-150.0
 30
0.0
 11
-187.5
 21
-150.0
 31
0.0
  0
LINE
  5
A6
  8
DATA
  6
CONTINUOUS
 62
     7
 10
197.5
 20
-106.0
 30
0.0
 11
197.5
 21
-150.0
 31
0.0
  0
LINE
  5
A7
  8
DATA
  6
CONTINUOUS
 62
     7
 10
-187.5
 20
-106.0
 30
0.0
 11
197.5
 21
-106.0
 31
0.0
  0
LINE
  5
A8
  8
DATA
  6
CONTINUOUS
 62
     7
 10
231.25
 20
-150.0
 30
0.0
 11
231.25
 21
-106.0
 31
0.0
  0
LINE
  5
A9
  8
DATA
  6
CONTINUOUS
 62
     7
 10
405.25
 20
-150.0
 30
0.0
 11
231.25
 21
-150.0
 31
0.0
  0
LINE
  5
AA
  8
DATA
  6
CONTINUOUS
 62
     7
 10
405.25
 20
-106.0
 30
0.0
 11
405.25
 21
-150.0
 31
0.0
  0
LINE
  5
AB
  8
DATA
  6
CONTINUOUS
 62
     7
 10
231.25
 20
-106.0
 30
0.0
 11
405.25
 21
-106.0
 31
0.0
  0
LINE
  5
AC
  8
DATA
  6
CONTINUOUS
 62
     7
 10
-187.5
 20
-56.25
 30
0.0
 11
-187.5
 21
117.75
 31
0.0
  0
LINE
  5
AD
  8
DATA
  6
CONTINUOUS
 62
     7
 10
197.5
 20
-56.25
 30
0.0
 11
-187.5
 21
-56.25
 31
0.0
  0
LINE
  5
AE
  8
DATA
  6
CONTINUOUS
 62
     7
 10
197.5
 20
117.75
 30
0.0
 11
197.5
 21
-56.25
 31
0.0
  0
LINE
  5
AF
  8
DATA
  6
CONTINUOUS
 62
     7
 10
-187.5
 20
117.75
 30
0.0
 11
197.5
 21
117.75
 31
0.0
  0
LINE
  5
B0
  8
DATA
  6
CONTINUOUS
 62
     7
 10
-180.87893398294329
 20
-154.0
 30
0.0
 11
-182.37893398294321
 21
-150.0
 31
0.0
  0
LINE
  5
B1
  8
DATA
  6
CONTINUOUS
 62
     7
 10
-164.87893398294341
 20
-154.0
 30
0.0
 11
-163.37893398294341
 21
-150.0
 31
0.0
  0
LINE
  5
B2
  8
DATA
  6
CONTINUOUS
 62
     7
 10
-180.87893398294329
 20
-154.0
 30
0.0
 11
-164.87893398294329
 21
-154.0
 31
0.0
  0
LINE
  5
B3
  8
DATA
  6
CONTINUOUS
 62
     7
 10
190.87893398294321
 20
-154.0
 30
0.0
 11
192.37893398294329
 21
-150.0
 31
0.0
  0
LINE
  5
B4
  8
DATA
  6
CONTINUOUS
 62
     7
 10
174.87893398294341
 20
-154.0
 30
0.0
 11
173.37893398294341
 21
-150.0
 31
0.0
  0
LINE
  5
B5
  8
DATA
  6
CONTINUOUS
 62
     7
 10
190.87893398294321
 20
-154.0
 30
0.0
 11
174.87893398294341
 21
-154.0
 31
0.0
  0
CIRCLE
  5
B6
  8
DATA
  6
CONTINUOUS
 62
     7
 10
42.499999999999993
 20
-133.0
 30
0.0
 40
2.5
  0
CIRCLE
  5
B7
  8
DATA
  6
CONTINUOUS
 62
     7
 10
-164.5
 20
-133.0
 30
0.0
 40
2.5
  0
CIRCLE
  5
B8
  8
DATA
  6
CONTINUOUS
 62
     7
 10
175.5
 20
-133.0
 30
0.0
 40
1.5
  0
TEXT
  5
B9
  8
DATA
 62
     7
 10
-169.57674089109739
 20
-145.85229622111791
 30
0.0
 40
3.2576822916666659
  1
IR 1
 41
0.7
 11
-169.57674089109739
 21
-142.59461392945121
 31
0.0
 73
     3
  0
TEXT
  5
BA
  8
DATA
 62
     7
 10
38.413112805975018
 20
-145.85229622111791
 30
0.0
 40
3.2576822916666659
  1
IR 2
 41
0.7
 11
38.413112805975018
 21
-142.59461392945121
 31
0.0
 73
     3
  0
TEXT
  5
BB
  8
DATA
 62
     7
 10
170.316525493656
 20
-145.85229622111791
 30
0.0
 40
3.2576822916666659
  1
Power
 41
0.7
 11
170.316525493656
 21
-142.59461392945121
 31
0.0
 73
     3
  0
TEXT
  5
BC
  8
DATA
 62
     7
 10
66.019431575950364
 20
-126.8775452607601
 30
0.0
 40
9.7730468750000004
  1
DVI
 41
0.7
 11
66.019431575950364
 21
-117.1044983857601
 31
0.0
 73
     3
  0
TEXT
  5
BD
  8
DATA
 62
     7
 10
102.1523215548215
 20
-126.9174200908725
 30
0.0
 40
9.7730468750000004
  1
HDSDI
 41
0.7
 11
102.1523215548215
 21
-117.14437321587251
 31
0.0
 73
     3
  0
TEXT
  5
BE
  8
DATA
 62
     7
 10
87.691243185515873
 20
-126.9484261368252
 30
0.0
 40
7.6012586805555546
  1
to
 41
0.7
 11
87.691243185515873
 21
-119.3471674562696
 31
0.0
 73
     3
  0
TEXT
  5
BF
  8
DATA
 62
     7
 10
137.41144262874519
 20
-126.9503022027686
 30
0.0
 40
7.6012586805555546
  1
Pro Scaler
 41
0.7
 11
137.41144262874519
 21
-119.34904352221299
 31
0.0
 73
     3
  0
LINE
  5
C0
  8
DATA
  6
CONTINUOUS
 62
     7
 10
197.5
 20
-47.25
 30
0.0
 11
-187.5
 21
-47.25
 31
0.0
  0
LINE
  5
C1
  8
DATA
  6
CONTINUOUS
 62
     7
 10
-187.5
 20
244.0
 30
0.0
 11
-187.5
 21
200.0
 31
0.0
  0
LINE
  5
C2
  8
DATA
  6
CONTINUOUS
 62
     7
 10
197.5
 20
244.0
 30
0.0
 11
-187.5
 21
244.0
 31
0.0
  0
LINE
  5
C3
  8
DATA
  6
CONTINUOUS
 62
     7
 10
197.5
 20
200.0
 30
0.0
 11
197.5
 21
244.0
 31
0.0
  0
LINE
  5
C4
  8
DATA
  6
CONTINUOUS
 62
     7
 10
-187.5
 20
200.0
 30
0.0
 11
197.5
 21
200.0
 31
0.0
  0
LINE
  5
C5
  8
DATA
  6
CONTINUOUS
 62
     7
 10
-180.87893398294329
 20
248.0
 30
0.0
 11
-182.37893398294321
 21
244.0
 31
0.0
  0
LINE
  5
C6
  8
DATA
  6
CONTINUOUS
 62
     7
 10
-164.87893398294341
 20
248.0
 30
0.0
 11
-163.37893398294341
 21
244.0
 31
0.0
  0
LINE
  5
C7
  8
DATA
  6
CONTINUOUS
 62
     7
 10
-180.87893398294329
 20
248.0
 30
0.0
 11
-164.87893398294329
 21
248.0
 31
0.0
  0
LINE
  5
C8
  8
DATA
  6
CONTINUOUS
 62
     7
 10
190.87893398294321
 20
248.0
 30
0.0
 11
192.37893398294329
 21
244.0
 31
0.0
  0
LINE
  5
C9
  8
DATA
  6
CONTINUOUS
 62
     7
 10
174.87893398294341
 20
248.0
 30
0.0
 11
173.37893398294341
 21
244.0
 31
0.0
  0
LINE
  5
CA
  8
DATA
  6
CONTINUOUS
 62
     7
 10
190.87893398294321
 20
248.0
 30
0.0
 11
174.87893398294341
 21
248.0
 31
0.0
  0
CIRCLE
  5
CB
  8
DATA
  6
CONTINUOUS
 62
     7
 10
-71.961667190295501
 20
210.83460117014249
 30
0.0
 40
1.1750000000000389
  0
POLYLINE
  5
CC
  8
DATA
  6
CONTINUOUS
 62
     7
 66
     1
 10
0.0
 20
0.0
 30
0.0
 70
     1
  0
VERTEX
  5
59A
  8
DATA
  6
CONTINUOUS
 62
     7
 10
-71.961667190295501
 20
208.1346011701427
 30
0.0
  0
VERTEX
  5
59B
  8
DATA
  6
CONTINUOUS
 62
     7
 10
-69.623398600077721
 20
209.48460117014261
 30
0.0
  0
VERTEX
  5
59C
  8
DATA
  6
CONTINUOUS
 62
     7
 10
-69.623398600077721
 20
212.1846011701424
 30
0.0
  0
VERTEX
  5
59D
  8
DATA
  6
CONTINUOUS
 62
     7
 10
-71.961667190295501
 20
213.53460117014239
 30
0.0
  0
VERTEX
  5
59E
  8
DATA
  6
CONTINUOUS
 62
     7
 10
-74.299935780513493
 20
212.1846011701424
 30
0.0
  0
VERTEX
  5
59F
  8
DATA
  6
CONTINUOUS
 62
     7
 10
-74.299935780513493
 20
209.48460117014261
 30
0.0
  0
SEQEND
  5
5A0
  8
DATA
  6
CONTINUOUS
 62
     7
  0
CIRCLE
  5
D5
  8
DATA
  6
CONTINUOUS
 62
     7
 10
-46.961667190295458
 20
210.83460117014249
 30
0.0
 40
1.175000000000068
  0
POLYLINE
  5
D6
  8
DATA
  6
CONTINUOUS
 62
     7
 66
     1
 10
0.0
 20
0.0
 30
0.0
 70
     1
  0
VERTEX
  5
5A1
  8
DATA
  6
CONTINUOUS
 62
     7
 10
-46.961667190295458
 20
208.1346011701427
 30
0.0
  0
VERTEX
  5
5A2
  8
DATA
  6
CONTINUOUS
 62
     7
 10
-44.623398600077543
 20
209.48460117014261
 30
0.0
  0
VERTEX
  5
5A3
  8
DATA
  6
CONTINUOUS
 62
     7
 10
-44.623398600077543
 20
212.1846011701424
 30
0.0
  0
VERTEX
  5
5A4
  8
DATA
  6
CONTINUOUS
 62
     7
 10
-46.961667190295458
 20
213.53460117014239
 30
0.0
  0
VERTEX
  5
5A5
  8
DATA
  6
CONTINUOUS
 62
     7
 10
-49.299935780513508
 20
212.1846011701424
 30
0.0
  0
VERTEX
  5
5A6
  8
DATA
  6
CONTINUOUS
 62
     7
 10
-49.299935780513508
 20
209.48460117014261
 30
0.0
  0
SEQEND
  5
5A7
  8
DATA
  6
CONTINUOUS
 62
     7
  0
LINE
  5
DF
  8
DATA
  6
CONTINUOUS
 62
     7
 10
-65.063430400484194
 20
214.83460117014229
 30
0.0
 11
-53.859903980106971
 21
214.83460117014229
 31
0.0
  0
LINE
  5
E0
  8
DATA
  6
CONTINUOUS
 62
     7
 10
-53.047403980107099
 20
206.83460117014261
 30
0.0
 11
-65.875930400484194
 21
206.83460117014261
 31
0.0
  0
LINE
  5
E1
  8
DATA
  6
CONTINUOUS
 62
     7
 10
-52.476687132855417
 20
213.65072880252541
 30
0.0
 11
-51.664187132855531
 21
208.4507288025257
 31
0.0
  0
LINE
  5
E2
  8
DATA
  6
CONTINUOUS
 62
     7
 10
-67.259147247735754
 20
208.4507288025257
 30
0.0
 11
-66.446647247735754
 21
213.65072880252541
 31
0.0
  0
CIRCLE
  5
E3
  8
DATA
  6
CONTINUOUS
 62
     7
 10
-59.435037419820709
 20
209.19829299898899
 30
0.0
 40
0.5
  0
ARC
  5
E4
  8
DATA
  6
CONTINUOUS
 62
     7
 10
-53.047403980107099
 20
208.2346011701427
 30
0.0
 40
1.399999999999977
 50
270.0
 51
8.8806591505205574
  0
ARC
  5
E5
  8
DATA
  6
CONTINUOUS
 62
     7
 10
-65.875930400484194
 20
208.2346011701427
 30
0.0
 40
1.400000000000019
 50
171.1193408494795
 51
270.0
  0
ARC
  5
E6
  8
DATA
  6
CONTINUOUS
 62
     7
 10
-53.859903980106971
 20
213.43460117014229
 30
0.0
 40
1.400000000000019
 50
8.8806591505205308
 51
90.0
  0
ARC
  5
E7
  8
DATA
  6
CONTINUOUS
 62
     7
 10
-65.063430400484194
 20
213.43460117014229
 30
0.0
 40
1.400000000000005
 50
90.0
 51
171.1193408494795
  0
LINE
  5
E8
  8
DATA
  6
CONTINUOUS
 62
     7
 10
-66.620471120949773
 20
216.83460117014229
 30
0.0
 11
-52.302863259641512
 21
216.83460117014229
 31
0.0
  0
LINE
  5
E9
  8
DATA
  6
CONTINUOUS
 62
     7
 10
-51.284021539045128
 20
204.83460117014261
 30
0.0
 11
-67.639312841546129
 21
204.83460117014261
 31
0.0
  0
LINE
  5
EA
  8
DATA
  6
CONTINUOUS
 62
     7
 10
-49.312176311901723
 20
207.1690057158537
 30
0.0
 11
-50.725387077926868
 21
215.50212480671109
 31
0.0
  0
LINE
  5
EB
  8
DATA
  6
CONTINUOUS
 62
     7
 10
-69.611158068689392
 20
207.1690057158537
 30
0.0
 11
-68.19794730266436
 21
215.50212480671109
 31
0.0
  0
ARC
  5
EC
  8
DATA
  6
CONTINUOUS
 62
     7
 10
-51.284021539045128
 20
206.83460117014261
 30
0.0
 40
2.000000000000056
 50
270.0
 51
9.6251929436205064
  0
ARC
  5
ED
  8
DATA
  6
CONTINUOUS
 62
     7
 10
-67.639312841546129
 20
206.83460117014261
 30
0.0
 40
1.999999999999958
 50
170.37480705637881
 51
270.0
  0
ARC
  5
EE
  8
DATA
  6
CONTINUOUS
 62
     7
 10
-52.302863259641612
 20
215.2346011701423
 30
0.0
 40
1.600000000000114
 50
9.6251929436206716
 51
89.999999999995936
  0
ARC
  5
EF
  8
DATA
  6
CONTINUOUS
 62
     7
 10
-66.620471120949773
 20
215.2346011701423
 30
0.0
 40
1.599999999999965
 50
90.0
 51
170.3748070563783
  0
CIRCLE
  5
F0
  8
DATA
  6
CONTINUOUS
 62
     7
 10
-56.935037419820709
 20
209.19829299898899
 30
0.0
 40
0.5
  0
CIRCLE
  5
F1
  8
DATA
  6
CONTINUOUS
 62
     7
 10
-54.435037419820709
 20
209.19829299898899
 30
0.0
 40
0.5
  0
CIRCLE
  5
F2
  8
DATA
  6
CONTINUOUS
 62
     7
 10
-61.935037419820709
 20
209.19829299898899
 30
0.0
 40
0.5
  0
CIRCLE
  5
F3
  8
DATA
  6
CONTINUOUS
 62
     7
 10
-64.435037419820716
 20
209.19829299898899
 30
0.0
 40
0.5
  0
CIRCLE
  5
F4
  8
DATA
  6
CONTINUOUS
 62
     7
 10
-58.23952624374941
 20
212.8168134177514
 30
0.0
 40
0.5
  0
CIRCLE
  5
F5
  8
DATA
  6
CONTINUOUS
 62
     7
 10
-55.73952624374941
 20
212.8168134177514
 30
0.0
 40
0.5
  0
CIRCLE
  5
F6
  8
DATA
  6
CONTINUOUS
 62
     7
 10
-60.73952624374941
 20
212.8168134177514
 30
0.0
 40
0.5
  0
CIRCLE
  5
F7
  8
DATA
  6
CONTINUOUS
 62
     7
 10
-63.23952624374941
 20
212.8168134177514
 30
0.0
 40
0.5
  0
TEXT
  5
F8
  8
DATA
 62
     7
 10
-53.265954161741419
 20
220.9513457444578
 30
0.0
 40
2.4432617187500001
  1
RS-232/2
 50
180.0
 41
0.7
 11
-53.265954161741419
 21
218.50808402570769
 31
0.0
 73
     3
  0
CIRCLE
  5
F9
  8
DATA
  6
CONTINUOUS
 62
     7
 10
-43.916532986805812
 20
229.02670934294969
 30
0.0
 40
1.175000000000068
  0
POLYLINE
  5
FA
  8
DATA
  6
CONTINUOUS
 62
     7
 66
     1
 10
0.0
 20
0.0
 30
0.0
 70
     1
  0
VERTEX
  5
5A8
  8
DATA
  6
CONTINUOUS
 62
     7
 10
-43.916532986805812
 20
226.3267093429497
 30
0.0
  0
VERTEX
  5
5A9
  8
DATA
  6
CONTINUOUS
 62
     7
 10
-41.578264396587898
 20
227.67670934294969
 30
0.0
  0
VERTEX
  5
5AA
  8
DATA
  6
CONTINUOUS
 62
     7
 10
-41.578264396587898
 20
230.37670934294971
 30
0.0
  0
VERTEX
  5
5AB
  8
DATA
  6
CONTINUOUS
 62
     7
 10
-43.916532986805812
 20
231.72670934294959
 30
0.0
  0
VERTEX
  5
5AC
  8
DATA
  6
CONTINUOUS
 62
     7
 10
-46.254801577023862
 20
230.37670934294971
 30
0.0
  0
VERTEX
  5
5AD
  8
DATA
  6
CONTINUOUS
 62
     7
 10
-46.254801577023862
 20
227.67670934294969
 30
0.0
  0
SEQEND
  5
5AE
  8
DATA
  6
CONTINUOUS
 62
     7
  0
CIRCLE
  5
103
  8
DATA
  6
CONTINUOUS
 62
     7
 10
-76.416532986806345
 20
229.02670934294969
 30
0.0
 40
1.175000000000068
  0
POLYLINE
  5
104
  8
DATA
  6
CONTINUOUS
 62
     7
 66
     1
 10
0.0
 20
0.0
 30
0.0
 70
     1
  0
VERTEX
  5
5AF
  8
DATA
  6
CONTINUOUS
 62
     7
 10
-76.416532986806345
 20
226.3267093429497
 30
0.0
  0
VERTEX
  5
5B0
  8
DATA
  6
CONTINUOUS
 62
     7
 10
-74.078264396588423
 20
227.67670934294969
 30
0.0
  0
VERTEX
  5
5B1
  8
DATA
  6
CONTINUOUS
 62
     7
 10
-74.078264396588423
 20
230.37670934294971
 30
0.0
  0
VERTEX
  5
5B2
  8
DATA
  6
CONTINUOUS
 62
     7
 10
-76.416532986806345
 20
231.72670934294959
 30
0.0
  0
VERTEX
  5
5B3
  8
DATA
  6
CONTINUOUS
 62
     7
 10
-78.754801577024352
 20
230.37670934294971
 30
0.0
  0
VERTEX
  5
5B4
  8
DATA
  6
CONTINUOUS
 62
     7
 10
-78.754801577024352
 20
227.67670934294969
 30
0.0
  0
SEQEND
  5
5B5
  8
DATA
  6
CONTINUOUS
 62
     7
  0
LINE
  5
10D
  8
DATA
  6
CONTINUOUS
 62
     7
 10
-49.216628099614141
 20
225.1017093429497
 30
0.0
 11
-71.116437873998294
 21
225.1017093429497
 31
0.0
  0
LINE
  5
10E
  8
DATA
  6
CONTINUOUS
 62
     7
 10
-70.557520676546076
 20
232.9517093429497
 30
0.0
 11
-49.775545297066422
 21
232.9517093429497
 31
0.0
  0
POLYLINE
  5
10F
  8
DATA
  6
CONTINUOUS
 62
     7
 66
     1
 10
0.0
 20
0.0
 30
0.0
 70
     1
  0
VERTEX
  5
5B6
  8
DATA
  6
CONTINUOUS
 62
     7
 10
-50.696466815626543
 20
229.7917093429497
 30
0.0
  0
VERTEX
  5
5B7
  8
DATA
  6
CONTINUOUS
 62
     7
 10
-49.166466815626571
 20
229.7917093429497
 30
0.0
  0
VERTEX
  5
5B8
  8
DATA
  6
CONTINUOUS
 62
     7
 10
-49.166466815626571
 20
228.2617093429497
 30
0.0
  0
VERTEX
  5
5B9
  8
DATA
  6
CONTINUOUS
 62
     7
 10
-50.696466815626543
 20
228.2617093429497
 30
0.0
  0
SEQEND
  5
5BA
  8
DATA
  6
CONTINUOUS
 62
     7
  0
POLYLINE
  5
116
  8
DATA
  6
CONTINUOUS
 62
     7
 66
     1
 10
0.0
 20
0.0
 30
0.0
 70
     1
  0
VERTEX
  5
5BB
  8
DATA
  6
CONTINUOUS
 62
     7
 10
-52.69646681562655
 20
229.7917093429497
 30
0.0
  0
VERTEX
  5
5BC
  8
DATA
  6
CONTINUOUS
 62
     7
 10
-51.166466815626571
 20
229.7917093429497
 30
0.0
  0
VERTEX
  5
5BD
  8
DATA
  6
CONTINUOUS
 62
     7
 10
-51.166466815626571
 20
228.2617093429497
 30
0.0
  0
VERTEX
  5
5BE
  8
DATA
  6
CONTINUOUS
 62
     7
 10
-52.69646681562655
 20
228.2617093429497
 30
0.0
  0
SEQEND
  5
5BF
  8
DATA
  6
CONTINUOUS
 62
     7
  0
POLYLINE
  5
11D
  8
DATA
  6
CONTINUOUS
 62
     7
 66
     1
 10
0.0
 20
0.0
 30
0.0
 70
     1
  0
VERTEX
  5
5C0
  8
DATA
  6
CONTINUOUS
 62
     7
 10
-54.696466815626543
 20
229.7917093429497
 30
0.0
  0
VERTEX
  5
5C1
  8
DATA
  6
CONTINUOUS
 62
     7
 10
-53.166466815626571
 20
229.7917093429497
 30
0.0
  0
VERTEX
  5
5C2
  8
DATA
  6
CONTINUOUS
 62
     7
 10
-53.166466815626571
 20
228.2617093429497
 30
0.0
  0
VERTEX
  5
5C3
  8
DATA
  6
CONTINUOUS
 62
     7
 10
-54.696466815626543
 20
228.2617093429497
 30
0.0
  0
SEQEND
  5
5C4
  8
DATA
  6
CONTINUOUS
 62
     7
  0
POLYLINE
  5
124
  8
DATA
  6
CONTINUOUS
 62
     7
 66
     1
 10
0.0
 20
0.0
 30
0.0
 70
     1
  0
VERTEX
  5
5C5
  8
DATA
  6
CONTINUOUS
 62
     7
 10
-56.696466815626543
 20
229.7917093429497
 30
0.0
  0
VERTEX
  5
5C6
  8
DATA
  6
CONTINUOUS
 62
     7
 10
-55.166466815626571
 20
229.7917093429497
 30
0.0
  0
VERTEX
  5
5C7
  8
DATA
  6
CONTINUOUS
 62
     7
 10
-55.166466815626571
 20
228.2617093429497
 30
0.0
  0
VERTEX
  5
5C8
  8
DATA
  6
CONTINUOUS
 62
     7
 10
-56.696466815626543
 20
228.2617093429497
 30
0.0
  0
SEQEND
  5
5C9
  8
DATA
  6
CONTINUOUS
 62
     7
  0
POLYLINE
  5
12B
  8
DATA
  6
CONTINUOUS
 62
     7
 66
     1
 10
0.0
 20
0.0
 30
0.0
 70
     1
  0
VERTEX
  5
5CA
  8
DATA
  6
CONTINUOUS
 62
     7
 10
-58.696466815626657
 20
229.7917093429497
 30
0.0
  0
VERTEX
  5
5CB
  8
DATA
  6
CONTINUOUS
 62
     7
 10
-57.166466815626571
 20
229.7917093429497
 30
0.0
  0
VERTEX
  5
5CC
  8
DATA
  6
CONTINUOUS
 62
     7
 10
-57.166466815626571
 20
228.2617093429497
 30
0.0
  0
VERTEX
  5
5CD
  8
DATA
  6
CONTINUOUS
 62
     7
 10
-58.696466815626657
 20
228.2617093429497
 30
0.0
  0
SEQEND
  5
5CE
  8
DATA
  6
CONTINUOUS
 62
     7
  0
POLYLINE
  5
132
  8
DATA
  6
CONTINUOUS
 62
     7
 66
     1
 10
0.0
 20
0.0
 30
0.0
 70
     1
  0
VERTEX
  5
5CF
  8
DATA
  6
CONTINUOUS
 62
     7
 10
-60.696466815626813
 20
229.7917093429497
 30
0.0
  0
VERTEX
  5
5D0
  8
DATA
  6
CONTINUOUS
 62
     7
 10
-59.16646681562672
 20
229.7917093429497
 30
0.0
  0
VERTEX
  5
5D1
  8
DATA
  6
CONTINUOUS
 62
     7
 10
-59.16646681562672
 20
228.2617093429497
 30
0.0
  0
VERTEX
  5
5D2
  8
DATA
  6
CONTINUOUS
 62
     7
 10
-60.696466815626813
 20
228.2617093429497
 30
0.0
  0
SEQEND
  5
5D3
  8
DATA
  6
CONTINUOUS
 62
     7
  0
POLYLINE
  5
139
  8
DATA
  6
CONTINUOUS
 62
     7
 66
     1
 10
0.0
 20
0.0
 30
0.0
 70
     1
  0
VERTEX
  5
5D4
  8
DATA
  6
CONTINUOUS
 62
     7
 10
-62.696466815626948
 20
229.7917093429497
 30
0.0
  0
VERTEX
  5
5D5
  8
DATA
  6
CONTINUOUS
 62
     7
 10
-61.166466815626862
 20
229.7917093429497
 30
0.0
  0
VERTEX
  5
5D6
  8
DATA
  6
CONTINUOUS
 62
     7
 10
-61.166466815626862
 20
228.2617093429497
 30
0.0
  0
VERTEX
  5
5D7
  8
DATA
  6
CONTINUOUS
 62
     7
 10
-62.696466815626948
 20
228.2617093429497
 30
0.0
  0
SEQEND
  5
5D8
  8
DATA
  6
CONTINUOUS
 62
     7
  0
POLYLINE
  5
140
  8
DATA
  6
CONTINUOUS
 62
     7
 66
     1
 10
0.0
 20
0.0
 30
0.0
 70
     1
  0
VERTEX
  5
5D9
  8
DATA
  6
CONTINUOUS
 62
     7
 10
-64.696466815627105
 20
229.7917093429497
 30
0.0
  0
VERTEX
  5
5DA
  8
DATA
  6
CONTINUOUS
 62
     7
 10
-63.166466815627011
 20
229.7917093429497
 30
0.0
  0
VERTEX
  5
5DB
  8
DATA
  6
CONTINUOUS
 62
     7
 10
-63.166466815627011
 20
228.2617093429497
 30
0.0
  0
VERTEX
  5
5DC
  8
DATA
  6
CONTINUOUS
 62
     7
 10
-64.696466815627105
 20
228.2617093429497
 30
0.0
  0
SEQEND
  5
5DD
  8
DATA
  6
CONTINUOUS
 62
     7
  0
POLYLINE
  5
147
  8
DATA
  6
CONTINUOUS
 62
     7
 66
     1
 10
0.0
 20
0.0
 30
0.0
 70
     1
  0
VERTEX
  5
5DE
  8
DATA
  6
CONTINUOUS
 62
     7
 10
-50.696466815626543
 20
227.79170934294959
 30
0.0
  0
VERTEX
  5
5DF
  8
DATA
  6
CONTINUOUS
 62
     7
 10
-49.166466815626571
 20
227.79170934294959
 30
0.0
  0
VERTEX
  5
5E0
  8
DATA
  6
CONTINUOUS
 62
     7
 10
-49.166466815626571
 20
226.2617093429497
 30
0.0
  0
VERTEX
  5
5E1
  8
DATA
  6
CONTINUOUS
 62
     7
 10
-50.696466815626543
 20
226.2617093429497
 30
0.0
  0
SEQEND
  5
5E2
  8
DATA
  6
CONTINUOUS
 62
     7
  0
POLYLINE
  5
14E
  8
DATA
  6
CONTINUOUS
 62
     7
 66
     1
 10
0.0
 20
0.0
 30
0.0
 70
     1
  0
VERTEX
  5
5E3
  8
DATA
  6
CONTINUOUS
 62
     7
 10
-52.69646681562655
 20
227.79170934294959
 30
0.0
  0
VERTEX
  5
5E4
  8
DATA
  6
CONTINUOUS
 62
     7
 10
-51.166466815626571
 20
227.79170934294959
 30
0.0
  0
VERTEX
  5
5E5
  8
DATA
  6
CONTINUOUS
 62
     7
 10
-51.166466815626571
 20
226.2617093429497
 30
0.0
  0
VERTEX
  5
5E6
  8
DATA
  6
CONTINUOUS
 62
     7
 10
-52.69646681562655
 20
226.2617093429497
 30
0.0
  0
SEQEND
  5
5E7
  8
DATA
  6
CONTINUOUS
 62
     7
  0
POLYLINE
  5
155
  8
DATA
  6
CONTINUOUS
 62
     7
 66
     1
 10
0.0
 20
0.0
 30
0.0
 70
     1
  0
VERTEX
  5
5E8
  8
DATA
  6
CONTINUOUS
 62
     7
 10
-54.696466815626543
 20
227.79170934294959
 30
0.0
  0
VERTEX
  5
5E9
  8
DATA
  6
CONTINUOUS
 62
     7
 10
-53.166466815626571
 20
227.79170934294959
 30
0.0
  0
VERTEX
  5
5EA
  8
DATA
  6
CONTINUOUS
 62
     7
 10
-53.166466815626571
 20
226.2617093429497
 30
0.0
  0
VERTEX
  5
5EB
  8
DATA
  6
CONTINUOUS
 62
     7
 10
-54.696466815626543
 20
226.2617093429497
 30
0.0
  0
SEQEND
  5
5EC
  8
DATA
  6
CONTINUOUS
 62
     7
  0
POLYLINE
  5
15C
  8
DATA
  6
CONTINUOUS
 62
     7
 66
     1
 10
0.0
 20
0.0
 30
0.0
 70
     1
  0
VERTEX
  5
5ED
  8
DATA
  6
CONTINUOUS
 62
     7
 10
-56.696466815626543
 20
227.79170934294959
 30
0.0
  0
VERTEX
  5
5EE
  8
DATA
  6
CONTINUOUS
 62
     7
 10
-55.166466815626571
 20
227.79170934294959
 30
0.0
  0
VERTEX
  5
5EF
  8
DATA
  6
CONTINUOUS
 62
     7
 10
-55.166466815626571
 20
226.2617093429497
 30
0.0
  0
VERTEX
  5
5F0
  8
DATA
  6
CONTINUOUS
 62
     7
 10
-56.696466815626543
 20
226.2617093429497
 30
0.0
  0
SEQEND
  5
5F1
  8
DATA
  6
CONTINUOUS
 62
     7
  0
POLYLINE
  5
163
  8
DATA
  6
CONTINUOUS
 62
     7
 66
     1
 10
0.0
 20
0.0
 30
0.0
 70
     1
  0
VERTEX
  5
5F2
  8
DATA
  6
CONTINUOUS
 62
     7
 10
-58.696466815626657
 20
227.79170934294959
 30
0.0
  0
VERTEX
  5
5F3
  8
DATA
  6
CONTINUOUS
 62
     7
 10
-57.166466815626571
 20
227.79170934294959
 30
0.0
  0
VERTEX
  5
5F4
  8
DATA
  6
CONTINUOUS
 62
     7
 10
-57.166466815626571
 20
226.2617093429497
 30
0.0
  0
VERTEX
  5
5F5
  8
DATA
  6
CONTINUOUS
 62
     7
 10
-58.696466815626657
 20
226.2617093429497
 30
0.0
  0
SEQEND
  5
5F6
  8
DATA
  6
CONTINUOUS
 62
     7
  0
POLYLINE
  5
16A
  8
DATA
  6
CONTINUOUS
 62
     7
 66
     1
 10
0.0
 20
0.0
 30
0.0
 70
     1
  0
VERTEX
  5
5F7
  8
DATA
  6
CONTINUOUS
 62
     7
 10
-60.696466815626813
 20
227.79170934294959
 30
0.0
  0
VERTEX
  5
5F8
  8
DATA
  6
CONTINUOUS
 62
     7
 10
-59.16646681562672
 20
227.79170934294959
 30
0.0
  0
VERTEX
  5
5F9
  8
DATA
  6
CONTINUOUS
 62
     7
 10
-59.16646681562672
 20
226.2617093429497
 30
0.0
  0
VERTEX
  5
5FA
  8
DATA
  6
CONTINUOUS
 62
     7
 10
-60.696466815626813
 20
226.2617093429497
 30
0.0
  0
SEQEND
  5
5FB
  8
DATA
  6
CONTINUOUS
 62
     7
  0
POLYLINE
  5
171
  8
DATA
  6
CONTINUOUS
 62
     7
 66
     1
 10
0.0
 20
0.0
 30
0.0
 70
     1
  0
VERTEX
  5
5FC
  8
DATA
  6
CONTINUOUS
 62
     7
 10
-62.696466815626948
 20
227.79170934294959
 30
0.0
  0
VERTEX
  5
5FD
  8
DATA
  6
CONTINUOUS
 62
     7
 10
-61.166466815626862
 20
227.79170934294959
 30
0.0
  0
VERTEX
  5
5FE
  8
DATA
  6
CONTINUOUS
 62
     7
 10
-61.166466815626862
 20
226.2617093429497
 30
0.0
  0
VERTEX
  5
5FF
  8
DATA
  6
CONTINUOUS
 62
     7
 10
-62.696466815626948
 20
226.2617093429497
 30
0.0
  0
SEQEND
  5
600
  8
DATA
  6
CONTINUOUS
 62
     7
  0
POLYLINE
  5
178
  8
DATA
  6
CONTINUOUS
 62
     7
 66
     1
 10
0.0
 20
0.0
 30
0.0
 70
     1
  0
VERTEX
  5
601
  8
DATA
  6
CONTINUOUS
 62
     7
 10
-64.696466815627105
 20
227.79170934294959
 30
0.0
  0
VERTEX
  5
602
  8
DATA
  6
CONTINUOUS
 62
     7
 10
-63.166466815627011
 20
227.79170934294959
 30
0.0
  0
VERTEX
  5
603
  8
DATA
  6
CONTINUOUS
 62
     7
 10
-63.166466815627011
 20
226.2617093429497
 30
0.0
  0
VERTEX
  5
604
  8
DATA
  6
CONTINUOUS
 62
     7
 10
-64.696466815627105
 20
226.2617093429497
 30
0.0
  0
SEQEND
  5
605
  8
DATA
  6
CONTINUOUS
 62
     7
  0
POLYLINE
  5
17F
  8
DATA
  6
CONTINUOUS
 62
     7
 66
     1
 10
0.0
 20
0.0
 30
0.0
 70
     1
  0
VERTEX
  5
606
  8
DATA
  6
CONTINUOUS
 62
     7
 10
-50.696466815626543
 20
231.7917093429497
 30
0.0
  0
VERTEX
  5
607
  8
DATA
  6
CONTINUOUS
 62
     7
 10
-49.166466815626571
 20
231.7917093429497
 30
0.0
  0
VERTEX
  5
608
  8
DATA
  6
CONTINUOUS
 62
     7
 10
-49.166466815626571
 20
230.2617093429497
 30
0.0
  0
VERTEX
  5
609
  8
DATA
  6
CONTINUOUS
 62
     7
 10
-50.696466815626543
 20
230.2617093429497
 30
0.0
  0
SEQEND
  5
60A
  8
DATA
  6
CONTINUOUS
 62
     7
  0
POLYLINE
  5
186
  8
DATA
  6
CONTINUOUS
 62
     7
 66
     1
 10
0.0
 20
0.0
 30
0.0
 70
     1
  0
VERTEX
  5
60B
  8
DATA
  6
CONTINUOUS
 62
     7
 10
-52.69646681562655
 20
231.7917093429497
 30
0.0
  0
VERTEX
  5
60C
  8
DATA
  6
CONTINUOUS
 62
     7
 10
-51.166466815626571
 20
231.7917093429497
 30
0.0
  0
VERTEX
  5
60D
  8
DATA
  6
CONTINUOUS
 62
     7
 10
-51.166466815626571
 20
230.2617093429497
 30
0.0
  0
VERTEX
  5
60E
  8
DATA
  6
CONTINUOUS
 62
     7
 10
-52.69646681562655
 20
230.2617093429497
 30
0.0
  0
SEQEND
  5
60F
  8
DATA
  6
CONTINUOUS
 62
     7
  0
POLYLINE
  5
18D
  8
DATA
  6
CONTINUOUS
 62
     7
 66
     1
 10
0.0
 20
0.0
 30
0.0
 70
     1
  0
VERTEX
  5
610
  8
DATA
  6
CONTINUOUS
 62
     7
 10
-54.696466815626543
 20
231.7917093429497
 30
0.0
  0
VERTEX
  5
611
  8
DATA
  6
CONTINUOUS
 62
     7
 10
-53.166466815626571
 20
231.7917093429497
 30
0.0
  0
VERTEX
  5
612
  8
DATA
  6
CONTINUOUS
 62
     7
 10
-53.166466815626571
 20
230.2617093429497
 30
0.0
  0
VERTEX
  5
613
  8
DATA
  6
CONTINUOUS
 62
     7
 10
-54.696466815626543
 20
230.2617093429497
 30
0.0
  0
SEQEND
  5
614
  8
DATA
  6
CONTINUOUS
 62
     7
  0
POLYLINE
  5
194
  8
DATA
  6
CONTINUOUS
 62
     7
 66
     1
 10
0.0
 20
0.0
 30
0.0
 70
     1
  0
VERTEX
  5
615
  8
DATA
  6
CONTINUOUS
 62
     7
 10
-56.696466815626543
 20
231.7917093429497
 30
0.0
  0
VERTEX
  5
616
  8
DATA
  6
CONTINUOUS
 62
     7
 10
-55.166466815626571
 20
231.7917093429497
 30
0.0
  0
VERTEX
  5
617
  8
DATA
  6
CONTINUOUS
 62
     7
 10
-55.166466815626571
 20
230.2617093429497
 30
0.0
  0
VERTEX
  5
618
  8
DATA
  6
CONTINUOUS
 62
     7
 10
-56.696466815626543
 20
230.2617093429497
 30
0.0
  0
SEQEND
  5
619
  8
DATA
  6
CONTINUOUS
 62
     7
  0
POLYLINE
  5
19B
  8
DATA
  6
CONTINUOUS
 62
     7
 66
     1
 10
0.0
 20
0.0
 30
0.0
 70
     1
  0
VERTEX
  5
61A
  8
DATA
  6
CONTINUOUS
 62
     7
 10
-58.696466815626657
 20
231.7917093429497
 30
0.0
  0
VERTEX
  5
61B
  8
DATA
  6
CONTINUOUS
 62
     7
 10
-57.166466815626571
 20
231.7917093429497
 30
0.0
  0
VERTEX
  5
61C
  8
DATA
  6
CONTINUOUS
 62
     7
 10
-57.166466815626571
 20
230.2617093429497
 30
0.0
  0
VERTEX
  5
61D
  8
DATA
  6
CONTINUOUS
 62
     7
 10
-58.696466815626657
 20
230.2617093429497
 30
0.0
  0
SEQEND
  5
61E
  8
DATA
  6
CONTINUOUS
 62
     7
  0
POLYLINE
  5
1A2
  8
DATA
  6
CONTINUOUS
 62
     7
 66
     1
 10
0.0
 20
0.0
 30
0.0
 70
     1
  0
VERTEX
  5
61F
  8
DATA
  6
CONTINUOUS
 62
     7
 10
-60.696466815626813
 20
231.7917093429497
 30
0.0
  0
VERTEX
  5
620
  8
DATA
  6
CONTINUOUS
 62
     7
 10
-59.16646681562672
 20
231.7917093429497
 30
0.0
  0
VERTEX
  5
621
  8
DATA
  6
CONTINUOUS
 62
     7
 10
-59.16646681562672
 20
230.2617093429497
 30
0.0
  0
VERTEX
  5
622
  8
DATA
  6
CONTINUOUS
 62
     7
 10
-60.696466815626813
 20
230.2617093429497
 30
0.0
  0
SEQEND
  5
623
  8
DATA
  6
CONTINUOUS
 62
     7
  0
POLYLINE
  5
1A9
  8
DATA
  6
CONTINUOUS
 62
     7
 66
     1
 10
0.0
 20
0.0
 30
0.0
 70
     1
  0
VERTEX
  5
624
  8
DATA
  6
CONTINUOUS
 62
     7
 10
-62.696466815626948
 20
231.7917093429497
 30
0.0
  0
VERTEX
  5
625
  8
DATA
  6
CONTINUOUS
 62
     7
 10
-61.166466815626862
 20
231.7917093429497
 30
0.0
  0
VERTEX
  5
626
  8
DATA
  6
CONTINUOUS
 62
     7
 10
-61.166466815626862
 20
230.2617093429497
 30
0.0
  0
VERTEX
  5
627
  8
DATA
  6
CONTINUOUS
 62
     7
 10
-62.696466815626948
 20
230.2617093429497
 30
0.0
  0
SEQEND
  5
628
  8
DATA
  6
CONTINUOUS
 62
     7
  0
POLYLINE
  5
1B0
  8
DATA
  6
CONTINUOUS
 62
     7
 66
     1
 10
0.0
 20
0.0
 30
0.0
 70
     1
  0
VERTEX
  5
629
  8
DATA
  6
CONTINUOUS
 62
     7
 10
-64.696466815627105
 20
231.7917093429497
 30
0.0
  0
VERTEX
  5
62A
  8
DATA
  6
CONTINUOUS
 62
     7
 10
-63.166466815627011
 20
231.7917093429497
 30
0.0
  0
VERTEX
  5
62B
  8
DATA
  6
CONTINUOUS
 62
     7
 10
-63.166466815627011
 20
230.2617093429497
 30
0.0
  0
VERTEX
  5
62C
  8
DATA
  6
CONTINUOUS
 62
     7
 10
-64.696466815627105
 20
230.2617093429497
 30
0.0
  0
SEQEND
  5
62D
  8
DATA
  6
CONTINUOUS
 62
     7
  0
POLYLINE
  5
1B7
  8
DATA
  6
CONTINUOUS
 62
     7
 66
     1
 10
0.0
 20
0.0
 30
0.0
  0
VERTEX
  5
62E
  8
DATA
  6
CONTINUOUS
 62
     7
 10
-68.71653298680674
 20
228.62670934294971
 30
0.0
  0
VERTEX
  5
62F
  8
DATA
  6
CONTINUOUS
 62
     7
 10
-70.816532986806664
 20
228.62670934294971
 30
0.0
  0
VERTEX
  5
630
  8
DATA
  6
CONTINUOUS
 62
     7
 10
-70.816532986806664
 20
229.42670934294969
 30
0.0
  0
VERTEX
  5
631
  8
DATA
  6
CONTINUOUS
 62
     7
 10
-68.71653298680674
 20
229.42670934294969
 30
0.0
  0
SEQEND
  5
632
  8
DATA
  6
CONTINUOUS
 62
     7
  0
POLYLINE
  5
1BE
  8
DATA
  6
CONTINUOUS
 62
     7
 66
     1
 10
0.0
 20
0.0
 30
0.0
  0
VERTEX
  5
633
  8
DATA
  6
CONTINUOUS
 62
     7
 10
-67.9165329868068
 20
229.42670934294969
 30
0.0
  0
VERTEX
  5
634
  8
DATA
  6
CONTINUOUS
 62
     7
 10
-65.816532986806649
 20
229.42670934294969
 30
0.0
  0
VERTEX
  5
635
  8
DATA
  6
CONTINUOUS
 62
     7
 10
-65.816532986806649
 20
228.62670934294971
 30
0.0
  0
VERTEX
  5
636
  8
DATA
  6
CONTINUOUS
 62
     7
 10
-67.9165329868068
 20
228.62670934294971
 30
0.0
  0
SEQEND
  5
637
  8
DATA
  6
CONTINUOUS
 62
     7
  0
POLYLINE
  5
1C5
  8
DATA
  6
CONTINUOUS
 62
     7
 66
     1
 10
0.0
 20
0.0
 30
0.0
  0
VERTEX
  5
638
  8
DATA
  6
CONTINUOUS
 62
     7
 10
-68.71653298680674
 20
229.42670934294969
 30
0.0
  0
VERTEX
  5
639
  8
DATA
  6
CONTINUOUS
 62
     7
 10
-68.71653298680674
 20
231.52670934294969
 30
0.0
  0
VERTEX
  5
63A
  8
DATA
  6
CONTINUOUS
 62
     7
 10
-67.9165329868068
 20
231.52670934294969
 30
0.0
  0
VERTEX
  5
63B
  8
DATA
  6
CONTINUOUS
 62
     7
 10
-67.9165329868068
 20
229.42670934294969
 30
0.0
  0
SEQEND
  5
63C
  8
DATA
  6
CONTINUOUS
 62
     7
  0
POLYLINE
  5
1CC
  8
DATA
  6
CONTINUOUS
 62
     7
 66
     1
 10
0.0
 20
0.0
 30
0.0
  0
VERTEX
  5
63D
  8
DATA
  6
CONTINUOUS
 62
     7
 10
-67.9165329868068
 20
228.62670934294971
 30
0.0
  0
VERTEX
  5
63E
  8
DATA
  6
CONTINUOUS
 62
     7
 10
-67.9165329868068
 20
226.52670934294969
 30
0.0
  0
VERTEX
  5
63F
  8
DATA
  6
CONTINUOUS
 62
     7
 10
-68.71653298680674
 20
226.52670934294969
 30
0.0
  0
VERTEX
  5
640
  8
DATA
  6
CONTINUOUS
 62
     7
 10
-68.71653298680674
 20
228.62670934294971
 30
0.0
  0
SEQEND
  5
641
  8
DATA
  6
CONTINUOUS
 62
     7
  0
POLYLINE
  5
1D3
  8
DATA
  6
CONTINUOUS
 62
     7
 66
     1
 10
0.0
 20
0.0
 30
0.0
 70
     1
  0
VERTEX
  5
642
  8
DATA
  6
CONTINUOUS
 62
     7
 10
-67.456248556335041
 20
228.26728153229971
 30
0.0
  0
VERTEX
  5
643
  8
DATA
  6
CONTINUOUS
 62
     7
 10
-66.45624855633497
 20
228.26728153229971
 30
0.0
  0
VERTEX
  5
644
  8
DATA
  6
CONTINUOUS
 62
     7
 10
-66.45624855633497
 20
227.26728153229979
 30
0.0
  0
VERTEX
  5
645
  8
DATA
  6
CONTINUOUS
 62
     7
 10
-67.456248556335041
 20
227.26728153229979
 30
0.0
  0
SEQEND
  5
646
  8
DATA
  6
CONTINUOUS
 62
     7
  0
POLYLINE
  5
1DA
  8
DATA
  6
CONTINUOUS
 62
     7
 66
     1
 10
0.0
 20
0.0
 30
0.0
 70
     1
  0
VERTEX
  5
647
  8
DATA
  6
CONTINUOUS
 62
     7
 10
-70.176817417278428
 20
228.26728153229971
 30
0.0
  0
VERTEX
  5
648
  8
DATA
  6
CONTINUOUS
 62
     7
 10
-69.176817417278457
 20
228.26728153229971
 30
0.0
  0
VERTEX
  5
649
  8
DATA
  6
CONTINUOUS
 62
     7
 10
-69.176817417278457
 20
227.26728153229979
 30
0.0
  0
VERTEX
  5
64A
  8
DATA
  6
CONTINUOUS
 62
     7
 10
-70.176817417278428
 20
227.26728153229979
 30
0.0
  0
SEQEND
  5
64B
  8
DATA
  6
CONTINUOUS
 62
     7
  0
POLYLINE
  5
1E1
  8
DATA
  6
CONTINUOUS
 62
     7
 66
     1
 10
0.0
 20
0.0
 30
0.0
 70
     1
  0
VERTEX
  5
64C
  8
DATA
  6
CONTINUOUS
 62
     7
 10
-67.456248556335041
 20
230.78613715359961
 30
0.0
  0
VERTEX
  5
64D
  8
DATA
  6
CONTINUOUS
 62
     7
 10
-66.45624855633497
 20
230.78613715359961
 30
0.0
  0
VERTEX
  5
64E
  8
DATA
  6
CONTINUOUS
 62
     7
 10
-66.45624855633497
 20
229.78613715359961
 30
0.0
  0
VERTEX
  5
64F
  8
DATA
  6
CONTINUOUS
 62
     7
 10
-67.456248556335041
 20
229.78613715359961
 30
0.0
  0
SEQEND
  5
650
  8
DATA
  6
CONTINUOUS
 62
     7
  0
POLYLINE
  5
1E8
  8
DATA
  6
CONTINUOUS
 62
     7
 66
     1
 10
0.0
 20
0.0
 30
0.0
 70
     1
  0
VERTEX
  5
651
  8
DATA
  6
CONTINUOUS
 62
     7
 10
-70.176817417278428
 20
230.78613715359961
 30
0.0
  0
VERTEX
  5
652
  8
DATA
  6
CONTINUOUS
 62
     7
 10
-69.176817417278457
 20
230.78613715359961
 30
0.0
  0
VERTEX
  5
653
  8
DATA
  6
CONTINUOUS
 62
     7
 10
-69.176817417278457
 20
229.78613715359961
 30
0.0
  0
VERTEX
  5
654
  8
DATA
  6
CONTINUOUS
 62
     7
 10
-70.176817417278428
 20
229.78613715359961
 30
0.0
  0
SEQEND
  5
655
  8
DATA
  6
CONTINUOUS
 62
     7
  0
LINE
  5
1EF
  8
DATA
  6
CONTINUOUS
 62
     7
 10
-48.221161168858721
 20
226.19681764843591
 30
0.0
 11
-48.780078366311059
 21
232.0468176484359
 31
0.0
  0
LINE
  5
1F0
  8
DATA
  6
CONTINUOUS
 62
     7
 10
-72.111904804753578
 20
226.19681764843591
 30
0.0
 11
-71.552987607301375
 21
232.0468176484359
 31
0.0
  0
ARC
  5
1F1
  8
DATA
  6
CONTINUOUS
 62
     7
 10
-49.216628099614141
 20
226.10170934294959
 30
0.0
 40
1.0
 50
270.0
 51
5.4575534851073844
  0
ARC
  5
1F2
  8
DATA
  6
CONTINUOUS
 62
     7
 10
-71.116437873998294
 20
226.10170934294959
 30
0.0
 40
0.9999999999999191
 50
174.54244651489199
 51
270.0
  0
ARC
  5
1F3
  8
DATA
  6
CONTINUOUS
 62
     7
 10
-49.775545297066422
 20
231.9517093429497
 30
0.0
 40
0.9999999999999754
 50
5.4575534851077103
 51
90.0
  0
ARC
  5
1F4
  8
DATA
  6
CONTINUOUS
 62
     7
 10
-70.557520676546076
 20
231.9517093429497
 30
0.0
 40
1.0
 50
90.0
 51
174.5424465148952
  0
TEXT
  5
1F5
  8
DATA
 62
     7
 10
-53.407273790448073
 20
239.58834537615371
 30
0.0
 40
2.4432617187500001
  1
DVI In 2
 50
180.0
 41
0.7
 11
-53.407273790448073
 21
237.14508365740369
 31
0.0
 73
     3
  0
CIRCLE
  5
1F6
  8
DATA
  6
CONTINUOUS
 62
     7
 10
-155.5083507671763
 20
223.87594882278739
 30
0.0
 40
4.75
  0
ARC
  5
1F7
  8
DATA
  6
CONTINUOUS
 62
     7
 10
-155.5083507671763
 20
223.87594882278739
 30
0.0
 40
7.3500000000000218
 50
114.6373448625971
 51
150.1429251864902
  0
ARC
  5
1F8
  8
DATA
  6
CONTINUOUS
 62
     7
 10
-155.5083507671763
 20
223.87594882278739
 30
0.0
 40
7.3500000000000281
 50
174.63734486259261
 51
210.14292518649441
  0
ARC
  5
1F9
  8
DATA
  6
CONTINUOUS
 62
     7
 10
-155.5083507671763
 20
223.87594882278739
 30
0.0
 40
7.3500000000000032
 50
234.63734486259631
 51
270.14292518649091
  0
ARC
  5
1FA
  8
DATA
  6
CONTINUOUS
 62
     7
 10
-155.5083507671763
 20
223.87594882278739
 30
0.0
 40
7.3500000000000094
 50
294.63734486259688
 51
330.14292518649057
  0
ARC
  5
1FB
  8
DATA
  6
CONTINUOUS
 62
     7
 10
-155.5083507671763
 20
223.87594882278739
 30
0.0
 40
7.3500000000000032
 50
354.6373448625971
 51
30.142925186490231
  0
ARC
  5
1FC
  8
DATA
  6
CONTINUOUS
 62
     7
 10
-155.5083507671763
 20
223.87594882278739
 30
0.0
 40
7.3499999999999854
 50
54.637344862597331
 51
90.142925186490046
  0
CIRCLE
  5
1FD
  8
DATA
  6
CONTINUOUS
 62
     7
 10
-155.5083507671763
 20
223.87594882278739
 30
0.0
 40
2.0
  0
CIRCLE
  5
1FE
  8
DATA
  6
CONTINUOUS
 62
     7
 10
-155.5083507671763
 20
223.87594882278739
 30
0.0
 40
0.5
  0
POLYLINE
  5
1FF
  8
DATA
  6
CONTINUOUS
 62
     7
 66
     1
 10
0.0
 20
0.0
 30
0.0
 70
     1
  0
VERTEX
  5
656
  8
DATA
  6
CONTINUOUS
 62
     7
 10
-163.21247829044401
 20
226.3213020566908
 30
0.0
  0
VERTEX
  5
657
  8
DATA
  6
CONTINUOUS
 62
     7
 10
-161.478152550597
 20
218.42665529059451
 30
0.0
  0
VERTEX
  5
658
  8
DATA
  6
CONTINUOUS
 62
     7
 10
-153.77402502732929
 20
215.98130205669091
 30
0.0
  0
VERTEX
  5
659
  8
DATA
  6
CONTINUOUS
 62
     7
 10
-147.80422324390861
 20
221.4305955888839
 30
0.0
  0
VERTEX
  5
65A
  8
DATA
  6
CONTINUOUS
 62
     7
 10
-149.5385489837555
 20
229.32524235498039
 30
0.0
  0
VERTEX
  5
65B
  8
DATA
  6
CONTINUOUS
 62
     7
 10
-157.24267650702319
 20
231.77059558888391
 30
0.0
  0
SEQEND
  5
65C
  8
DATA
  6
CONTINUOUS
 62
     7
  0
POLYLINE
  5
208
  8
DATA
  6
CONTINUOUS
 62
     7
 66
     1
 10
0.0
 20
0.0
 30
0.0
  0
VERTEX
  5
65D
  8
DATA
  6
CONTINUOUS
 62
     7
 10
-156.5083507671763
 20
228.5194927280391
 30
0.0
  0
VERTEX
  5
65E
  8
DATA
  6
CONTINUOUS
 62
     7
 10
-156.5083507671763
 20
229.37594882278739
 30
0.0
  0
VERTEX
  5
65F
  8
DATA
  6
CONTINUOUS
 62
     7
 10
-154.5083507671763
 20
229.37594882278739
 30
0.0
  0
VERTEX
  5
660
  8
DATA
  6
CONTINUOUS
 62
     7
 10
-154.5083507671763
 20
228.5194927280391
 30
0.0
  0
SEQEND
  5
661
  8
DATA
  6
CONTINUOUS
 62
     7
  0
POLYLINE
  5
20F
  8
DATA
  6
CONTINUOUS
 62
     7
 66
     1
 10
0.0
 20
0.0
 30
0.0
  0
VERTEX
  5
662
  8
DATA
  6
CONTINUOUS
 62
     7
 10
-154.5083507671763
 20
219.23240491753569
 30
0.0
  0
VERTEX
  5
663
  8
DATA
  6
CONTINUOUS
 62
     7
 10
-154.5083507671763
 20
218.37594882278739
 30
0.0
  0
VERTEX
  5
664
  8
DATA
  6
CONTINUOUS
 62
     7
 10
-156.5083507671763
 20
218.37594882278739
 30
0.0
  0
VERTEX
  5
665
  8
DATA
  6
CONTINUOUS
 62
     7
 10
-156.5083507671763
 20
219.23240491753569
 30
0.0
  0
SEQEND
  5
666
  8
DATA
  6
CONTINUOUS
 62
     7
  0
TEXT
  5
216
  8
DATA
 62
     7
 10
-149.26318672864139
 20
238.62018759348399
 30
0.0
 40
2.4432617187500001
  1
CH 2・2
 50
180.0
 41
0.7
 11
-149.26318672864139
 21
236.176925874734
 31
0.0
 73
     3
  0
CIRCLE
  5
217
  8
DATA
  6
CONTINUOUS
 62
     7
 10
-129.5083507671763
 20
223.87594882278739
 30
0.0
 40
4.75
  0
ARC
  5
218
  8
DATA
  6
CONTINUOUS
 62
     7
 10
-129.5083507671763
 20
223.87594882278739
 30
0.0
 40
7.3500000000000218
 50
114.6373448625971
 51
150.1429251864902
  0
ARC
  5
219
  8
DATA
  6
CONTINUOUS
 62
     7
 10
-129.5083507671763
 20
223.87594882278739
 30
0.0
 40
7.3500000000000281
 50
174.63734486259261
 51
210.14292518649441
  0
ARC
  5
21A
  8
DATA
  6
CONTINUOUS
 62
     7
 10
-129.5083507671763
 20
223.87594882278739
 30
0.0
 40
7.3500000000000032
 50
234.63734486259631
 51
270.14292518649091
  0
ARC
  5
21B
  8
DATA
  6
CONTINUOUS
 62
     7
 10
-129.5083507671763
 20
223.87594882278739
 30
0.0
 40
7.3500000000000094
 50
294.63734486259688
 51
330.14292518649057
  0
ARC
  5
21C
  8
DATA
  6
CONTINUOUS
 62
     7
 10
-129.5083507671763
 20
223.87594882278739
 30
0.0
 40
7.3500000000000032
 50
354.6373448625971
 51
30.142925186490231
  0
ARC
  5
21D
  8
DATA
  6
CONTINUOUS
 62
     7
 10
-129.5083507671763
 20
223.87594882278739
 30
0.0
 40
7.3499999999999854
 50
54.637344862597331
 51
90.142925186490046
  0
CIRCLE
  5
21E
  8
DATA
  6
CONTINUOUS
 62
     7
 10
-129.5083507671763
 20
223.87594882278739
 30
0.0
 40
2.0
  0
CIRCLE
  5
21F
  8
DATA
  6
CONTINUOUS
 62
     7
 10
-129.5083507671763
 20
223.87594882278739
 30
0.0
 40
0.5
  0
POLYLINE
  5
220
  8
DATA
  6
CONTINUOUS
 62
     7
 66
     1
 10
0.0
 20
0.0
 30
0.0
 70
     1
  0
VERTEX
  5
667
  8
DATA
  6
CONTINUOUS
 62
     7
 10
-137.21247829044401
 20
226.3213020566908
 30
0.0
  0
VERTEX
  5
668
  8
DATA
  6
CONTINUOUS
 62
     7
 10
-135.478152550597
 20
218.42665529059451
 30
0.0
  0
VERTEX
  5
669
  8
DATA
  6
CONTINUOUS
 62
     7
 10
-127.7740250273293
 20
215.98130205669091
 30
0.0
  0
VERTEX
  5
66A
  8
DATA
  6
CONTINUOUS
 62
     7
 10
-121.8042232439086
 20
221.4305955888839
 30
0.0
  0
VERTEX
  5
66B
  8
DATA
  6
CONTINUOUS
 62
     7
 10
-123.5385489837556
 20
229.32524235498039
 30
0.0
  0
VERTEX
  5
66C
  8
DATA
  6
CONTINUOUS
 62
     7
 10
-131.24267650702319
 20
231.77059558888391
 30
0.0
  0
SEQEND
  5
66D
  8
DATA
  6
CONTINUOUS
 62
     7
  0
POLYLINE
  5
229
  8
DATA
  6
CONTINUOUS
 62
     7
 66
     1
 10
0.0
 20
0.0
 30
0.0
  0
VERTEX
  5
66E
  8
DATA
  6
CONTINUOUS
 62
     7
 10
-130.5083507671763
 20
228.5194927280391
 30
0.0
  0
VERTEX
  5
66F
  8
DATA
  6
CONTINUOUS
 62
     7
 10
-130.5083507671763
 20
229.37594882278739
 30
0.0
  0
VERTEX
  5
670
  8
DATA
  6
CONTINUOUS
 62
     7
 10
-128.5083507671763
 20
229.37594882278739
 30
0.0
  0
VERTEX
  5
671
  8
DATA
  6
CONTINUOUS
 62
     7
 10
-128.5083507671763
 20
228.5194927280391
 30
0.0
  0
SEQEND
  5
672
  8
DATA
  6
CONTINUOUS
 62
     7
  0
POLYLINE
  5
230
  8
DATA
  6
CONTINUOUS
 62
     7
 66
     1
 10
0.0
 20
0.0
 30
0.0
  0
VERTEX
  5
673
  8
DATA
  6
CONTINUOUS
 62
     7
 10
-128.5083507671763
 20
219.23240491753569
 30
0.0
  0
VERTEX
  5
674
  8
DATA
  6
CONTINUOUS
 62
     7
 10
-128.5083507671763
 20
218.37594882278739
 30
0.0
  0
VERTEX
  5
675
  8
DATA
  6
CONTINUOUS
 62
     7
 10
-130.5083507671763
 20
218.37594882278739
 30
0.0
  0
VERTEX
  5
676
  8
DATA
  6
CONTINUOUS
 62
     7
 10
-130.5083507671763
 20
219.23240491753569
 30
0.0
  0
SEQEND
  5
677
  8
DATA
  6
CONTINUOUS
 62
     7
  0
CIRCLE
  5
237
  8
DATA
  6
CONTINUOUS
 62
     7
 10
-103.5083507671763
 20
223.87594882278739
 30
0.0
 40
4.75
  0
ARC
  5
238
  8
DATA
  6
CONTINUOUS
 62
     7
 10
-103.5083507671763
 20
223.87594882278739
 30
0.0
 40
7.3500000000000218
 50
114.6373448625971
 51
150.1429251864902
  0
ARC
  5
239
  8
DATA
  6
CONTINUOUS
 62
     7
 10
-103.5083507671763
 20
223.87594882278739
 30
0.0
 40
7.3500000000000281
 50
174.63734486259261
 51
210.14292518649441
  0
ARC
  5
23A
  8
DATA
  6
CONTINUOUS
 62
     7
 10
-103.5083507671763
 20
223.87594882278739
 30
0.0
 40
7.3500000000000032
 50
234.63734486259631
 51
270.14292518649091
  0
ARC
  5
23B
  8
DATA
  6
CONTINUOUS
 62
     7
 10
-103.5083507671763
 20
223.87594882278739
 30
0.0
 40
7.3500000000000094
 50
294.63734486259688
 51
330.14292518649057
  0
ARC
  5
23C
  8
DATA
  6
CONTINUOUS
 62
     7
 10
-103.5083507671763
 20
223.87594882278739
 30
0.0
 40
7.3500000000000032
 50
354.6373448625971
 51
30.142925186490231
  0
ARC
  5
23D
  8
DATA
  6
CONTINUOUS
 62
     7
 10
-103.5083507671763
 20
223.87594882278739
 30
0.0
 40
7.3499999999999854
 50
54.637344862597331
 51
90.142925186490046
  0
CIRCLE
  5
23E
  8
DATA
  6
CONTINUOUS
 62
     7
 10
-103.5083507671763
 20
223.87594882278739
 30
0.0
 40
2.0
  0
CIRCLE
  5
23F
  8
DATA
  6
CONTINUOUS
 62
     7
 10
-103.5083507671763
 20
223.87594882278739
 30
0.0
 40
0.5
  0
POLYLINE
  5
240
  8
DATA
  6
CONTINUOUS
 62
     7
 66
     1
 10
0.0
 20
0.0
 30
0.0
 70
     1
  0
VERTEX
  5
678
  8
DATA
  6
CONTINUOUS
 62
     7
 10
-111.212478290444
 20
226.3213020566908
 30
0.0
  0
VERTEX
  5
679
  8
DATA
  6
CONTINUOUS
 62
     7
 10
-109.478152550597
 20
218.42665529059451
 30
0.0
  0
VERTEX
  5
67A
  8
DATA
  6
CONTINUOUS
 62
     7
 10
-101.7740250273293
 20
215.98130205669091
 30
0.0
  0
VERTEX
  5
67B
  8
DATA
  6
CONTINUOUS
 62
     7
 10
-95.804223243908638
 20
221.4305955888839
 30
0.0
  0
VERTEX
  5
67C
  8
DATA
  6
CONTINUOUS
 62
     7
 10
-97.538548983755575
 20
229.32524235498039
 30
0.0
  0
VERTEX
  5
67D
  8
DATA
  6
CONTINUOUS
 62
     7
 10
-105.24267650702321
 20
231.77059558888391
 30
0.0
  0
SEQEND
  5
67E
  8
DATA
  6
CONTINUOUS
 62
     7
  0
POLYLINE
  5
249
  8
DATA
  6
CONTINUOUS
 62
     7
 66
     1
 10
0.0
 20
0.0
 30
0.0
  0
VERTEX
  5
67F
  8
DATA
  6
CONTINUOUS
 62
     7
 10
-104.5083507671763
 20
228.5194927280391
 30
0.0
  0
VERTEX
  5
680
  8
DATA
  6
CONTINUOUS
 62
     7
 10
-104.5083507671763
 20
229.37594882278739
 30
0.0
  0
VERTEX
  5
681
  8
DATA
  6
CONTINUOUS
 62
     7
 10
-102.5083507671763
 20
229.37594882278739
 30
0.0
  0
VERTEX
  5
682
  8
DATA
  6
CONTINUOUS
 62
     7
 10
-102.5083507671763
 20
228.5194927280391
 30
0.0
  0
SEQEND
  5
683
  8
DATA
  6
CONTINUOUS
 62
     7
  0
POLYLINE
  5
250
  8
DATA
  6
CONTINUOUS
 62
     7
 66
     1
 10
0.0
 20
0.0
 30
0.0
  0
VERTEX
  5
684
  8
DATA
  6
CONTINUOUS
 62
     7
 10
-102.5083507671763
 20
219.23240491753569
 30
0.0
  0
VERTEX
  5
685
  8
DATA
  6
CONTINUOUS
 62
     7
 10
-102.5083507671763
 20
218.37594882278739
 30
0.0
  0
VERTEX
  5
686
  8
DATA
  6
CONTINUOUS
 62
     7
 10
-104.5083507671763
 20
218.37594882278739
 30
0.0
  0
VERTEX
  5
687
  8
DATA
  6
CONTINUOUS
 62
     7
 10
-104.5083507671763
 20
219.23240491753569
 30
0.0
  0
SEQEND
  5
688
  8
DATA
  6
CONTINUOUS
 62
     7
  0
TEXT
  5
257
  8
DATA
 62
     7
 10
-123.2631867286414
 20
238.62018759348399
 30
0.0
 40
2.4432617187500001
  1
CH 2・1
 50
180.0
 41
0.7
 11
-123.2631867286414
 21
236.176925874734
 31
0.0
 73
     3
  0
TEXT
  5
258
  8
DATA
 62
     7
 10
-98.514936803428654
 20
238.62018759348399
 30
0.0
 40
2.4432617187500001
  1
REF・In
 50
180.0
 41
0.7
 11
-98.514936803428654
 21
236.176925874734
 31
0.0
 73
     3
  0
TEXT
  5
259
  8
DATA
 62
     7
 10
-100.45016463394499
 20
241.8474238106009
 30
0.0
 40
2.4432617187500001
  1
CH 2
 50
180.0
 41
0.7
 11
-100.45016463394499
 21
239.40416209185091
 31
0.0
 73
     3
  0
CIRCLE
  5
25A
  8
DATA
  6
CONTINUOUS
 62
     7
 10
133.03833280970451
 20
210.83460117014249
 30
0.0
 40
1.1750000000000389
  0
POLYLINE
  5
25B
  8
DATA
  6
CONTINUOUS
 62
     7
 66
     1
 10
0.0
 20
0.0
 30
0.0
 70
     1
  0
VERTEX
  5
689
  8
DATA
  6
CONTINUOUS
 62
     7
 10
133.03833280970451
 20
208.1346011701427
 30
0.0
  0
VERTEX
  5
68A
  8
DATA
  6
CONTINUOUS
 62
     7
 10
135.37660139992221
 20
209.48460117014261
 30
0.0
  0
VERTEX
  5
68B
  8
DATA
  6
CONTINUOUS
 62
     7
 10
135.37660139992221
 20
212.1846011701424
 30
0.0
  0
VERTEX
  5
68C
  8
DATA
  6
CONTINUOUS
 62
     7
 10
133.03833280970451
 20
213.53460117014239
 30
0.0
  0
VERTEX
  5
68D
  8
DATA
  6
CONTINUOUS
 62
     7
 10
130.70006421948651
 20
212.1846011701424
 30
0.0
  0
VERTEX
  5
68E
  8
DATA
  6
CONTINUOUS
 62
     7
 10
130.70006421948651
 20
209.48460117014261
 30
0.0
  0
SEQEND
  5
68F
  8
DATA
  6
CONTINUOUS
 62
     7
  0
CIRCLE
  5
264
  8
DATA
  6
CONTINUOUS
 62
     7
 10
158.03833280970451
 20
210.83460117014249
 30
0.0
 40
1.175000000000068
  0
POLYLINE
  5
265
  8
DATA
  6
CONTINUOUS
 62
     7
 66
     1
 10
0.0
 20
0.0
 30
0.0
 70
     1
  0
VERTEX
  5
690
  8
DATA
  6
CONTINUOUS
 62
     7
 10
158.03833280970451
 20
208.1346011701427
 30
0.0
  0
VERTEX
  5
691
  8
DATA
  6
CONTINUOUS
 62
     7
 10
160.37660139992241
 20
209.48460117014261
 30
0.0
  0
VERTEX
  5
692
  8
DATA
  6
CONTINUOUS
 62
     7
 10
160.37660139992241
 20
212.1846011701424
 30
0.0
  0
VERTEX
  5
693
  8
DATA
  6
CONTINUOUS
 62
     7
 10
158.03833280970451
 20
213.53460117014239
 30
0.0
  0
VERTEX
  5
694
  8
DATA
  6
CONTINUOUS
 62
     7
 10
155.70006421948639
 20
212.1846011701424
 30
0.0
  0
VERTEX
  5
695
  8
DATA
  6
CONTINUOUS
 62
     7
 10
155.70006421948639
 20
209.48460117014261
 30
0.0
  0
SEQEND
  5
696
  8
DATA
  6
CONTINUOUS
 62
     7
  0
LINE
  5
26E
  8
DATA
  6
CONTINUOUS
 62
     7
 10
139.93656959951579
 20
214.83460117014229
 30
0.0
 11
151.14009601989301
 21
214.83460117014229
 31
0.0
  0
LINE
  5
26F
  8
DATA
  6
CONTINUOUS
 62
     7
 10
151.95259601989289
 20
206.83460117014261
 30
0.0
 11
139.12406959951579
 21
206.83460117014261
 31
0.0
  0
LINE
  5
270
  8
DATA
  6
CONTINUOUS
 62
     7
 10
152.5233128671446
 20
213.65072880252541
 30
0.0
 11
153.3358128671444
 21
208.4507288025257
 31
0.0
  0
LINE
  5
271
  8
DATA
  6
CONTINUOUS
 62
     7
 10
137.7408527522642
 20
208.4507288025257
 30
0.0
 11
138.5533527522642
 21
213.65072880252541
 31
0.0
  0
CIRCLE
  5
272
  8
DATA
  6
CONTINUOUS
 62
     7
 10
145.5649625801793
 20
209.19829299898899
 30
0.0
 40
0.5
  0
ARC
  5
273
  8
DATA
  6
CONTINUOUS
 62
     7
 10
151.95259601989289
 20
208.2346011701427
 30
0.0
 40
1.399999999999977
 50
270.0
 51
8.8806591505205574
  0
ARC
  5
274
  8
DATA
  6
CONTINUOUS
 62
     7
 10
139.12406959951579
 20
208.2346011701427
 30
0.0
 40
1.400000000000019
 50
171.1193408494795
 51
270.0
  0
ARC
  5
275
  8
DATA
  6
CONTINUOUS
 62
     7
 10
151.14009601989301
 20
213.43460117014229
 30
0.0
 40
1.400000000000019
 50
8.8806591505205308
 51
90.0
  0
ARC
  5
276
  8
DATA
  6
CONTINUOUS
 62
     7
 10
139.93656959951579
 20
213.43460117014229
 30
0.0
 40
1.400000000000005
 50
90.0
 51
171.1193408494795
  0
LINE
  5
277
  8
DATA
  6
CONTINUOUS
 62
     7
 10
138.37952887905021
 20
216.83460117014229
 30
0.0
 11
152.69713674035839
 21
216.83460117014229
 31
0.0
  0
LINE
  5
278
  8
DATA
  6
CONTINUOUS
 62
     7
 10
153.71597846095489
 20
204.83460117014261
 30
0.0
 11
137.3606871584538
 21
204.83460117014261
 31
0.0
  0
LINE
  5
279
  8
DATA
  6
CONTINUOUS
 62
     7
 10
155.68782368809821
 20
207.1690057158537
 30
0.0
 11
154.27461292207309
 21
215.50212480671109
 31
0.0
  0
LINE
  5
27A
  8
DATA
  6
CONTINUOUS
 62
     7
 10
135.38884193131059
 20
207.1690057158537
 30
0.0
 11
136.8020526973356
 21
215.50212480671109
 31
0.0
  0
ARC
  5
27B
  8
DATA
  6
CONTINUOUS
 62
     7
 10
153.71597846095489
 20
206.83460117014261
 30
0.0
 40
2.000000000000056
 50
270.0
 51
9.6251929436205064
  0
ARC
  5
27C
  8
DATA
  6
CONTINUOUS
 62
     7
 10
137.3606871584538
 20
206.83460117014261
 30
0.0
 40
1.999999999999958
 50
170.37480705637881
 51
270.0
  0
ARC
  5
27D
  8
DATA
  6
CONTINUOUS
 62
     7
 10
152.6971367403583
 20
215.2346011701423
 30
0.0
 40
1.600000000000114
 50
9.6251929436206716
 51
89.999999999995936
  0
ARC
  5
27E
  8
DATA
  6
CONTINUOUS
 62
     7
 10
138.37952887905021
 20
215.2346011701423
 30
0.0
 40
1.599999999999965
 50
90.0
 51
170.3748070563783
  0
CIRCLE
  5
27F
  8
DATA
  6
CONTINUOUS
 62
     7
 10
148.0649625801793
 20
209.19829299898899
 30
0.0
 40
0.5
  0
CIRCLE
  5
280
  8
DATA
  6
CONTINUOUS
 62
     7
 10
150.5649625801793
 20
209.19829299898899
 30
0.0
 40
0.5
  0
CIRCLE
  5
281
  8
DATA
  6
CONTINUOUS
 62
     7
 10
143.0649625801793
 20
209.19829299898899
 30
0.0
 40
0.5
  0
CIRCLE
  5
282
  8
DATA
  6
CONTINUOUS
 62
     7
 10
140.5649625801793
 20
209.19829299898899
 30
0.0
 40
0.5
  0
CIRCLE
  5
283
  8
DATA
  6
CONTINUOUS
 62
     7
 10
146.7604737562506
 20
212.8168134177514
 30
0.0
 40
0.5
  0
CIRCLE
  5
284
  8
DATA
  6
CONTINUOUS
 62
     7
 10
149.2604737562506
 20
212.8168134177514
 30
0.0
 40
0.5
  0
CIRCLE
  5
285
  8
DATA
  6
CONTINUOUS
 62
     7
 10
144.2604737562506
 20
212.8168134177514
 30
0.0
 40
0.5
  0
CIRCLE
  5
286
  8
DATA
  6
CONTINUOUS
 62
     7
 10
141.7604737562506
 20
212.8168134177514
 30
0.0
 40
0.5
  0
TEXT
  5
287
  8
DATA
 62
     7
 10
151.7340458382586
 20
220.9513457444578
 30
0.0
 40
2.4432617187500001
  1
RS-232/1
 50
180.0
 41
0.7
 11
151.7340458382586
 21
218.50808402570769
 31
0.0
 73
     3
  0
CIRCLE
  5
288
  8
DATA
  6
CONTINUOUS
 62
     7
 10
161.08346701319411
 20
229.02670934294969
 30
0.0
 40
1.175000000000068
  0
POLYLINE
  5
289
  8
DATA
  6
CONTINUOUS
 62
     7
 66
     1
 10
0.0
 20
0.0
 30
0.0
 70
     1
  0
VERTEX
  5
697
  8
DATA
  6
CONTINUOUS
 62
     7
 10
161.08346701319411
 20
226.3267093429497
 30
0.0
  0
VERTEX
  5
698
  8
DATA
  6
CONTINUOUS
 62
     7
 10
163.42173560341209
 20
227.67670934294969
 30
0.0
  0
VERTEX
  5
699
  8
DATA
  6
CONTINUOUS
 62
     7
 10
163.42173560341209
 20
230.37670934294971
 30
0.0
  0
VERTEX
  5
69A
  8
DATA
  6
CONTINUOUS
 62
     7
 10
161.08346701319411
 20
231.72670934294959
 30
0.0
  0
VERTEX
  5
69B
  8
DATA
  6
CONTINUOUS
 62
     7
 10
158.7451984229761
 20
230.37670934294971
 30
0.0
  0
VERTEX
  5
69C
  8
DATA
  6
CONTINUOUS
 62
     7
 10
158.7451984229761
 20
227.67670934294969
 30
0.0
  0
SEQEND
  5
69D
  8
DATA
  6
CONTINUOUS
 62
     7
  0
CIRCLE
  5
292
  8
DATA
  6
CONTINUOUS
 62
     7
 10
128.5834670131936
 20
229.02670934294969
 30
0.0
 40
1.175000000000068
  0
POLYLINE
  5
293
  8
DATA
  6
CONTINUOUS
 62
     7
 66
     1
 10
0.0
 20
0.0
 30
0.0
 70
     1
  0
VERTEX
  5
69E
  8
DATA
  6
CONTINUOUS
 62
     7
 10
128.5834670131936
 20
226.3267093429497
 30
0.0
  0
VERTEX
  5
69F
  8
DATA
  6
CONTINUOUS
 62
     7
 10
130.92173560341161
 20
227.67670934294969
 30
0.0
  0
VERTEX
  5
6A0
  8
DATA
  6
CONTINUOUS
 62
     7
 10
130.92173560341161
 20
230.37670934294971
 30
0.0
  0
VERTEX
  5
6A1
  8
DATA
  6
CONTINUOUS
 62
     7
 10
128.5834670131936
 20
231.72670934294959
 30
0.0
  0
VERTEX
  5
6A2
  8
DATA
  6
CONTINUOUS
 62
     7
 10
126.24519842297561
 20
230.37670934294971
 30
0.0
  0
VERTEX
  5
6A3
  8
DATA
  6
CONTINUOUS
 62
     7
 10
126.24519842297561
 20
227.67670934294969
 30
0.0
  0
SEQEND
  5
6A4
  8
DATA
  6
CONTINUOUS
 62
     7
  0
LINE
  5
29C
  8
DATA
  6
CONTINUOUS
 62
     7
 10
155.78337190038579
 20
225.1017093429497
 30
0.0
 11
133.88356212600169
 21
225.1017093429497
 31
0.0
  0
LINE
  5
29D
  8
DATA
  6
CONTINUOUS
 62
     7
 10
134.44247932345391
 20
232.9517093429497
 30
0.0
 11
155.2244547029336
 21
232.9517093429497
 31
0.0
  0
POLYLINE
  5
29E
  8
DATA
  6
CONTINUOUS
 62
     7
 66
     1
 10
0.0
 20
0.0
 30
0.0
 70
     1
  0
VERTEX
  5
6A5
  8
DATA
  6
CONTINUOUS
 62
     7
 10
154.30353318437341
 20
229.7917093429497
 30
0.0
  0
VERTEX
  5
6A6
  8
DATA
  6
CONTINUOUS
 62
     7
 10
155.83353318437341
 20
229.7917093429497
 30
0.0
  0
VERTEX
  5
6A7
  8
DATA
  6
CONTINUOUS
 62
     7
 10
155.83353318437341
 20
228.2617093429497
 30
0.0
  0
VERTEX
  5
6A8
  8
DATA
  6
CONTINUOUS
 62
     7
 10
154.30353318437341
 20
228.2617093429497
 30
0.0
  0
SEQEND
  5
6A9
  8
DATA
  6
CONTINUOUS
 62
     7
  0
POLYLINE
  5
2A5
  8
DATA
  6
CONTINUOUS
 62
     7
 66
     1
 10
0.0
 20
0.0
 30
0.0
 70
     1
  0
VERTEX
  5
6AA
  8
DATA
  6
CONTINUOUS
 62
     7
 10
152.30353318437341
 20
229.7917093429497
 30
0.0
  0
VERTEX
  5
6AB
  8
DATA
  6
CONTINUOUS
 62
     7
 10
153.83353318437341
 20
229.7917093429497
 30
0.0
  0
VERTEX
  5
6AC
  8
DATA
  6
CONTINUOUS
 62
     7
 10
153.83353318437341
 20
228.2617093429497
 30
0.0
  0
VERTEX
  5
6AD
  8
DATA
  6
CONTINUOUS
 62
     7
 10
152.30353318437341
 20
228.2617093429497
 30
0.0
  0
SEQEND
  5
6AE
  8
DATA
  6
CONTINUOUS
 62
     7
  0
POLYLINE
  5
2AC
  8
DATA
  6
CONTINUOUS
 62
     7
 66
     1
 10
0.0
 20
0.0
 30
0.0
 70
     1
  0
VERTEX
  5
6AF
  8
DATA
  6
CONTINUOUS
 62
     7
 10
150.30353318437341
 20
229.7917093429497
 30
0.0
  0
VERTEX
  5
6B0
  8
DATA
  6
CONTINUOUS
 62
     7
 10
151.83353318437341
 20
229.7917093429497
 30
0.0
  0
VERTEX
  5
6B1
  8
DATA
  6
CONTINUOUS
 62
     7
 10
151.83353318437341
 20
228.2617093429497
 30
0.0
  0
VERTEX
  5
6B2
  8
DATA
  6
CONTINUOUS
 62
     7
 10
150.30353318437341
 20
228.2617093429497
 30
0.0
  0
SEQEND
  5
6B3
  8
DATA
  6
CONTINUOUS
 62
     7
  0
POLYLINE
  5
2B3
  8
DATA
  6
CONTINUOUS
 62
     7
 66
     1
 10
0.0
 20
0.0
 30
0.0
 70
     1
  0
VERTEX
  5
6B4
  8
DATA
  6
CONTINUOUS
 62
     7
 10
148.30353318437341
 20
229.7917093429497
 30
0.0
  0
VERTEX
  5
6B5
  8
DATA
  6
CONTINUOUS
 62
     7
 10
149.83353318437341
 20
229.7917093429497
 30
0.0
  0
VERTEX
  5
6B6
  8
DATA
  6
CONTINUOUS
 62
     7
 10
149.83353318437341
 20
228.2617093429497
 30
0.0
  0
VERTEX
  5
6B7
  8
DATA
  6
CONTINUOUS
 62
     7
 10
148.30353318437341
 20
228.2617093429497
 30
0.0
  0
SEQEND
  5
6B8
  8
DATA
  6
CONTINUOUS
 62
     7
  0
POLYLINE
  5
2BA
  8
DATA
  6
CONTINUOUS
 62
     7
 66
     1
 10
0.0
 20
0.0
 30
0.0
 70
     1
  0
VERTEX
  5
6B9
  8
DATA
  6
CONTINUOUS
 62
     7
 10
146.30353318437341
 20
229.7917093429497
 30
0.0
  0
VERTEX
  5
6BA
  8
DATA
  6
CONTINUOUS
 62
     7
 10
147.83353318437341
 20
229.7917093429497
 30
0.0
  0
VERTEX
  5
6BB
  8
DATA
  6
CONTINUOUS
 62
     7
 10
147.83353318437341
 20
228.2617093429497
 30
0.0
  0
VERTEX
  5
6BC
  8
DATA
  6
CONTINUOUS
 62
     7
 10
146.30353318437341
 20
228.2617093429497
 30
0.0
  0
SEQEND
  5
6BD
  8
DATA
  6
CONTINUOUS
 62
     7
  0
POLYLINE
  5
2C1
  8
DATA
  6
CONTINUOUS
 62
     7
 66
     1
 10
0.0
 20
0.0
 30
0.0
 70
     1
  0
VERTEX
  5
6BE
  8
DATA
  6
CONTINUOUS
 62
     7
 10
144.30353318437321
 20
229.7917093429497
 30
0.0
  0
VERTEX
  5
6BF
  8
DATA
  6
CONTINUOUS
 62
     7
 10
145.83353318437329
 20
229.7917093429497
 30
0.0
  0
VERTEX
  5
6C0
  8
DATA
  6
CONTINUOUS
 62
     7
 10
145.83353318437329
 20
228.2617093429497
 30
0.0
  0
VERTEX
  5
6C1
  8
DATA
  6
CONTINUOUS
 62
     7
 10
144.30353318437321
 20
228.2617093429497
 30
0.0
  0
SEQEND
  5
6C2
  8
DATA
  6
CONTINUOUS
 62
     7
  0
POLYLINE
  5
2C8
  8
DATA
  6
CONTINUOUS
 62
     7
 66
     1
 10
0.0
 20
0.0
 30
0.0
 70
     1
  0
VERTEX
  5
6C3
  8
DATA
  6
CONTINUOUS
 62
     7
 10
142.30353318437309
 20
229.7917093429497
 30
0.0
  0
VERTEX
  5
6C4
  8
DATA
  6
CONTINUOUS
 62
     7
 10
143.8335331843731
 20
229.7917093429497
 30
0.0
  0
VERTEX
  5
6C5
  8
DATA
  6
CONTINUOUS
 62
     7
 10
143.8335331843731
 20
228.2617093429497
 30
0.0
  0
VERTEX
  5
6C6
  8
DATA
  6
CONTINUOUS
 62
     7
 10
142.30353318437309
 20
228.2617093429497
 30
0.0
  0
SEQEND
  5
6C7
  8
DATA
  6
CONTINUOUS
 62
     7
  0
POLYLINE
  5
2CF
  8
DATA
  6
CONTINUOUS
 62
     7
 66
     1
 10
0.0
 20
0.0
 30
0.0
 70
     1
  0
VERTEX
  5
6C8
  8
DATA
  6
CONTINUOUS
 62
     7
 10
140.3035331843729
 20
229.7917093429497
 30
0.0
  0
VERTEX
  5
6C9
  8
DATA
  6
CONTINUOUS
 62
     7
 10
141.83353318437301
 20
229.7917093429497
 30
0.0
  0
VERTEX
  5
6CA
  8
DATA
  6
CONTINUOUS
 62
     7
 10
141.83353318437301
 20
228.2617093429497
 30
0.0
  0
VERTEX
  5
6CB
  8
DATA
  6
CONTINUOUS
 62
     7
 10
140.3035331843729
 20
228.2617093429497
 30
0.0
  0
SEQEND
  5
6CC
  8
DATA
  6
CONTINUOUS
 62
     7
  0
POLYLINE
  5
2D6
  8
DATA
  6
CONTINUOUS
 62
     7
 66
     1
 10
0.0
 20
0.0
 30
0.0
 70
     1
  0
VERTEX
  5
6CD
  8
DATA
  6
CONTINUOUS
 62
     7
 10
154.30353318437341
 20
227.79170934294959
 30
0.0
  0
VERTEX
  5
6CE
  8
DATA
  6
CONTINUOUS
 62
     7
 10
155.83353318437341
 20
227.79170934294959
 30
0.0
  0
VERTEX
  5
6CF
  8
DATA
  6
CONTINUOUS
 62
     7
 10
155.83353318437341
 20
226.2617093429497
 30
0.0
  0
VERTEX
  5
6D0
  8
DATA
  6
CONTINUOUS
 62
     7
 10
154.30353318437341
 20
226.2617093429497
 30
0.0
  0
SEQEND
  5
6D1
  8
DATA
  6
CONTINUOUS
 62
     7
  0
POLYLINE
  5
2DD
  8
DATA
  6
CONTINUOUS
 62
     7
 66
     1
 10
0.0
 20
0.0
 30
0.0
 70
     1
  0
VERTEX
  5
6D2
  8
DATA
  6
CONTINUOUS
 62
     7
 10
152.30353318437341
 20
227.79170934294959
 30
0.0
  0
VERTEX
  5
6D3
  8
DATA
  6
CONTINUOUS
 62
     7
 10
153.83353318437341
 20
227.79170934294959
 30
0.0
  0
VERTEX
  5
6D4
  8
DATA
  6
CONTINUOUS
 62
     7
 10
153.83353318437341
 20
226.2617093429497
 30
0.0
  0
VERTEX
  5
6D5
  8
DATA
  6
CONTINUOUS
 62
     7
 10
152.30353318437341
 20
226.2617093429497
 30
0.0
  0
SEQEND
  5
6D6
  8
DATA
  6
CONTINUOUS
 62
     7
  0
POLYLINE
  5
2E4
  8
DATA
  6
CONTINUOUS
 62
     7
 66
     1
 10
0.0
 20
0.0
 30
0.0
 70
     1
  0
VERTEX
  5
6D7
  8
DATA
  6
CONTINUOUS
 62
     7
 10
150.30353318437341
 20
227.79170934294959
 30
0.0
  0
VERTEX
  5
6D8
  8
DATA
  6
CONTINUOUS
 62
     7
 10
151.83353318437341
 20
227.79170934294959
 30
0.0
  0
VERTEX
  5
6D9
  8
DATA
  6
CONTINUOUS
 62
     7
 10
151.83353318437341
 20
226.2617093429497
 30
0.0
  0
VERTEX
  5
6DA
  8
DATA
  6
CONTINUOUS
 62
     7
 10
150.30353318437341
 20
226.2617093429497
 30
0.0
  0
SEQEND
  5
6DB
  8
DATA
  6
CONTINUOUS
 62
     7
  0
POLYLINE
  5
2EB
  8
DATA
  6
CONTINUOUS
 62
     7
 66
     1
 10
0.0
 20
0.0
 30
0.0
 70
     1
  0
VERTEX
  5
6DC
  8
DATA
  6
CONTINUOUS
 62
     7
 10
148.30353318437341
 20
227.79170934294959
 30
0.0
  0
VERTEX
  5
6DD
  8
DATA
  6
CONTINUOUS
 62
     7
 10
149.83353318437341
 20
227.79170934294959
 30
0.0
  0
VERTEX
  5
6DE
  8
DATA
  6
CONTINUOUS
 62
     7
 10
149.83353318437341
 20
226.2617093429497
 30
0.0
  0
VERTEX
  5
6DF
  8
DATA
  6
CONTINUOUS
 62
     7
 10
148.30353318437341
 20
226.2617093429497
 30
0.0
  0
SEQEND
  5
6E0
  8
DATA
  6
CONTINUOUS
 62
     7
  0
POLYLINE
  5
2F2
  8
DATA
  6
CONTINUOUS
 62
     7
 66
     1
 10
0.0
 20
0.0
 30
0.0
 70
     1
  0
VERTEX
  5
6E1
  8
DATA
  6
CONTINUOUS
 62
     7
 10
146.30353318437341
 20
227.79170934294959
 30
0.0
  0
VERTEX
  5
6E2
  8
DATA
  6
CONTINUOUS
 62
     7
 10
147.83353318437341
 20
227.79170934294959
 30
0.0
  0
VERTEX
  5
6E3
  8
DATA
  6
CONTINUOUS
 62
     7
 10
147.83353318437341
 20
226.2617093429497
 30
0.0
  0
VERTEX
  5
6E4
  8
DATA
  6
CONTINUOUS
 62
     7
 10
146.30353318437341
 20
226.2617093429497
 30
0.0
  0
SEQEND
  5
6E5
  8
DATA
  6
CONTINUOUS
 62
     7
  0
POLYLINE
  5
2F9
  8
DATA
  6
CONTINUOUS
 62
     7
 66
     1
 10
0.0
 20
0.0
 30
0.0
 70
     1
  0
VERTEX
  5
6E6
  8
DATA
  6
CONTINUOUS
 62
     7
 10
144.30353318437321
 20
227.79170934294959
 30
0.0
  0
VERTEX
  5
6E7
  8
DATA
  6
CONTINUOUS
 62
     7
 10
145.83353318437329
 20
227.79170934294959
 30
0.0
  0
VERTEX
  5
6E8
  8
DATA
  6
CONTINUOUS
 62
     7
 10
145.83353318437329
 20
226.2617093429497
 30
0.0
  0
VERTEX
  5
6E9
  8
DATA
  6
CONTINUOUS
 62
     7
 10
144.30353318437321
 20
226.2617093429497
 30
0.0
  0
SEQEND
  5
6EA
  8
DATA
  6
CONTINUOUS
 62
     7
  0
POLYLINE
  5
300
  8
DATA
  6
CONTINUOUS
 62
     7
 66
     1
 10
0.0
 20
0.0
 30
0.0
 70
     1
  0
VERTEX
  5
6EB
  8
DATA
  6
CONTINUOUS
 62
     7
 10
142.30353318437309
 20
227.79170934294959
 30
0.0
  0
VERTEX
  5
6EC
  8
DATA
  6
CONTINUOUS
 62
     7
 10
143.8335331843731
 20
227.79170934294959
 30
0.0
  0
VERTEX
  5
6ED
  8
DATA
  6
CONTINUOUS
 62
     7
 10
143.8335331843731
 20
226.2617093429497
 30
0.0
  0
VERTEX
  5
6EE
  8
DATA
  6
CONTINUOUS
 62
     7
 10
142.30353318437309
 20
226.2617093429497
 30
0.0
  0
SEQEND
  5
6EF
  8
DATA
  6
CONTINUOUS
 62
     7
  0
POLYLINE
  5
307
  8
DATA
  6
CONTINUOUS
 62
     7
 66
     1
 10
0.0
 20
0.0
 30
0.0
 70
     1
  0
VERTEX
  5
6F0
  8
DATA
  6
CONTINUOUS
 62
     7
 10
140.3035331843729
 20
227.79170934294959
 30
0.0
  0
VERTEX
  5
6F1
  8
DATA
  6
CONTINUOUS
 62
     7
 10
141.83353318437301
 20
227.79170934294959
 30
0.0
  0
VERTEX
  5
6F2
  8
DATA
  6
CONTINUOUS
 62
     7
 10
141.83353318437301
 20
226.2617093429497
 30
0.0
  0
VERTEX
  5
6F3
  8
DATA
  6
CONTINUOUS
 62
     7
 10
140.3035331843729
 20
226.2617093429497
 30
0.0
  0
SEQEND
  5
6F4
  8
DATA
  6
CONTINUOUS
 62
     7
  0
POLYLINE
  5
30E
  8
DATA
  6
CONTINUOUS
 62
     7
 66
     1
 10
0.0
 20
0.0
 30
0.0
 70
     1
  0
VERTEX
  5
6F5
  8
DATA
  6
CONTINUOUS
 62
     7
 10
154.30353318437341
 20
231.7917093429497
 30
0.0
  0
VERTEX
  5
6F6
  8
DATA
  6
CONTINUOUS
 62
     7
 10
155.83353318437341
 20
231.7917093429497
 30
0.0
  0
VERTEX
  5
6F7
  8
DATA
  6
CONTINUOUS
 62
     7
 10
155.83353318437341
 20
230.2617093429497
 30
0.0
  0
VERTEX
  5
6F8
  8
DATA
  6
CONTINUOUS
 62
     7
 10
154.30353318437341
 20
230.2617093429497
 30
0.0
  0
SEQEND
  5
6F9
  8
DATA
  6
CONTINUOUS
 62
     7
  0
POLYLINE
  5
315
  8
DATA
  6
CONTINUOUS
 62
     7
 66
     1
 10
0.0
 20
0.0
 30
0.0
 70
     1
  0
VERTEX
  5
6FA
  8
DATA
  6
CONTINUOUS
 62
     7
 10
152.30353318437341
 20
231.7917093429497
 30
0.0
  0
VERTEX
  5
6FB
  8
DATA
  6
CONTINUOUS
 62
     7
 10
153.83353318437341
 20
231.7917093429497
 30
0.0
  0
VERTEX
  5
6FC
  8
DATA
  6
CONTINUOUS
 62
     7
 10
153.83353318437341
 20
230.2617093429497
 30
0.0
  0
VERTEX
  5
6FD
  8
DATA
  6
CONTINUOUS
 62
     7
 10
152.30353318437341
 20
230.2617093429497
 30
0.0
  0
SEQEND
  5
6FE
  8
DATA
  6
CONTINUOUS
 62
     7
  0
POLYLINE
  5
31C
  8
DATA
  6
CONTINUOUS
 62
     7
 66
     1
 10
0.0
 20
0.0
 30
0.0
 70
     1
  0
VERTEX
  5
6FF
  8
DATA
  6
CONTINUOUS
 62
     7
 10
150.30353318437341
 20
231.7917093429497
 30
0.0
  0
VERTEX
  5
700
  8
DATA
  6
CONTINUOUS
 62
     7
 10
151.83353318437341
 20
231.7917093429497
 30
0.0
  0
VERTEX
  5
701
  8
DATA
  6
CONTINUOUS
 62
     7
 10
151.83353318437341
 20
230.2617093429497
 30
0.0
  0
VERTEX
  5
702
  8
DATA
  6
CONTINUOUS
 62
     7
 10
150.30353318437341
 20
230.2617093429497
 30
0.0
  0
SEQEND
  5
703
  8
DATA
  6
CONTINUOUS
 62
     7
  0
POLYLINE
  5
323
  8
DATA
  6
CONTINUOUS
 62
     7
 66
     1
 10
0.0
 20
0.0
 30
0.0
 70
     1
  0
VERTEX
  5
704
  8
DATA
  6
CONTINUOUS
 62
     7
 10
148.30353318437341
 20
231.7917093429497
 30
0.0
  0
VERTEX
  5
705
  8
DATA
  6
CONTINUOUS
 62
     7
 10
149.83353318437341
 20
231.7917093429497
 30
0.0
  0
VERTEX
  5
706
  8
DATA
  6
CONTINUOUS
 62
     7
 10
149.83353318437341
 20
230.2617093429497
 30
0.0
  0
VERTEX
  5
707
  8
DATA
  6
CONTINUOUS
 62
     7
 10
148.30353318437341
 20
230.2617093429497
 30
0.0
  0
SEQEND
  5
708
  8
DATA
  6
CONTINUOUS
 62
     7
  0
POLYLINE
  5
32A
  8
DATA
  6
CONTINUOUS
 62
     7
 66
     1
 10
0.0
 20
0.0
 30
0.0
 70
     1
  0
VERTEX
  5
709
  8
DATA
  6
CONTINUOUS
 62
     7
 10
146.30353318437341
 20
231.7917093429497
 30
0.0
  0
VERTEX
  5
70A
  8
DATA
  6
CONTINUOUS
 62
     7
 10
147.83353318437341
 20
231.7917093429497
 30
0.0
  0
VERTEX
  5
70B
  8
DATA
  6
CONTINUOUS
 62
     7
 10
147.83353318437341
 20
230.2617093429497
 30
0.0
  0
VERTEX
  5
70C
  8
DATA
  6
CONTINUOUS
 62
     7
 10
146.30353318437341
 20
230.2617093429497
 30
0.0
  0
SEQEND
  5
70D
  8
DATA
  6
CONTINUOUS
 62
     7
  0
POLYLINE
  5
331
  8
DATA
  6
CONTINUOUS
 62
     7
 66
     1
 10
0.0
 20
0.0
 30
0.0
 70
     1
  0
VERTEX
  5
70E
  8
DATA
  6
CONTINUOUS
 62
     7
 10
144.30353318437321
 20
231.7917093429497
 30
0.0
  0
VERTEX
  5
70F
  8
DATA
  6
CONTINUOUS
 62
     7
 10
145.83353318437329
 20
231.7917093429497
 30
0.0
  0
VERTEX
  5
710
  8
DATA
  6
CONTINUOUS
 62
     7
 10
145.83353318437329
 20
230.2617093429497
 30
0.0
  0
VERTEX
  5
711
  8
DATA
  6
CONTINUOUS
 62
     7
 10
144.30353318437321
 20
230.2617093429497
 30
0.0
  0
SEQEND
  5
712
  8
DATA
  6
CONTINUOUS
 62
     7
  0
POLYLINE
  5
338
  8
DATA
  6
CONTINUOUS
 62
     7
 66
     1
 10
0.0
 20
0.0
 30
0.0
 70
     1
  0
VERTEX
  5
713
  8
DATA
  6
CONTINUOUS
 62
     7
 10
142.30353318437309
 20
231.7917093429497
 30
0.0
  0
VERTEX
  5
714
  8
DATA
  6
CONTINUOUS
 62
     7
 10
143.8335331843731
 20
231.7917093429497
 30
0.0
  0
VERTEX
  5
715
  8
DATA
  6
CONTINUOUS
 62
     7
 10
143.8335331843731
 20
230.2617093429497
 30
0.0
  0
VERTEX
  5
716
  8
DATA
  6
CONTINUOUS
 62
     7
 10
142.30353318437309
 20
230.2617093429497
 30
0.0
  0
SEQEND
  5
717
  8
DATA
  6
CONTINUOUS
 62
     7
  0
POLYLINE
  5
33F
  8
DATA
  6
CONTINUOUS
 62
     7
 66
     1
 10
0.0
 20
0.0
 30
0.0
 70
     1
  0
VERTEX
  5
718
  8
DATA
  6
CONTINUOUS
 62
     7
 10
140.3035331843729
 20
231.7917093429497
 30
0.0
  0
VERTEX
  5
719
  8
DATA
  6
CONTINUOUS
 62
     7
 10
141.83353318437301
 20
231.7917093429497
 30
0.0
  0
VERTEX
  5
71A
  8
DATA
  6
CONTINUOUS
 62
     7
 10
141.83353318437301
 20
230.2617093429497
 30
0.0
  0
VERTEX
  5
71B
  8
DATA
  6
CONTINUOUS
 62
     7
 10
140.3035331843729
 20
230.2617093429497
 30
0.0
  0
SEQEND
  5
71C
  8
DATA
  6
CONTINUOUS
 62
     7
  0
POLYLINE
  5
346
  8
DATA
  6
CONTINUOUS
 62
     7
 66
     1
 10
0.0
 20
0.0
 30
0.0
  0
VERTEX
  5
71D
  8
DATA
  6
CONTINUOUS
 62
     7
 10
136.28346701319319
 20
228.62670934294971
 30
0.0
  0
VERTEX
  5
71E
  8
DATA
  6
CONTINUOUS
 62
     7
 10
134.18346701319331
 20
228.62670934294971
 30
0.0
  0
VERTEX
  5
71F
  8
DATA
  6
CONTINUOUS
 62
     7
 10
134.18346701319331
 20
229.42670934294969
 30
0.0
  0
VERTEX
  5
720
  8
DATA
  6
CONTINUOUS
 62
     7
 10
136.28346701319319
 20
229.42670934294969
 30
0.0
  0
SEQEND
  5
721
  8
DATA
  6
CONTINUOUS
 62
     7
  0
POLYLINE
  5
34D
  8
DATA
  6
CONTINUOUS
 62
     7
 66
     1
 10
0.0
 20
0.0
 30
0.0
  0
VERTEX
  5
722
  8
DATA
  6
CONTINUOUS
 62
     7
 10
137.0834670131932
 20
229.42670934294969
 30
0.0
  0
VERTEX
  5
723
  8
DATA
  6
CONTINUOUS
 62
     7
 10
139.18346701319331
 20
229.42670934294969
 30
0.0
  0
VERTEX
  5
724
  8
DATA
  6
CONTINUOUS
 62
     7
 10
139.18346701319331
 20
228.62670934294971
 30
0.0
  0
VERTEX
  5
725
  8
DATA
  6
CONTINUOUS
 62
     7
 10
137.0834670131932
 20
228.62670934294971
 30
0.0
  0
SEQEND
  5
726
  8
DATA
  6
CONTINUOUS
 62
     7
  0
POLYLINE
  5
354
  8
DATA
  6
CONTINUOUS
 62
     7
 66
     1
 10
0.0
 20
0.0
 30
0.0
  0
VERTEX
  5
727
  8
DATA
  6
CONTINUOUS
 62
     7
 10
136.28346701319319
 20
229.42670934294969
 30
0.0
  0
VERTEX
  5
728
  8
DATA
  6
CONTINUOUS
 62
     7
 10
136.28346701319319
 20
231.52670934294969
 30
0.0
  0
VERTEX
  5
729
  8
DATA
  6
CONTINUOUS
 62
     7
 10
137.0834670131932
 20
231.52670934294969
 30
0.0
  0
VERTEX
  5
72A
  8
DATA
  6
CONTINUOUS
 62
     7
 10
137.0834670131932
 20
229.42670934294969
 30
0.0
  0
SEQEND
  5
72B
  8
DATA
  6
CONTINUOUS
 62
     7
  0
POLYLINE
  5
35B
  8
DATA
  6
CONTINUOUS
 62
     7
 66
     1
 10
0.0
 20
0.0
 30
0.0
  0
VERTEX
  5
72C
  8
DATA
  6
CONTINUOUS
 62
     7
 10
137.0834670131932
 20
228.62670934294971
 30
0.0
  0
VERTEX
  5
72D
  8
DATA
  6
CONTINUOUS
 62
     7
 10
137.0834670131932
 20
226.52670934294969
 30
0.0
  0
VERTEX
  5
72E
  8
DATA
  6
CONTINUOUS
 62
     7
 10
136.28346701319319
 20
226.52670934294969
 30
0.0
  0
VERTEX
  5
72F
  8
DATA
  6
CONTINUOUS
 62
     7
 10
136.28346701319319
 20
228.62670934294971
 30
0.0
  0
SEQEND
  5
730
  8
DATA
  6
CONTINUOUS
 62
     7
  0
POLYLINE
  5
362
  8
DATA
  6
CONTINUOUS
 62
     7
 66
     1
 10
0.0
 20
0.0
 30
0.0
 70
     1
  0
VERTEX
  5
731
  8
DATA
  6
CONTINUOUS
 62
     7
 10
137.54375144366489
 20
228.26728153229971
 30
0.0
  0
VERTEX
  5
732
  8
DATA
  6
CONTINUOUS
 62
     7
 10
138.543751443665
 20
228.26728153229971
 30
0.0
  0
VERTEX
  5
733
  8
DATA
  6
CONTINUOUS
 62
     7
 10
138.543751443665
 20
227.26728153229979
 30
0.0
  0
VERTEX
  5
734
  8
DATA
  6
CONTINUOUS
 62
     7
 10
137.54375144366489
 20
227.26728153229979
 30
0.0
  0
SEQEND
  5
735
  8
DATA
  6
CONTINUOUS
 62
     7
  0
POLYLINE
  5
369
  8
DATA
  6
CONTINUOUS
 62
     7
 66
     1
 10
0.0
 20
0.0
 30
0.0
 70
     1
  0
VERTEX
  5
736
  8
DATA
  6
CONTINUOUS
 62
     7
 10
134.82318258272161
 20
228.26728153229971
 30
0.0
  0
VERTEX
  5
737
  8
DATA
  6
CONTINUOUS
 62
     7
 10
135.8231825827215
 20
228.26728153229971
 30
0.0
  0
VERTEX
  5
738
  8
DATA
  6
CONTINUOUS
 62
     7
 10
135.8231825827215
 20
227.26728153229979
 30
0.0
  0
VERTEX
  5
739
  8
DATA
  6
CONTINUOUS
 62
     7
 10
134.82318258272161
 20
227.26728153229979
 30
0.0
  0
SEQEND
  5
73A
  8
DATA
  6
CONTINUOUS
 62
     7
  0
POLYLINE
  5
370
  8
DATA
  6
CONTINUOUS
 62
     7
 66
     1
 10
0.0
 20
0.0
 30
0.0
 70
     1
  0
VERTEX
  5
73B
  8
DATA
  6
CONTINUOUS
 62
     7
 10
137.54375144366489
 20
230.78613715359961
 30
0.0
  0
VERTEX
  5
73C
  8
DATA
  6
CONTINUOUS
 62
     7
 10
138.543751443665
 20
230.78613715359961
 30
0.0
  0
VERTEX
  5
73D
  8
DATA
  6
CONTINUOUS
 62
     7
 10
138.543751443665
 20
229.78613715359961
 30
0.0
  0
VERTEX
  5
73E
  8
DATA
  6
CONTINUOUS
 62
     7
 10
137.54375144366489
 20
229.78613715359961
 30
0.0
  0
SEQEND
  5
73F
  8
DATA
  6
CONTINUOUS
 62
     7
  0
POLYLINE
  5
377
  8
DATA
  6
CONTINUOUS
 62
     7
 66
     1
 10
0.0
 20
0.0
 30
0.0
 70
     1
  0
VERTEX
  5
740
  8
DATA
  6
CONTINUOUS
 62
     7
 10
134.82318258272161
 20
230.78613715359961
 30
0.0
  0
VERTEX
  5
741
  8
DATA
  6
CONTINUOUS
 62
     7
 10
135.8231825827215
 20
230.78613715359961
 30
0.0
  0
VERTEX
  5
742
  8
DATA
  6
CONTINUOUS
 62
     7
 10
135.8231825827215
 20
229.78613715359961
 30
0.0
  0
VERTEX
  5
743
  8
DATA
  6
CONTINUOUS
 62
     7
 10
134.82318258272161
 20
229.78613715359961
 30
0.0
  0
SEQEND
  5
744
  8
DATA
  6
CONTINUOUS
 62
     7
  0
LINE
  5
37E
  8
DATA
  6
CONTINUOUS
 62
     7
 10
156.77883883114129
 20
226.19681764843591
 30
0.0
 11
156.2199216336889
 21
232.0468176484359
 31
0.0
  0
LINE
  5
37F
  8
DATA
  6
CONTINUOUS
 62
     7
 10
132.88809519524639
 20
226.19681764843591
 30
0.0
 11
133.44701239269861
 21
232.0468176484359
 31
0.0
  0
ARC
  5
380
  8
DATA
  6
CONTINUOUS
 62
     7
 10
155.78337190038579
 20
226.10170934294959
 30
0.0
 40
1.0
 50
270.0
 51
5.4575534851073844
  0
ARC
  5
381
  8
DATA
  6
CONTINUOUS
 62
     7
 10
133.88356212600169
 20
226.10170934294959
 30
0.0
 40
0.9999999999999191
 50
174.54244651489199
 51
270.0
  0
ARC
  5
382
  8
DATA
  6
CONTINUOUS
 62
     7
 10
155.2244547029336
 20
231.9517093429497
 30
0.0
 40
0.9999999999999754
 50
5.4575534851077103
 51
90.0
  0
ARC
  5
383
  8
DATA
  6
CONTINUOUS
 62
     7
 10
134.44247932345391
 20
231.9517093429497
 30
0.0
 40
1.0
 50
90.0
 51
174.5424465148952
  0
TEXT
  5
384
  8
DATA
 62
     7
 10
151.5927262095519
 20
239.58834537615371
 30
0.0
 40
2.4432617187500001
  1
DVI In 1
 50
180.0
 41
0.7
 11
151.5927262095519
 21
237.14508365740369
 31
0.0
 73
     3
  0
CIRCLE
  5
385
  8
DATA
  6
CONTINUOUS
 62
     7
 10
49.49164923282369
 20
223.87594882278739
 30
0.0
 40
4.75
  0
ARC
  5
386
  8
DATA
  6
CONTINUOUS
 62
     7
 10
49.49164923282369
 20
223.87594882278739
 30
0.0
 40
7.3500000000000218
 50
114.6373448625971
 51
150.1429251864902
  0
ARC
  5
387
  8
DATA
  6
CONTINUOUS
 62
     7
 10
49.49164923282369
 20
223.87594882278739
 30
0.0
 40
7.3500000000000281
 50
174.63734486259261
 51
210.14292518649441
  0
ARC
  5
388
  8
DATA
  6
CONTINUOUS
 62
     7
 10
49.49164923282369
 20
223.87594882278739
 30
0.0
 40
7.3500000000000032
 50
234.63734486259631
 51
270.14292518649091
  0
ARC
  5
389
  8
DATA
  6
CONTINUOUS
 62
     7
 10
49.49164923282369
 20
223.87594882278739
 30
0.0
 40
7.3500000000000094
 50
294.63734486259688
 51
330.14292518649057
  0
ARC
  5
38A
  8
DATA
  6
CONTINUOUS
 62
     7
 10
49.49164923282369
 20
223.87594882278739
 30
0.0
 40
7.3500000000000032
 50
354.6373448625971
 51
30.142925186490231
  0
ARC
  5
38B
  8
DATA
  6
CONTINUOUS
 62
     7
 10
49.49164923282369
 20
223.87594882278739
 30
0.0
 40
7.3499999999999854
 50
54.637344862597331
 51
90.142925186490046
  0
CIRCLE
  5
38C
  8
DATA
  6
CONTINUOUS
 62
     7
 10
49.49164923282369
 20
223.87594882278739
 30
0.0
 40
2.0
  0
CIRCLE
  5
38D
  8
DATA
  6
CONTINUOUS
 62
     7
 10
49.49164923282369
 20
223.87594882278739
 30
0.0
 40
0.5
  0
POLYLINE
  5
38E
  8
DATA
  6
CONTINUOUS
 62
     7
 66
     1
 10
0.0
 20
0.0
 30
0.0
 70
     1
  0
VERTEX
  5
745
  8
DATA
  6
CONTINUOUS
 62
     7
 10
41.787521709556003
 20
226.3213020566908
 30
0.0
  0
VERTEX
  5
746
  8
DATA
  6
CONTINUOUS
 62
     7
 10
43.521847449402962
 20
218.42665529059451
 30
0.0
  0
VERTEX
  5
747
  8
DATA
  6
CONTINUOUS
 62
     7
 10
51.225974972670642
 20
215.98130205669091
 30
0.0
  0
VERTEX
  5
748
  8
DATA
  6
CONTINUOUS
 62
     7
 10
57.195776756091377
 20
221.4305955888839
 30
0.0
  0
VERTEX
  5
749
  8
DATA
  6
CONTINUOUS
 62
     7
 10
55.461451016244418
 20
229.32524235498039
 30
0.0
  0
VERTEX
  5
74A
  8
DATA
  6
CONTINUOUS
 62
     7
 10
47.757323492976738
 20
231.77059558888391
 30
0.0
  0
SEQEND
  5
74B
  8
DATA
  6
CONTINUOUS
 62
     7
  0
POLYLINE
  5
397
  8
DATA
  6
CONTINUOUS
 62
     7
 66
     1
 10
0.0
 20
0.0
 30
0.0
  0
VERTEX
  5
74C
  8
DATA
  6
CONTINUOUS
 62
     7
 10
48.49164923282369
 20
228.5194927280391
 30
0.0
  0
VERTEX
  5
74D
  8
DATA
  6
CONTINUOUS
 62
     7
 10
48.49164923282369
 20
229.37594882278739
 30
0.0
  0
VERTEX
  5
74E
  8
DATA
  6
CONTINUOUS
 62
     7
 10
50.491649232823683
 20
229.37594882278739
 30
0.0
  0
VERTEX
  5
74F
  8
DATA
  6
CONTINUOUS
 62
     7
 10
50.491649232823683
 20
228.5194927280391
 30
0.0
  0
SEQEND
  5
750
  8
DATA
  6
CONTINUOUS
 62
     7
  0
POLYLINE
  5
39E
  8
DATA
  6
CONTINUOUS
 62
     7
 66
     1
 10
0.0
 20
0.0
 30
0.0
  0
VERTEX
  5
751
  8
DATA
  6
CONTINUOUS
 62
     7
 10
50.491649232823683
 20
219.23240491753569
 30
0.0
  0
VERTEX
  5
752
  8
DATA
  6
CONTINUOUS
 62
     7
 10
50.491649232823683
 20
218.37594882278739
 30
0.0
  0
VERTEX
  5
753
  8
DATA
  6
CONTINUOUS
 62
     7
 10
48.49164923282369
 20
218.37594882278739
 30
0.0
  0
VERTEX
  5
754
  8
DATA
  6
CONTINUOUS
 62
     7
 10
48.49164923282369
 20
219.23240491753569
 30
0.0
  0
SEQEND
  5
755
  8
DATA
  6
CONTINUOUS
 62
     7
  0
TEXT
  5
3A5
  8
DATA
 62
     7
 10
55.736813271358542
 20
238.62018759348399
 30
0.0
 40
2.4432617187500001
  1
CH 1・2
 50
180.0
 41
0.7
 11
55.736813271358542
 21
236.176925874734
 31
0.0
 73
     3
  0
CIRCLE
  5
3A6
  8
DATA
  6
CONTINUOUS
 62
     7
 10
75.491649232823676
 20
223.87594882278739
 30
0.0
 40
4.75
  0
ARC
  5
3A7
  8
DATA
  6
CONTINUOUS
 62
     7
 10
75.491649232823676
 20
223.87594882278739
 30
0.0
 40
7.3500000000000218
 50
114.6373448625971
 51
150.1429251864902
  0
ARC
  5
3A8
  8
DATA
  6
CONTINUOUS
 62
     7
 10
75.491649232823676
 20
223.87594882278739
 30
0.0
 40
7.3500000000000281
 50
174.63734486259261
 51
210.14292518649441
  0
ARC
  5
3A9
  8
DATA
  6
CONTINUOUS
 62
     7
 10
75.491649232823676
 20
223.87594882278739
 30
0.0
 40
7.3500000000000032
 50
234.63734486259631
 51
270.14292518649091
  0
ARC
  5
3AA
  8
DATA
  6
CONTINUOUS
 62
     7
 10
75.491649232823676
 20
223.87594882278739
 30
0.0
 40
7.3500000000000094
 50
294.63734486259688
 51
330.14292518649057
  0
ARC
  5
3AB
  8
DATA
  6
CONTINUOUS
 62
     7
 10
75.491649232823676
 20
223.87594882278739
 30
0.0
 40
7.3500000000000032
 50
354.6373448625971
 51
30.142925186490231
  0
ARC
  5
3AC
  8
DATA
  6
CONTINUOUS
 62
     7
 10
75.491649232823676
 20
223.87594882278739
 30
0.0
 40
7.3499999999999854
 50
54.637344862597331
 51
90.142925186490046
  0
CIRCLE
  5
3AD
  8
DATA
  6
CONTINUOUS
 62
     7
 10
75.491649232823676
 20
223.87594882278739
 30
0.0
 40
2.0
  0
CIRCLE
  5
3AE
  8
DATA
  6
CONTINUOUS
 62
     7
 10
75.491649232823676
 20
223.87594882278739
 30
0.0
 40
0.5
  0
POLYLINE
  5
3AF
  8
DATA
  6
CONTINUOUS
 62
     7
 66
     1
 10
0.0
 20
0.0
 30
0.0
 70
     1
  0
VERTEX
  5
756
  8
DATA
  6
CONTINUOUS
 62
     7
 10
67.787521709556003
 20
226.3213020566908
 30
0.0
  0
VERTEX
  5
757
  8
DATA
  6
CONTINUOUS
 62
     7
 10
69.521847449402955
 20
218.42665529059451
 30
0.0
  0
VERTEX
  5
758
  8
DATA
  6
CONTINUOUS
 62
     7
 10
77.225974972670642
 20
215.98130205669091
 30
0.0
  0
VERTEX
  5
759
  8
DATA
  6
CONTINUOUS
 62
     7
 10
83.195776756091377
 20
221.4305955888839
 30
0.0
  0
VERTEX
  5
75A
  8
DATA
  6
CONTINUOUS
 62
     7
 10
81.461451016244425
 20
229.32524235498039
 30
0.0
  0
VERTEX
  5
75B
  8
DATA
  6
CONTINUOUS
 62
     7
 10
73.757323492976738
 20
231.77059558888391
 30
0.0
  0
SEQEND
  5
75C
  8
DATA
  6
CONTINUOUS
 62
     7
  0
POLYLINE
  5
3B8
  8
DATA
  6
CONTINUOUS
 62
     7
 66
     1
 10
0.0
 20
0.0
 30
0.0
  0
VERTEX
  5
75D
  8
DATA
  6
CONTINUOUS
 62
     7
 10
74.49164923282369
 20
228.5194927280391
 30
0.0
  0
VERTEX
  5
75E
  8
DATA
  6
CONTINUOUS
 62
     7
 10
74.49164923282369
 20
229.37594882278739
 30
0.0
  0
VERTEX
  5
75F
  8
DATA
  6
CONTINUOUS
 62
     7
 10
76.49164923282369
 20
229.37594882278739
 30
0.0
  0
VERTEX
  5
760
  8
DATA
  6
CONTINUOUS
 62
     7
 10
76.49164923282369
 20
228.5194927280391
 30
0.0
  0
SEQEND
  5
761
  8
DATA
  6
CONTINUOUS
 62
     7
  0
POLYLINE
  5
3BF
  8
DATA
  6
CONTINUOUS
 62
     7
 66
     1
 10
0.0
 20
0.0
 30
0.0
  0
VERTEX
  5
762
  8
DATA
  6
CONTINUOUS
 62
     7
 10
76.49164923282369
 20
219.23240491753569
 30
0.0
  0
VERTEX
  5
763
  8
DATA
  6
CONTINUOUS
 62
     7
 10
76.49164923282369
 20
218.37594882278739
 30
0.0
  0
VERTEX
  5
764
  8
DATA
  6
CONTINUOUS
 62
     7
 10
74.49164923282369
 20
218.37594882278739
 30
0.0
  0
VERTEX
  5
765
  8
DATA
  6
CONTINUOUS
 62
     7
 10
74.49164923282369
 20
219.23240491753569
 30
0.0
  0
SEQEND
  5
766
  8
DATA
  6
CONTINUOUS
 62
     7
  0
CIRCLE
  5
3C6
  8
DATA
  6
CONTINUOUS
 62
     7
 10
101.4916492328237
 20
223.87594882278739
 30
0.0
 40
4.75
  0
ARC
  5
3C7
  8
DATA
  6
CONTINUOUS
 62
     7
 10
101.4916492328237
 20
223.87594882278739
 30
0.0
 40
7.3500000000000218
 50
114.6373448625971
 51
150.1429251864902
  0
ARC
  5
3C8
  8
DATA
  6
CONTINUOUS
 62
     7
 10
101.4916492328237
 20
223.87594882278739
 30
0.0
 40
7.3500000000000281
 50
174.63734486259261
 51
210.14292518649441
  0
ARC
  5
3C9
  8
DATA
  6
CONTINUOUS
 62
     7
 10
101.4916492328237
 20
223.87594882278739
 30
0.0
 40
7.3500000000000032
 50
234.63734486259631
 51
270.14292518649091
  0
ARC
  5
3CA
  8
DATA
  6
CONTINUOUS
 62
     7
 10
101.4916492328237
 20
223.87594882278739
 30
0.0
 40
7.3500000000000094
 50
294.63734486259688
 51
330.14292518649057
  0
ARC
  5
3CB
  8
DATA
  6
CONTINUOUS
 62
     7
 10
101.4916492328237
 20
223.87594882278739
 30
0.0
 40
7.3500000000000032
 50
354.6373448625971
 51
30.142925186490231
  0
ARC
  5
3CC
  8
DATA
  6
CONTINUOUS
 62
     7
 10
101.4916492328237
 20
223.87594882278739
 30
0.0
 40
7.3499999999999854
 50
54.637344862597331
 51
90.142925186490046
  0
CIRCLE
  5
3CD
  8
DATA
  6
CONTINUOUS
 62
     7
 10
101.4916492328237
 20
223.87594882278739
 30
0.0
 40
2.0
  0
CIRCLE
  5
3CE
  8
DATA
  6
CONTINUOUS
 62
     7
 10
101.4916492328237
 20
223.87594882278739
 30
0.0
 40
0.5
  0
POLYLINE
  5
3CF
  8
DATA
  6
CONTINUOUS
 62
     7
 66
     1
 10
0.0
 20
0.0
 30
0.0
 70
     1
  0
VERTEX
  5
767
  8
DATA
  6
CONTINUOUS
 62
     7
 10
93.787521709556003
 20
226.3213020566908
 30
0.0
  0
VERTEX
  5
768
  8
DATA
  6
CONTINUOUS
 62
     7
 10
95.521847449402955
 20
218.42665529059451
 30
0.0
  0
VERTEX
  5
769
  8
DATA
  6
CONTINUOUS
 62
     7
 10
103.2259749726706
 20
215.98130205669091
 30
0.0
  0
VERTEX
  5
76A
  8
DATA
  6
CONTINUOUS
 62
     7
 10
109.19577675609131
 20
221.4305955888839
 30
0.0
  0
VERTEX
  5
76B
  8
DATA
  6
CONTINUOUS
 62
     7
 10
107.4614510162444
 20
229.32524235498039
 30
0.0
  0
VERTEX
  5
76C
  8
DATA
  6
CONTINUOUS
 62
     7
 10
99.757323492976738
 20
231.77059558888391
 30
0.0
  0
SEQEND
  5
76D
  8
DATA
  6
CONTINUOUS
 62
     7
  0
POLYLINE
  5
3D8
  8
DATA
  6
CONTINUOUS
 62
     7
 66
     1
 10
0.0
 20
0.0
 30
0.0
  0
VERTEX
  5
76E
  8
DATA
  6
CONTINUOUS
 62
     7
 10
100.4916492328237
 20
228.5194927280391
 30
0.0
  0
VERTEX
  5
76F
  8
DATA
  6
CONTINUOUS
 62
     7
 10
100.4916492328237
 20
229.37594882278739
 30
0.0
  0
VERTEX
  5
770
  8
DATA
  6
CONTINUOUS
 62
     7
 10
102.4916492328237
 20
229.37594882278739
 30
0.0
  0
VERTEX
  5
771
  8
DATA
  6
CONTINUOUS
 62
     7
 10
102.4916492328237
 20
228.5194927280391
 30
0.0
  0
SEQEND
  5
772
  8
DATA
  6
CONTINUOUS
 62
     7
  0
POLYLINE
  5
3DF
  8
DATA
  6
CONTINUOUS
 62
     7
 66
     1
 10
0.0
 20
0.0
 30
0.0
  0
VERTEX
  5
773
  8
DATA
  6
CONTINUOUS
 62
     7
 10
102.4916492328237
 20
219.23240491753569
 30
0.0
  0
VERTEX
  5
774
  8
DATA
  6
CONTINUOUS
 62
     7
 10
102.4916492328237
 20
218.37594882278739
 30
0.0
  0
VERTEX
  5
775
  8
DATA
  6
CONTINUOUS
 62
     7
 10
100.4916492328237
 20
218.37594882278739
 30
0.0
  0
VERTEX
  5
776
  8
DATA
  6
CONTINUOUS
 62
     7
 10
100.4916492328237
 20
219.23240491753569
 30
0.0
  0
SEQEND
  5
777
  8
DATA
  6
CONTINUOUS
 62
     7
  0
TEXT
  5
3E6
  8
DATA
 62
     7
 10
81.736813271358542
 20
238.62018759348399
 30
0.0
 40
2.4432617187500001
  1
CH 1・1
 50
180.0
 41
0.7
 11
81.736813271358542
 21
236.176925874734
 31
0.0
 73
     3
  0
TEXT
  5
3E7
  8
DATA
 62
     7
 10
106.4850631965713
 20
238.62018759348399
 30
0.0
 40
2.4432617187500001
  1
REF・In
 50
180.0
 41
0.7
 11
106.4850631965713
 21
236.176925874734
 31
0.0
 73
     3
  0
TEXT
  5
3E8
  8
DATA
 62
     7
 10
104.54983536605489
 20
241.8474238106009
 30
0.0
 40
2.4432617187500001
  1
CH 1
 50
180.0
 41
0.7
 11
104.54983536605489
 21
239.40416209185091
 31
0.0
 73
     3
  0
CIRCLE
  5
3E9
  8
DATA
  6
CONTINUOUS
 62
     7
 10
177.5207314944393
 20
223.99102616338911
 30
0.0
 40
3.9000000000000048
  0
CIRCLE
  5
3EA
  8
DATA
  6
CONTINUOUS
 62
     7
 10
177.5207314944393
 20
223.99102616338911
 30
0.0
 40
0.75
  0
CIRCLE
  5
3EB
  8
DATA
  6
CONTINUOUS
 62
     7
 10
177.5207314944393
 20
223.99102616338911
 30
0.0
 40
5.25
  0
TEXT
  5
3EC
  8
DATA
 62
     7
 10
182.5083857098214
 20
239.547834506176
 30
0.0
 40
2.4432617187500001
  1
+5V dc
 50
180.0
 41
0.7
 11
182.5083857098214
 21
237.10457278742601
 31
0.0
 73
     3
  0
LINE
  5
3ED
  8
DATA
  6
CONTINUOUS
 62
     7
 10
422.25000000022482
 20
-134.5327102845649
 30
0.0
 11
422.25000000022482
 21
-125.0327102845648
 31
0.0
  0
LINE
  5
3EE
  8
DATA
  6
CONTINUOUS
 62
     7
 10
410.25000000022482
 20
-137.48683780783259
 30
0.0
 11
410.25000000022482
 21
-133.67058033820209
 31
0.0
  0
LINE
  5
3EF
  8
DATA
  6
CONTINUOUS
 62
     7
 10
410.25000000022482
 20
-125.8863172163223
 30
0.0
 11
410.25000000022482
 21
-122.0785827612972
 31
0.0
  0
LINE
  5
3F0
  8
DATA
  6
CONTINUOUS
 62
     7
 10
422.25000000022482
 20
-125.0327102845648
 30
0.0
 11
410.25000000022482
 21
-125.0327102845648
 31
0.0
  0
LINE
  5
3F1
  8
DATA
  6
CONTINUOUS
 62
     7
 10
422.25000000022482
 20
-134.5327102845649
 30
0.0
 11
410.25000000022482
 21
-134.5327102845649
 31
0.0
  0
LINE
  5
3F2
  8
DATA
  6
CONTINUOUS
 62
     7
 10
410.25000000022482
 20
-122.0785827612972
 30
0.0
 11
405.2500000002247
 21
-122.0785827612972
 31
0.0
  0
LINE
  5
3F3
  8
DATA
  6
CONTINUOUS
 62
     7
 10
410.25000000022482
 20
-137.48683780783259
 30
0.0
 11
405.2500000002247
 21
-137.48683780783259
 31
0.0
  0
LINE
  5
3F4
  8
DATA
  6
CONTINUOUS
 62
     7
 10
407.2500000001528
 20
-124.5363172163224
 30
0.0
 11
405.25000000015268
 21
-124.5363172163224
 31
0.0
  0
LINE
  5
3F5
  8
DATA
  6
CONTINUOUS
 62
     7
 10
407.2500000001528
 20
-135.0363172163224
 30
0.0
 11
405.25000000015268
 21
-135.0363172163224
 31
0.0
  0
LINE
  5
3F6
  8
DATA
  6
CONTINUOUS
 62
     7
 10
411.2500000001528
 20
-125.8863172163223
 30
0.0
 11
407.2500000001528
 21
-125.8863172163223
 31
0.0
  0
LINE
  5
3F7
  8
DATA
  6
CONTINUOUS
 62
     7
 10
411.2500000001528
 20
-133.67058033820209
 30
0.0
 11
407.2500000001528
 21
-133.67058033820209
 31
0.0
  0
LINE
  5
3F8
  8
DATA
  6
CONTINUOUS
 62
     7
 10
407.2500000001528
 20
-124.5363172163224
 30
0.0
 11
407.2500000001528
 21
-135.0363172163224
 31
0.0
  0
LINE
  5
3F9
  8
DATA
  6
CONTINUOUS
 62
     7
 10
411.2500000001528
 20
-125.8863172163223
 30
0.0
 11
411.2500000001528
 21
-133.67058033820209
 31
0.0
  0
POLYLINE
  5
3FA
  8
DATA
  6
CONTINUOUS
 62
     7
 66
     1
 10
0.0
 20
0.0
 30
0.0
  0
VERTEX
  5
778
  8
DATA
  6
CONTINUOUS
 62
     7
 10
417.2500000002247
 20
-125.0327102845648
 30
0.0
  0
VERTEX
  5
779
  8
DATA
  6
CONTINUOUS
 62
     7
 10
417.2500000002247
 20
-124.3511560083703
 30
0.0
  0
VERTEX
  5
77A
  8
DATA
  6
CONTINUOUS
 62
     7
 10
419.2500000002247
 20
-124.3511560083703
 30
0.0
  0
VERTEX
  5
77B
  8
DATA
  6
CONTINUOUS
 62
     7
 10
419.2500000002247
 20
-125.0327102845648
 30
0.0
  0
SEQEND
  5
77C
  8
DATA
  6
CONTINUOUS
 62
     7
  0
POLYLINE
  5
401
  8
DATA
  6
CONTINUOUS
 62
     7
 66
     1
 10
0.0
 20
0.0
 30
0.0
  0
VERTEX
  5
77D
  8
DATA
  6
CONTINUOUS
 62
     7
 10
419.2500000002247
 20
-134.5327102845649
 30
0.0
  0
VERTEX
  5
77E
  8
DATA
  6
CONTINUOUS
 62
     7
 10
419.2500000002247
 20
-135.35115600837031
 30
0.0
  0
VERTEX
  5
77F
  8
DATA
  6
CONTINUOUS
 62
     7
 10
417.2500000002247
 20
-135.35115600837031
 30
0.0
  0
VERTEX
  5
780
  8
DATA
  6
CONTINUOUS
 62
     7
 10
417.2500000002247
 20
-134.5327102845649
 30
0.0
  0
SEQEND
  5
781
  8
DATA
  6
CONTINUOUS
 62
     7
  0
LINE
  5
408
  8
DATA
  6
CONTINUOUS
 62
     7
 10
409.24999999990882
 20
-119.2953913037209
 30
0.0
 11
405.25
 21
-119.2953913037209
 31
0.0
  0
LINE
  5
409
  8
DATA
  6
CONTINUOUS
 62
     7
 10
405.25
 20
-114.0953913037207
 30
0.0
 11
409.24999999990882
 21
-114.0953913037207
 31
0.0
  0
LINE
  5
40A
  8
DATA
  6
CONTINUOUS
 62
     7
 10
409.24999999990882
 20
-120.6953913037209
 30
0.0
 11
405.25
 21
-120.6953913037209
 31
0.0
  0
LINE
  5
40B
  8
DATA
  6
CONTINUOUS
 62
     7
 10
405.25
 20
-112.6953913037207
 30
0.0
 11
409.24999999990882
 21
-112.6953913037207
 31
0.0
  0
LINE
  5
40C
  8
DATA
  6
CONTINUOUS
 62
     7
 10
409.24999999990882
 20
-112.6953913037207
 30
0.0
 11
409.24999999990882
 21
-120.6953913037209
 31
0.0
  0
LINE
  5
40D
  8
DATA
  6
CONTINUOUS
 62
     7
 10
255.46374229686731
 20
-154.0
 30
0.0
 11
256.96374229686728
 21
-150.0
 31
0.0
  0
LINE
  5
40E
  8
DATA
  6
CONTINUOUS
 62
     7
 10
239.46374229686739
 20
-154.0
 30
0.0
 11
237.96374229686739
 21
-150.0
 31
0.0
  0
LINE
  5
40F
  8
DATA
  6
CONTINUOUS
 62
     7
 10
255.46374229686731
 20
-154.0
 30
0.0
 11
239.46374229686731
 21
-154.0
 31
0.0
  0
LINE
  5
410
  8
DATA
  6
CONTINUOUS
 62
     7
 10
381.03625770313278
 20
-154.0
 30
0.0
 11
379.53625770313278
 21
-150.0
 31
0.0
  0
LINE
  5
411
  8
DATA
  6
CONTINUOUS
 62
     7
 10
397.03625770313261
 20
-154.0
 30
0.0
 11
398.53625770313261
 21
-150.0
 31
0.0
  0
LINE
  5
412
  8
DATA
  6
CONTINUOUS
 62
     7
 10
381.03625770313278
 20
-154.0
 30
0.0
 11
397.03625770313278
 21
-154.0
 31
0.0
  0
ARC
  5
413
  8
DATA
  6
CONTINUOUS
 62
     7
 10
175.5
 20
-56.231269006805
 30
0.0
 40
1.5
 50
180.71548983305391
 51
359.28451016694601
  0
ARC
  5
414
  8
DATA
  6
CONTINUOUS
 62
     7
 10
231.2580412840297
 20
-133.0
 30
0.0
 40
1.4999999999999769
 50
90.307155895740195
 51
269.6928441042599
  0
LINE
  5
415
  8
DATA
  6
CONTINUOUS
 62
     7
 10
-51.303608622318713
 20
122.25235623682499
 30
0.0
 11
-69.124481620418081
 21
122.25235623682499
 31
0.0
  0
LINE
  5
416
  8
DATA
  6
CONTINUOUS
 62
     7
 10
-69.124481620418081
 20
122.25235623682499
 30
0.0
 11
-69.124481620418081
 21
117.75235623646419
 31
0.0
  0
LINE
  5
417
  8
DATA
  6
CONTINUOUS
 62
     7
 10
-51.303608622318713
 20
122.25235623682499
 30
0.0
 11
-51.303608622318713
 21
117.75235623646419
 31
0.0
  0
LINE
  5
418
  8
DATA
  6
CONTINUOUS
 62
     7
 10
-74.963132547069591
 20
122.25235623682499
 30
0.0
 11
-74.963132547069591
 21
117.7523562366092
 31
0.0
  0
LINE
  5
419
  8
DATA
  6
CONTINUOUS
 62
     7
 10
-70.286595366633648
 20
122.25235623682499
 30
0.0
 11
-70.286595366633648
 21
117.7523562366092
 31
0.0
  0
LINE
  5
41A
  8
DATA
  6
CONTINUOUS
 62
     7
 10
-45.286595366633357
 20
122.25235623682499
 30
0.0
 11
-45.286595366633357
 21
117.7523562366092
 31
0.0
  0
LINE
  5
41B
  8
DATA
  6
CONTINUOUS
 62
     7
 10
-49.963132547069378
 20
122.25235623682499
 30
0.0
 11
-49.963132547069378
 21
117.7523562366092
 31
0.0
  0
LINE
  5
41C
  8
DATA
  6
CONTINUOUS
 62
     7
 10
-70.286595366633648
 20
122.25235623682499
 30
0.0
 11
-74.963132547069591
 21
122.25235623682499
 31
0.0
  0
LINE
  5
41D
  8
DATA
  6
CONTINUOUS
 62
     7
 10
-49.963132547069378
 20
122.25235623682499
 30
0.0
 11
-45.286595366633357
 21
122.25235623682499
 31
0.0
  0
LINE
  5
41E
  8
DATA
  6
CONTINUOUS
 62
     7
 10
-150.98938629473449
 20
134.75235623654461
 30
0.0
 11
-160.48938629473409
 21
134.75235623654461
 31
0.0
  0
LINE
  5
41F
  8
DATA
  6
CONTINUOUS
 62
     7
 10
-148.03525877146669
 20
122.7523562365446
 30
0.0
 11
-163.4435138180018
 21
122.7523562365446
 31
0.0
  0
LINE
  5
420
  8
DATA
  6
CONTINUOUS
 62
     7
 10
-160.48938629473409
 20
134.75235623654461
 30
0.0
 11
-160.48938629473409
 21
122.7523562365446
 31
0.0
  0
LINE
  5
421
  8
DATA
  6
CONTINUOUS
 62
     7
 10
-150.98938629473449
 20
134.75235623654461
 30
0.0
 11
-150.98938629473449
 21
122.7523562365446
 31
0.0
  0
LINE
  5
422
  8
DATA
  6
CONTINUOUS
 62
     7
 10
-161.23938629473409
 20
131.75235623654461
 30
0.0
 11
-161.23938629473409
 21
129.75235623654461
 31
0.0
  0
LINE
  5
423
  8
DATA
  6
CONTINUOUS
 62
     7
 10
-150.23938629473449
 20
131.75235623654461
 30
0.0
 11
-150.23938629473449
 21
129.75235623654461
 31
0.0
  0
LINE
  5
424
  8
DATA
  6
CONTINUOUS
 62
     7
 10
-161.23938629473409
 20
131.75235623654461
 30
0.0
 11
-160.48938629473409
 21
131.75235623654461
 31
0.0
  0
LINE
  5
425
  8
DATA
  6
CONTINUOUS
 62
     7
 10
-150.98938629473449
 20
131.75235623654461
 30
0.0
 11
-150.23938629473449
 21
131.75235623654461
 31
0.0
  0
LINE
  5
426
  8
DATA
  6
CONTINUOUS
 62
     7
 10
-161.23938629473409
 20
129.75235623654461
 30
0.0
 11
-160.48938629473409
 21
129.75235623654461
 31
0.0
  0
LINE
  5
427
  8
DATA
  6
CONTINUOUS
 62
     7
 10
-150.98938629473449
 20
129.75235623654461
 30
0.0
 11
-150.23938629473449
 21
129.75235623654461
 31
0.0
  0
LINE
  5
428
  8
DATA
  6
CONTINUOUS
 62
     7
 10
-163.4435138180018
 20
122.7523562365446
 30
0.0
 11
-163.4435138180018
 21
117.7523562365445
 31
0.0
  0
LINE
  5
429
  8
DATA
  6
CONTINUOUS
 62
     7
 10
-148.03525877146669
 20
122.7523562365446
 30
0.0
 11
-148.03525877146669
 21
117.7523562365445
 31
0.0
  0
LINE
  5
42A
  8
DATA
  6
CONTINUOUS
 62
     7
 10
-124.9893862947344
 20
134.75235623654461
 30
0.0
 11
-134.48938629473409
 21
134.75235623654461
 31
0.0
  0
LINE
  5
42B
  8
DATA
  6
CONTINUOUS
 62
     7
 10
-122.0352587714667
 20
122.7523562365446
 30
0.0
 11
-137.4435138180018
 21
122.7523562365446
 31
0.0
  0
LINE
  5
42C
  8
DATA
  6
CONTINUOUS
 62
     7
 10
-134.48938629473409
 20
134.75235623654461
 30
0.0
 11
-134.48938629473409
 21
122.7523562365446
 31
0.0
  0
LINE
  5
42D
  8
DATA
  6
CONTINUOUS
 62
     7
 10
-124.9893862947344
 20
134.75235623654461
 30
0.0
 11
-124.9893862947344
 21
122.7523562365446
 31
0.0
  0
LINE
  5
42E
  8
DATA
  6
CONTINUOUS
 62
     7
 10
-135.23938629473409
 20
131.75235623654461
 30
0.0
 11
-135.23938629473409
 21
129.75235623654461
 31
0.0
  0
LINE
  5
42F
  8
DATA
  6
CONTINUOUS
 62
     7
 10
-124.2393862947344
 20
131.75235623654461
 30
0.0
 11
-124.2393862947344
 21
129.75235623654461
 31
0.0
  0
LINE
  5
430
  8
DATA
  6
CONTINUOUS
 62
     7
 10
-135.23938629473409
 20
131.75235623654461
 30
0.0
 11
-134.48938629473409
 21
131.75235623654461
 31
0.0
  0
LINE
  5
431
  8
DATA
  6
CONTINUOUS
 62
     7
 10
-124.9893862947344
 20
131.75235623654461
 30
0.0
 11
-124.2393862947344
 21
131.75235623654461
 31
0.0
  0
LINE
  5
432
  8
DATA
  6
CONTINUOUS
 62
     7
 10
-135.23938629473409
 20
129.75235623654461
 30
0.0
 11
-134.48938629473409
 21
129.75235623654461
 31
0.0
  0
LINE
  5
433
  8
DATA
  6
CONTINUOUS
 62
     7
 10
-124.9893862947344
 20
129.75235623654461
 30
0.0
 11
-124.2393862947344
 21
129.75235623654461
 31
0.0
  0
LINE
  5
434
  8
DATA
  6
CONTINUOUS
 62
     7
 10
-137.4435138180018
 20
122.7523562365446
 30
0.0
 11
-137.4435138180018
 21
117.7523562365445
 31
0.0
  0
LINE
  5
435
  8
DATA
  6
CONTINUOUS
 62
     7
 10
-122.0352587714667
 20
122.7523562365446
 30
0.0
 11
-122.0352587714667
 21
117.7523562365445
 31
0.0
  0
LINE
  5
436
  8
DATA
  6
CONTINUOUS
 62
     7
 10
-98.989386294734445
 20
134.75235623654461
 30
0.0
 11
-108.4893862947342
 21
134.75235623654461
 31
0.0
  0
LINE
  5
437
  8
DATA
  6
CONTINUOUS
 62
     7
 10
-96.035258771466786
 20
122.7523562365446
 30
0.0
 11
-111.4435138180018
 21
122.7523562365446
 31
0.0
  0
LINE
  5
438
  8
DATA
  6
CONTINUOUS
 62
     7
 10
-108.4893862947342
 20
134.75235623654461
 30
0.0
 11
-108.4893862947342
 21
122.7523562365446
 31
0.0
  0
LINE
  5
439
  8
DATA
  6
CONTINUOUS
 62
     7
 10
-98.989386294734445
 20
134.75235623654461
 30
0.0
 11
-98.989386294734445
 21
122.7523562365446
 31
0.0
  0
LINE
  5
43A
  8
DATA
  6
CONTINUOUS
 62
     7
 10
-109.2393862947342
 20
131.75235623654461
 30
0.0
 11
-109.2393862947342
 21
129.75235623654461
 31
0.0
  0
LINE
  5
43B
  8
DATA
  6
CONTINUOUS
 62
     7
 10
-98.239386294734445
 20
131.75235623654461
 30
0.0
 11
-98.239386294734445
 21
129.75235623654461
 31
0.0
  0
LINE
  5
43C
  8
DATA
  6
CONTINUOUS
 62
     7
 10
-109.2393862947342
 20
131.75235623654461
 30
0.0
 11
-108.4893862947342
 21
131.75235623654461
 31
0.0
  0
LINE
  5
43D
  8
DATA
  6
CONTINUOUS
 62
     7
 10
-98.989386294734445
 20
131.75235623654461
 30
0.0
 11
-98.239386294734445
 21
131.75235623654461
 31
0.0
  0
LINE
  5
43E
  8
DATA
  6
CONTINUOUS
 62
     7
 10
-109.2393862947342
 20
129.75235623654461
 30
0.0
 11
-108.4893862947342
 21
129.75235623654461
 31
0.0
  0
LINE
  5
43F
  8
DATA
  6
CONTINUOUS
 62
     7
 10
-98.989386294734445
 20
129.75235623654461
 30
0.0
 11
-98.239386294734445
 21
129.75235623654461
 31
0.0
  0
LINE
  5
440
  8
DATA
  6
CONTINUOUS
 62
     7
 10
-111.4435138180018
 20
122.7523562365446
 30
0.0
 11
-111.4435138180018
 21
117.7523562365445
 31
0.0
  0
LINE
  5
441
  8
DATA
  6
CONTINUOUS
 62
     7
 10
-96.035258771466786
 20
122.7523562365446
 30
0.0
 11
-96.035258771466786
 21
117.7523562365445
 31
0.0
  0
LINE
  5
442
  8
DATA
  6
CONTINUOUS
 62
     7
 10
-78.754801577024352
 20
117.75
 30
0.0
 11
-78.754801577024352
 21
122.25235623682499
 31
0.0
  0
LINE
  5
443
  8
DATA
  6
CONTINUOUS
 62
     7
 10
-41.578264396587898
 20
117.75
 30
0.0
 11
-41.578264396587898
 21
122.25235623682499
 31
0.0
  0
LINE
  5
444
  8
DATA
  6
CONTINUOUS
 62
     7
 10
-74.963132547069591
 20
122.25235623682499
 30
0.0
 11
-78.754801577024352
 21
122.25235623682499
 31
0.0
  0
LINE
  5
445
  8
DATA
  6
CONTINUOUS
 62
     7
 10
-45.286595366633357
 20
122.25235623682499
 30
0.0
 11
-41.578264396587898
 21
122.25235623682499
 31
0.0
  0
LINE
  5
446
  8
DATA
  6
CONTINUOUS
 62
     7
 10
153.69639137768121
 20
122.25235623682499
 30
0.0
 11
135.87551837958191
 21
122.25235623682499
 31
0.0
  0
LINE
  5
447
  8
DATA
  6
CONTINUOUS
 62
     7
 10
135.87551837958191
 20
122.25235623682499
 30
0.0
 11
135.87551837958191
 21
117.75235623646419
 31
0.0
  0
LINE
  5
448
  8
DATA
  6
CONTINUOUS
 62
     7
 10
153.69639137768121
 20
122.25235623682499
 30
0.0
 11
153.69639137768121
 21
117.75235623646419
 31
0.0
  0
LINE
  5
449
  8
DATA
  6
CONTINUOUS
 62
     7
 10
130.03686745293041
 20
122.25235623682499
 30
0.0
 11
130.03686745293041
 21
117.7523562366092
 31
0.0
  0
LINE
  5
44A
  8
DATA
  6
CONTINUOUS
 62
     7
 10
134.71340463336631
 20
122.25235623682499
 30
0.0
 11
134.71340463336631
 21
117.7523562366092
 31
0.0
  0
LINE
  5
44B
  8
DATA
  6
CONTINUOUS
 62
     7
 10
159.71340463336659
 20
122.25235623682499
 30
0.0
 11
159.71340463336659
 21
117.7523562366092
 31
0.0
  0
LINE
  5
44C
  8
DATA
  6
CONTINUOUS
 62
     7
 10
155.03686745293061
 20
122.25235623682499
 30
0.0
 11
155.03686745293061
 21
117.7523562366092
 31
0.0
  0
LINE
  5
44D
  8
DATA
  6
CONTINUOUS
 62
     7
 10
134.71340463336631
 20
122.25235623682499
 30
0.0
 11
130.03686745293041
 21
122.25235623682499
 31
0.0
  0
LINE
  5
44E
  8
DATA
  6
CONTINUOUS
 62
     7
 10
155.03686745293061
 20
122.25235623682499
 30
0.0
 11
159.71340463336659
 21
122.25235623682499
 31
0.0
  0
LINE
  5
44F
  8
DATA
  6
CONTINUOUS
 62
     7
 10
54.010613705265563
 20
134.75235623654461
 30
0.0
 11
44.510613705265811
 21
134.75235623654461
 31
0.0
  0
LINE
  5
450
  8
DATA
  6
CONTINUOUS
 62
     7
 10
56.964741228533242
 20
122.7523562365446
 30
0.0
 11
41.556486181998167
 21
122.7523562365446
 31
0.0
  0
LINE
  5
451
  8
DATA
  6
CONTINUOUS
 62
     7
 10
44.510613705265811
 20
134.75235623654461
 30
0.0
 11
44.510613705265811
 21
122.7523562365446
 31
0.0
  0
LINE
  5
452
  8
DATA
  6
CONTINUOUS
 62
     7
 10
54.010613705265563
 20
134.75235623654461
 30
0.0
 11
54.010613705265563
 21
122.7523562365446
 31
0.0
  0
LINE
  5
453
  8
DATA
  6
CONTINUOUS
 62
     7
 10
43.760613705265797
 20
131.75235623654461
 30
0.0
 11
43.760613705265797
 21
129.75235623654461
 31
0.0
  0
LINE
  5
454
  8
DATA
  6
CONTINUOUS
 62
     7
 10
54.760613705265563
 20
131.75235623654461
 30
0.0
 11
54.760613705265563
 21
129.75235623654461
 31
0.0
  0
LINE
  5
455
  8
DATA
  6
CONTINUOUS
 62
     7
 10
43.760613705265797
 20
131.75235623654461
 30
0.0
 11
44.510613705265811
 21
131.75235623654461
 31
0.0
  0
LINE
  5
456
  8
DATA
  6
CONTINUOUS
 62
     7
 10
54.010613705265563
 20
131.75235623654461
 30
0.0
 11
54.760613705265563
 21
131.75235623654461
 31
0.0
  0
LINE
  5
457
  8
DATA
  6
CONTINUOUS
 62
     7
 10
43.760613705265797
 20
129.75235623654461
 30
0.0
 11
44.510613705265811
 21
129.75235623654461
 31
0.0
  0
LINE
  5
458
  8
DATA
  6
CONTINUOUS
 62
     7
 10
54.010613705265563
 20
129.75235623654461
 30
0.0
 11
54.760613705265563
 21
129.75235623654461
 31
0.0
  0
LINE
  5
459
  8
DATA
  6
CONTINUOUS
 62
     7
 10
41.556486181998167
 20
122.7523562365446
 30
0.0
 11
41.556486181998167
 21
117.7523562365445
 31
0.0
  0
LINE
  5
45A
  8
DATA
  6
CONTINUOUS
 62
     7
 10
56.964741228533242
 20
122.7523562365446
 30
0.0
 11
56.964741228533242
 21
117.7523562365445
 31
0.0
  0
LINE
  5
45B
  8
DATA
  6
CONTINUOUS
 62
     7
 10
80.010613705265555
 20
134.75235623654461
 30
0.0
 11
70.510613705265811
 21
134.75235623654461
 31
0.0
  0
LINE
  5
45C
  8
DATA
  6
CONTINUOUS
 62
     7
 10
82.964741228533228
 20
122.7523562365446
 30
0.0
 11
67.556486181998181
 21
122.7523562365446
 31
0.0
  0
LINE
  5
45D
  8
DATA
  6
CONTINUOUS
 62
     7
 10
70.510613705265811
 20
134.75235623654461
 30
0.0
 11
70.510613705265811
 21
122.7523562365446
 31
0.0
  0
LINE
  5
45E
  8
DATA
  6
CONTINUOUS
 62
     7
 10
80.010613705265555
 20
134.75235623654461
 30
0.0
 11
80.010613705265555
 21
122.7523562365446
 31
0.0
  0
LINE
  5
45F
  8
DATA
  6
CONTINUOUS
 62
     7
 10
69.760613705265811
 20
131.75235623654461
 30
0.0
 11
69.760613705265811
 21
129.75235623654461
 31
0.0
  0
LINE
  5
460
  8
DATA
  6
CONTINUOUS
 62
     7
 10
80.760613705265555
 20
131.75235623654461
 30
0.0
 11
80.760613705265555
 21
129.75235623654461
 31
0.0
  0
LINE
  5
461
  8
DATA
  6
CONTINUOUS
 62
     7
 10
69.760613705265811
 20
131.75235623654461
 30
0.0
 11
70.510613705265811
 21
131.75235623654461
 31
0.0
  0
LINE
  5
462
  8
DATA
  6
CONTINUOUS
 62
     7
 10
80.010613705265555
 20
131.75235623654461
 30
0.0
 11
80.760613705265555
 21
131.75235623654461
 31
0.0
  0
LINE
  5
463
  8
DATA
  6
CONTINUOUS
 62
     7
 10
69.760613705265811
 20
129.75235623654461
 30
0.0
 11
70.510613705265811
 21
129.75235623654461
 31
0.0
  0
LINE
  5
464
  8
DATA
  6
CONTINUOUS
 62
     7
 10
80.010613705265555
 20
129.75235623654461
 30
0.0
 11
80.760613705265555
 21
129.75235623654461
 31
0.0
  0
LINE
  5
465
  8
DATA
  6
CONTINUOUS
 62
     7
 10
67.556486181998181
 20
122.7523562365446
 30
0.0
 11
67.556486181998181
 21
117.7523562365445
 31
0.0
  0
LINE
  5
466
  8
DATA
  6
CONTINUOUS
 62
     7
 10
82.964741228533228
 20
122.7523562365446
 30
0.0
 11
82.964741228533228
 21
117.7523562365445
 31
0.0
  0
LINE
  5
467
  8
DATA
  6
CONTINUOUS
 62
     7
 10
106.0106137052655
 20
134.75235623654461
 30
0.0
 11
96.510613705265783
 21
134.75235623654461
 31
0.0
  0
LINE
  5
468
  8
DATA
  6
CONTINUOUS
 62
     7
 10
108.9647412285332
 20
122.7523562365446
 30
0.0
 11
93.556486181998196
 21
122.7523562365446
 31
0.0
  0
LINE
  5
469
  8
DATA
  6
CONTINUOUS
 62
     7
 10
96.510613705265783
 20
134.75235623654461
 30
0.0
 11
96.510613705265783
 21
122.7523562365446
 31
0.0
  0
LINE
  5
46A
  8
DATA
  6
CONTINUOUS
 62
     7
 10
106.0106137052655
 20
134.75235623654461
 30
0.0
 11
106.0106137052655
 21
122.7523562365446
 31
0.0
  0
LINE
  5
46B
  8
DATA
  6
CONTINUOUS
 62
     7
 10
95.760613705265797
 20
131.75235623654461
 30
0.0
 11
95.760613705265797
 21
129.75235623654461
 31
0.0
  0
LINE
  5
46C
  8
DATA
  6
CONTINUOUS
 62
     7
 10
106.7606137052655
 20
131.75235623654461
 30
0.0
 11
106.7606137052655
 21
129.75235623654461
 31
0.0
  0
LINE
  5
46D
  8
DATA
  6
CONTINUOUS
 62
     7
 10
95.760613705265797
 20
131.75235623654461
 30
0.0
 11
96.510613705265783
 21
131.75235623654461
 31
0.0
  0
LINE
  5
46E
  8
DATA
  6
CONTINUOUS
 62
     7
 10
106.0106137052655
 20
131.75235623654461
 30
0.0
 11
106.7606137052655
 21
131.75235623654461
 31
0.0
  0
LINE
  5
46F
  8
DATA
  6
CONTINUOUS
 62
     7
 10
95.760613705265797
 20
129.75235623654461
 30
0.0
 11
96.510613705265783
 21
129.75235623654461
 31
0.0
  0
LINE
  5
470
  8
DATA
  6
CONTINUOUS
 62
     7
 10
106.0106137052655
 20
129.75235623654461
 30
0.0
 11
106.7606137052655
 21
129.75235623654461
 31
0.0
  0
LINE
  5
471
  8
DATA
  6
CONTINUOUS
 62
     7
 10
93.556486181998196
 20
122.7523562365446
 30
0.0
 11
93.556486181998196
 21
117.7523562365445
 31
0.0
  0
LINE
  5
472
  8
DATA
  6
CONTINUOUS
 62
     7
 10
108.9647412285332
 20
122.7523562365446
 30
0.0
 11
108.9647412285332
 21
117.7523562365445
 31
0.0
  0
LINE
  5
473
  8
DATA
  6
CONTINUOUS
 62
     7
 10
126.24519842297561
 20
117.75
 30
0.0
 11
126.24519842297561
 21
122.25235623682499
 31
0.0
  0
LINE
  5
474
  8
DATA
  6
CONTINUOUS
 62
     7
 10
163.42173560341209
 20
117.75
 30
0.0
 11
163.42173560341209
 21
122.25235623682499
 31
0.0
  0
LINE
  5
475
  8
DATA
  6
CONTINUOUS
 62
     7
 10
130.03686745293041
 20
122.25235623682499
 30
0.0
 11
126.24519842297561
 21
122.25235623682499
 31
0.0
  0
LINE
  5
476
  8
DATA
  6
CONTINUOUS
 62
     7
 10
159.71340463336659
 20
122.25235623682499
 30
0.0
 11
163.42173560341209
 21
122.25235623682499
 31
0.0
  0
CIRCLE
  5
477
  8
DATA
  6
CONTINUOUS
 62
     7
 10
245.25
 20
-143.0
 30
0.0
 40
2.5
  0
LINE
  5
478
  8
DATA
  6
CONTINUOUS
 62
     7
 10
243.66999999999999
 20
-143.0
 30
0.0
 11
246.83000000000001
 21
-143.0
 31
0.0
  0
LINE
  5
479
  8
DATA
  6
CONTINUOUS
 62
     7
 10
245.25
 20
-144.5799999999999
 30
0.0
 11
245.25
 21
-141.41999999999999
 31
0.0
  0
CIRCLE
  5
47A
  8
DATA
  6
CONTINUOUS
 62
     7
 10
245.25
 20
-113.0
 30
0.0
 40
2.5
  0
LINE
  5
47B
  8
DATA
  6
CONTINUOUS
 62
     7
 10
243.66999999999999
 20
-113.0
 30
0.0
 11
246.83000000000001
 21
-113.0
 31
0.0
  0
LINE
  5
47C
  8
DATA
  6
CONTINUOUS
 62
     7
 10
245.25
 20
-114.58
 30
0.0
 11
245.25
 21
-111.42
 31
0.0
  0
CIRCLE
  5
47D
  8
DATA
  6
CONTINUOUS
 62
     7
 10
315.25
 20
-143.0
 30
0.0
 40
2.5
  0
LINE
  5
47E
  8
DATA
  6
CONTINUOUS
 62
     7
 10
313.67000000000002
 20
-143.0
 30
0.0
 11
316.82999999999998
 21
-143.0
 31
0.0
  0
LINE
  5
47F
  8
DATA
  6
CONTINUOUS
 62
     7
 10
315.25
 20
-144.5799999999999
 30
0.0
 11
315.25
 21
-141.41999999999999
 31
0.0
  0
CIRCLE
  5
480
  8
DATA
  6
CONTINUOUS
 62
     7
 10
385.25
 20
-143.0
 30
0.0
 40
2.5
  0
LINE
  5
481
  8
DATA
  6
CONTINUOUS
 62
     7
 10
383.67000000000002
 20
-143.0
 30
0.0
 11
386.82999999999998
 21
-143.0
 31
0.0
  0
LINE
  5
482
  8
DATA
  6
CONTINUOUS
 62
     7
 10
385.25
 20
-144.5799999999999
 30
0.0
 11
385.25
 21
-141.41999999999999
 31
0.0
  0
CIRCLE
  5
483
  8
DATA
  6
CONTINUOUS
 62
     7
 10
257.25
 20
-131.0
 30
0.0
 40
1.650000000000005
  0
CIRCLE
  5
484
  8
DATA
  6
CONTINUOUS
 62
     7
 10
257.25
 20
-126.0
 30
0.0
 40
1.650000000000005
  0
CIRCLE
  5
485
  8
DATA
  6
CONTINUOUS
 62
     7
 10
257.25
 20
-121.0
 30
0.0
 40
1.650000000000005
  0
CIRCLE
  5
486
  8
DATA
  6
CONTINUOUS
 62
     7
 10
257.25
 20
-116.0
 30
0.0
 40
1.650000000000005
  0
CIRCLE
  5
487
  8
DATA
  6
CONTINUOUS
 62
     7
 10
265.25
 20
-131.0
 30
0.0
 40
1.650000000000005
  0
CIRCLE
  5
488
  8
DATA
  6
CONTINUOUS
 62
     7
 10
265.25
 20
-126.0
 30
0.0
 40
1.650000000000005
  0
CIRCLE
  5
489
  8
DATA
  6
CONTINUOUS
 62
     7
 10
265.25
 20
-121.0
 30
0.0
 40
1.650000000000005
  0
CIRCLE
  5
48A
  8
DATA
  6
CONTINUOUS
 62
     7
 10
265.25
 20
-116.0
 30
0.0
 40
1.650000000000005
  0
CIRCLE
  5
48B
  8
DATA
  6
CONTINUOUS
 62
     7
 10
273.25
 20
-131.0
 30
0.0
 40
1.650000000000005
  0
CIRCLE
  5
48C
  8
DATA
  6
CONTINUOUS
 62
     7
 10
273.25
 20
-126.0
 30
0.0
 40
1.650000000000005
  0
CIRCLE
  5
48D
  8
DATA
  6
CONTINUOUS
 62
     7
 10
273.25
 20
-121.0
 30
0.0
 40
1.650000000000005
  0
CIRCLE
  5
48E
  8
DATA
  6
CONTINUOUS
 62
     7
 10
273.25
 20
-116.0
 30
0.0
 40
1.650000000000005
  0
CIRCLE
  5
48F
  8
DATA
  6
CONTINUOUS
 62
     7
 10
281.25
 20
-131.0
 30
0.0
 40
1.650000000000005
  0
CIRCLE
  5
490
  8
DATA
  6
CONTINUOUS
 62
     7
 10
281.25
 20
-126.0
 30
0.0
 40
1.650000000000005
  0
CIRCLE
  5
491
  8
DATA
  6
CONTINUOUS
 62
     7
 10
281.25
 20
-121.0
 30
0.0
 40
1.650000000000005
  0
CIRCLE
  5
492
  8
DATA
  6
CONTINUOUS
 62
     7
 10
281.25
 20
-116.0
 30
0.0
 40
1.650000000000005
  0
CIRCLE
  5
493
  8
DATA
  6
CONTINUOUS
 62
     7
 10
289.25
 20
-131.0
 30
0.0
 40
1.650000000000005
  0
CIRCLE
  5
494
  8
DATA
  6
CONTINUOUS
 62
     7
 10
289.25
 20
-126.0
 30
0.0
 40
1.650000000000005
  0
CIRCLE
  5
495
  8
DATA
  6
CONTINUOUS
 62
     7
 10
289.25
 20
-121.0
 30
0.0
 40
1.650000000000005
  0
CIRCLE
  5
496
  8
DATA
  6
CONTINUOUS
 62
     7
 10
289.25
 20
-116.0
 30
0.0
 40
1.650000000000005
  0
CIRCLE
  5
497
  8
DATA
  6
CONTINUOUS
 62
     7
 10
297.25
 20
-131.0
 30
0.0
 40
1.650000000000005
  0
CIRCLE
  5
498
  8
DATA
  6
CONTINUOUS
 62
     7
 10
297.25
 20
-126.0
 30
0.0
 40
1.650000000000005
  0
CIRCLE
  5
499
  8
DATA
  6
CONTINUOUS
 62
     7
 10
297.25
 20
-121.0
 30
0.0
 40
1.650000000000005
  0
CIRCLE
  5
49A
  8
DATA
  6
CONTINUOUS
 62
     7
 10
297.25
 20
-116.0
 30
0.0
 40
1.650000000000005
  0
CIRCLE
  5
49B
  8
DATA
  6
CONTINUOUS
 62
     7
 10
305.25
 20
-131.0
 30
0.0
 40
1.650000000000005
  0
CIRCLE
  5
49C
  8
DATA
  6
CONTINUOUS
 62
     7
 10
305.25
 20
-126.0
 30
0.0
 40
1.650000000000005
  0
CIRCLE
  5
49D
  8
DATA
  6
CONTINUOUS
 62
     7
 10
305.25
 20
-121.0
 30
0.0
 40
1.650000000000005
  0
CIRCLE
  5
49E
  8
DATA
  6
CONTINUOUS
 62
     7
 10
305.25
 20
-116.0
 30
0.0
 40
1.650000000000005
  0
CIRCLE
  5
49F
  8
DATA
  6
CONTINUOUS
 62
     7
 10
313.25
 20
-131.0
 30
0.0
 40
1.650000000000005
  0
CIRCLE
  5
4A0
  8
DATA
  6
CONTINUOUS
 62
     7
 10
313.25
 20
-126.0
 30
0.0
 40
1.650000000000005
  0
CIRCLE
  5
4A1
  8
DATA
  6
CONTINUOUS
 62
     7
 10
313.25
 20
-121.0
 30
0.0
 40
1.650000000000005
  0
CIRCLE
  5
4A2
  8
DATA
  6
CONTINUOUS
 62
     7
 10
313.25
 20
-116.0
 30
0.0
 40
1.650000000000005
  0
CIRCLE
  5
4A3
  8
DATA
  6
CONTINUOUS
 62
     7
 10
321.25
 20
-131.0
 30
0.0
 40
1.650000000000005
  0
CIRCLE
  5
4A4
  8
DATA
  6
CONTINUOUS
 62
     7
 10
321.25
 20
-126.0
 30
0.0
 40
1.650000000000005
  0
CIRCLE
  5
4A5
  8
DATA
  6
CONTINUOUS
 62
     7
 10
321.25
 20
-121.0
 30
0.0
 40
1.650000000000005
  0
CIRCLE
  5
4A6
  8
DATA
  6
CONTINUOUS
 62
     7
 10
321.25
 20
-116.0
 30
0.0
 40
1.650000000000005
  0
CIRCLE
  5
4A7
  8
DATA
  6
CONTINUOUS
 62
     7
 10
329.25
 20
-131.0
 30
0.0
 40
1.650000000000005
  0
CIRCLE
  5
4A8
  8
DATA
  6
CONTINUOUS
 62
     7
 10
329.25
 20
-126.0
 30
0.0
 40
1.650000000000005
  0
CIRCLE
  5
4A9
  8
DATA
  6
CONTINUOUS
 62
     7
 10
329.25
 20
-121.0
 30
0.0
 40
1.650000000000005
  0
CIRCLE
  5
4AA
  8
DATA
  6
CONTINUOUS
 62
     7
 10
329.25
 20
-116.0
 30
0.0
 40
1.650000000000005
  0
CIRCLE
  5
4AB
  8
DATA
  6
CONTINUOUS
 62
     7
 10
337.25
 20
-131.0
 30
0.0
 40
1.650000000000005
  0
CIRCLE
  5
4AC
  8
DATA
  6
CONTINUOUS
 62
     7
 10
337.25
 20
-126.0
 30
0.0
 40
1.650000000000005
  0
CIRCLE
  5
4AD
  8
DATA
  6
CONTINUOUS
 62
     7
 10
337.25
 20
-121.0
 30
0.0
 40
1.650000000000005
  0
CIRCLE
  5
4AE
  8
DATA
  6
CONTINUOUS
 62
     7
 10
337.25
 20
-116.0
 30
0.0
 40
1.650000000000005
  0
CIRCLE
  5
4AF
  8
DATA
  6
CONTINUOUS
 62
     7
 10
345.25
 20
-131.0
 30
0.0
 40
1.650000000000005
  0
CIRCLE
  5
4B0
  8
DATA
  6
CONTINUOUS
 62
     7
 10
345.25
 20
-126.0
 30
0.0
 40
1.650000000000005
  0
CIRCLE
  5
4B1
  8
DATA
  6
CONTINUOUS
 62
     7
 10
345.25
 20
-121.0
 30
0.0
 40
1.650000000000005
  0
CIRCLE
  5
4B2
  8
DATA
  6
CONTINUOUS
 62
     7
 10
345.25
 20
-116.0
 30
0.0
 40
1.650000000000005
  0
CIRCLE
  5
4B3
  8
DATA
  6
CONTINUOUS
 62
     7
 10
261.25
 20
-128.5
 30
0.0
 40
1.650000000000005
  0
CIRCLE
  5
4B4
  8
DATA
  6
CONTINUOUS
 62
     7
 10
261.25
 20
-123.5
 30
0.0
 40
1.650000000000005
  0
CIRCLE
  5
4B5
  8
DATA
  6
CONTINUOUS
 62
     7
 10
261.25
 20
-118.5
 30
0.0
 40
1.650000000000005
  0
CIRCLE
  5
4B6
  8
DATA
  6
CONTINUOUS
 62
     7
 10
261.25
 20
-113.5
 30
0.0
 40
1.650000000000005
  0
CIRCLE
  5
4B7
  8
DATA
  6
CONTINUOUS
 62
     7
 10
261.25
 20
-133.5
 30
0.0
 40
1.650000000000005
  0
CIRCLE
  5
4B8
  8
DATA
  6
CONTINUOUS
 62
     7
 10
269.25
 20
-128.5
 30
0.0
 40
1.650000000000005
  0
CIRCLE
  5
4B9
  8
DATA
  6
CONTINUOUS
 62
     7
 10
269.25
 20
-123.5
 30
0.0
 40
1.650000000000005
  0
CIRCLE
  5
4BA
  8
DATA
  6
CONTINUOUS
 62
     7
 10
269.25
 20
-118.5
 30
0.0
 40
1.650000000000005
  0
CIRCLE
  5
4BB
  8
DATA
  6
CONTINUOUS
 62
     7
 10
269.25
 20
-113.5
 30
0.0
 40
1.650000000000005
  0
CIRCLE
  5
4BC
  8
DATA
  6
CONTINUOUS
 62
     7
 10
269.25
 20
-133.5
 30
0.0
 40
1.650000000000005
  0
CIRCLE
  5
4BD
  8
DATA
  6
CONTINUOUS
 62
     7
 10
277.25
 20
-128.5
 30
0.0
 40
1.650000000000005
  0
CIRCLE
  5
4BE
  8
DATA
  6
CONTINUOUS
 62
     7
 10
277.25
 20
-123.5
 30
0.0
 40
1.650000000000005
  0
CIRCLE
  5
4BF
  8
DATA
  6
CONTINUOUS
 62
     7
 10
277.25
 20
-118.5
 30
0.0
 40
1.650000000000005
  0
CIRCLE
  5
4C0
  8
DATA
  6
CONTINUOUS
 62
     7
 10
277.25
 20
-113.5
 30
0.0
 40
1.650000000000005
  0
CIRCLE
  5
4C1
  8
DATA
  6
CONTINUOUS
 62
     7
 10
277.25
 20
-133.5
 30
0.0
 40
1.650000000000005
  0
CIRCLE
  5
4C2
  8
DATA
  6
CONTINUOUS
 62
     7
 10
285.25
 20
-128.5
 30
0.0
 40
1.650000000000005
  0
CIRCLE
  5
4C3
  8
DATA
  6
CONTINUOUS
 62
     7
 10
285.25
 20
-123.5
 30
0.0
 40
1.650000000000005
  0
CIRCLE
  5
4C4
  8
DATA
  6
CONTINUOUS
 62
     7
 10
285.25
 20
-118.5
 30
0.0
 40
1.650000000000005
  0
CIRCLE
  5
4C5
  8
DATA
  6
CONTINUOUS
 62
     7
 10
285.25
 20
-113.5
 30
0.0
 40
1.650000000000005
  0
CIRCLE
  5
4C6
  8
DATA
  6
CONTINUOUS
 62
     7
 10
285.25
 20
-133.5
 30
0.0
 40
1.650000000000005
  0
CIRCLE
  5
4C7
  8
DATA
  6
CONTINUOUS
 62
     7
 10
293.25
 20
-128.5
 30
0.0
 40
1.650000000000005
  0
CIRCLE
  5
4C8
  8
DATA
  6
CONTINUOUS
 62
     7
 10
293.25
 20
-123.5
 30
0.0
 40
1.650000000000005
  0
CIRCLE
  5
4C9
  8
DATA
  6
CONTINUOUS
 62
     7
 10
293.25
 20
-118.5
 30
0.0
 40
1.650000000000005
  0
CIRCLE
  5
4CA
  8
DATA
  6
CONTINUOUS
 62
     7
 10
293.25
 20
-113.5
 30
0.0
 40
1.650000000000005
  0
CIRCLE
  5
4CB
  8
DATA
  6
CONTINUOUS
 62
     7
 10
293.25
 20
-133.5
 30
0.0
 40
1.650000000000005
  0
CIRCLE
  5
4CC
  8
DATA
  6
CONTINUOUS
 62
     7
 10
301.25
 20
-128.5
 30
0.0
 40
1.650000000000005
  0
CIRCLE
  5
4CD
  8
DATA
  6
CONTINUOUS
 62
     7
 10
301.25
 20
-123.5
 30
0.0
 40
1.650000000000005
  0
CIRCLE
  5
4CE
  8
DATA
  6
CONTINUOUS
 62
     7
 10
301.25
 20
-118.5
 30
0.0
 40
1.650000000000005
  0
CIRCLE
  5
4CF
  8
DATA
  6
CONTINUOUS
 62
     7
 10
301.25
 20
-113.5
 30
0.0
 40
1.650000000000005
  0
CIRCLE
  5
4D0
  8
DATA
  6
CONTINUOUS
 62
     7
 10
301.25
 20
-133.5
 30
0.0
 40
1.650000000000005
  0
CIRCLE
  5
4D1
  8
DATA
  6
CONTINUOUS
 62
     7
 10
309.25
 20
-128.5
 30
0.0
 40
1.650000000000005
  0
CIRCLE
  5
4D2
  8
DATA
  6
CONTINUOUS
 62
     7
 10
309.25
 20
-123.5
 30
0.0
 40
1.650000000000005
  0
CIRCLE
  5
4D3
  8
DATA
  6
CONTINUOUS
 62
     7
 10
309.25
 20
-118.5
 30
0.0
 40
1.650000000000005
  0
CIRCLE
  5
4D4
  8
DATA
  6
CONTINUOUS
 62
     7
 10
309.25
 20
-113.5
 30
0.0
 40
1.650000000000005
  0
CIRCLE
  5
4D5
  8
DATA
  6
CONTINUOUS
 62
     7
 10
309.25
 20
-133.5
 30
0.0
 40
1.650000000000005
  0
CIRCLE
  5
4D6
  8
DATA
  6
CONTINUOUS
 62
     7
 10
317.25
 20
-128.5
 30
0.0
 40
1.650000000000005
  0
CIRCLE
  5
4D7
  8
DATA
  6
CONTINUOUS
 62
     7
 10
317.25
 20
-123.5
 30
0.0
 40
1.650000000000005
  0
CIRCLE
  5
4D8
  8
DATA
  6
CONTINUOUS
 62
     7
 10
317.25
 20
-118.5
 30
0.0
 40
1.650000000000005
  0
CIRCLE
  5
4D9
  8
DATA
  6
CONTINUOUS
 62
     7
 10
317.25
 20
-113.5
 30
0.0
 40
1.650000000000005
  0
CIRCLE
  5
4DA
  8
DATA
  6
CONTINUOUS
 62
     7
 10
317.25
 20
-133.5
 30
0.0
 40
1.650000000000005
  0
CIRCLE
  5
4DB
  8
DATA
  6
CONTINUOUS
 62
     7
 10
325.25
 20
-128.5
 30
0.0
 40
1.650000000000005
  0
CIRCLE
  5
4DC
  8
DATA
  6
CONTINUOUS
 62
     7
 10
325.25
 20
-123.5
 30
0.0
 40
1.650000000000005
  0
CIRCLE
  5
4DD
  8
DATA
  6
CONTINUOUS
 62
     7
 10
325.25
 20
-118.5
 30
0.0
 40
1.650000000000005
  0
CIRCLE
  5
4DE
  8
DATA
  6
CONTINUOUS
 62
     7
 10
325.25
 20
-113.5
 30
0.0
 40
1.650000000000005
  0
CIRCLE
  5
4DF
  8
DATA
  6
CONTINUOUS
 62
     7
 10
325.25
 20
-133.5
 30
0.0
 40
1.650000000000005
  0
CIRCLE
  5
4E0
  8
DATA
  6
CONTINUOUS
 62
     7
 10
333.25
 20
-128.5
 30
0.0
 40
1.650000000000005
  0
CIRCLE
  5
4E1
  8
DATA
  6
CONTINUOUS
 62
     7
 10
333.25
 20
-123.5
 30
0.0
 40
1.650000000000005
  0
CIRCLE
  5
4E2
  8
DATA
  6
CONTINUOUS
 62
     7
 10
333.25
 20
-118.5
 30
0.0
 40
1.650000000000005
  0
CIRCLE
  5
4E3
  8
DATA
  6
CONTINUOUS
 62
     7
 10
333.25
 20
-113.5
 30
0.0
 40
1.650000000000005
  0
CIRCLE
  5
4E4
  8
DATA
  6
CONTINUOUS
 62
     7
 10
333.25
 20
-133.5
 30
0.0
 40
1.650000000000005
  0
CIRCLE
  5
4E5
  8
DATA
  6
CONTINUOUS
 62
     7
 10
341.25
 20
-128.5
 30
0.0
 40
1.650000000000005
  0
CIRCLE
  5
4E6
  8
DATA
  6
CONTINUOUS
 62
     7
 10
341.25
 20
-123.5
 30
0.0
 40
1.650000000000005
  0
CIRCLE
  5
4E7
  8
DATA
  6
CONTINUOUS
 62
     7
 10
341.25
 20
-118.5
 30
0.0
 40
1.650000000000005
  0
CIRCLE
  5
4E8
  8
DATA
  6
CONTINUOUS
 62
     7
 10
341.25
 20
-113.5
 30
0.0
 40
1.650000000000005
  0
CIRCLE
  5
4E9
  8
DATA
  6
CONTINUOUS
 62
     7
 10
341.25
 20
-133.5
 30
0.0
 40
1.650000000000005
  0
CIRCLE
  5
4EA
  8
DATA
  6
CONTINUOUS
 62
     7
 10
349.25
 20
-128.5
 30
0.0
 40
1.650000000000005
  0
CIRCLE
  5
4EB
  8
DATA
  6
CONTINUOUS
 62
     7
 10
349.25
 20
-123.5
 30
0.0
 40
1.650000000000005
  0
CIRCLE
  5
4EC
  8
DATA
  6
CONTINUOUS
 62
     7
 10
349.25
 20
-118.5
 30
0.0
 40
1.650000000000005
  0
CIRCLE
  5
4ED
  8
DATA
  6
CONTINUOUS
 62
     7
 10
349.25
 20
-113.5
 30
0.0
 40
1.650000000000005
  0
CIRCLE
  5
4EE
  8
DATA
  6
CONTINUOUS
 62
     7
 10
349.25
 20
-133.5
 30
0.0
 40
1.650000000000005
  0
LINE
  5
4EF
  8
DATA
  6
CONTINUOUS
 62
     7
 10
172.0634599796449
 20
119.75
 30
0.0
 11
172.0634599796449
 21
117.75
 31
0.0
  0
LINE
  5
4F0
  8
DATA
  6
CONTINUOUS
 62
     7
 10
182.5634599796449
 20
119.75
 30
0.0
 11
182.5634599796449
 21
117.75
 31
0.0
  0
LINE
  5
4F1
  8
DATA
  6
CONTINUOUS
 62
     7
 10
173.41345997964481
 20
123.75
 30
0.0
 11
173.41345997964481
 21
119.75
 31
0.0
  0
LINE
  5
4F2
  8
DATA
  6
CONTINUOUS
 62
     7
 10
181.19772310152459
 20
123.75
 30
0.0
 11
181.19772310152459
 21
119.75
 31
0.0
  0
LINE
  5
4F3
  8
DATA
  6
CONTINUOUS
 62
     7
 10
172.0634599796449
 20
119.75
 30
0.0
 11
182.5634599796449
 21
119.75
 31
0.0
  0
LINE
  5
4F4
  8
DATA
  6
CONTINUOUS
 62
     7
 10
173.41345997964481
 20
123.75
 30
0.0
 11
181.19772310152459
 21
123.75
 31
0.0
  0
ENDSEC
  0
EOF
