  0
SECTION
  2
HEADER
  9
$ACADVER
  1
AC1009
  9
$DWGCODEPAGE
  3
dos932
  9
$INSBASE
 10
0.0
 20
0.0
 30
0.0
  9
$EXTMIN
 10
-169.99999999999994
 20
-264.47457918296232
 30
0.0
  9
$EXTMAX
 10
369.99999999999994
 20
537.06362999999999
 30
0.0
  9
$LIMMIN
 10
0.0
 20
0.0
  9
$LIMMAX
 10
0.0
 20
0.0
  9
$ORTHOMODE
 70
               0
  9
$REGENMODE
 70
               1
  9
$FILLMODE
 70
               1
  9
$QTEXTMODE
 70
               0
  9
$MIRRTEXT
 70
               1
  9
$DRAGMODE
 70
               2
  9
$LTSCALE
 40
15.239999999999998
  9
$OSMODE
 70
               0
  9
$ATTMODE
 70
               1
  9
$TEXTSIZE
 40
0.2
  9
$TRACEWID
 40
1.0
  9
$TEXTSTYLE
  7
STANDARD
  9
$CLAYER
  8
DATA
  9
$CELTYPE
  6
CONTINUOUS
  9
$CECOLOR
 62
             256
  9
$DIMSCALE
 40
1.0
  9
$DIMASZ
 40
0.18
  9
$DIMEXO
 40
0.0625
  9
$DIMDLI
 40
0.38
  9
$DIMRND
 40
0.0
  9
$DIMDLE
 40
0.0
  9
$DIMEXE
 40
0.18
  9
$DIMTP
 40
0.0
  9
$DIMTM
 40
0.0
  9
$DIMTXT
 40
0.18
  9
$DIMCEN
 40
0.09
  9
$DIMTSZ
 40
0.0
  9
$DIMTOL
 70
               0
  9
$DIMLIM
 70
               0
  9
$DIMTIH
 70
               1
  9
$DIMTOH
 70
               1
  9
$DIMSE1
 70
               0
  9
$DIMSE2
 70
               0
  9
$DIMTAD
 70
               0
  9
$DIMZIN
 70
               0
  9
$DIMBLK
  1

  9
$DIMASO
 70
               1
  9
$DIMSHO
 70
               1
  9
$DIMPOST
  1

  9
$DIMAPOST
  1

  9
$DIMALT
 70
               0
  9
$DIMALTD
 70
               2
  9
$DIMALTF
 40
25.399999999999999
  9
$DIMLFAC
 40
1.0
  9
$DIMTOFL
 70
               0
  9
$DIMTVP
 40
0.0
  9
$DIMTIX
 70
               0
  9
$DIMSOXD
 70
               0
  9
$DIMSAH
 70
               0
  9
$DIMBLK1
  1

  9
$DIMBLK2
  1

  9
$DIMSTYLE
  2
STANDARD
  9
$DIMCLRD
 70
               0
  9
$DIMCLRE
 70
               0
  9
$DIMCLRT
 70
               0
  9
$DIMTFAC
 40
1.0
  9
$DIMGAP
 40
0.09
  9
$LUNITS
 70
               2
  9
$LUPREC
 70
               4
  9
$AXISMODE
 70
               0
  9
$AXISUNIT
 10
0.0
 20
0.0
  9
$SKETCHINC
 40
0.1
  9
$FILLETRAD
 40
0.0
  9
$AUNITS
 70
               0
  9
$AUPREC
 70
               0
  9
$MENU
  1
acad
  9
$ELEVATION
 40
0.0
  9
$PELEVATION
 40
0.0
  9
$THICKNESS
 40
0.0
  9
$LIMCHECK
 70
               0
  9
$BLIPMODE
 70
               0
  9
$CHAMFERA
 40
0.0
  9
$CHAMFERB
 40
0.0
  9
$SKPOLY
 70
               0
  9
$TDCREATE
 40
2455188.773113426
  9
$TDUPDATE
 40
2455188.773113426
  9
$TDINDWG
 40
0.0000000000
  9
$TDUSRTIMER
 40
0.0000000000
  9
$USRTIMER
 70
               1
  9
$ANGBASE
 50
0.0
  9
$ANGDIR
 70
               0
  9
$PDMODE
 70
               1
  9
$PDSIZE
 40
-2.0
  9
$PLINEWID
 40
0.0
  9
$COORDS
 70
               0
  9
$SPLFRAME
 70
               0
  9
$SPLINETYPE
 70
               6
  9
$SPLINESEGS
 70
               8
  9
$ATTDIA
 70
               0
  9
$ATTREQ
 70
               1
  9
$HANDLING
 70
               1
  9
$HANDSEED
  5
2DE
  9
$SURFTAB1
 70
               6
  9
$SURFTAB2
 70
               6
  9
$SURFTYPE
 70
               6
  9
$SURFU
 70
               6
  9
$SURFV
 70
               6
  9
$UCSNAME
  2

  9
$UCSORG
 10
0.0
 20
0.0
 30
0.0
  9
$UCSXDIR
 10
1.0
 20
0.0
 30
0.0
  9
$UCSYDIR
 10
0.0
 20
1.0
 30
0.0
  9
$PUCSNAME
  2

  9
$PUCSORG
 10
0.0
 20
0.0
 30
0.0
  9
$PUCSXDIR
 10
1.0
 20
0.0
 30
0.0
  9
$PUCSYDIR
 10
0.0
 20
1.0
 30
0.0
  9
$USERI1
 70
               0
  9
$USERI2
 70
               0
  9
$USERI3
 70
               0
  9
$USERI4
 70
               0
  9
$USERI5
 70
               0
  9
$USERR1
 40
0.0
  9
$USERR2
 40
0.0
  9
$USERR3
 40
0.0
  9
$USERR4
 40
0.0
  9
$USERR5
 40
0.0
  9
$WORLDVIEW
 70
               1
  9
$SHADEDGE
 70
               3
  9
$SHADEDIF
 70
              70
  9
$TILEMODE
 70
               1
  9
$MAXACTVP
 70
              64
  9
$PINSBASE
 10
0.0
 20
0.0
 30
0.0
  9
$PLIMCHECK
 70
               0
  9
$PEXTMIN
 10
1.0000000000000000E+20
 20
1.0000000000000000E+20
 30
1.0000000000000000E+20
  9
$PEXTMAX
 10
-1.0000000000000000E+20
 20
-1.0000000000000000E+20
 30
-1.0000000000000000E+20
  9
$PLIMMIN
 10
0.0
 20
0.0
  9
$PLIMMAX
 10
12.0
 20
9.0
  9
$UNITMODE
 70
               0
  9
$VISRETAIN
 70
               0
  9
$PLINEGEN
 70
               1
  9
$PSLTSCALE
 70
               0
  9
$TREEDEPTH
 70
            3020
  0
ENDSEC
  0
SECTION
  2
TABLES
  0
TABLE
  2
VPORT
 70
               1
  0
VPORT
  2
*ACTIVE
 70
               0
 10
0.0
 20
0.0
 11
1.0
 21
1.0
 12
100.0
 22
136.29452540851884
 13
0.0
 23
0.0
 14
1.0
 24
1.0
 15
0.0
 25
0.0
 16
0.0
 26
0.0
 36
1.0
 17
0.0
 27
0.0
 37
0.0
 40
801.53820918296231
 41
0.688564
 42
50.0
 43
0.0
 44
0.0
 50
0.0
 51
0.0
 71
               0
 72
            2000
 73
               1
 74
               1
 75
               0
 76
               0
 77
               0
 78
               0
  0
ENDTAB
  0
TABLE
  2
LTYPE
 70
              11
  0
LTYPE
  2
CONTINUOUS
 70
              64
  3
Solid line
 72
              65
 73
               0
 40
0.0
  0
LTYPE
  2
STYLE_01
 70
               0
  3

 72
              65
 73
               2
 40
0.4166412353515625
 49
0.208282470703125
 49
-0.2083587646484375
  0
LTYPE
  2
STYLE_02
 70
               0
  3

 72
              65
 73
               2
 40
0.694427490234375
 49
0.4860687255859375
 49
-0.2083587646484375
  0
LTYPE
  2
STYLE_03
 70
               0
  3

 72
              65
 73
               2
 40
1.25
 49
1.0416412353515625
 49
-0.2083587646484375
  0
LTYPE
  2
STYLE_04
 70
               0
  3

 72
              65
 73
               2
 40
1.5277099609375
 49
1.319427490234375
 49
-0.208282470703125
  0
LTYPE
  2
STYLE_05
 70
               0
  3

 72
              65
 73
               2
 40
0.208282470703125
 49
0.069427490234375
 49
-0.13885498046875
  0
LTYPE
  2
STYLE_06
 70
               0
  3

 72
              65
 73
               4
 40
1.0416412353515625
 49
0.625
 49
-0.208282470703125
 49
0.069427490234375
 49
-0.1389312744140625
  0
LTYPE
  2
STYLE_07
 70
               0
  3

 72
              65
 73
               6
 40
1.875
 49
0.625
 49
-0.208282470703125
 49
0.625
 49
-0.2083587646484375
 49
0.069427490234375
 49
-0.1389312744140625
  0
LTYPE
  2
STYLE_08
 70
               0
  3

 72
              65
 73
               6
 40
1.25
 49
0.625
 49
-0.208282470703125
 49
0.069427490234375
 49
-0.1389312744140625
 49
0.069427490234375
 49
-0.1389312744140625
  0
LTYPE
  2
STYLE_09
 70
               0
  3

 72
              65
 73
               4
 40
5.0
 49
3.75
 49
-0.2777862548828125
 49
0.694427490234375
 49
-0.2777862548828125
  0
LTYPE
  2
STYLE_10
 70
               0
  3

 72
              65
 73
               6
 40
5.9375
 49
3.75
 49
-0.2777862548828125
 49
0.694427490234375
 49
-0.2777862548828125
 49
0.625
 49
-0.3125
  0
ENDTAB
  0
TABLE
  2
LAYER
 70
               5
  0
LAYER
  2
0
 70
               0
 62
               7
  6
CONTINUOUS
  0
LAYER
  2
HIBINO-BASE
 70
               0
 62
               7
  6
CONTINUOUS
  0
LAYER
  2
SPEC
 70
               0
 62
               7
  6
CONTINUOUS
  0
LAYER
  2
DIMNSIONS
 70
               0
 62
               7
  6
CONTINUOUS
  0
LAYER
  2
DATA
 70
               0
 62
               7
  6
CONTINUOUS
  0
ENDTAB
  0
TABLE
  2
STYLE
 70
               2
  0
STYLE
  2
STANDARD
 70
               0
 40
0.0
 41
1.0
 50
0.0
 71
               0
 42
0.0
  3
txt
  4
BIGFONT.SHX
  0
STYLE
  2
_______
 70
               0
 40
0.0
 41
1.0
 50
0.0
 71
               0
 42
0.0
  3

  4
ＭＳ ゴシック
  0
ENDTAB
  0
TABLE
  2
VIEW
 70
               0
  0
ENDTAB
  0
TABLE
  2
UCS
 70
               0
  0
ENDTAB
  0
TABLE
  2
APPID
 70
               1
  0
APPID
  2
ACAD
 70
               0
  0
ENDTAB
  0
TABLE
  2
DIMSTYLE
 70
               1
  0
DIMSTYLE
  2
STANDARD
 70
               0
  3

  4

  5

  6

  7

 40
1.0
 41
0.18
 42
0.0625
 43
0.38
 44
0.18
 45
0.0
 46
0.0
 47
0.0
 48
0.0
 71
               0
 72
               0
 73
               1
 74
               1
 75
               0
 76
               0
 77
               0
 78
               0
140
0.18
141
0.09
142
0.0
143
25.399999999999999
144
1.0
145
0.0
146
1.0
147
0.09
170
               0
171
               2
172
               0
173
               0
174
               0
175
               0
176
               0
177
               0
178
               0
  0
ENDTAB
  0
ENDSEC
  0
SECTION
  2
BLOCKS
  0
ENDSEC
  0
SECTION
  2
ENTITIES
  0
LINE
  8
HIBINO-BASE
  6
CONTINUOUS
 62
               7
  5
2C
 10
-169.99999999999994
 20
537.06362999999999
 30
0.0
 11
369.99999999999994
 21
537.06362999999999
 31
0.0
  0
LINE
  8
HIBINO-BASE
  6
CONTINUOUS
 62
               7
  5
2D
 10
369.99999999999994
 20
-242.93637000000001
 30
0.0
 11
-169.99999999999994
 21
-242.93637000000001
 31
0.0
  0
LINE
  8
HIBINO-BASE
  6
CONTINUOUS
 62
               7
  5
2E
 10
-169.99999999999994
 20
-242.93637000000001
 30
0.0
 11
-169.99999999999994
 21
537.06362999999999
 31
0.0
  0
LINE
  8
HIBINO-BASE
  6
CONTINUOUS
 62
               7
  5
2F
 10
369.99999999999994
 20
537.06362999999999
 30
0.0
 11
369.99999999999994
 21
-242.93637000000001
 31
0.0
  0
LINE
  8
HIBINO-BASE
  6
CONTINUOUS
 62
               7
  5
30
 10
99.999999999999986
 20
-175.43636999999995
 30
0.0
 11
369.99999999999994
 21
-175.43636999999995
 31
0.0
  0
LINE
  8
HIBINO-BASE
  6
CONTINUOUS
 62
               7
  5
31
 10
99.999999999999986
 20
-242.93637000000001
 30
0.0
 11
99.999999999999986
 21
-175.43636999999995
 31
0.0
  0
TEXT
  8
HIBINO-BASE
 62
               7
  5
32
 10
102.69999999999999
 20
-183.85145
 30
0.0
 40
4.8865234374999993
  1
NOTE
  7
_______
 11
102.69999999999999
 21
-178.0759265625
 31
0.0
 73
               3
  0
LINE
  8
HIBINO-BASE
  6
CONTINUOUS
 62
               7
  5
33
 10
205.0
 20
-242.93637000000001
 30
0.0
 11
205.0
 21
-175.43636999999995
 31
0.0
  0
TEXT
  8
HIBINO-BASE
 62
               7
  5
34
 10
207.69999999999999
 20
-183.85145
 30
0.0
 40
4.8865234374999993
  1
TITLE
  7
_______
 11
207.69999999999999
 21
-178.0759265625
 31
0.0
 73
               3
  0
LINE
  8
HIBINO-BASE
  6
CONTINUOUS
 62
               7
  5
35
 10
99.999999999999986
 20
-212.93636999999995
 30
0.0
 11
369.99999999999994
 21
-212.93636999999995
 31
0.0
  0
TEXT
  8
HIBINO-BASE
 62
               7
  5
36
 10
245.19999999999999
 20
-221.18248999999997
 30
0.0
 40
4.8865234374999993
  1
DRAWN
  7
_______
 11
245.19999999999999
 21
-215.40696656249997
 31
0.0
 73
               3
  0
TEXT
  8
HIBINO-BASE
 62
               7
  5
37
 10
170.19999999999999
 20
-221.18248999999997
 30
0.0
 40
4.8865234374999993
  1
DATE
  7
_______
 11
170.19999999999999
 21
-215.40696656249997
 31
0.0
 73
               3
  0
TEXT
  8
HIBINO-BASE
 62
               7
  5
38
 10
140.19999999999999
 20
-221.18248999999997
 30
0.0
 40
4.8865234374999993
  1
SCALE
  7
_______
 11
140.19999999999999
 21
-215.40696656249997
 31
0.0
 73
               3
  0
TEXT
  8
HIBINO-BASE
 62
               7
  5
39
 10
207.69999999999999
 20
-221.18248999999997
 30
0.0
 40
4.8865234374999993
  1
DESIGN
  7
_______
 11
207.69999999999999
 21
-215.40696656249997
 31
0.0
 73
               3
  0
TEXT
  8
HIBINO-BASE
 62
               7
  5
3A
 10
320.19999999999999
 20
-221.18248999999997
 30
0.0
 40
4.8865234374999993
  1
DRAWING NO.
  7
_______
 11
320.19999999999999
 21
-215.40696656249997
 31
0.0
 73
               3
  0
TEXT
  8
HIBINO-BASE
 62
               7
  5
3B
 10
282.69999999999999
 20
-221.18248999999997
 30
0.0
 40
4.8865234374999993
  1
CHECK
  7
_______
 11
282.69999999999999
 21
-215.40696656249997
 31
0.0
 73
               3
  0
LINE
  8
HIBINO-BASE
  6
CONTINUOUS
 62
               7
  5
3C
 10
143.12499999999997
 20
-239.18637000000001
 30
0.0
 11
154.375
 21
-227.93636999999995
 31
0.0
  0
TEXT
  8
HIBINO-BASE
 62
               7
  5
3D
 10
141.24999999999997
 20
-232.15219999999999
 30
0.0
 40
4.8865234374999993
  1
1
  7
_______
 11
141.24999999999997
 21
-226.37667656249999
 31
0.0
 73
               3
  0
LINE
  8
HIBINO-BASE
  6
CONTINUOUS
 62
               7
  5
3E
 10
137.49999999999997
 20
-242.93637000000001
 30
0.0
 11
137.49999999999997
 21
-212.93636999999995
 31
0.0
  0
LINE
  8
HIBINO-BASE
  6
CONTINUOUS
 62
               7
  5
3F
 10
167.49999999999997
 20
-242.93637000000001
 30
0.0
 11
167.49999999999997
 21
-212.93636999999995
 31
0.0
  0
LINE
  8
HIBINO-BASE
  6
CONTINUOUS
 62
               7
  5
40
 10
242.49999999999994
 20
-212.93636999999995
 30
0.0
 11
242.49999999999994
 21
-242.93637000000001
 31
0.0
  0
LINE
  8
HIBINO-BASE
  6
CONTINUOUS
 62
               7
  5
41
 10
317.5
 20
-212.93636999999995
 30
0.0
 11
317.5
 21
-242.93637000000001
 31
0.0
  0
LINE
  8
HIBINO-BASE
  6
CONTINUOUS
 62
               7
  5
42
 10
279.99999999999994
 20
-242.93637000000001
 30
0.0
 11
279.99999999999994
 21
-212.93636999999995
 31
0.0
  0
TEXT
  8
HIBINO-BASE
 62
               7
  5
43
 10
170.06961999999999
 20
-235.23443000000003
 30
0.0
 40
4.8865234374999993
  1
'09.12.
  7
_______
 11
170.06961999999999
 21
-229.45890656250003
 31
0.0
 73
               3
  0
TEXT
  8
HIBINO-BASE
 62
               7
  5
44
 10
152.5
 20
-237.77719999999999
 30
0.0
 40
4.8865234374999993
  1
3
  7
_______
 11
152.5
 21
-232.00167656249999
 31
0.0
 73
               3
  0
TEXT
  8
HIBINO-BASE
 62
               7
  5
45
 10
111.65000000000003
 20
-238.78636999999998
 30
0.0
 40
9.7730468749999986
  1
A4
  7
_______
 11
111.65000000000003
 21
-227.23532312499998
 31
0.0
 73
               3
  0
TEXT
  8
HIBINO-BASE
 62
               7
  5
46
 10
102.87499999999999
 20
-221.68373500000001
 30
0.0
 40
4.8865234374999993
  1
PAPER SIZE
  7
_______
 11
102.87499999999999
 21
-215.90821156250001
 31
0.0
 73
               3
  0
TEXT
  8
HIBINO-BASE
 62
               7
  5
47
 10
246.18587540893407
 20
-235.35663803161435
 30
0.0
 40
5.7009440104166664
  1
T.Ootake
  7
_______
 11
246.18587540893407
 21
-228.61852735453101
 31
0.0
 73
               3
  0
TEXT
  8
HIBINO-BASE
 62
               7
  5
48
 10
-161.48215144294545
 20
-264.47457918296232
 30
0.0
 40
10.587467447916666
  1
Hibino-Intersound Corporation
  7
_______
 11
-161.48215144294545
 21
-251.96094506837898
 31
0.0
 73
               3
  0
TEXT
  8
HIBINO-BASE
 62
               7
  5
49
 10
162.90723279233191
 20
-263.50176121983264
 30
0.0
 40
10.587467447916666
  1
ヒビノインターサウンド株式会社
  7
_______
 11
162.90723279233191
 21
-250.9881271052493
 31
0.0
 73
               3
  0
LINE
  8
SPEC
  6
CONTINUOUS
 62
               7
  5
4A
 10
-147.49999999999994
 20
507.06362999999993
 30
0.0
 11
295.0
 21
507.06362999999993
 31
0.0
  0
LINE
  8
SPEC
  6
CONTINUOUS
 62
               7
  5
4B
 10
-147.49999999999994
 20
495.81362999999993
 30
0.0
 11
295.0
 21
495.81362999999993
 31
0.0
  0
LINE
  8
SPEC
  6
CONTINUOUS
 62
               7
  5
4C
 10
-147.49999999999994
 20
450.81362999999993
 30
0.0
 11
295.0
 21
450.81362999999993
 31
0.0
  0
LINE
  8
SPEC
  6
CONTINUOUS
 62
               7
  5
4D
 10
-147.49999999999994
 20
462.06362999999993
 30
0.0
 11
295.0
 21
462.06362999999993
 31
0.0
  0
LINE
  8
SPEC
  6
CONTINUOUS
 62
               7
  5
4E
 10
-147.49999999999994
 20
473.31362999999993
 30
0.0
 11
295.0
 21
473.31362999999993
 31
0.0
  0
LINE
  8
SPEC
  6
CONTINUOUS
 62
               7
  5
4F
 10
-147.49999999999994
 20
439.56362999999993
 30
0.0
 11
295.0
 21
439.56362999999993
 31
0.0
  0
LINE
  8
SPEC
  6
CONTINUOUS
 62
               7
  5
50
 10
-147.49999999999994
 20
417.06362999999993
 30
0.0
 11
295.0
 21
417.06362999999993
 31
0.0
  0
LINE
  8
SPEC
  6
CONTINUOUS
 62
               7
  5
51
 10
-147.49999999999994
 20
428.31362999999993
 30
0.0
 11
295.0
 21
428.31362999999993
 31
0.0
  0
LINE
  8
SPEC
  6
CONTINUOUS
 62
               7
  5
52
 10
-147.49999999999994
 20
484.56362999999993
 30
0.0
 11
295.0
 21
484.56362999999993
 31
0.0
  0
LINE
  8
SPEC
  6
CONTINUOUS
 62
               7
  5
53
 10
-147.49999999999994
 20
507.06362999999993
 30
0.0
 11
-147.49999999999994
 21
349.56362999999993
 31
0.0
  0
TEXT
  8
SPEC
 62
               7
  5
54
 10
-143.74999999999994
 20
509.90994000000001
 30
0.0
 40
7.3297851562499998
  1
仕様
  7
_______
 11
-143.74999999999994
 21
518.57322515624992
 31
0.0
 73
               3
  0
LINE
  8
SPEC
  6
CONTINUOUS
 62
               7
  5
55
 10
-49.999999999999986
 20
507.06362999999993
 30
0.0
 11
-49.999999999999986
 21
349.56362999999993
 31
0.0
  0
LINE
  8
SPEC
  6
CONTINUOUS
 62
               7
  5
56
 10
295.0
 20
507.06362999999993
 30
0.0
 11
295.0
 21
349.56362999999993
 31
0.0
  0
TEXT
  8
SPEC
 62
               7
  5
57
 10
-145.09014550635214
 20
497.65044636152373
 30
0.0
 40
5.7009440104166664
  1
形式
  7
_______
 11
-145.09014550635214
 21
504.38855703860708
 31
0.0
 73
               3
  0
LINE
  8
SPEC
  6
CONTINUOUS
 62
               7
  5
58
 10
-147.49999999999994
 20
405.81362999999993
 30
0.0
 11
295.0
 21
405.81362999999993
 31
0.0
  0
LINE
  8
SPEC
  6
CONTINUOUS
 62
               7
  5
59
 10
-147.49999999999994
 20
394.56362999999993
 30
0.0
 11
295.0
 21
394.56362999999993
 31
0.0
  0
TEXT
  8
SPEC
 62
               7
  5
5A
 10
-146.00357593016923
 20
486.42383109045522
 30
0.0
 40
5.7009440104166664
  1
ビデオアンプ帯域
  7
_______
 11
-146.00357593016923
 21
493.16194176753856
 31
0.0
 73
               3
  0
TEXT
  8
SPEC
 62
               7
  5
5B
 10
-144.99211135805547
 20
475.23088963141947
 30
0.0
 40
5.7009440104166664
  1
入力ビデオ信号
  7
_______
 11
-144.99211135805547
 21
481.96900030850281
 31
0.0
 73
               3
  0
TEXT
  8
SPEC
 62
               7
  5
5C
 10
-144.89470305799983
 20
463.91380383677944
 30
0.0
 40
5.7009440104166664
  1
入力DDC信号
  7
_______
 11
-144.89470305799983
 21
470.65191451386278
 31
0.0
 73
               3
  0
TEXT
  8
SPEC
 62
               7
  5
5D
 10
-144.70178045105803
 20
452.55960207697296
 30
0.0
 40
5.7009440104166664
  1
HDMI入出力端子
  7
_______
 11
-144.70178045105803
 21
459.29771275405631
 31
0.0
 73
               3
  0
TEXT
  8
SPEC
 62
               7
  5
5E
 10
-144.71133488418764
 20
441.2350897978655
 30
0.0
 40
5.7009440104166664
  1
HDCP準拠
  7
_______
 11
-144.71133488418764
 21
447.97320047494884
 31
0.0
 73
               3
  0
TEXT
  8
SPEC
 62
               7
  5
5F
 10
-144.91503075413152
 20
396.70392076375157
 30
0.0
 40
5.7009440104166664
  1
電源
  7
_______
 11
-144.91503075413152
 21
403.44203144083491
 31
0.0
 73
               3
  0
TEXT
  8
SPEC
 62
               7
  5
60
 10
-47.276601782512401
 20
486.53727192959633
 30
0.0
 40
5.7009440104166664
  1
340MHz/165MHz(SDI)
  7
_______
 11
-47.276601782512401
 21
493.27538260667967
 31
0.0
 73
               3
  0
TEXT
  8
SPEC
 62
               7
  5
61
 10
-47.66041232065534
 20
475.56395865042271
 30
0.0
 40
5.7009440104166664
  1
1.2Vp-p
  7
_______
 11
-47.66041232065534
 21
482.30206932750605
 31
0.0
 73
               3
  0
TEXT
  8
SPEC
 62
               7
  5
62
 10
-47.254835045501878
 20
464.13212671958837
 30
0.0
 40
5.7009440104166664
  1
5Vp-p(TTL)
  7
_______
 11
-47.254835045501878
 21
470.87023739667171
 31
0.0
 73
               3
  0
TEXT
  8
SPEC
 62
               7
  5
63
 10
-47.596608231748363
 20
452.77709049803997
 30
0.0
 40
5.7009440104166664
  1
1 HDMI(TypeA、19pin、メス)
  7
_______
 11
-47.596608231748363
 21
459.51520117512331
 31
0.0
 73
               3
  0
TEXT
  8
SPEC
 62
               7
  5
64
 10
-47.740170808751301
 20
441.55158035617046
 30
0.0
 40
5.7009440104166664
  1
なし
  7
_______
 11
-47.740170808751301
 21
448.2896910332538
 31
0.0
 73
               3
  0
TEXT
  8
SPEC
 62
               7
  5
65
 10
-47.145003475676745
 20
396.08348018458275
 30
0.0
 40
5.7009440104166664
  1
5V DC
  7
_______
 11
-47.145003475676745
 21
402.8215908616661
 31
0.0
 73
               3
  0
TEXT
  8
SPEC
 62
               7
  5
66
 10
-145.08955630047905
 20
362.9518475149211
 30
0.0
 40
5.7009440104166664
  1
寸法
  7
_______
 11
-145.08955630047905
 21
369.68995819200444
 31
0.0
 73
               3
  0
TEXT
  8
SPEC
 62
               7
  5
67
 10
-145.04474499820469
 20
351.58050005634266
 30
0.0
 40
5.7009440104166664
  1
重量
  7
_______
 11
-145.04474499820469
 21
358.318610733426
 31
0.0
 73
               3
  0
TEXT
  8
SPEC
 62
               7
  5
68
 10
-47.306742801900171
 20
351.58795205257547
 30
0.0
 40
5.7009440104166664
  1
約300g
  7
_______
 11
-47.306742801900171
 21
358.32606272965882
 31
0.0
 73
               3
  0
TEXT
  8
SPEC
 62
               7
  5
69
 10
-47.60321912300229
 20
362.71169575241765
 30
0.0
 40
5.7009440104166664
  1
192(W)×31(H)×88(D)mm(突起部含まず)
  7
_______
 11
-47.60321912300229
 21
369.449806429501
 31
0.0
 73
               3
  0
TEXT
  8
SPEC
 62
               7
  5
6A
 10
-47.280072718636106
 20
497.11832257205867
 30
0.0
 40
5.7009440104166664
  1
3GSDI-HDMIコンバーター
  7
_______
 11
-47.280072718636106
 21
503.85643324914201
 31
0.0
 73
               3
  0
TEXT
  8
SPEC
 62
               7
  5
6B
 10
-145.69875732958462
 20
430.05615909875746
 30
0.0
 40
5.7009440104166664
  1
自動切換
  7
_______
 11
-145.69875732958462
 21
436.7942697758408
 31
0.0
 73
               3
  0
TEXT
  8
SPEC
 62
               7
  5
6C
 10
-47.760090258410273
 20
430.03853043235074
 30
0.0
 40
5.7009440104166664
  1
なし
  7
_______
 11
-47.760090258410273
 21
436.77664110943408
 31
0.0
 73
               3
  0
TEXT
  8
SPEC
 62
               7
  5
6D
 10
-144.92258816620591
 20
418.87666930579087
 30
0.0
 40
5.7009440104166664
  1
電源端子
  7
_______
 11
-144.92258816620591
 21
425.61477998287421
 31
0.0
 73
               3
  0
TEXT
  8
SPEC
 62
               7
  5
6E
 10
-48.639931593001123
 20
418.92394132367917
 30
0.0
 40
5.7009440104166664
  1
ミニジャックロック
  7
_______
 11
-48.639931593001123
 21
425.66205200076251
 31
0.0
 73
               3
  0
TEXT
  8
SPEC
 62
               7
  5
6F
 10
-144.85207905873682
 20
407.69662372637737
 30
0.0
 40
5.7009440104166664
  1
動作温度
  7
_______
 11
-144.85207905873682
 21
414.43473440346071
 31
0.0
 73
               3
  0
TEXT
  8
SPEC
 62
               7
  5
70
 10
-47.037685821654762
 20
407.24944402234564
 30
0.0
 40
5.7009440104166664
  1
0°～40℃
  7
_______
 11
-47.037685821654762
 21
413.98755469942898
 31
0.0
 73
               3
  0
TEXT
  8
SPEC
 62
               7
  5
71
 10
-144.85180281051771
 20
385.12666930579087
 30
0.0
 40
5.7009440104166664
  1
準拠
  7
_______
 11
-144.85180281051771
 21
391.86477998287421
 31
0.0
 73
               3
  0
TEXT
  8
SPEC
 62
               7
  5
72
 10
-47.273197296194851
 20
384.75311050185985
 30
0.0
 40
5.7009440104166664
  1
FCC、CE、UL、US/EU　標準
  7
_______
 11
-47.273197296194851
 21
391.49122117894319
 31
0.0
 73
               3
  0
TEXT
  8
SPEC
 62
               7
  5
73
 10
-144.92065632639827
 20
373.94593514991487
 30
0.0
 40
5.7009440104166664
  1
消費電力
  7
_______
 11
-144.92065632639827
 21
380.68404582699822
 31
0.0
 73
               3
  0
TEXT
  8
SPEC
 62
               7
  5
74
 10
-47.273197296194851
 20
373.6732288247548
 30
0.0
 40
5.7009440104166664
  1
20W(最大)
  7
_______
 11
-47.273197296194851
 21
380.41133950183814
 31
0.0
 73
               3
  0
LINE
  8
SPEC
  6
CONTINUOUS
 62
               7
  5
75
 10
-147.49999999999994
 20
383.31362999999993
 30
0.0
 11
295.0
 21
383.31362999999993
 31
0.0
  0
LINE
  8
SPEC
  6
CONTINUOUS
 62
               7
  5
76
 10
-147.49999999999994
 20
372.06362999999993
 30
0.0
 11
295.0
 21
372.06362999999993
 31
0.0
  0
LINE
  8
SPEC
  6
CONTINUOUS
 62
               7
  5
77
 10
-147.49999999999994
 20
360.81362999999993
 30
0.0
 11
295.0
 21
360.81362999999993
 31
0.0
  0
LINE
  8
SPEC
  6
CONTINUOUS
 62
               7
  5
78
 10
-147.49999999999994
 20
349.56362999999993
 30
0.0
 11
295.0
 21
349.56362999999993
 31
0.0
  0
TEXT
  8
DIMNSIONS
 62
               7
  5
79
 10
39.999999999999986
 20
-207.46139999999997
 30
0.0
 40
7.3297851562499998
  1
(単位：mm)
  7
_______
 11
39.999999999999986
 21
-198.79811484375
 31
0.0
 73
               3
  0
LINE
  8
DIMNSIONS
  6
CONTINUOUS
 62
               7
  5
7A
 10
-81.000000000000014
 20
-93.75
 30
0.0
 11
-106.00000000000001
 21
-93.75
 31
0.0
  0
LINE
  8
DIMNSIONS
  6
CONTINUOUS
 62
               7
  5
7B
 10
-81.000000000000014
 20
-62.75
 30
0.0
 11
-106.00000000000001
 21
-62.75
 31
0.0
  0
LINE
  8
DIMNSIONS
  6
CONTINUOUS
 62
               7
  5
7C
 10
-100.00000000000001
 20
-93.75
 30
0.0
 11
-100.00000000000001
 21
-62.75
 31
0.0
  0
LINE
  8
DIMNSIONS
  6
CONTINUOUS
 62
               7
  5
7D
 10
-100.00000000000001
 20
-93.75
 30
0.0
 11
-102.01011938545075
 21
-86.248132324218744
 31
0.0
  0
LINE
  8
DIMNSIONS
  6
CONTINUOUS
 62
               7
  5
7E
 10
-100.00000000000001
 20
-93.75
 30
0.0
 11
-97.989880614549278
 21
-86.248132324218744
 31
0.0
  0
LINE
  8
DIMNSIONS
  6
CONTINUOUS
 62
               7
  5
7F
 10
-100.00000000000001
 20
-62.75
 30
0.0
 11
-97.989880614549278
 21
-70.251867675781256
 31
0.0
  0
LINE
  8
DIMNSIONS
  6
CONTINUOUS
 62
               7
  5
80
 10
-100.00000000000001
 20
-62.75
 30
0.0
 11
-102.01011938545075
 21
-70.251867675781256
 31
0.0
  0
TEXT
  8
DIMNSIONS
 62
               7
  5
81
 10
-101.49999999999999
 20
-83.541666666666657
 30
0.0
 40
8.1442057291666661
  1
31
 50
90.0
  7
_______
 11
-111.12587239583333
 21
-83.541666666666657
 31
0.0
 73
               3
  0
LINE
  8
DIMNSIONS
  6
CONTINUOUS
 62
               7
  5
82
 10
-75.000000000000014
 20
-99.75
 30
0.0
 11
-75.000000000000014
 21
-124.75
 31
0.0
  0
LINE
  8
DIMNSIONS
  6
CONTINUOUS
 62
               7
  5
83
 10
116.99999999999999
 20
-99.75
 30
0.0
 11
116.99999999999999
 21
-124.75
 31
0.0
  0
LINE
  8
DIMNSIONS
  6
CONTINUOUS
 62
               7
  5
84
 10
-75.000000000000014
 20
-118.75
 30
0.0
 11
116.99999999999999
 21
-118.75
 31
0.0
  0
LINE
  8
DIMNSIONS
  6
CONTINUOUS
 62
               7
  5
85
 10
-75.000000000000014
 20
-118.75
 30
0.0
 11
-67.498132324218759
 21
-116.73988061454929
 31
0.0
  0
LINE
  8
DIMNSIONS
  6
CONTINUOUS
 62
               7
  5
86
 10
-75.000000000000014
 20
-118.75
 30
0.0
 11
-67.498132324218759
 21
-120.76011938545071
 31
0.0
  0
LINE
  8
DIMNSIONS
  6
CONTINUOUS
 62
               7
  5
87
 10
116.99999999999999
 20
-118.75
 30
0.0
 11
109.49813232421874
 21
-120.76011938545071
 31
0.0
  0
LINE
  8
DIMNSIONS
  6
CONTINUOUS
 62
               7
  5
88
 10
116.99999999999999
 20
-118.75
 30
0.0
 11
109.49813232421874
 21
-116.73988061454929
 31
0.0
  0
TEXT
  8
DIMNSIONS
 62
               7
  5
89
 10
13.062499999999986
 20
-117.25
 30
0.0
 40
8.1442057291666661
  1
192
  7
_______
 11
13.062499999999986
 21
-107.62412760416666
 31
0.0
 73
               3
  0
LINE
  8
DIMNSIONS
  6
CONTINUOUS
 62
               7
  5
8A
 10
-75.360167167859757
 20
-96.75
 30
0.0
 11
-106.00000000000001
 21
-96.75
 31
0.0
  0
LINE
  8
DIMNSIONS
  6
CONTINUOUS
 62
               7
  5
8B
 10
-81.000000000000014
 20
-93.75
 30
0.0
 11
-106.00000000000001
 21
-93.75
 31
0.0
  0
LINE
  8
DIMNSIONS
  6
CONTINUOUS
 62
               7
  5
8C
 10
-100.00000000000001
 20
-93.75
 30
0.0
 11
-100.00000000000001
 21
-96.75
 31
0.0
  0
LINE
  8
DIMNSIONS
  6
CONTINUOUS
 62
               7
  5
8D
 10
-100.00000000000001
 20
-96.75
 30
0.0
 11
-100.00000000000001
 21
-111.54166666666666
 31
0.0
  0
LINE
  8
DIMNSIONS
  6
CONTINUOUS
 62
               7
  5
8E
 10
-100.00000000000001
 20
-96.75
 30
0.0
 11
-97.989880614549278
 21
-104.25186767578126
 31
0.0
  0
LINE
  8
DIMNSIONS
  6
CONTINUOUS
 62
               7
  5
8F
 10
-100.00000000000001
 20
-96.75
 30
0.0
 11
-102.01011938545075
 21
-104.25186767578126
 31
0.0
  0
LINE
  8
DIMNSIONS
  6
CONTINUOUS
 62
               7
  5
90
 10
-100.00000000000001
 20
-93.75
 30
0.0
 11
-100.00000000000001
 21
-78.75
 31
0.0
  0
LINE
  8
DIMNSIONS
  6
CONTINUOUS
 62
               7
  5
91
 10
-100.00000000000001
 20
-93.75
 30
0.0
 11
-102.01011938545075
 21
-86.248132324218744
 31
0.0
  0
LINE
  8
DIMNSIONS
  6
CONTINUOUS
 62
               7
  5
92
 10
-100.00000000000001
 20
-93.75
 30
0.0
 11
-97.989880614549278
 21
-86.248132324218744
 31
0.0
  0
TEXT
  8
DIMNSIONS
 62
               7
  5
93
 10
-101.50000000000001
 20
-111.54166666666666
 30
0.0
 40
8.1442057291666661
  1
3
 50
90.0
  7
_______
 11
-111.12587239583335
 21
-111.54166666666666
 31
0.0
 73
               3
  0
LINE
  8
DIMNSIONS
  6
CONTINUOUS
 62
               7
  5
94
 10
-81.000000000000014
 20
-31.25
 30
0.0
 11
-106.00000000000001
 21
-31.25
 31
0.0
  0
LINE
  8
DIMNSIONS
  6
CONTINUOUS
 62
               7
  5
95
 10
-81.000000000000014
 20
56.75
 30
0.0
 11
-106.00000000000001
 21
56.75
 31
0.0
  0
LINE
  8
DIMNSIONS
  6
CONTINUOUS
 62
               7
  5
96
 10
-100.00000000000001
 20
-31.25
 30
0.0
 11
-100.00000000000001
 21
56.75
 31
0.0
  0
LINE
  8
DIMNSIONS
  6
CONTINUOUS
 62
               7
  5
97
 10
-100.00000000000001
 20
-31.25
 30
0.0
 11
-102.01011938545075
 21
-23.748132324218744
 31
0.0
  0
LINE
  8
DIMNSIONS
  6
CONTINUOUS
 62
               7
  5
98
 10
-100.00000000000001
 20
-31.25
 30
0.0
 11
-97.989880614549278
 21
-23.748132324218744
 31
0.0
  0
LINE
  8
DIMNSIONS
  6
CONTINUOUS
 62
               7
  5
99
 10
-100.00000000000001
 20
56.75
 30
0.0
 11
-97.989880614549278
 21
49.248132324218744
 31
0.0
  0
LINE
  8
DIMNSIONS
  6
CONTINUOUS
 62
               7
  5
9A
 10
-100.00000000000001
 20
56.75
 30
0.0
 11
-102.01011938545075
 21
49.248132324218744
 31
0.0
  0
TEXT
  8
DIMNSIONS
 62
               7
  5
9B
 10
-101.49999999999999
 20
7.4583333333333428
 30
0.0
 40
8.1442057291666661
  1
88
 50
90.0
  7
_______
 11
-111.12587239583333
 21
7.4583333333333428
 31
0.0
 73
               3
  0
LINE
  8
DIMNSIONS
  6
CONTINUOUS
 62
               7
  5
9C
 10
-81.000000000000014
 20
56.75
 30
0.0
 11
-106.00000000000001
 21
56.75
 31
0.0
  0
LINE
  8
DIMNSIONS
  6
CONTINUOUS
 62
               7
  5
9D
 10
-30.717162906967516
 20
73.75
 30
0.0
 11
-106.00000000000001
 21
73.75
 31
0.0
  0
LINE
  8
DIMNSIONS
  6
CONTINUOUS
 62
               7
  5
9E
 10
-100.00000000000001
 20
56.75
 30
0.0
 11
-100.00000000000001
 21
73.75
 31
0.0
  0
LINE
  8
DIMNSIONS
  6
CONTINUOUS
 62
               7
  5
9F
 10
-100.00000000000001
 20
56.75
 30
0.0
 11
-102.01011938545075
 21
64.251867675781256
 31
0.0
  0
LINE
  8
DIMNSIONS
  6
CONTINUOUS
 62
               7
  5
A0
 10
-100.00000000000001
 20
56.75
 30
0.0
 11
-97.989880614549278
 21
64.251867675781256
 31
0.0
  0
LINE
  8
DIMNSIONS
  6
CONTINUOUS
 62
               7
  5
A1
 10
-100.00000000000001
 20
73.75
 30
0.0
 11
-97.989880614549278
 21
66.248132324218744
 31
0.0
  0
LINE
  8
DIMNSIONS
  6
CONTINUOUS
 62
               7
  5
A2
 10
-100.00000000000001
 20
73.75
 30
0.0
 11
-102.01011938545075
 21
66.248132324218744
 31
0.0
  0
TEXT
  8
DIMNSIONS
 62
               7
  5
A3
 10
-101.49999999999999
 20
59.958333333333329
 30
0.0
 40
8.1442057291666661
  1
17
 50
90.0
  7
_______
 11
-111.12587239583333
 21
59.958333333333329
 31
0.0
 73
               3
  0
TEXT
  8
DATA
 62
               7
  5
A4
 10
-139.99999999999994
 20
-231.11137000000002
 30
0.0
 40
4.8865234374999993
  1
仕様および外観は予告なく変更されることがありますので、ご了承ください。
  7
_______
 11
-139.99999999999994
 21
-225.33584656250002
 31
0.0
 73
               3
  0
LINE
  8
DATA
  6
CONTINUOUS
 62
               7
  5
A5
 10
-75.000000000000014
 20
-93.75
 30
0.0
 11
-75.000000000000014
 21
-62.75
 31
0.0
  0
LINE
  8
DATA
  6
CONTINUOUS
 62
               7
  5
A6
 10
116.99999999999999
 20
-93.75
 30
0.0
 11
-75.000000000000014
 21
-93.75
 31
0.0
  0
TEXT
  8
DATA
 62
               7
  5
A7
 10
249.76339404981167
 20
-210.10216887849049
 30
0.0
 40
7.3297851562499998
  1
EXT-3GSDI-2-HDMI1.3
  7
_______
 11
249.76339404981167
 21
-201.43888372224052
 31
0.0
 73
               3
  0
TEXT
  8
DATA
 62
               7
  5
A8
 10
243.77609585637674
 20
-196.97028894105256
 30
0.0
 40
4.8865234374999993
  1
3GSDI-HDMIコンバーター
  7
_______
 11
243.77609585637674
 21
-191.19476550355256
 31
0.0
 73
               3
  0
LINE
  8
DATA
  6
CONTINUOUS
 62
               7
  5
A9
 10
116.99999999999999
 20
-62.75
 30
0.0
 11
-75.000000000000014
 21
-62.75
 31
0.0
  0
LINE
  8
DATA
  6
CONTINUOUS
 62
               7
  5
AA
 10
116.99999999999999
 20
-93.75
 30
0.0
 11
116.99999999999999
 21
-62.75
 31
0.0
  0
LINE
  8
DATA
  6
CONTINUOUS
 62
               7
  5
AB
 10
-69.360167167859757
 20
-96.75
 30
0.0
 11
-70.000000000000014
 21
-93.75
 31
0.0
  0
LINE
  8
DATA
  6
CONTINUOUS
 62
               7
  5
AC
 10
-58.639832832140272
 20
-96.75
 30
0.0
 11
-58.000000000000014
 21
-93.75
 31
0.0
  0
LINE
  8
DATA
  6
CONTINUOUS
 62
               7
  5
AD
 10
-69.360167167859757
 20
-96.75
 30
0.0
 11
-58.639832832140272
 21
-96.75
 31
0.0
  0
LINE
  8
DATA
  6
CONTINUOUS
 62
               7
  5
AE
 10
111.36016716785973
 20
-96.75
 30
0.0
 11
111.99999999999999
 21
-93.75
 31
0.0
  0
LINE
  8
DATA
  6
CONTINUOUS
 62
               7
  5
AF
 10
100.63983283214024
 20
-96.75
 30
0.0
 11
99.999999999999986
 21
-93.75
 31
0.0
  0
LINE
  8
DATA
  6
CONTINUOUS
 62
               7
  5
B0
 10
111.36016716785973
 20
-96.75
 30
0.0
 11
100.63983283214024
 21
-96.75
 31
0.0
  0
CIRCLE
  8
DATA
  6
CONTINUOUS
 62
               7
  5
B1
 10
101.49999999999999
 20
-79.75
 30
0.0
 40
1.5
  0
TEXT
  8
DATA
 62
               7
  5
B2
 10
97.955476945826589
 20
-86.140214680497621
 30
0.0
 40
2.2396565755208333
  1
Power
  7
_______
 11
97.955476945826589
 21
-83.493099771643472
 31
0.0
 73
               3
  0
CIRCLE
  8
DATA
  6
CONTINUOUS
 62
               7
  5
B3
 10
-55.000000000000014
 20
-79.75
 30
0.0
 40
1.5
  0
CIRCLE
  8
DATA
  6
CONTINUOUS
 62
               7
  5
B4
 10
-10.000000000000014
 20
-79.75
 30
0.0
 40
1.5
  0
TEXT
  8
DATA
 62
               7
  5
B5
 10
-11.463717846668274
 20
-86.140214680497621
 30
0.0
 40
2.2396565755208333
  1
3G
  7
_______
 11
-11.463717846668274
 21
-83.493099771643472
 31
0.0
 73
               3
  0
TEXT
  8
DATA
 62
               7
  5
B6
 10
-56.472126596511245
 20
-86.140214680497621
 30
0.0
 40
2.2396565755208333
  1
VL
  7
_______
 11
-56.472126596511245
 21
-83.493099771643472
 31
0.0
 73
               3
  0
TEXT
  8
DATA
 62
               7
  5
B7
 10
86.214212059545787
 20
-75.292939495563871
 30
0.0
 40
5.7009440104166664
  1
HDMI
  7
_______
 11
86.214212059545787
 21
-68.55482881848053
 31
0.0
 73
               3
  0
TEXT
  8
DATA
 62
               7
  5
B8
 10
59.171544556359819
 20
-75.220134956375574
 30
0.0
 40
5.7009440104166664
  1
3GSDI
  7
_______
 11
59.171544556359819
 21
-68.482024279292233
 31
0.0
 73
               3
  0
TEXT
  8
DATA
 62
               7
  5
B9
 10
78.570655546202914
 20
-74.929441864517912
 30
0.0
 40
3.9906608072916661
  1
to
  7
_______
 11
78.570655546202914
 21
-70.212764390559585
 31
0.0
 73
               3
  0
LINE
  8
DATA
  6
CONTINUOUS
 62
               7
  5
BA
 10
-75.000000000000014
 20
-31.25
 30
0.0
 11
-75.000000000000014
 21
56.75
 31
0.0
  0
LINE
  8
DATA
  6
CONTINUOUS
 62
               7
  5
BB
 10
116.99999999999999
 20
-31.25
 30
0.0
 11
-75.000000000000014
 21
-31.25
 31
0.0
  0
LINE
  8
DATA
  6
CONTINUOUS
 62
               7
  5
BC
 10
116.99999999999999
 20
-31.25
 30
0.0
 11
116.99999999999999
 21
56.75
 31
0.0
  0
LINE
  8
DATA
  6
CONTINUOUS
 62
               7
  5
BD
 10
-75.000000000000014
 20
56.75
 30
0.0
 11
116.99999999999999
 21
56.75
 31
0.0
  0
LINE
  8
DATA
  6
CONTINUOUS
 62
               7
  5
BE
 10
116.99999999999999
 20
-22.25
 30
0.0
 11
-75.000000000000014
 21
-22.25
 31
0.0
  0
ARC
  8
DATA
  6
CONTINUOUS
 62
               7
  5
BF
 10
-55.000000000000014
 20
-31.25
 30
0.0
 40
1.5
 50
180.0
 51
0.0
  0
ARC
  8
DATA
  6
CONTINUOUS
 62
               7
  5
C0
 10
-10.000000000000014
 20
-31.25
 30
0.0
 40
1.5
 50
180.0
 51
0.0
  0
ARC
  8
DATA
  6
CONTINUOUS
 62
               7
  5
C1
 10
101.49999999999999
 20
-31.25
 30
0.0
 40
1.5
 50
180.0
 51
0.0
  0
LINE
  8
DATA
  6
CONTINUOUS
 62
               7
  5
C2
 10
101.99999999999999
 20
56.75
 30
0.0
 11
101.99999999999999
 21
58.75
 31
0.0
  0
LINE
  8
DATA
  6
CONTINUOUS
 62
               7
  5
C3
 10
-75.000000000000014
 20
137.24999999980335
 30
0.0
 11
-75.000000000000014
 21
106.24999999980334
 31
0.0
  0
LINE
  8
DATA
  6
CONTINUOUS
 62
               7
  5
C4
 10
116.99999999999999
 20
137.24999999980335
 30
0.0
 11
-75.000000000000014
 21
137.24999999980335
 31
0.0
  0
LINE
  8
DATA
  6
CONTINUOUS
 62
               7
  5
C5
 10
116.99999999999999
 20
106.24999999980334
 30
0.0
 11
-75.000000000000014
 21
106.24999999980334
 31
0.0
  0
LINE
  8
DATA
  6
CONTINUOUS
 62
               7
  5
C6
 10
116.99999999999999
 20
137.24999999980335
 30
0.0
 11
116.99999999999999
 21
106.24999999980334
 31
0.0
  0
LINE
  8
DATA
  6
CONTINUOUS
 62
               7
  5
C7
 10
-69.360167167859757
 20
140.24999999980335
 30
0.0
 11
-70.000000000000014
 21
137.24999999980335
 31
0.0
  0
LINE
  8
DATA
  6
CONTINUOUS
 62
               7
  5
C8
 10
-58.639832832140272
 20
140.24999999980335
 30
0.0
 11
-58.000000000000014
 21
137.24999999980335
 31
0.0
  0
LINE
  8
DATA
  6
CONTINUOUS
 62
               7
  5
C9
 10
-69.360167167859757
 20
140.24999999980335
 30
0.0
 11
-58.639832832140272
 21
140.24999999980335
 31
0.0
  0
LINE
  8
DATA
  6
CONTINUOUS
 62
               7
  5
CA
 10
111.36016716785973
 20
140.24999999980335
 30
0.0
 11
111.99999999999999
 21
137.24999999980335
 31
0.0
  0
LINE
  8
DATA
  6
CONTINUOUS
 62
               7
  5
CB
 10
100.63983283214024
 20
140.24999999980335
 30
0.0
 11
99.999999999999986
 21
137.24999999980335
 31
0.0
  0
LINE
  8
DATA
  6
CONTINUOUS
 62
               7
  5
CC
 10
111.36016716785973
 20
140.24999999980335
 30
0.0
 11
100.63983283214024
 21
140.24999999980335
 31
0.0
  0
POLYLINE
  8
DATA
  6
CONTINUOUS
 62
               7
  5
CD
 66
               1
 10
0.0
 20
0.0
 30
0.0
 75
               5
  0
VERTEX
  8
DATA
  6
CONTINUOUS
 62
               7
  5
CE
 10
-52.015600029582075
 20
125.23500664274191
 30
0.0
  0
VERTEX
  8
DATA
  6
CONTINUOUS
 62
               7
  5
CF
 10
-52.015600029582075
 20
121.23500664274191
 30
0.0
  0
VERTEX
  8
DATA
  6
CONTINUOUS
 62
               7
  5
D0
 10
-36.015600029582018
 20
121.23500664274191
 30
0.0
  0
VERTEX
  8
DATA
  6
CONTINUOUS
 62
               7
  5
D1
 10
-36.015600029582018
 20
125.23500664274191
 30
0.0
  0
SEQEND
  8
DATA
  6
CONTINUOUS
 62
               7
  5
D2
  0
LINE
  8
DATA
  6
CONTINUOUS
 62
               7
  5
D4
 10
-38.515600029582416
 20
127.23500664274191
 30
0.0
 11
-49.515600029581734
 21
127.23500664274191
 31
0.0
  0
ARC
  8
DATA
  6
CONTINUOUS
 62
               7
  5
D5
 10
-53.28478370305136
 20
129.38398623457857
 30
0.0
 40
4.3387623639095692
 50
287.00900813209631
 51
330.31060837608294
  0
ARC
  8
DATA
  6
CONTINUOUS
 62
               7
  5
D6
 10
-34.746416356112647
 20
129.38398623457857
 30
0.0
 40
4.3387623639096695
 50
209.68939162391615
 51
252.99099186790272
  0
POLYLINE
  8
DATA
  6
CONTINUOUS
 62
               7
  5
D7
 66
               1
 10
0.0
 20
0.0
 30
0.0
 70
               1
 75
               5
  0
VERTEX
  8
DATA
  6
CONTINUOUS
 62
               7
  5
D8
 10
-46.515600029582046
 20
112.80662432702593
 30
0.0
  0
VERTEX
  8
DATA
  6
CONTINUOUS
 62
               7
  5
D9
 10
-44.015600029582046
 20
111.36324865405186
 30
0.0
  0
VERTEX
  8
DATA
  6
CONTINUOUS
 62
               7
  5
DA
 10
-41.515600029582046
 20
112.80662432702593
 30
0.0
  0
VERTEX
  8
DATA
  6
CONTINUOUS
 62
               7
  5
DB
 10
-41.515600029582046
 20
115.69337567297407
 30
0.0
  0
VERTEX
  8
DATA
  6
CONTINUOUS
 62
               7
  5
DC
 10
-44.015600029582046
 20
117.13675134594814
 30
0.0
  0
VERTEX
  8
DATA
  6
CONTINUOUS
 62
               7
  5
DD
 10
-46.515600029582046
 20
115.69337567297407
 30
0.0
  0
SEQEND
  8
DATA
  6
CONTINUOUS
 62
               7
  5
DE
  0
CIRCLE
  8
DATA
  6
CONTINUOUS
 62
               7
  5
E0
 10
-44.015600029582046
 20
114.25
 30
0.0
 40
1.25
  0
CIRCLE
  8
DATA
  6
CONTINUOUS
 62
               7
  5
E1
 10
-20.048616366406534
 20
120.24999999980334
 30
0.0
 40
4.75
  0
POLYLINE
  8
DATA
  6
CONTINUOUS
 62
               7
  5
E2
 66
               1
 10
0.0
 20
0.0
 30
0.0
 70
               1
 75
               5
  0
VERTEX
  8
DATA
  6
CONTINUOUS
 62
               7
  5
E3
 10
-27.048616366406534
 20
116.20854811547596
 30
0.0
  0
VERTEX
  8
DATA
  6
CONTINUOUS
 62
               7
  5
E4
 10
-20.048616366406534
 20
112.16709623114858
 30
0.0
  0
VERTEX
  8
DATA
  6
CONTINUOUS
 62
               7
  5
E5
 10
-13.048616366406534
 20
116.20854811547595
 30
0.0
  0
VERTEX
  8
DATA
  6
CONTINUOUS
 62
               7
  5
E6
 10
-13.048616366406534
 20
124.29145188413071
 30
0.0
  0
VERTEX
  8
DATA
  6
CONTINUOUS
 62
               7
  5
E7
 10
-20.048616366406534
 20
128.3329037684581
 30
0.0
  0
VERTEX
  8
DATA
  6
CONTINUOUS
 62
               7
  5
E8
 10
-27.048616366406534
 20
124.29145188413071
 30
0.0
  0
SEQEND
  8
DATA
  6
CONTINUOUS
 62
               7
  5
E9
  0
CIRCLE
  8
DATA
  6
CONTINUOUS
 62
               7
  5
EB
 10
-20.048616366406534
 20
120.24999999980334
 30
0.0
 40
8.0829037686547593
  0
POLYLINE
  8
DATA
  6
CONTINUOUS
 62
               7
  5
EC
 66
               1
 10
0.0
 20
0.0
 30
0.0
 75
               5
  0
VERTEX
  8
DATA
  6
CONTINUOUS
 62
               7
  5
ED
 10
-24.760569252418534
 20
119.64999999980334
 30
0.0
  0
VERTEX
  8
DATA
  6
CONTINUOUS
 62
               7
  5
EE
 10
-25.648616366406529
 20
119.64999999980334
 30
0.0
  0
VERTEX
  8
DATA
  6
CONTINUOUS
 62
               7
  5
EF
 10
-25.648616366406529
 20
120.84999999980333
 30
0.0
  0
VERTEX
  8
DATA
  6
CONTINUOUS
 62
               7
  5
F0
 10
-24.760569252418534
 20
120.84999999980333
 30
0.0
  0
SEQEND
  8
DATA
  6
CONTINUOUS
 62
               7
  5
F1
  0
POLYLINE
  8
DATA
  6
CONTINUOUS
 62
               7
  5
F3
 66
               1
 10
0.0
 20
0.0
 30
0.0
 75
               5
  0
VERTEX
  8
DATA
  6
CONTINUOUS
 62
               7
  5
F4
 10
-15.336663480394535
 20
120.84999999980333
 30
0.0
  0
VERTEX
  8
DATA
  6
CONTINUOUS
 62
               7
  5
F5
 10
-14.44861636640654
 20
120.84999999980333
 30
0.0
  0
VERTEX
  8
DATA
  6
CONTINUOUS
 62
               7
  5
F6
 10
-14.44861636640654
 20
119.64999999980334
 30
0.0
  0
VERTEX
  8
DATA
  6
CONTINUOUS
 62
               7
  5
F7
 10
-15.336663480394535
 20
119.64999999980334
 30
0.0
  0
SEQEND
  8
DATA
  6
CONTINUOUS
 62
               7
  5
F8
  0
CIRCLE
  8
DATA
  6
CONTINUOUS
 62
               7
  5
FA
 10
4.9513836335934656
 20
120.24999999980334
 30
0.0
 40
4.75
  0
POLYLINE
  8
DATA
  6
CONTINUOUS
 62
               7
  5
FB
 66
               1
 10
0.0
 20
0.0
 30
0.0
 70
               1
 75
               5
  0
VERTEX
  8
DATA
  6
CONTINUOUS
 62
               7
  5
FC
 10
-2.0486163664065344
 20
116.20854811547596
 30
0.0
  0
VERTEX
  8
DATA
  6
CONTINUOUS
 62
               7
  5
FD
 10
4.9513836335934656
 20
112.16709623114858
 30
0.0
  0
VERTEX
  8
DATA
  6
CONTINUOUS
 62
               7
  5
FE
 10
11.951383633593466
 20
116.20854811547595
 30
0.0
  0
VERTEX
  8
DATA
  6
CONTINUOUS
 62
               7
  5
FF
 10
11.951383633593466
 20
124.29145188413071
 30
0.0
  0
VERTEX
  8
DATA
  6
CONTINUOUS
 62
               7
  5
100
 10
4.9513836335934656
 20
128.3329037684581
 30
0.0
  0
VERTEX
  8
DATA
  6
CONTINUOUS
 62
               7
  5
101
 10
-2.0486163664065344
 20
124.29145188413071
 30
0.0
  0
SEQEND
  8
DATA
  6
CONTINUOUS
 62
               7
  5
102
  0
CIRCLE
  8
DATA
  6
CONTINUOUS
 62
               7
  5
104
 10
4.9513836335934656
 20
120.24999999980334
 30
0.0
 40
0.5
  0
CIRCLE
  8
DATA
  6
CONTINUOUS
 62
               7
  5
105
 10
4.9513836335934656
 20
120.24999999980334
 30
0.0
 40
8.0829037686547593
  0
POLYLINE
  8
DATA
  6
CONTINUOUS
 62
               7
  5
106
 66
               1
 10
0.0
 20
0.0
 30
0.0
 75
               5
  0
VERTEX
  8
DATA
  6
CONTINUOUS
 62
               7
  5
107
 10
0.2394307475814657
 20
119.64999999980334
 30
0.0
  0
VERTEX
  8
DATA
  6
CONTINUOUS
 62
               7
  5
108
 10
-0.6486163664065288
 20
119.64999999980334
 30
0.0
  0
VERTEX
  8
DATA
  6
CONTINUOUS
 62
               7
  5
109
 10
-0.6486163664065288
 20
120.84999999980333
 30
0.0
  0
VERTEX
  8
DATA
  6
CONTINUOUS
 62
               7
  5
10A
 10
0.2394307475814657
 20
120.84999999980333
 30
0.0
  0
SEQEND
  8
DATA
  6
CONTINUOUS
 62
               7
  5
10B
  0
POLYLINE
  8
DATA
  6
CONTINUOUS
 62
               7
  5
10D
 66
               1
 10
0.0
 20
0.0
 30
0.0
 75
               5
  0
VERTEX
  8
DATA
  6
CONTINUOUS
 62
               7
  5
10E
 10
9.6633365196054655
 20
120.84999999980333
 30
0.0
  0
VERTEX
  8
DATA
  6
CONTINUOUS
 62
               7
  5
10F
 10
10.55138363359346
 20
120.84999999980333
 30
0.0
  0
VERTEX
  8
DATA
  6
CONTINUOUS
 62
               7
  5
110
 10
10.55138363359346
 20
119.64999999980334
 30
0.0
  0
VERTEX
  8
DATA
  6
CONTINUOUS
 62
               7
  5
111
 10
9.6633365196054655
 20
119.64999999980334
 30
0.0
  0
SEQEND
  8
DATA
  6
CONTINUOUS
 62
               7
  5
112
  0
CIRCLE
  8
DATA
  6
CONTINUOUS
 62
               7
  5
114
 10
50.999999999999986
 20
120.24999999980334
 30
0.0
 40
4.1500000000000057
  0
CIRCLE
  8
DATA
  6
CONTINUOUS
 62
               7
  5
115
 10
50.999999999999986
 20
120.24999999980334
 30
0.0
 40
1.6500000000000057
  0
CIRCLE
  8
DATA
  6
CONTINUOUS
 62
               7
  5
116
 10
36.999999999999986
 20
120.24999999980334
 30
0.0
 40
4.1500000000000057
  0
CIRCLE
  8
DATA
  6
CONTINUOUS
 62
               7
  5
117
 10
36.999999999999986
 20
120.24999999980334
 30
0.0
 40
1.6500000000000057
  0
LINE
  8
DATA
  6
CONTINUOUS
 62
               7
  5
118
 10
-28.050451064452531
 20
61.750672788297436
 30
0.0
 11
-12.127755722309587
 21
61.750672788297436
 31
0.0
  0
LINE
  8
DATA
  6
CONTINUOUS
 62
               7
  5
119
 10
-28.050451064452531
 20
61.750672788297436
 30
0.0
 11
-28.050451064452531
 21
56.750672788297436
 31
0.0
  0
LINE
  8
DATA
  6
CONTINUOUS
 62
               7
  5
11A
 10
-12.127755722309587
 20
61.750672788297436
 30
0.0
 11
-12.127755722309587
 21
56.750672788297436
 31
0.0
  0
LINE
  8
DATA
  6
CONTINUOUS
 62
               7
  5
11B
 10
-15.218095035140607
 20
73.75
 30
0.0
 11
-15.218095035140607
 21
61.750672788297436
 31
0.0
  0
POLYLINE
  8
DATA
  6
CONTINUOUS
 62
               7
  5
11C
 66
               1
 10
0.0
 20
0.0
 30
0.0
 75
               5
  0
VERTEX
  8
DATA
  6
CONTINUOUS
 62
               7
  5
11D
 10
-24.71716290696753
 20
69.113961309221338
 30
0.0
  0
VERTEX
  8
DATA
  6
CONTINUOUS
 62
               7
  5
11E
 10
-25.568095035140601
 20
69.113961309221338
 30
0.0
  0
VERTEX
  8
DATA
  6
CONTINUOUS
 62
               7
  5
11F
 10
-25.568095035140601
 20
70.313961309221327
 30
0.0
  0
VERTEX
  8
DATA
  6
CONTINUOUS
 62
               7
  5
120
 10
-24.71716290696753
 20
70.313961309221327
 30
0.0
  0
SEQEND
  8
DATA
  6
CONTINUOUS
 62
               7
  5
121
  0
POLYLINE
  8
DATA
  6
CONTINUOUS
 62
               7
  5
123
 66
               1
 10
0.0
 20
0.0
 30
0.0
 75
               5
  0
VERTEX
  8
DATA
  6
CONTINUOUS
 62
               7
  5
124
 10
-15.218095035140607
 20
70.313961309221327
 30
0.0
  0
VERTEX
  8
DATA
  6
CONTINUOUS
 62
               7
  5
125
 10
-14.368095035140612
 20
70.313961309221327
 30
0.0
  0
VERTEX
  8
DATA
  6
CONTINUOUS
 62
               7
  5
126
 10
-14.368095035140612
 20
69.113961309221338
 30
0.0
  0
VERTEX
  8
DATA
  6
CONTINUOUS
 62
               7
  5
127
 10
-15.218095035140607
 20
69.113961309221338
 30
0.0
  0
SEQEND
  8
DATA
  6
CONTINUOUS
 62
               7
  5
128
  0
LINE
  8
DATA
  6
CONTINUOUS
 62
               7
  5
12A
 10
-15.218095035140607
 20
73.75
 30
0.0
 11
-24.71716290696753
 21
73.75
 31
0.0
  0
LINE
  8
DATA
  6
CONTINUOUS
 62
               7
  5
12B
 10
-3.1023001087488922
 20
61.750672788297436
 30
0.0
 11
13.062411949874985
 21
61.750672788297436
 31
0.0
  0
LINE
  8
DATA
  6
CONTINUOUS
 62
               7
  5
12C
 10
-3.1023001087488922
 20
61.750672788297436
 30
0.0
 11
-3.1023001087488922
 21
56.750672788297436
 31
0.0
  0
LINE
  8
DATA
  6
CONTINUOUS
 62
               7
  5
12D
 10
13.062411949874985
 20
61.750672788297436
 30
0.0
 11
13.062411949874985
 21
56.750672788297436
 31
0.0
  0
LINE
  8
DATA
  6
CONTINUOUS
 62
               7
  5
12E
 10
0.2309880487361227
 20
73.75
 30
0.0
 11
0.2309880487361227
 21
61.750672788297436
 31
0.0
  0
LINE
  8
DATA
  6
CONTINUOUS
 62
               7
  5
12F
 10
9.7300559205630464
 20
73.75
 30
0.0
 11
9.7300559205630464
 21
61.750672788297436
 31
0.0
  0
POLYLINE
  8
DATA
  6
CONTINUOUS
 62
               7
  5
130
 66
               1
 10
0.0
 20
0.0
 30
0.0
 75
               5
  0
VERTEX
  8
DATA
  6
CONTINUOUS
 62
               7
  5
131
 10
0.2309880487361227
 20
69.113961309221338
 30
0.0
  0
VERTEX
  8
DATA
  6
CONTINUOUS
 62
               7
  5
132
 10
-0.619944079436948
 20
69.113961309221338
 30
0.0
  0
VERTEX
  8
DATA
  6
CONTINUOUS
 62
               7
  5
133
 10
-0.619944079436948
 20
70.313961309221327
 30
0.0
  0
VERTEX
  8
DATA
  6
CONTINUOUS
 62
               7
  5
134
 10
0.2309880487361227
 20
70.313961309221327
 30
0.0
  0
SEQEND
  8
DATA
  6
CONTINUOUS
 62
               7
  5
135
  0
POLYLINE
  8
DATA
  6
CONTINUOUS
 62
               7
  5
137
 66
               1
 10
0.0
 20
0.0
 30
0.0
 75
               5
  0
VERTEX
  8
DATA
  6
CONTINUOUS
 62
               7
  5
138
 10
9.7300559205630464
 20
70.313961309221327
 30
0.0
  0
VERTEX
  8
DATA
  6
CONTINUOUS
 62
               7
  5
139
 10
10.580055920563041
 20
70.313961309221327
 30
0.0
  0
VERTEX
  8
DATA
  6
CONTINUOUS
 62
               7
  5
13A
 10
10.580055920563041
 20
69.113961309221338
 30
0.0
  0
VERTEX
  8
DATA
  6
CONTINUOUS
 62
               7
  5
13B
 10
9.7300559205630464
 20
69.113961309221338
 30
0.0
  0
SEQEND
  8
DATA
  6
CONTINUOUS
 62
               7
  5
13C
  0
LINE
  8
DATA
  6
CONTINUOUS
 62
               7
  5
13E
 10
9.7300559205630464
 20
73.75
 30
0.0
 11
0.2309880487361227
 21
73.75
 31
0.0
  0
LINE
  8
DATA
  6
CONTINUOUS
 62
               7
  5
13F
 10
-46.45875624603589
 20
61.75
 30
0.0
 11
-46.45875624603589
 21
56.75
 31
0.0
  0
LINE
  8
DATA
  6
CONTINUOUS
 62
               7
  5
140
 10
-41.45875624603589
 20
61.75
 30
0.0
 11
-41.45875624603589
 21
56.75
 31
0.0
  0
LINE
  8
DATA
  6
CONTINUOUS
 62
               7
  5
141
 10
-46.45875624603589
 20
61.75
 30
0.0
 11
-41.45875624603589
 21
61.75
 31
0.0
  0
LINE
  8
DATA
  6
CONTINUOUS
 62
               7
  5
142
 10
-43.95875624603589
 20
61.75
 30
0.0
 11
-43.95875624603589
 21
56.75
 31
0.0
  0
LINE
  8
DATA
  6
CONTINUOUS
 62
               7
  5
143
 10
32.84999999999998
 20
62.75
 30
0.0
 11
41.149999999999991
 21
62.75
 31
0.0
  0
LINE
  8
DATA
  6
CONTINUOUS
 62
               7
  5
144
 10
46.84999999999998
 20
62.75
 30
0.0
 11
55.149999999999991
 21
62.75
 31
0.0
  0
LINE
  8
DATA
  6
CONTINUOUS
 62
               7
  5
145
 10
32.84999999999998
 20
62.75
 30
0.0
 11
32.84999999999998
 21
56.75
 31
0.0
  0
LINE
  8
DATA
  6
CONTINUOUS
 62
               7
  5
146
 10
41.149999999999991
 20
62.75
 30
0.0
 11
41.149999999999991
 21
56.75
 31
0.0
  0
LINE
  8
DATA
  6
CONTINUOUS
 62
               7
  5
147
 10
46.84999999999998
 20
62.75
 30
0.0
 11
46.84999999999998
 21
56.75
 31
0.0
  0
LINE
  8
DATA
  6
CONTINUOUS
 62
               7
  5
148
 10
55.149999999999991
 20
62.75
 30
0.0
 11
55.149999999999991
 21
56.75
 31
0.0
  0
LINE
  8
DATA
  6
CONTINUOUS
 62
               7
  5
149
 10
70.499999999999986
 20
116.74999999980332
 30
0.0
 11
70.499999999999986
 21
127.74999999980332
 31
0.0
  0
LINE
  8
DATA
  6
CONTINUOUS
 62
               7
  5
14A
 10
83.499999999999986
 20
116.74999999980332
 30
0.0
 11
70.499999999999986
 21
116.74999999980332
 31
0.0
  0
LINE
  8
DATA
  6
CONTINUOUS
 62
               7
  5
14B
 10
83.499999999999986
 20
127.74999999980332
 30
0.0
 11
83.499999999999986
 21
116.74999999980332
 31
0.0
  0
LINE
  8
DATA
  6
CONTINUOUS
 62
               7
  5
14C
 10
70.499999999999986
 20
127.74999999980332
 30
0.0
 11
83.499999999999986
 21
127.74999999980332
 31
0.0
  0
CIRCLE
  8
DATA
  6
CONTINUOUS
 62
               7
  5
14D
 10
101.99999999999999
 20
120.24999999980334
 30
0.0
 40
3.9499999999999993
  0
CIRCLE
  8
DATA
  6
CONTINUOUS
 62
               7
  5
14E
 10
101.99999999999999
 20
120.24999999980334
 30
0.0
 40
1.0
  0
CIRCLE
  8
DATA
  6
CONTINUOUS
 62
               7
  5
14F
 10
101.99999999999999
 20
120.24999999980334
 30
0.0
 40
2.8999999999999986
  0
CIRCLE
  8
DATA
  6
CONTINUOUS
 62
               7
  5
150
 10
101.99999999999999
 20
120.24999999980334
 30
0.0
 40
5.1499999999999986
  0
POLYLINE
  8
DATA
  6
CONTINUOUS
 62
               7
  5
151
 66
               1
 10
0.0
 20
0.0
 30
0.0
 70
               1
 75
               5
  0
VERTEX
  8
DATA
  6
CONTINUOUS
 62
               7
  5
152
 10
101.99999999999999
 20
125.39999999980333
 30
0.0
  0
VERTEX
  8
DATA
  6
CONTINUOUS
 62
               7
  5
153
 10
97.539969170510133
 20
122.82499999980334
 30
0.0
  0
VERTEX
  8
DATA
  6
CONTINUOUS
 62
               7
  5
154
 10
97.539969170510119
 20
117.67499999980333
 30
0.0
  0
VERTEX
  8
DATA
  6
CONTINUOUS
 62
               7
  5
155
 10
101.99999999999999
 20
115.09999999980334
 30
0.0
  0
VERTEX
  8
DATA
  6
CONTINUOUS
 62
               7
  5
156
 10
106.46003082948984
 20
117.67499999980333
 30
0.0
  0
VERTEX
  8
DATA
  6
CONTINUOUS
 62
               7
  5
157
 10
106.46003082948985
 20
122.82499999980334
 30
0.0
  0
SEQEND
  8
DATA
  6
CONTINUOUS
 62
               7
  5
158
  0
LINE
  8
DATA
  6
CONTINUOUS
 62
               7
  5
15A
 10
105.94999999999999
 20
63.75
 30
0.0
 11
98.049999999999983
 21
63.75
 31
0.0
  0
LINE
  8
DATA
  6
CONTINUOUS
 62
               7
  5
15B
 10
98.049999999999983
 20
63.75
 30
0.0
 11
98.049999999999983
 21
58.75
 31
0.0
  0
LINE
  8
DATA
  6
CONTINUOUS
 62
               7
  5
15C
 10
105.94999999999999
 20
63.75
 30
0.0
 11
105.94999999999999
 21
58.75
 31
0.0
  0
LINE
  8
DATA
  6
CONTINUOUS
 62
               7
  5
15D
 10
107.49999999999999
 20
58.75
 30
0.0
 11
107.49999999999999
 21
56.75
 31
0.0
  0
LINE
  8
DATA
  6
CONTINUOUS
 62
               7
  5
15E
 10
96.499999999999986
 20
56.75
 30
0.0
 11
96.499999999999986
 21
58.75
 31
0.0
  0
LINE
  8
DATA
  6
CONTINUOUS
 62
               7
  5
15F
 10
96.499999999999986
 20
58.75
 30
0.0
 11
107.49999999999999
 21
58.75
 31
0.0
  0
LINE
  8
DATA
  6
CONTINUOUS
 62
               7
  5
160
 10
98.049999999999983
 20
58.75
 30
0.0
 11
105.94999999999999
 21
59.630290837053508
 31
0.0
  0
LINE
  8
DATA
  6
CONTINUOUS
 62
               7
  5
161
 10
98.049999999999983
 20
60.25
 30
0.0
 11
105.94999999999999
 21
61.130290837053508
 31
0.0
  0
LINE
  8
DATA
  6
CONTINUOUS
 62
               7
  5
162
 10
98.049999999999983
 20
61.75
 30
0.0
 11
105.94999999999999
 21
62.630290837053508
 31
0.0
  0
LINE
  8
DATA
  6
CONTINUOUS
 62
               7
  5
163
 10
98.049999999999983
 20
63.25
 30
0.0
 11
102.53715337447036
 21
63.75
 31
0.0
  0
POLYLINE
  8
DATA
  6
CONTINUOUS
 62
               7
  5
164
 66
               1
 10
0.0
 20
0.0
 30
0.0
 70
               1
 75
               5
  0
VERTEX
  8
DATA
  6
CONTINUOUS
 62
               7
  5
165
 10
74.035728336184931
 20
123.74999999980332
 30
0.0
  0
VERTEX
  8
DATA
  6
CONTINUOUS
 62
               7
  5
166
 10
79.535728336184931
 20
123.74999999980332
 30
0.0
  0
VERTEX
  8
DATA
  6
CONTINUOUS
 62
               7
  5
167
 10
79.535728336184931
 20
120.74999999980332
 30
0.0
  0
VERTEX
  8
DATA
  6
CONTINUOUS
 62
               7
  5
168
 10
74.035728336184931
 20
120.74999999980332
 30
0.0
  0
SEQEND
  8
DATA
  6
CONTINUOUS
 62
               7
  5
169
  0
LINE
  8
DATA
  6
CONTINUOUS
 62
               7
  5
16B
 10
72.199999999999989
 20
126.04999999980332
 30
0.0
 11
81.799999999999983
 21
126.04999999980332
 31
0.0
  0
LINE
  8
DATA
  6
CONTINUOUS
 62
               7
  5
16C
 10
72.199999999999989
 20
119.74999999980331
 30
0.0
 11
72.199999999999989
 21
126.04999999980332
 31
0.0
  0
LINE
  8
DATA
  6
CONTINUOUS
 62
               7
  5
16D
 10
81.799999999999983
 20
126.04999999980332
 30
0.0
 11
81.799999999999983
 21
119.74999999980331
 31
0.0
  0
LINE
  8
DATA
  6
CONTINUOUS
 62
               7
  5
16E
 10
80.299999999999997
 20
118.24999999980332
 30
0.0
 11
73.699999999999974
 21
118.24999999980332
 31
0.0
  0
LINE
  8
DATA
  6
CONTINUOUS
 62
               7
  5
16F
 10
73.699999999999974
 20
118.24999999980332
 30
0.0
 11
72.199999999999974
 21
119.74999999980332
 31
0.0
  0
LINE
  8
DATA
  6
CONTINUOUS
 62
               7
  5
170
 10
80.299999999999997
 20
118.24999999980332
 30
0.0
 11
81.799999999999997
 21
119.74999999980332
 31
0.0
  0
TEXT
  8
DATA
 62
               7
  5
171
 10
106.19112197213146
 20
134.4176802694756
 30
0.0
 40
2.7147352430555558
  1
5V DC
 50
180.0
  7
_______
 11
106.19112197213146
 21
131.20905613753115
 31
0.0
 73
               3
  0
TEXT
  8
DATA
 62
               7
  5
172
 10
-37.528107673020216
 20
134.48977164765745
 30
0.0
 40
2.7147352430555558
  1
HDMI Out
 50
180.0
  7
_______
 11
-37.528107673020216
 21
131.281147515713
 31
0.0
 73
               3
  0
TEXT
  8
DATA
 62
               7
  5
173
 10
79.670651206329751
 20
134.4176802694756
 30
0.0
 40
2.7147352430555558
  1
USB
 50
180.0
  7
_______
 11
79.670651206329751
 21
131.20905613753115
 31
0.0
 73
               3
  0
TEXT
  8
DATA
 62
               7
  5
174
 10
52.30667661531055
 20
134.4176802694756
 30
0.0
 40
2.7147352430555558
  1
L
 50
180.0
  7
_______
 11
52.30667661531055
 21
131.20905613753115
 31
0.0
 73
               3
  0
TEXT
  8
DATA
 62
               7
  5
175
 10
38.371307836938271
 20
134.4176802694756
 30
0.0
 40
2.7147352430555558
  1
R
 50
180.0
  7
_______
 11
38.371307836938271
 21
131.20905613753115
 31
0.0
 73
               3
  0
TEXT
  8
DATA
 62
               7
  5
176
 10
7.0208512313559766
 20
134.48977164765745
 30
0.0
 40
2.7147352430555558
  1
In
 50
180.0
  7
_______
 11
7.0208512313559766
 21
131.281147515713
 31
0.0
 73
               3
  0
TEXT
  8
DATA
 62
               7
  5
177
 10
-17.088786836573007
 20
134.48977164765745
 30
0.0
 40
2.7147352430555558
  1
Out
 50
180.0
  7
_______
 11
-17.088786836573007
 21
131.281147515713
 31
0.0
 73
               3
  0
TEXT
  8
DATA
 62
               7
  5
178
 10
-3.142322669427827
 20
111.95543428638277
 30
0.0
 40
2.7147352430555558
  1
3GSDI
 50
180.0
  7
_______
 11
-3.142322669427827
 21
108.74681015443832
 31
0.0
 73
               3
  0
LINE
  8
DATA
  6
CONTINUOUS
 62
               7
  5
179
 10
-75.000000000000014
 20
275.50000000015444
 30
0.0
 11
-75.000000000000014
 21
187.50000000015442
 31
0.0
  0
LINE
  8
DATA
  6
CONTINUOUS
 62
               7
  5
17A
 10
116.99999999999999
 20
275.50000000015444
 30
0.0
 11
-75.000000000000014
 21
275.50000000015444
 31
0.0
  0
LINE
  8
DATA
  6
CONTINUOUS
 62
               7
  5
17B
 10
116.99999999999999
 20
275.50000000015444
 30
0.0
 11
116.99999999999999
 21
187.50000000015442
 31
0.0
  0
LINE
  8
DATA
  6
CONTINUOUS
 62
               7
  5
17C
 10
-75.000000000000014
 20
187.50000000015442
 30
0.0
 11
116.99999999999999
 21
187.50000000015442
 31
0.0
  0
ARC
  8
DATA
  6
CONTINUOUS
 62
               7
  5
17D
 10
-55.000000000000014
 20
275.50000000015444
 30
0.0
 40
1.5
 50
0.0
 51
180.0
  0
ARC
  8
DATA
  6
CONTINUOUS
 62
               7
  5
17E
 10
-10.000000000000014
 20
275.50000000015444
 30
0.0
 40
1.5
 50
0.0
 51
180.0
  0
ARC
  8
DATA
  6
CONTINUOUS
 62
               7
  5
17F
 10
101.49999999999999
 20
275.50000000015444
 30
0.0
 40
1.5
 50
0.0
 51
180.0
  0
LINE
  8
DATA
  6
CONTINUOUS
 62
               7
  5
180
 10
101.99999999999999
 20
187.50000000015442
 30
0.0
 11
101.99999999999999
 21
185.50000000015442
 31
0.0
  0
LINE
  8
DATA
  6
CONTINUOUS
 62
               7
  5
181
 10
-28.122746147275748
 20
182.49932721185698
 30
0.0
 11
-11.958034088651871
 21
182.49932721185698
 31
0.0
  0
LINE
  8
DATA
  6
CONTINUOUS
 62
               7
  5
182
 10
-28.122746147275748
 20
182.49932721185698
 30
0.0
 11
-28.122746147275748
 21
187.49932721185698
 31
0.0
  0
LINE
  8
DATA
  6
CONTINUOUS
 62
               7
  5
183
 10
-11.958034088651871
 20
182.49932721185698
 30
0.0
 11
-11.958034088651871
 21
187.49932721185698
 31
0.0
  0
LINE
  8
DATA
  6
CONTINUOUS
 62
               7
  5
184
 10
-24.789457989790733
 20
170.50000000015442
 30
0.0
 11
-24.789457989790733
 21
182.49932721185698
 31
0.0
  0
LINE
  8
DATA
  6
CONTINUOUS
 62
               7
  5
185
 10
-15.29039011796381
 20
170.50000000015442
 30
0.0
 11
-15.29039011796381
 21
182.49932721185698
 31
0.0
  0
POLYLINE
  8
DATA
  6
CONTINUOUS
 62
               7
  5
186
 66
               1
 10
0.0
 20
0.0
 30
0.0
 75
               5
  0
VERTEX
  8
DATA
  6
CONTINUOUS
 62
               7
  5
187
 10
-24.789457989790733
 20
175.13603869093308
 30
0.0
  0
VERTEX
  8
DATA
  6
CONTINUOUS
 62
               7
  5
188
 10
-25.640390117963804
 20
175.13603869093308
 30
0.0
  0
VERTEX
  8
DATA
  6
CONTINUOUS
 62
               7
  5
189
 10
-25.640390117963804
 20
173.93603869093309
 30
0.0
  0
VERTEX
  8
DATA
  6
CONTINUOUS
 62
               7
  5
18A
 10
-24.789457989790733
 20
173.93603869093309
 30
0.0
  0
SEQEND
  8
DATA
  6
CONTINUOUS
 62
               7
  5
18B
  0
POLYLINE
  8
DATA
  6
CONTINUOUS
 62
               7
  5
18D
 66
               1
 10
0.0
 20
0.0
 30
0.0
 75
               5
  0
VERTEX
  8
DATA
  6
CONTINUOUS
 62
               7
  5
18E
 10
-15.29039011796381
 20
173.93603869093309
 30
0.0
  0
VERTEX
  8
DATA
  6
CONTINUOUS
 62
               7
  5
18F
 10
-14.440390117963815
 20
173.93603869093309
 30
0.0
  0
VERTEX
  8
DATA
  6
CONTINUOUS
 62
               7
  5
190
 10
-14.440390117963815
 20
175.13603869093308
 30
0.0
  0
VERTEX
  8
DATA
  6
CONTINUOUS
 62
               7
  5
191
 10
-15.29039011796381
 20
175.13603869093308
 30
0.0
  0
SEQEND
  8
DATA
  6
CONTINUOUS
 62
               7
  5
192
  0
LINE
  8
DATA
  6
CONTINUOUS
 62
               7
  5
194
 10
-15.29039011796381
 20
170.50000000015442
 30
0.0
 11
-24.789457989790733
 21
170.50000000015442
 31
0.0
  0
LINE
  8
DATA
  6
CONTINUOUS
 62
               7
  5
195
 10
-3.1211399935370565
 20
182.49932721185698
 30
0.0
 11
13.043572065086821
 21
182.49932721185698
 31
0.0
  0
LINE
  8
DATA
  6
CONTINUOUS
 62
               7
  5
196
 10
-3.1211399935370565
 20
182.49932721185698
 30
0.0
 11
-3.1211399935370565
 21
187.49932721185698
 31
0.0
  0
LINE
  8
DATA
  6
CONTINUOUS
 62
               7
  5
197
 10
13.043572065086821
 20
182.49932721185698
 30
0.0
 11
13.043572065086821
 21
187.49932721185698
 31
0.0
  0
LINE
  8
DATA
  6
CONTINUOUS
 62
               7
  5
198
 10
0.2121481639479583
 20
170.50000000015442
 30
0.0
 11
0.2121481639479583
 21
182.49932721185698
 31
0.0
  0
LINE
  8
DATA
  6
CONTINUOUS
 62
               7
  5
199
 10
9.711216035774882
 20
170.50000000015442
 30
0.0
 11
9.711216035774882
 21
182.49932721185698
 31
0.0
  0
POLYLINE
  8
DATA
  6
CONTINUOUS
 62
               7
  5
19A
 66
               1
 10
0.0
 20
0.0
 30
0.0
 75
               5
  0
VERTEX
  8
DATA
  6
CONTINUOUS
 62
               7
  5
19B
 10
0.2121481639479583
 20
175.13603869093308
 30
0.0
  0
VERTEX
  8
DATA
  6
CONTINUOUS
 62
               7
  5
19C
 10
-0.6387839642251123
 20
175.13603869093308
 30
0.0
  0
VERTEX
  8
DATA
  6
CONTINUOUS
 62
               7
  5
19D
 10
-0.6387839642251123
 20
173.93603869093309
 30
0.0
  0
VERTEX
  8
DATA
  6
CONTINUOUS
 62
               7
  5
19E
 10
0.2121481639479583
 20
173.93603869093309
 30
0.0
  0
SEQEND
  8
DATA
  6
CONTINUOUS
 62
               7
  5
19F
  0
POLYLINE
  8
DATA
  6
CONTINUOUS
 62
               7
  5
1A1
 66
               1
 10
0.0
 20
0.0
 30
0.0
 75
               5
  0
VERTEX
  8
DATA
  6
CONTINUOUS
 62
               7
  5
1A2
 10
9.711216035774882
 20
173.93603869093309
 30
0.0
  0
VERTEX
  8
DATA
  6
CONTINUOUS
 62
               7
  5
1A3
 10
10.561216035774876
 20
173.93603869093309
 30
0.0
  0
VERTEX
  8
DATA
  6
CONTINUOUS
 62
               7
  5
1A4
 10
10.561216035774876
 20
175.13603869093308
 30
0.0
  0
VERTEX
  8
DATA
  6
CONTINUOUS
 62
               7
  5
1A5
 10
9.711216035774882
 20
175.13603869093308
 30
0.0
  0
SEQEND
  8
DATA
  6
CONTINUOUS
 62
               7
  5
1A6
  0
LINE
  8
DATA
  6
CONTINUOUS
 62
               7
  5
1A8
 10
9.711216035774882
 20
170.50000000015442
 30
0.0
 11
0.2121481639479583
 21
170.50000000015442
 31
0.0
  0
LINE
  8
DATA
  6
CONTINUOUS
 62
               7
  5
1A9
 10
-46.374118639489794
 20
182.50000000015442
 30
0.0
 11
-46.374118639489794
 21
187.50000000015442
 31
0.0
  0
LINE
  8
DATA
  6
CONTINUOUS
 62
               7
  5
1AA
 10
-41.374118639489794
 20
182.50000000015442
 30
0.0
 11
-41.374118639489794
 21
187.50000000015442
 31
0.0
  0
LINE
  8
DATA
  6
CONTINUOUS
 62
               7
  5
1AB
 10
-46.374118639489794
 20
182.50000000015442
 30
0.0
 11
-41.374118639489794
 21
182.50000000015442
 31
0.0
  0
LINE
  8
DATA
  6
CONTINUOUS
 62
               7
  5
1AC
 10
-43.874118639489794
 20
182.50000000015442
 30
0.0
 11
-43.874118639489794
 21
187.50000000015442
 31
0.0
  0
LINE
  8
DATA
  6
CONTINUOUS
 62
               7
  5
1AD
 10
32.84999999999998
 20
181.50000000015442
 30
0.0
 11
41.149999999999991
 21
181.50000000015442
 31
0.0
  0
LINE
  8
DATA
  6
CONTINUOUS
 62
               7
  5
1AE
 10
46.84999999999998
 20
181.50000000015442
 30
0.0
 11
55.149999999999991
 21
181.50000000015442
 31
0.0
  0
LINE
  8
DATA
  6
CONTINUOUS
 62
               7
  5
1AF
 10
32.84999999999998
 20
181.50000000015442
 30
0.0
 11
32.84999999999998
 21
187.50000000015442
 31
0.0
  0
LINE
  8
DATA
  6
CONTINUOUS
 62
               7
  5
1B0
 10
41.149999999999991
 20
181.50000000015442
 30
0.0
 11
41.149999999999991
 21
187.50000000015442
 31
0.0
  0
LINE
  8
DATA
  6
CONTINUOUS
 62
               7
  5
1B1
 10
46.84999999999998
 20
181.50000000015442
 30
0.0
 11
46.84999999999998
 21
187.50000000015442
 31
0.0
  0
LINE
  8
DATA
  6
CONTINUOUS
 62
               7
  5
1B2
 10
55.149999999999991
 20
181.50000000015442
 30
0.0
 11
55.149999999999991
 21
187.50000000015442
 31
0.0
  0
LINE
  8
DATA
  6
CONTINUOUS
 62
               7
  5
1B3
 10
105.94999999999999
 20
180.50000000015442
 30
0.0
 11
98.049999999999983
 21
180.50000000015442
 31
0.0
  0
LINE
  8
DATA
  6
CONTINUOUS
 62
               7
  5
1B4
 10
98.049999999999983
 20
180.50000000015442
 30
0.0
 11
98.049999999999983
 21
185.50000000015442
 31
0.0
  0
LINE
  8
DATA
  6
CONTINUOUS
 62
               7
  5
1B5
 10
105.94999999999999
 20
180.50000000015442
 30
0.0
 11
105.94999999999999
 21
185.50000000015442
 31
0.0
  0
LINE
  8
DATA
  6
CONTINUOUS
 62
               7
  5
1B6
 10
107.49999999999999
 20
185.50000000015442
 30
0.0
 11
107.49999999999999
 21
187.50000000015442
 31
0.0
  0
LINE
  8
DATA
  6
CONTINUOUS
 62
               7
  5
1B7
 10
96.499999999999986
 20
187.50000000015442
 30
0.0
 11
96.499999999999986
 21
185.50000000015442
 31
0.0
  0
LINE
  8
DATA
  6
CONTINUOUS
 62
               7
  5
1B8
 10
96.499999999999986
 20
185.50000000015442
 30
0.0
 11
107.49999999999999
 21
185.50000000015442
 31
0.0
  0
LINE
  8
DATA
  6
CONTINUOUS
 62
               7
  5
1B9
 10
98.049999999999983
 20
185.50000000015442
 30
0.0
 11
105.94999999999999
 21
184.61970916310091
 31
0.0
  0
LINE
  8
DATA
  6
CONTINUOUS
 62
               7
  5
1BA
 10
98.049999999999983
 20
184.00000000015442
 30
0.0
 11
105.94999999999999
 21
183.11970916310091
 31
0.0
  0
LINE
  8
DATA
  6
CONTINUOUS
 62
               7
  5
1BB
 10
98.049999999999983
 20
182.50000000015442
 30
0.0
 11
105.94999999999999
 21
181.61970916310091
 31
0.0
  0
LINE
  8
DATA
  6
CONTINUOUS
 62
               7
  5
1BC
 10
98.049999999999983
 20
181.00000000015442
 30
0.0
 11
102.53715337447036
 21
180.50000000015442
 31
0.0
  0
LINE
  8
DATA
  6
CONTINUOUS
 62
               7
  5
1BD
 10
-75.000000000000014
 20
199.50000000015442
 30
0.0
 11
116.99999999999999
 21
199.50000000015442
 31
0.0
  0
CIRCLE
  8
DATA
  6
CONTINUOUS
 62
               7
  5
1BE
 10
-64.000000000000014
 20
207.50000000015442
 30
0.0
 40
6.0
  0
CIRCLE
  8
DATA
  6
CONTINUOUS
 62
               7
  5
1BF
 10
-64.000000000000014
 20
207.50000000015442
 30
0.0
 40
5.5
  0
CIRCLE
  8
DATA
  6
CONTINUOUS
 62
               7
  5
1C0
 10
105.99999999999999
 20
207.50000000015442
 30
0.0
 40
6.0
  0
CIRCLE
  8
DATA
  6
CONTINUOUS
 62
               7
  5
1C1
 10
105.99999999999999
 20
207.50000000015442
 30
0.0
 40
5.5
  0
CIRCLE
  8
DATA
  6
CONTINUOUS
 62
               7
  5
1C2
 10
105.99999999999999
 20
264.50000000015439
 30
0.0
 40
6.0
  0
CIRCLE
  8
DATA
  6
CONTINUOUS
 62
               7
  5
1C3
 10
105.99999999999999
 20
264.50000000015439
 30
0.0
 40
5.5
  0
CIRCLE
  8
DATA
  6
CONTINUOUS
 62
               7
  5
1C4
 10
-64.000000000000014
 20
264.50000000015439
 30
0.0
 40
6.0
  0
CIRCLE
  8
DATA
  6
CONTINUOUS
 62
               7
  5
1C5
 10
-64.000000000000014
 20
264.50000000015439
 30
0.0
 40
5.5
  0
CIRCLE
  8
DATA
  6
CONTINUOUS
 62
               7
  5
1C6
 10
-55.000000000000014
 20
194.50000000015442
 30
0.0
 40
2.5
  0
LINE
  8
DATA
  6
CONTINUOUS
 62
               7
  5
1C7
 10
-55.000000000000014
 20
193.25000000015442
 30
0.0
 11
-55.000000000000014
 21
195.75000000015442
 31
0.0
  0
LINE
  8
DATA
  6
CONTINUOUS
 62
               7
  5
1C8
 10
-53.750000000000014
 20
194.50000000015442
 30
0.0
 11
-56.250000000000014
 21
194.50000000015442
 31
0.0
  0
CIRCLE
  8
DATA
  6
CONTINUOUS
 62
               7
  5
1C9
 10
96.999999999999986
 20
194.50000000015442
 30
0.0
 40
2.5
  0
LINE
  8
DATA
  6
CONTINUOUS
 62
               7
  5
1CA
 10
96.999999999999986
 20
193.25000000015442
 30
0.0
 11
96.999999999999986
 21
195.75000000015442
 31
0.0
  0
LINE
  8
DATA
  6
CONTINUOUS
 62
               7
  5
1CB
 10
98.249999999999986
 20
194.50000000015442
 30
0.0
 11
95.749999999999986
 21
194.50000000015442
 31
0.0
  0
CIRCLE
  8
DATA
  6
CONTINUOUS
 62
               7
  5
1CC
 10
20.999999999999986
 20
194.50000000015442
 30
0.0
 40
2.5
  0
LINE
  8
DATA
  6
CONTINUOUS
 62
               7
  5
1CD
 10
20.999999999999986
 20
193.25000000015442
 30
0.0
 11
20.999999999999986
 21
195.75000000015442
 31
0.0
  0
LINE
  8
DATA
  6
CONTINUOUS
 62
               7
  5
1CE
 10
22.249999999999986
 20
194.50000000015442
 30
0.0
 11
19.749999999999986
 21
194.50000000015442
 31
0.0
  0
LINE
  8
DATA
  6
CONTINUOUS
 62
               7
  5
1CF
 10
-73.40000000000002
 20
199.50000000015442
 30
0.0
 11
-73.40000000000002
 21
268.00000000015444
 31
0.0
  0
LINE
  8
DATA
  6
CONTINUOUS
 62
               7
  5
1D0
 10
115.39999999999999
 20
199.50000000015442
 30
0.0
 11
115.39999999999999
 21
268.00000000015444
 31
0.0
  0
LINE
  8
DATA
  6
CONTINUOUS
 62
               7
  5
1D1
 10
-73.40000000000002
 20
268.00000000015444
 30
0.0
 11
-75.000000000000014
 21
268.00000000015444
 31
0.0
  0
LINE
  8
DATA
  6
CONTINUOUS
 62
               7
  5
1D2
 10
115.39999999999999
 20
268.00000000015444
 30
0.0
 11
116.99999999999999
 21
268.00000000015444
 31
0.0
  0
LINE
  8
DATA
  6
CONTINUOUS
 62
               7
  5
1D3
 10
34.999999999999986
 20
262.44473980786438
 30
0.0
 11
34.999999999999986
 21
212.44473980786438
 31
0.0
  0
LINE
  8
DATA
  6
CONTINUOUS
 62
               7
  5
1D4
 10
41.549999999999983
 20
262.44473980786438
 30
0.0
 11
41.549999999999983
 21
212.44473980786438
 31
0.0
  0
LINE
  8
DATA
  6
CONTINUOUS
 62
               7
  5
1D5
 10
34.999999999999986
 20
262.44473980786438
 30
0.0
 11
41.549999999999983
 21
262.44473980786438
 31
0.0
  0
TEXT
  8
DATA
 62
               7
  5
1D6
 10
40.876651834376048
 20
263.15307314104325
 30
0.0
 40
4.072102864583333
  1
ON
  7
_______
 11
40.876651834376048
 21
267.96600933895991
 31
0.0
 73
               3
  0
TEXT
  8
DATA
 62
               7
  5
1D7
 10
27.224492478816103
 20
263.15307314104325
 30
0.0
 40
4.072102864583333
  1
OFF
  7
_______
 11
27.224492478816103
 21
267.96600933895991
 31
0.0
 73
               3
  0
TEXT
  8
DATA
 62
               7
  5
1D8
 10
43.75
 20
258.19087135314032
 30
0.0
 40
2.4432617187499996
  1
RGB
  7
_______
 11
43.75
 21
261.07863307189035
 31
0.0
 73
               3
  0
TEXT
  8
DATA
 62
               7
  5
1D9
 10
43.75
 20
249.37214752846342
 30
0.0
 40
2.4432617187499996
  1
444
  7
_______
 11
43.75
 21
252.25990924721341
 31
0.0
 73
               3
  0
TEXT
  8
DATA
 62
               7
  5
1DA
 10
26.021851553453871
 20
258.44619997098238
 30
0.0
 40
2.4432617187499996
  1
YCbCr
  7
_______
 11
26.021851553453871
 21
261.33396168973235
 31
0.0
 73
               3
  0
TEXT
  8
DATA
 62
               7
  5
1DB
 10
26.021851553453871
 20
249.33498866517863
 30
0.0
 40
2.4432617187499996
  1
422
  7
_______
 11
26.021851553453871
 21
252.22275038392863
 31
0.0
 73
               3
  0
TEXT
  8
DATA
 62
               7
  5
1DC
 10
43.763136808316276
 20
216.83136969218071
 30
0.0
 40
2.4432617187499996
  1
DEEP
  7
_______
 11
43.763136808316276
 21
219.71913141093069
 31
0.0
 73
               3
  0
TEXT
  8
DATA
 62
               7
  5
1DD
 10
43.763136808316276
 20
213.39065569420734
 30
0.0
 40
2.4432617187499996
  1
COLOR
  7
_______
 11
43.763136808316276
 21
216.27841741295731
 31
0.0
 73
               3
  0
LINE
  8
DATA
  6
CONTINUOUS
 62
               7
  5
1DE
 10
88.999999999999986
 20
247.50000000015444
 30
0.0
 11
88.999999999999986
 21
225.50000000015444
 31
0.0
  0
LINE
  8
DATA
  6
CONTINUOUS
 62
               7
  5
1DF
 10
82.099999999999994
 20
247.50000000015444
 30
0.0
 11
82.099999999999994
 21
225.50000000015444
 31
0.0
  0
LINE
  8
DATA
  6
CONTINUOUS
 62
               7
  5
1E0
 10
88.999999999999986
 20
247.50000000015444
 30
0.0
 11
82.099999999999994
 21
247.50000000015444
 31
0.0
  0
LINE
  8
DATA
  6
CONTINUOUS
 62
               7
  5
1E1
 10
88.999999999999986
 20
225.50000000015444
 30
0.0
 11
82.099999999999994
 21
225.50000000015444
 31
0.0
  0
POLYLINE
  8
DATA
  6
CONTINUOUS
 62
               7
  5
1E2
 66
               1
 10
0.0
 20
0.0
 30
0.0
 70
               1
 75
               5
  0
VERTEX
  8
DATA
  6
CONTINUOUS
 62
               7
  5
1E3
 10
84.399999999999991
 20
245.74366533355581
 30
0.0
  0
VERTEX
  8
DATA
  6
CONTINUOUS
 62
               7
  5
1E4
 10
86.700000000000003
 20
245.74366533355581
 30
0.0
  0
VERTEX
  8
DATA
  6
CONTINUOUS
 62
               7
  5
1E5
 10
86.700000000000003
 20
244.54366533355582
 30
0.0
  0
VERTEX
  8
DATA
  6
CONTINUOUS
 62
               7
  5
1E6
 10
84.399999999999991
 20
244.54366533355582
 30
0.0
  0
SEQEND
  8
DATA
  6
CONTINUOUS
 62
               7
  5
1E7
  0
POLYLINE
  8
DATA
  6
CONTINUOUS
 62
               7
  5
1E9
 66
               1
 10
0.0
 20
0.0
 30
0.0
 70
               1
 75
               5
  0
VERTEX
  8
DATA
  6
CONTINUOUS
 62
               7
  5
1EA
 10
84.399999999999991
 20
243.24366533355581
 30
0.0
  0
VERTEX
  8
DATA
  6
CONTINUOUS
 62
               7
  5
1EB
 10
86.700000000000003
 20
243.24366533355581
 30
0.0
  0
VERTEX
  8
DATA
  6
CONTINUOUS
 62
               7
  5
1EC
 10
86.700000000000003
 20
242.04366533355582
 30
0.0
  0
VERTEX
  8
DATA
  6
CONTINUOUS
 62
               7
  5
1ED
 10
84.399999999999991
 20
242.04366533355582
 30
0.0
  0
SEQEND
  8
DATA
  6
CONTINUOUS
 62
               7
  5
1EE
  0
POLYLINE
  8
DATA
  6
CONTINUOUS
 62
               7
  5
1F0
 66
               1
 10
0.0
 20
0.0
 30
0.0
 70
               1
 75
               5
  0
VERTEX
  8
DATA
  6
CONTINUOUS
 62
               7
  5
1F1
 10
84.399999999999991
 20
240.74366533355581
 30
0.0
  0
VERTEX
  8
DATA
  6
CONTINUOUS
 62
               7
  5
1F2
 10
86.700000000000003
 20
240.74366533355581
 30
0.0
  0
VERTEX
  8
DATA
  6
CONTINUOUS
 62
               7
  5
1F3
 10
86.700000000000003
 20
239.54366533355582
 30
0.0
  0
VERTEX
  8
DATA
  6
CONTINUOUS
 62
               7
  5
1F4
 10
84.399999999999991
 20
239.54366533355582
 30
0.0
  0
SEQEND
  8
DATA
  6
CONTINUOUS
 62
               7
  5
1F5
  0
POLYLINE
  8
DATA
  6
CONTINUOUS
 62
               7
  5
1F7
 66
               1
 10
0.0
 20
0.0
 30
0.0
 70
               1
 75
               5
  0
VERTEX
  8
DATA
  6
CONTINUOUS
 62
               7
  5
1F8
 10
84.399999999999991
 20
238.24366533355581
 30
0.0
  0
VERTEX
  8
DATA
  6
CONTINUOUS
 62
               7
  5
1F9
 10
86.700000000000003
 20
238.24366533355581
 30
0.0
  0
VERTEX
  8
DATA
  6
CONTINUOUS
 62
               7
  5
1FA
 10
86.700000000000003
 20
237.04366533355582
 30
0.0
  0
VERTEX
  8
DATA
  6
CONTINUOUS
 62
               7
  5
1FB
 10
84.399999999999991
 20
237.04366533355582
 30
0.0
  0
SEQEND
  8
DATA
  6
CONTINUOUS
 62
               7
  5
1FC
  0
POLYLINE
  8
DATA
  6
CONTINUOUS
 62
               7
  5
1FE
 66
               1
 10
0.0
 20
0.0
 30
0.0
 70
               1
 75
               5
  0
VERTEX
  8
DATA
  6
CONTINUOUS
 62
               7
  5
1FF
 10
84.399999999999991
 20
235.74366533355581
 30
0.0
  0
VERTEX
  8
DATA
  6
CONTINUOUS
 62
               7
  5
200
 10
86.700000000000003
 20
235.74366533355581
 30
0.0
  0
VERTEX
  8
DATA
  6
CONTINUOUS
 62
               7
  5
201
 10
86.700000000000003
 20
234.54366533355582
 30
0.0
  0
VERTEX
  8
DATA
  6
CONTINUOUS
 62
               7
  5
202
 10
84.399999999999991
 20
234.54366533355582
 30
0.0
  0
SEQEND
  8
DATA
  6
CONTINUOUS
 62
               7
  5
203
  0
POLYLINE
  8
DATA
  6
CONTINUOUS
 62
               7
  5
205
 66
               1
 10
0.0
 20
0.0
 30
0.0
 70
               1
 75
               5
  0
VERTEX
  8
DATA
  6
CONTINUOUS
 62
               7
  5
206
 10
84.399999999999991
 20
233.24366533355581
 30
0.0
  0
VERTEX
  8
DATA
  6
CONTINUOUS
 62
               7
  5
207
 10
86.700000000000003
 20
233.24366533355581
 30
0.0
  0
VERTEX
  8
DATA
  6
CONTINUOUS
 62
               7
  5
208
 10
86.700000000000003
 20
232.04366533355582
 30
0.0
  0
VERTEX
  8
DATA
  6
CONTINUOUS
 62
               7
  5
209
 10
84.399999999999991
 20
232.04366533355582
 30
0.0
  0
SEQEND
  8
DATA
  6
CONTINUOUS
 62
               7
  5
20A
  0
POLYLINE
  8
DATA
  6
CONTINUOUS
 62
               7
  5
20C
 66
               1
 10
0.0
 20
0.0
 30
0.0
 70
               1
 75
               5
  0
VERTEX
  8
DATA
  6
CONTINUOUS
 62
               7
  5
20D
 10
84.399999999999991
 20
230.74366533355581
 30
0.0
  0
VERTEX
  8
DATA
  6
CONTINUOUS
 62
               7
  5
20E
 10
86.700000000000003
 20
230.74366533355581
 30
0.0
  0
VERTEX
  8
DATA
  6
CONTINUOUS
 62
               7
  5
20F
 10
86.700000000000003
 20
229.54366533355582
 30
0.0
  0
VERTEX
  8
DATA
  6
CONTINUOUS
 62
               7
  5
210
 10
84.399999999999991
 20
229.54366533355582
 30
0.0
  0
SEQEND
  8
DATA
  6
CONTINUOUS
 62
               7
  5
211
  0
POLYLINE
  8
DATA
  6
CONTINUOUS
 62
               7
  5
213
 66
               1
 10
0.0
 20
0.0
 30
0.0
 70
               1
 75
               5
  0
VERTEX
  8
DATA
  6
CONTINUOUS
 62
               7
  5
214
 10
84.399999999999991
 20
228.24366533355581
 30
0.0
  0
VERTEX
  8
DATA
  6
CONTINUOUS
 62
               7
  5
215
 10
86.700000000000003
 20
228.24366533355581
 30
0.0
  0
VERTEX
  8
DATA
  6
CONTINUOUS
 62
               7
  5
216
 10
86.700000000000003
 20
227.04366533355582
 30
0.0
  0
VERTEX
  8
DATA
  6
CONTINUOUS
 62
               7
  5
217
 10
84.399999999999991
 20
227.04366533355582
 30
0.0
  0
SEQEND
  8
DATA
  6
CONTINUOUS
 62
               7
  5
218
  0
TEXT
  8
DATA
 62
               7
  5
21A
 10
86.944718583172801
 20
246.07585264188771
 30
0.0
 40
0.8144205729166666
  1
ON
 50
270.0
  7
_______
 11
87.907305822756129
 21
246.07585264188771
 31
0.0
 73
               3
  0
TEXT
  8
DATA
 62
               7
  5
21B
 10
82.838077450578197
 20
245.44238712649184
 30
0.0
 40
0.8144205729166666
  1
1
 50
270.0
  7
_______
 11
83.80066469016154
 21
245.44238712649184
 31
0.0
 73
               3
  0
TEXT
  8
DATA
 62
               7
  5
21C
 10
82.838077450578197
 20
242.94238712649184
 30
0.0
 40
0.8144205729166666
  1
2
 50
270.0
  7
_______
 11
83.80066469016154
 21
242.94238712649184
 31
0.0
 73
               3
  0
TEXT
  8
DATA
 62
               7
  5
21D
 10
82.838077450578197
 20
240.44238712649184
 30
0.0
 40
0.8144205729166666
  1
3
 50
270.0
  7
_______
 11
83.80066469016154
 21
240.44238712649184
 31
0.0
 73
               3
  0
TEXT
  8
DATA
 62
               7
  5
21E
 10
82.838077450578197
 20
237.94238712649184
 30
0.0
 40
0.8144205729166666
  1
4
 50
270.0
  7
_______
 11
83.80066469016154
 21
237.94238712649184
 31
0.0
 73
               3
  0
TEXT
  8
DATA
 62
               7
  5
21F
 10
82.838077450578197
 20
235.44238712649184
 30
0.0
 40
0.8144205729166666
  1
5
 50
270.0
  7
_______
 11
83.80066469016154
 21
235.44238712649184
 31
0.0
 73
               3
  0
TEXT
  8
DATA
 62
               7
  5
220
 10
82.838077450578197
 20
232.94238712649184
 30
0.0
 40
0.8144205729166666
  1
6
 50
270.0
  7
_______
 11
83.80066469016154
 21
232.94238712649184
 31
0.0
 73
               3
  0
TEXT
  8
DATA
 62
               7
  5
221
 10
82.838077450578197
 20
230.44238712649184
 30
0.0
 40
0.8144205729166666
  1
7
 50
270.0
  7
_______
 11
83.80066469016154
 21
230.44238712649184
 31
0.0
 73
               3
  0
TEXT
  8
DATA
 62
               7
  5
222
 10
82.838077450578197
 20
227.94238712649184
 30
0.0
 40
0.8144205729166666
  1
8
 50
270.0
  7
_______
 11
83.80066469016154
 21
227.94238712649184
 31
0.0
 73
               3
  0
LINE
  8
DATA
  6
CONTINUOUS
 62
               7
  5
223
 10
201.21801225173246
 20
-96.75
 30
0.0
 11
201.85784508387272
 21
-93.75
 31
0.0
  0
LINE
  8
DATA
  6
CONTINUOUS
 62
               7
  5
224
 10
190.49767791601298
 20
-96.75
 30
0.0
 11
189.85784508387272
 21
-93.75
 31
0.0
  0
LINE
  8
DATA
  6
CONTINUOUS
 62
               7
  5
225
 10
201.21801225173246
 20
-96.75
 30
0.0
 11
190.49767791601298
 21
-96.75
 31
0.0
  0
LINE
  8
DATA
  6
CONTINUOUS
 62
               7
  5
226
 10
261.55686878741653
 20
-96.75
 30
0.0
 11
262.19670161955679
 21
-93.75
 31
0.0
  0
LINE
  8
DATA
  6
CONTINUOUS
 62
               7
  5
227
 10
250.83653445169676
 20
-96.75
 30
0.0
 11
250.19670161955651
 21
-93.75
 31
0.0
  0
LINE
  8
DATA
  6
CONTINUOUS
 62
               7
  5
228
 10
261.55686878741653
 20
-96.75
 30
0.0
 11
250.83653445169676
 21
-96.75
 31
0.0
  0
LINE
  8
DATA
  6
CONTINUOUS
 62
               7
  5
229
 10
189.30000000000001
 20
-93.75
 30
0.0
 11
273.69999999999999
 21
-93.75
 31
0.0
  0
LINE
  8
DATA
  6
CONTINUOUS
 62
               7
  5
22A
 10
189.30000000000001
 20
-62.75
 30
0.0
 11
273.69999999999999
 21
-62.75
 31
0.0
  0
LINE
  8
DATA
  6
CONTINUOUS
 62
               7
  5
22B
 10
187.5
 20
-91.949999999999989
 30
0.0
 11
187.5
 21
-64.550000000000011
 31
0.0
  0
LINE
  8
DATA
  6
CONTINUOUS
 62
               7
  5
22C
 10
275.5
 20
-91.949999999999989
 30
0.0
 11
275.5
 21
-64.550000000000011
 31
0.0
  0
LINE
  8
DATA
  6
CONTINUOUS
 62
               7
  5
22D
 10
189.0
 20
-90.649999999999977
 30
0.0
 11
189.0
 21
-65.850000000000023
 31
0.0
  0
LINE
  8
DATA
  6
CONTINUOUS
 62
               7
  5
22E
 10
190.80000000000001
 20
-64.050000000000011
 30
0.0
 11
196.30000000000001
 21
-64.050000000000011
 31
0.0
  0
LINE
  8
DATA
  6
CONTINUOUS
 62
               7
  5
22F
 10
190.80000000000001
 20
-92.449999999999989
 30
0.0
 11
194.5
 21
-92.449999999999989
 31
0.0
  0
LINE
  8
DATA
  6
CONTINUOUS
 62
               7
  5
230
 10
196.30000000000001
 20
-62.75
 30
0.0
 11
196.30000000000001
 21
-64.050000000000011
 31
0.0
  0
LINE
  8
DATA
  6
CONTINUOUS
 62
               7
  5
231
 10
194.5
 20
-92.449999999999989
 30
0.0
 11
194.5
 21
-93.75
 31
0.0
  0
ARC
  8
DATA
  6
CONTINUOUS
 62
               7
  5
232
 10
190.80000000000001
 20
-65.850000000000023
 30
0.0
 40
1.8000000000000114
 50
90.0
 51
180.0
  0
ARC
  8
DATA
  6
CONTINUOUS
 62
               7
  5
233
 10
189.30000000000001
 20
-64.550000000000011
 30
0.0
 40
1.8000000000000114
 50
90.0
 51
180.0
  0
ARC
  8
DATA
  6
CONTINUOUS
 62
               7
  5
234
 10
190.79999999999998
 20
-90.649999999999977
 30
0.0
 40
1.7999999999999829
 50
180.0
 51
270.00000000000045
  0
ARC
  8
DATA
  6
CONTINUOUS
 62
               7
  5
235
 10
189.30000000000001
 20
-91.949999999999989
 30
0.0
 40
1.7999999999999972
 50
180.0
 51
270.0
  0
LINE
  8
DATA
  6
CONTINUOUS
 62
               7
  5
236
 10
274.19999999999999
 20
-90.649999999999977
 30
0.0
 11
274.19999999999999
 21
-64.383293455896961
 31
0.0
  0
LINE
  8
DATA
  6
CONTINUOUS
 62
               7
  5
237
 10
272.39999999999998
 20
-92.449999999999989
 30
0.0
 11
263.5
 21
-92.449999999999989
 31
0.0
  0
LINE
  8
DATA
  6
CONTINUOUS
 62
               7
  5
238
 10
263.5
 20
-92.449999999999989
 30
0.0
 11
263.5
 21
-93.75
 31
0.0
  0
ARC
  8
DATA
  6
CONTINUOUS
 62
               7
  5
239
 10
272.39999999999998
 20
-90.649999999999977
 30
0.0
 40
1.8000000000000114
 50
270.0
 51
0.0
  0
ARC
  8
DATA
  6
CONTINUOUS
 62
               7
  5
23A
 10
273.69999999999999
 20
-91.949999999999989
 30
0.0
 40
1.8000000000000114
 50
270.0
 51
0.0
  0
CIRCLE
  8
DATA
  6
CONTINUOUS
 62
               7
  5
23B
 10
201.5
 20
-69.75
 30
0.0
 40
2.5
  0
LINE
  8
DATA
  6
CONTINUOUS
 62
               7
  5
23C
 10
201.5
 20
-71.0
 30
0.0
 11
201.5
 21
-68.5
 31
0.0
  0
LINE
  8
DATA
  6
CONTINUOUS
 62
               7
  5
23D
 10
202.75
 20
-69.75
 30
0.0
 11
200.25
 21
-69.75
 31
0.0
  0
CIRCLE
  8
DATA
  6
CONTINUOUS
 62
               7
  5
23E
 10
201.5
 20
-87.75
 30
0.0
 40
2.5
  0
LINE
  8
DATA
  6
CONTINUOUS
 62
               7
  5
23F
 10
201.5
 20
-89.0
 30
0.0
 11
201.5
 21
-86.5
 31
0.0
  0
LINE
  8
DATA
  6
CONTINUOUS
 62
               7
  5
240
 10
202.75
 20
-87.75
 30
0.0
 11
200.25
 21
-87.75
 31
0.0
  0
CIRCLE
  8
DATA
  6
CONTINUOUS
 62
               7
  5
241
 10
256.5
 20
-87.75
 30
0.0
 40
2.5
  0
LINE
  8
DATA
  6
CONTINUOUS
 62
               7
  5
242
 10
256.5
 20
-89.0
 30
0.0
 11
256.5
 21
-86.5
 31
0.0
  0
LINE
  8
DATA
  6
CONTINUOUS
 62
               7
  5
243
 10
257.75
 20
-87.75
 30
0.0
 11
255.25
 21
-87.75
 31
0.0
  0
ARC
  8
DATA
  6
CONTINUOUS
 62
               7
  5
244
 10
273.69999999999999
 20
-64.550000000000011
 30
0.0
 40
1.8000000000000114
 50
0.0
 51
90.0
  0
LINE
  8
DATA
  6
CONTINUOUS
 62
               7
  5
245
 10
280.49999999984868
 20
-68.667643970688061
 30
0.0
 11
280.49999999984868
 21
-72.800000000000011
 31
0.0
  0
LINE
  8
DATA
  6
CONTINUOUS
 62
               7
  5
246
 10
280.49999999984868
 20
-80.699999999999989
 30
0.0
 11
280.49999999984868
 21
-84.832356029311939
 31
0.0
  0
LINE
  8
DATA
  6
CONTINUOUS
 62
               7
  5
247
 10
280.49999999984868
 20
-84.832356029311939
 30
0.0
 11
275.49999999984868
 21
-84.832356029311939
 31
0.0
  0
LINE
  8
DATA
  6
CONTINUOUS
 62
               7
  5
248
 10
292.49932721155125
 20
-72.000932128173076
 30
0.0
 11
280.49999999984868
 21
-72.000932128173076
 31
0.0
  0
LINE
  8
DATA
  6
CONTINUOUS
 62
               7
  5
249
 10
292.49932721155125
 20
-81.5
 30
0.0
 11
280.49999999984868
 21
-81.5
 31
0.0
  0
LINE
  8
DATA
  6
CONTINUOUS
 62
               7
  5
24A
 10
292.49932721155125
 20
-81.5
 30
0.0
 11
292.49932721155125
 21
-72.000932128173076
 31
0.0
  0
LINE
  8
DATA
  6
CONTINUOUS
 62
               7
  5
24B
 10
275.5
 20
-76.75
 30
0.0
 11
277.5
 21
-76.75
 31
0.0
  0
LINE
  8
DATA
  6
CONTINUOUS
 62
               7
  5
24C
 10
282.5
 20
-80.699999999999989
 30
0.0
 11
282.5
 21
-72.800000000000011
 31
0.0
  0
LINE
  8
DATA
  6
CONTINUOUS
 62
               7
  5
24D
 10
282.5
 20
-72.800000000000011
 30
0.0
 11
277.5
 21
-72.800000000000011
 31
0.0
  0
LINE
  8
DATA
  6
CONTINUOUS
 62
               7
  5
24E
 10
282.5
 20
-80.699999999999989
 30
0.0
 11
277.5
 21
-80.699999999999989
 31
0.0
  0
LINE
  8
DATA
  6
CONTINUOUS
 62
               7
  5
24F
 10
277.5
 20
-82.25
 30
0.0
 11
275.5
 21
-82.25
 31
0.0
  0
LINE
  8
DATA
  6
CONTINUOUS
 62
               7
  5
250
 10
275.5
 20
-71.25
 30
0.0
 11
277.5
 21
-71.25
 31
0.0
  0
LINE
  8
DATA
  6
CONTINUOUS
 62
               7
  5
251
 10
277.5
 20
-71.25
 30
0.0
 11
277.5
 21
-82.25
 31
0.0
  0
LINE
  8
DATA
  6
CONTINUOUS
 62
               7
  5
252
 10
277.5
 20
-72.800000000000011
 30
0.0
 11
278.38029083705351
 21
-80.699999999999989
 31
0.0
  0
LINE
  8
DATA
  6
CONTINUOUS
 62
               7
  5
253
 10
279.0
 20
-72.800000000000011
 30
0.0
 11
279.88029083705351
 21
-80.699999999999989
 31
0.0
  0
LINE
  8
DATA
  6
CONTINUOUS
 62
               7
  5
254
 10
280.5
 20
-72.800000000000011
 30
0.0
 11
281.38029083705351
 21
-80.699999999999989
 31
0.0
  0
LINE
  8
DATA
  6
CONTINUOUS
 62
               7
  5
255
 10
282.0
 20
-72.800000000000011
 30
0.0
 11
282.5
 21
-77.287153374470364
 31
0.0
  0
LINE
  8
DATA
  6
CONTINUOUS
 62
               7
  5
256
 10
280.49999999986926
 20
-68.25
 30
0.0
 11
275.49999999986926
 21
-68.25
 31
0.0
  0
LINE
  8
DATA
  6
CONTINUOUS
 62
               7
  5
257
 10
277.55014314894606
 20
-73.25
 30
0.0
 11
277.5
 21
-73.25
 31
0.0
  0
LINE
  8
DATA
  6
CONTINUOUS
 62
               7
  5
258
 10
280.49999999986926
 20
-68.25
 30
0.0
 11
280.49999999986926
 21
-73.25
 31
0.0
  0
LINE
  8
DATA
  6
CONTINUOUS
 62
               7
  5
259
 10
280.49999999986926
 20
-70.75
 30
0.0
 11
275.49999999986926
 21
-70.75
 31
0.0
  0
ARC
  8
DATA
  6
CONTINUOUS
 62
               7
  5
25A
 10
187.5
 20
-79.75
 30
0.0
 40
1.5
 50
90.0
 51
270.0
  0
LINE
  8
DATA
  6
CONTINUOUS
 62
               7
  5
25B
 10
-24.71716290696753
 20
73.75
 30
0.0
 11
-24.71716290696753
 21
61.750672788297436
 31
0.0
  0
LINE
  8
DATA
  6
CONTINUOUS
 62
               7
  5
25C
 10
34.999999999999986
 20
212.5
 30
0.0
 11
41.549999999999983
 21
212.5
 31
0.0
  0
TEXT
  8
DATA
 62
               7
  5
25D
 10
43.548257050972481
 20
240.4730190029772
 30
0.0
 40
2.4432617187499996
  1
12
  7
_______
 11
43.548257050972481
 21
243.36078072172717
 31
0.0
 73
               3
  0
TEXT
  8
DATA
 62
               7
  5
25E
 10
43.75
 20
222.38781992677167
 30
0.0
 40
2.4432617187499996
  1
422
  7
_______
 11
43.75
 21
225.2755816455217
 31
0.0
 73
               3
  0
TEXT
  8
DATA
 62
               7
  5
25F
 10
43.753199345131861
 20
231.38732977671481
 30
0.0
 40
2.4432617187499996
  1
YCbCr
  7
_______
 11
43.753199345131861
 21
234.27509149546484
 31
0.0
 73
               3
  0
TEXT
  8
DATA
 62
               7
  5
260
 10
26.021851553453871
 20
240.33498866517863
 30
0.0
 40
2.4432617187499996
  1
8/10
  7
_______
 11
26.021851553453871
 21
243.22275038392863
 31
0.0
 73
               3
  0
TEXT
  8
DATA
 62
               7
  5
261
 10
26.021851553453871
 20
222.66407327684823
 30
0.0
 40
2.4432617187499996
  1
444
  7
_______
 11
26.021851553453871
 21
225.55183499559823
 31
0.0
 73
               3
  0
TEXT
  8
DATA
 62
               7
  5
262
 10
26.021851553453871
 20
231.33498866517863
 30
0.0
 40
2.4432617187499996
  1
RGB
  7
_______
 11
26.021851553453871
 21
234.22275038392863
 31
0.0
 73
               3
  0
TEXT
  8
DATA
 62
               7
  5
263
 10
30.55823783804189
 20
237.56230296233468
 30
0.0
 40
2.1174934895833331
  1
bit
  7
_______
 11
30.55823783804189
 21
240.06502978525137
 31
0.0
 73
               3
  0
LINE
  8
DATA
  6
CONTINUOUS
 62
               7
  5
264
 10
55.028273696726018
 20
259.94473980786438
 30
0.0
 11
54.317980746601634
 21
259.94473980786438
 31
0.0
  0
LINE
  8
DATA
  6
CONTINUOUS
 62
               7
  5
265
 10
55.028273696726018
 20
241.98288492068923
 30
0.0
 11
54.317980746601634
 21
241.98288492068923
 31
0.0
  0
ARC
  8
DATA
  6
CONTINUOUS
 62
               7
  5
266
 10
55.028273696726018
 20
258.14473980786437
 30
0.0
 40
1.7999999999999972
 50
0.0000000000004547
 51
90.0
  0
ARC
  8
DATA
  6
CONTINUOUS
 62
               7
  5
267
 10
55.028273696726032
 20
243.78288492068924
 30
0.0
 40
1.7999999999999972
 50
269.99999999999955
 51
0.0
  0
TEXT
  8
DATA
 62
               7
  5
268
 10
55.197155960800934
 20
254.78460073642748
 30
0.0
 40
2.4432617187499996
  1
INPUT
 50
270.0
  7
_______
 11
58.084917679550934
 21
254.78460073642748
 31
0.0
 73
               3
  0
LINE
  8
DATA
  6
CONTINUOUS
 62
               7
  5
269
 10
56.828273696726015
 20
243.78288492068924
 30
0.0
 11
56.828273696726015
 21
246.01107206581989
 31
0.0
  0
LINE
  8
DATA
  6
CONTINUOUS
 62
               7
  5
26A
 10
56.828273696726015
 20
258.14473980786437
 30
0.0
 11
56.828273696726036
 21
255.79640678353223
 31
0.0
  0
LINE
  8
DATA
  6
CONTINUOUS
 62
               7
  5
26B
 10
55.028273696726018
 20
232.7547538937547
 30
0.0
 11
54.317980746601634
 21
232.7547538937547
 31
0.0
  0
LINE
  8
DATA
  6
CONTINUOUS
 62
               7
  5
26C
 10
55.028273696726018
 20
214.79289900657955
 30
0.0
 11
54.317980746601634
 21
214.79289900657955
 31
0.0
  0
ARC
  8
DATA
  6
CONTINUOUS
 62
               7
  5
26D
 10
55.028273696726018
 20
230.95475389375468
 30
0.0
 40
1.7999999999999972
 50
0.0000000000004547
 51
90.0
  0
ARC
  8
DATA
  6
CONTINUOUS
 62
               7
  5
26E
 10
55.028273696726032
 20
216.59289900657956
 30
0.0
 40
1.7999999999999972
 50
269.99999999999955
 51
0.0
  0
TEXT
  8
DATA
 62
               7
  5
26F
 10
55.197155960800934
 20
228.15949151919619
 30
0.0
 40
2.4432617187499996
  1
OUTPUT
 50
270.0
  7
_______
 11
58.084917679550934
 21
228.15949151919619
 31
0.0
 73
               3
  0
LINE
  8
DATA
  6
CONTINUOUS
 62
               7
  5
270
 10
56.828273696726015
 20
216.59289900657956
 30
0.0
 11
56.828273696726015
 21
218.8210861517102
 31
0.0
  0
LINE
  8
DATA
  6
CONTINUOUS
 62
               7
  5
271
 10
56.828273696726015
 20
230.95475389375468
 30
0.0
 11
56.828273696726036
 21
228.60642086942255
 31
0.0
  0
LINE
  8
DATA
  6
CONTINUOUS
 62
               7
  5
272
 10
196.34943945494473
 20
196.87671762990081
 30
0.0
 11
196.34943945494473
 21
81.87671762990081
 31
0.0
  0
LINE
  8
DATA
  6
CONTINUOUS
 62
               7
  5
273
 10
211.41443945494473
 20
196.87671762990081
 30
0.0
 11
211.41443945494473
 21
81.87671762990081
 31
0.0
  0
LINE
  8
DATA
  6
CONTINUOUS
 62
               7
  5
274
 10
196.34943945494473
 20
196.87671762990081
 30
0.0
 11
211.41443945494473
 21
196.87671762990081
 31
0.0
  0
TEXT
  8
DATA
 62
               7
  5
275
 10
209.86573867400966
 20
198.50588429621217
 30
0.0
 40
9.365836588541665
  1
ON
  7
_______
 11
209.86573867400966
 21
209.57563755142053
 31
0.0
 73
               3
  0
TEXT
  8
DATA
 62
               7
  5
276
 10
178.46577215622176
 20
198.50588429621217
 30
0.0
 40
9.365836588541665
  1
OFF
  7
_______
 11
178.46577215622176
 21
209.57563755142053
 31
0.0
 73
               3
  0
TEXT
  8
DATA
 62
               7
  5
277
 10
216.47443945494473
 20
187.09282018403547
 30
0.0
 40
5.619501953124999
  1
RGB
  7
_______
 11
216.47443945494473
 21
193.73467213716049
 31
0.0
 73
               3
  0
TEXT
  8
DATA
 62
               7
  5
278
 10
216.47443945494473
 20
166.80975538727859
 30
0.0
 40
5.619501953124999
  1
444
  7
_______
 11
216.47443945494473
 21
173.4516073404036
 31
0.0
 73
               3
  0
TEXT
  8
DATA
 62
               7
  5
279
 10
175.69969802788862
 20
187.68007600507218
 30
0.0
 40
5.619501953124999
  1
YCbCr
  7
_______
 11
175.69969802788862
 21
194.32192795819716
 31
0.0
 73
               3
  0
TEXT
  8
DATA
 62
               7
  5
27A
 10
175.69969802788862
 20
166.72429000172357
 30
0.0
 40
5.619501953124999
  1
422
  7
_______
 11
175.69969802788862
 21
173.36614195484856
 31
0.0
 73
               3
  0
TEXT
  8
DATA
 62
               7
  5
27B
 10
216.5046541140722
 20
91.965966363828358
 30
0.0
 40
5.619501953124999
  1
DEEP
  7
_______
 11
216.5046541140722
 21
98.607818316953356
 31
0.0
 73
               3
  0
TEXT
  8
DATA
 62
               7
  5
27C
 10
216.5046541140722
 20
84.052324168489591
 30
0.0
 40
5.619501953124999
  1
COLOR
  7
_______
 11
216.5046541140722
 21
90.694176121614589
 31
0.0
 73
               3
  0
LINE
  8
DATA
  6
CONTINUOUS
 62
               7
  5
27D
 10
336.41943945494472
 20
213.10381607216794
 30
0.0
 11
336.41943945494472
 21
61.303816072167976
 31
0.0
  0
LINE
  8
DATA
  6
CONTINUOUS
 62
               7
  5
27E
 10
288.80943945494471
 20
213.10381607216794
 30
0.0
 11
288.80943945494471
 21
61.303816072167976
 31
0.0
  0
LINE
  8
DATA
  6
CONTINUOUS
 62
               7
  5
27F
 10
336.41943945494472
 20
213.10381607216794
 30
0.0
 11
288.80943945494471
 21
213.10381607216794
 31
0.0
  0
LINE
  8
DATA
  6
CONTINUOUS
 62
               7
  5
280
 10
336.41943945494472
 20
61.303816072167976
 30
0.0
 11
288.80943945494471
 21
61.303816072167976
 31
0.0
  0
POLYLINE
  8
DATA
  6
CONTINUOUS
 62
               7
  5
281
 66
               1
 10
0.0
 20
0.0
 30
0.0
 70
               1
 75
               5
  0
VERTEX
  8
DATA
  6
CONTINUOUS
 62
               7
  5
282
 10
304.67943945494477
 20
200.9851068726374
 30
0.0
  0
VERTEX
  8
DATA
  6
CONTINUOUS
 62
               7
  5
283
 10
320.54943945494483
 20
200.9851068726374
 30
0.0
  0
VERTEX
  8
DATA
  6
CONTINUOUS
 62
               7
  5
284
 10
320.54943945494483
 20
192.70510687263749
 30
0.0
  0
VERTEX
  8
DATA
  6
CONTINUOUS
 62
               7
  5
285
 10
304.67943945494477
 20
192.70510687263749
 30
0.0
  0
SEQEND
  8
DATA
  6
CONTINUOUS
 62
               7
  5
286
  0
POLYLINE
  8
DATA
  6
CONTINUOUS
 62
               7
  5
288
 66
               1
 10
0.0
 20
0.0
 30
0.0
 70
               1
 75
               5
  0
VERTEX
  8
DATA
  6
CONTINUOUS
 62
               7
  5
289
 10
304.67943945494477
 20
183.7351068726374
 30
0.0
  0
VERTEX
  8
DATA
  6
CONTINUOUS
 62
               7
  5
28A
 10
320.54943945494483
 20
183.7351068726374
 30
0.0
  0
VERTEX
  8
DATA
  6
CONTINUOUS
 62
               7
  5
28B
 10
320.54943945494483
 20
175.45510687263749
 30
0.0
  0
VERTEX
  8
DATA
  6
CONTINUOUS
 62
               7
  5
28C
 10
304.67943945494477
 20
175.45510687263749
 30
0.0
  0
SEQEND
  8
DATA
  6
CONTINUOUS
 62
               7
  5
28D
  0
POLYLINE
  8
DATA
  6
CONTINUOUS
 62
               7
  5
28F
 66
               1
 10
0.0
 20
0.0
 30
0.0
 70
               1
 75
               5
  0
VERTEX
  8
DATA
  6
CONTINUOUS
 62
               7
  5
290
 10
304.67943945494477
 20
166.48510687263743
 30
0.0
  0
VERTEX
  8
DATA
  6
CONTINUOUS
 62
               7
  5
291
 10
320.54943945494483
 20
166.48510687263743
 30
0.0
  0
VERTEX
  8
DATA
  6
CONTINUOUS
 62
               7
  5
292
 10
320.54943945494483
 20
158.20510687263749
 30
0.0
  0
VERTEX
  8
DATA
  6
CONTINUOUS
 62
               7
  5
293
 10
304.67943945494477
 20
158.20510687263749
 30
0.0
  0
SEQEND
  8
DATA
  6
CONTINUOUS
 62
               7
  5
294
  0
POLYLINE
  8
DATA
  6
CONTINUOUS
 62
               7
  5
296
 66
               1
 10
0.0
 20
0.0
 30
0.0
 70
               1
 75
               5
  0
VERTEX
  8
DATA
  6
CONTINUOUS
 62
               7
  5
297
 10
304.67943945494477
 20
149.23510687263743
 30
0.0
  0
VERTEX
  8
DATA
  6
CONTINUOUS
 62
               7
  5
298
 10
320.54943945494483
 20
149.23510687263743
 30
0.0
  0
VERTEX
  8
DATA
  6
CONTINUOUS
 62
               7
  5
299
 10
320.54943945494483
 20
140.95510687263749
 30
0.0
  0
VERTEX
  8
DATA
  6
CONTINUOUS
 62
               7
  5
29A
 10
304.67943945494477
 20
140.95510687263749
 30
0.0
  0
SEQEND
  8
DATA
  6
CONTINUOUS
 62
               7
  5
29B
  0
POLYLINE
  8
DATA
  6
CONTINUOUS
 62
               7
  5
29D
 66
               1
 10
0.0
 20
0.0
 30
0.0
 70
               1
 75
               5
  0
VERTEX
  8
DATA
  6
CONTINUOUS
 62
               7
  5
29E
 10
304.67943945494477
 20
131.98510687263743
 30
0.0
  0
VERTEX
  8
DATA
  6
CONTINUOUS
 62
               7
  5
29F
 10
320.54943945494483
 20
131.98510687263743
 30
0.0
  0
VERTEX
  8
DATA
  6
CONTINUOUS
 62
               7
  5
2A0
 10
320.54943945494483
 20
123.70510687263749
 30
0.0
  0
VERTEX
  8
DATA
  6
CONTINUOUS
 62
               7
  5
2A1
 10
304.67943945494477
 20
123.70510687263749
 30
0.0
  0
SEQEND
  8
DATA
  6
CONTINUOUS
 62
               7
  5
2A2
  0
POLYLINE
  8
DATA
  6
CONTINUOUS
 62
               7
  5
2A4
 66
               1
 10
0.0
 20
0.0
 30
0.0
 70
               1
 75
               5
  0
VERTEX
  8
DATA
  6
CONTINUOUS
 62
               7
  5
2A5
 10
304.67943945494477
 20
114.73510687263743
 30
0.0
  0
VERTEX
  8
DATA
  6
CONTINUOUS
 62
               7
  5
2A6
 10
320.54943945494483
 20
114.73510687263743
 30
0.0
  0
VERTEX
  8
DATA
  6
CONTINUOUS
 62
               7
  5
2A7
 10
320.54943945494483
 20
106.45510687263749
 30
0.0
  0
VERTEX
  8
DATA
  6
CONTINUOUS
 62
               7
  5
2A8
 10
304.67943945494477
 20
106.45510687263749
 30
0.0
  0
SEQEND
  8
DATA
  6
CONTINUOUS
 62
               7
  5
2A9
  0
POLYLINE
  8
DATA
  6
CONTINUOUS
 62
               7
  5
2AB
 66
               1
 10
0.0
 20
0.0
 30
0.0
 70
               1
 75
               5
  0
VERTEX
  8
DATA
  6
CONTINUOUS
 62
               7
  5
2AC
 10
304.67943945494477
 20
97.485106872637431
 30
0.0
  0
VERTEX
  8
DATA
  6
CONTINUOUS
 62
               7
  5
2AD
 10
320.54943945494483
 20
97.485106872637431
 30
0.0
  0
VERTEX
  8
DATA
  6
CONTINUOUS
 62
               7
  5
2AE
 10
320.54943945494483
 20
89.205106872637487
 30
0.0
  0
VERTEX
  8
DATA
  6
CONTINUOUS
 62
               7
  5
2AF
 10
304.67943945494477
 20
89.205106872637487
 30
0.0
  0
SEQEND
  8
DATA
  6
CONTINUOUS
 62
               7
  5
2B0
  0
POLYLINE
  8
DATA
  6
CONTINUOUS
 62
               7
  5
2B2
 66
               1
 10
0.0
 20
0.0
 30
0.0
 70
               1
 75
               5
  0
VERTEX
  8
DATA
  6
CONTINUOUS
 62
               7
  5
2B3
 10
304.67943945494477
 20
80.235106872637431
 30
0.0
  0
VERTEX
  8
DATA
  6
CONTINUOUS
 62
               7
  5
2B4
 10
320.54943945494483
 20
80.235106872637431
 30
0.0
  0
VERTEX
  8
DATA
  6
CONTINUOUS
 62
               7
  5
2B5
 10
320.54943945494483
 20
71.955106872637501
 30
0.0
  0
VERTEX
  8
DATA
  6
CONTINUOUS
 62
               7
  5
2B6
 10
304.67943945494477
 20
71.955106872637501
 30
0.0
  0
SEQEND
  8
DATA
  6
CONTINUOUS
 62
               7
  5
2B7
  0
TEXT
  8
DATA
 62
               7
  5
2B9
 10
322.23799767883713
 20
203.27719930012748
 30
0.0
 40
5.619501953124999
  1
ON
 50
270.0
  7
_______
 11
328.87984963196214
 21
203.27719930012748
 31
0.0
 73
               3
  0
TEXT
  8
DATA
 62
               7
  5
2BA
 10
293.90217386393448
 20
198.90628724389586
 30
0.0
 40
5.619501953124999
  1
1
 50
270.0
  7
_______
 11
300.54402581705949
 21
198.90628724389586
 31
0.0
 73
               3
  0
TEXT
  8
DATA
 62
               7
  5
2BB
 10
293.90217386393448
 20
181.65628724389586
 30
0.0
 40
5.619501953124999
  1
2
 50
270.0
  7
_______
 11
300.54402581705949
 21
181.65628724389586
 31
0.0
 73
               3
  0
TEXT
  8
DATA
 62
               7
  5
2BC
 10
293.90217386393448
 20
164.40628724389589
 30
0.0
 40
5.619501953124999
  1
3
 50
270.0
  7
_______
 11
300.54402581705949
 21
164.40628724389589
 31
0.0
 73
               3
  0
TEXT
  8
DATA
 62
               7
  5
2BD
 10
293.90217386393448
 20
147.15628724389589
 30
0.0
 40
5.619501953124999
  1
4
 50
270.0
  7
_______
 11
300.54402581705949
 21
147.15628724389589
 31
0.0
 73
               3
  0
TEXT
  8
DATA
 62
               7
  5
2BE
 10
293.90217386393448
 20
129.90628724389589
 30
0.0
 40
5.619501953124999
  1
5
 50
270.0
  7
_______
 11
300.54402581705949
 21
129.90628724389589
 31
0.0
 73
               3
  0
TEXT
  8
DATA
 62
               7
  5
2BF
 10
293.90217386393448
 20
112.65628724389589
 30
0.0
 40
5.619501953124999
  1
6
 50
270.0
  7
_______
 11
300.54402581705949
 21
112.65628724389589
 31
0.0
 73
               3
  0
TEXT
  8
DATA
 62
               7
  5
2C0
 10
293.90217386393448
 20
95.406287243895903
 30
0.0
 40
5.619501953124999
  1
7
 50
270.0
  7
_______
 11
300.54402581705949
 21
95.406287243895903
 31
0.0
 73
               3
  0
TEXT
  8
DATA
 62
               7
  5
2C1
 10
293.90217386393448
 20
78.156287243895903
 30
0.0
 40
5.619501953124999
  1
8
 50
270.0
  7
_______
 11
300.54402581705949
 21
78.156287243895903
 31
0.0
 73
               3
  0
LINE
  8
DATA
  6
CONTINUOUS
 62
               7
  5
2C2
 10
196.34943945494473
 20
82.003816071812736
 30
0.0
 11
211.41443945494473
 21
82.003816071812736
 31
0.0
  0
TEXT
  8
DATA
 62
               7
  5
2C3
 10
216.01043067218146
 20
146.34175977866025
 30
0.0
 40
5.619501953124999
  1
12
  7
_______
 11
216.01043067218146
 21
152.98361173178523
 31
0.0
 73
               3
  0
TEXT
  8
DATA
 62
               7
  5
2C4
 10
216.47443945494473
 20
104.74580190338762
 30
0.0
 40
5.619501953124999
  1
422
  7
_______
 11
216.47443945494473
 21
111.38765385651261
 31
0.0
 73
               3
  0
TEXT
  8
DATA
 62
               7
  5
2C5
 10
216.48179794874801
 20
125.44467455825682
 30
0.0
 40
5.619501953124999
  1
YCbCr
  7
_______
 11
216.48179794874801
 21
132.08652651138183
 31
0.0
 73
               3
  0
TEXT
  8
DATA
 62
               7
  5
2C6
 10
175.69969802788862
 20
146.02429000172356
 30
0.0
 40
5.619501953124999
  1
8/10
  7
_______
 11
175.69969802788862
 21
152.66614195484857
 31
0.0
 73
               3
  0
TEXT
  8
DATA
 62
               7
  5
2C7
 10
175.69969802788862
 20
105.38118460856366
 30
0.0
 40
5.619501953124999
  1
444
  7
_______
 11
175.69969802788862
 21
112.02303656168866
 31
0.0
 73
               3
  0
TEXT
  8
DATA
 62
               7
  5
2C8
 10
175.69969802788862
 20
125.32429000172358
 30
0.0
 40
5.619501953124999
  1
RGB
  7
_______
 11
175.69969802788862
 21
131.96614195484858
 31
0.0
 73
               3
  0
TEXT
  8
DATA
 62
               7
  5
2C9
 10
186.1333864824411
 20
139.64711288518254
 30
0.0
 40
4.8702350260416649
  1
bit
  7
_______
 11
186.1333864824411
 21
145.40338457789088
 31
0.0
 73
               3
  0
LINE
  8
DATA
  6
CONTINUOUS
 62
               7
  5
2CA
 10
242.41446895741461
 20
191.12671762990081
 30
0.0
 11
240.78079517212848
 21
191.12671762990081
 31
0.0
  0
LINE
  8
DATA
  6
CONTINUOUS
 62
               7
  5
2CB
 10
242.41446895741461
 20
149.81445138939796
 30
0.0
 11
240.78079517212848
 21
149.81445138939796
 31
0.0
  0
ARC
  8
DATA
  6
CONTINUOUS
 62
               7
  5
2CC
 10
242.41446895741461
 20
186.9867176299008
 30
0.0
 40
4.1399999999999579
 50
0.0000000000003979
 51
90.0
  0
ARC
  8
DATA
  6
CONTINUOUS
 62
               7
  5
2CD
 10
242.41446895741461
 20
153.95445138939795
 30
0.0
 40
4.1400000000000006
 50
270.0
 51
0.0
  0
TEXT
  8
DATA
 62
               7
  5
2CE
 10
242.80289816478688
 20
179.2583977655959
 30
0.0
 40
5.619501953124999
  1
INPUT
 50
270.0
  7
_______
 11
249.44475011791189
 21
179.2583977655959
 31
0.0
 73
               3
  0
LINE
  8
DATA
  6
CONTINUOUS
 62
               7
  5
2CF
 10
246.5544689574146
 20
153.95445138939795
 30
0.0
 11
246.5544689574146
 21
159.07928182319847
 31
0.0
  0
LINE
  8
DATA
  6
CONTINUOUS
 62
               7
  5
2D0
 10
246.5544689574146
 20
186.9867176299008
 30
0.0
 11
246.55446895741466
 21
181.58555167393686
 31
0.0
  0
LINE
  8
DATA
  6
CONTINUOUS
 62
               7
  5
2D1
 10
242.41446895741461
 20
128.58975002744853
 30
0.0
 11
240.78079517212848
 21
128.58975002744853
 31
0.0
  0
LINE
  8
DATA
  6
CONTINUOUS
 62
               7
  5
2D2
 10
242.41446895741461
 20
87.277483786945709
 30
0.0
 11
240.78079517212848
 21
87.277483786945709
 31
0.0
  0
ARC
  8
DATA
  6
CONTINUOUS
 62
               7
  5
2D3
 10
242.41446895741461
 20
124.44975002744852
 30
0.0
 40
4.1399999999999579
 50
0.0000000000005116
 51
90.0
  0
ARC
  8
DATA
  6
CONTINUOUS
 62
               7
  5
2D4
 10
242.41446895741461
 20
91.417483786945695
 30
0.0
 40
4.1399999999999935
 50
270.0
 51
0.0
  0
TEXT
  8
DATA
 62
               7
  5
2D5
 10
242.80289816478688
 20
118.020646565964
 30
0.0
 40
5.619501953124999
  1
OUTPUT
 50
270.0
  7
_______
 11
249.44475011791189
 21
118.020646565964
 31
0.0
 73
               3
  0
LINE
  8
DATA
  6
CONTINUOUS
 62
               7
  5
2D6
 10
246.5544689574146
 20
91.417483786945695
 30
0.0
 11
246.5544689574146
 21
96.542314220746221
 31
0.0
  0
LINE
  8
DATA
  6
CONTINUOUS
 62
               7
  5
2D7
 10
246.5544689574146
 20
124.44975002744854
 30
0.0
 11
246.55446895741466
 21
119.04858407148461
 31
0.0
  0
TEXT
  8
DATA
 62
               7
  5
2D8
 10
217.57439213720036
 20
51.603240427105945
 30
0.0
 40
8.1442057291666661
  1
設定拡大図
  7
_______
 11
217.57439213720036
 21
61.229112822939271
 31
0.0
 73
               3
  0
CIRCLE
  8
DATA
  6
CONTINUOUS
 62
               7
  5
2D9
 10
288.46328852077261
 20
-76.750466064086538
 30
0.0
 40
0.5999999999999943
  0
LINE
  8
DATA
  6
CONTINUOUS
 62
               7
  5
2DA
 10
212.5
 20
50.0
 30
0.0
 11
275.0
 21
50.0
 31
0.0
  0
TEXT
  8
DATA
 62
               7
  5
2DB
 10
249.8760181932069
 20
-187.15000000000003
 30
0.0
 40
7.3297851562499998
  1
Gefen
  7
_______
 11
249.8760181932069
 21
-178.48671484375006
 31
0.0
 73
               3
  0
ENDSEC
  0
EOF
