  0
SECTION
  2
HEADER
  9
$ACADVER
  1
AC1009
  9
$INSBASE
 10
0.0
 20
0.0
 30
0.0
  9
$EXTMIN
 10
-170.0164782349211
 20
-265.74833863455001
 30
-0.0015258207003583
  9
$EXTMAX
 10
370.0164807494923
 20
537.09174839639525
 30
0.0000000349246037
  9
$LIMMIN
 10
0.0
 20
0.0
  9
$LIMMAX
 10
0.0
 20
0.0
  9
$ORTHOMODE
 70
     0
  9
$REGENMODE
 70
     1
  9
$FILLMODE
 70
     1
  9
$QTEXTMODE
 70
     0
  9
$MIRRTEXT
 70
     1
  9
$DRAGMODE
 70
     2
  9
$LTSCALE
 40
15.24
  9
$OSMODE
 70
   231
  9
$ATTMODE
 70
     1
  9
$TEXTSIZE
 40
0.0
  9
$TRACEWID
 40
1.0
  9
$TEXTSTYLE
  7
STANDARD
  9
$CLAYER
  8
DATA
  9
$CELTYPE
  6
BYLAYER
  9
$CECOLOR
 62
   256
  9
$DIMSCALE
 40
1.0
  9
$DIMASZ
 40
0.18
  9
$DIMEXO
 40
0.0625
  9
$DIMDLI
 40
0.38
  9
$DIMRND
 40
0.0
  9
$DIMDLE
 40
0.0
  9
$DIMEXE
 40
0.18
  9
$DIMTP
 40
0.0
  9
$DIMTM
 40
0.0
  9
$DIMTXT
 40
0.18
  9
$DIMCEN
 40
0.09
  9
$DIMTSZ
 40
0.0
  9
$DIMTOL
 70
     0
  9
$DIMLIM
 70
     0
  9
$DIMTIH
 70
     1
  9
$DIMTOH
 70
     1
  9
$DIMSE1
 70
     0
  9
$DIMSE2
 70
     0
  9
$DIMTAD
 70
     0
  9
$DIMZIN
 70
     0
  9
$DIMBLK
  1

  9
$DIMASO
 70
     1
  9
$DIMSHO
 70
     1
  9
$DIMPOST
  1

  9
$DIMAPOST
  1

  9
$DIMALT
 70
     0
  9
$DIMALTD
 70
     2
  9
$DIMALTF
 40
25.399999999999999
  9
$DIMLFAC
 40
1.0
  9
$DIMTOFL
 70
     0
  9
$DIMTVP
 40
0.0
  9
$DIMTIX
 70
     0
  9
$DIMSOXD
 70
     0
  9
$DIMSAH
 70
     0
  9
$DIMBLK1
  1

  9
$DIMBLK2
  1

  9
$DIMSTYLE
  2
STANDARD
  9
$DIMCLRD
 70
     0
  9
$DIMCLRE
 70
     0
  9
$DIMCLRT
 70
     0
  9
$DIMTFAC
 40
1.0
  9
$DIMGAP
 40
0.09
  9
$LUNITS
 70
     2
  9
$LUPREC
 70
     4
  9
$SKETCHINC
 40
0.1
  9
$FILLETRAD
 40
0.0
  9
$AUNITS
 70
     0
  9
$AUPREC
 70
     0
  9
$MENU
  1
acad
  9
$ELEVATION
 40
0.0
  9
$PELEVATION
 40
0.0
  9
$THICKNESS
 40
0.0
  9
$LIMCHECK
 70
     0
  9
$BLIPMODE
 70
     0
  9
$CHAMFERA
 40
0.0
  9
$CHAMFERB
 40
0.0
  9
$SKPOLY
 70
     0
  9
$TDCREATE
 40
2455583.789849537
  9
$TDUPDATE
 40
2455583.7919730791
  9
$TDINDWG
 40
0.000263044
  9
$TDUSRTIMER
 40
0.000263044
  9
$USRTIMER
 70
     1
  9
$ANGBASE
 50
0.0
  9
$ANGDIR
 70
     0
  9
$PDMODE
 70
     1
  9
$PDSIZE
 40
-2.0
  9
$PLINEWID
 40
0.0
  9
$COORDS
 70
     0
  9
$SPLFRAME
 70
     0
  9
$SPLINETYPE
 70
     6
  9
$SPLINESEGS
 70
     8
  9
$ATTDIA
 70
     0
  9
$ATTREQ
 70
     1
  9
$HANDLING
 70
     1
  9
$HANDSEED
  5
36F
  9
$SURFTAB1
 70
     6
  9
$SURFTAB2
 70
     6
  9
$SURFTYPE
 70
     6
  9
$SURFU
 70
     6
  9
$SURFV
 70
     6
  9
$UCSNAME
  2

  9
$UCSORG
 10
0.0
 20
0.0
 30
0.0
  9
$UCSXDIR
 10
1.0
 20
0.0
 30
0.0
  9
$UCSYDIR
 10
0.0
 20
1.0
 30
0.0
  9
$PUCSNAME
  2

  9
$PUCSORG
 10
0.0
 20
0.0
 30
0.0
  9
$PUCSXDIR
 10
1.0
 20
0.0
 30
0.0
  9
$PUCSYDIR
 10
0.0
 20
1.0
 30
0.0
  9
$USERI1
 70
     0
  9
$USERI2
 70
     0
  9
$USERI3
 70
     0
  9
$USERI4
 70
     0
  9
$USERI5
 70
     0
  9
$USERR1
 40
0.0
  9
$USERR2
 40
0.0
  9
$USERR3
 40
0.0
  9
$USERR4
 40
0.0
  9
$USERR5
 40
0.0
  9
$WORLDVIEW
 70
     1
  9
$SHADEDGE
 70
     3
  9
$SHADEDIF
 70
    70
  9
$TILEMODE
 70
     1
  9
$MAXACTVP
 70
    64
  9
$PLIMCHECK
 70
     0
  9
$PEXTMIN
 10
1.0000000000000000E+020
 20
1.0000000000000000E+020
 30
1.0000000000000000E+020
  9
$PEXTMAX
 10
-1.0000000000000000E+020
 20
-1.0000000000000000E+020
 30
-1.0000000000000000E+020
  9
$PLIMMIN
 10
0.0
 20
0.0
  9
$PLIMMAX
 10
12.0
 20
9.0
  9
$UNITMODE
 70
     0
  9
$VISRETAIN
 70
     0
  9
$PLINEGEN
 70
     1
  9
$PSLTSCALE
 70
     0
  0
ENDSEC
  0
SECTION
  2
TABLES
  0
TABLE
  2
VPORT
 70
     1
  0
VPORT
  2
*ACTIVE
 70
     0
 10
0.0
 20
0.0
 11
1.0
 21
1.0
 12
100.0000012572856
 22
135.6717048809227
 13
0.0
 23
0.0
 14
1.0
 24
1.0
 15
0.0
 25
0.0
 16
0.0
 26
0.0
 36
1.0
 17
0.0
 27
0.0
 37
0.0
 40
808.75056619927125
 41
1.9619164619164611
 42
50.0
 43
0.0
 44
0.0
 50
0.0
 51
0.0
 71
     0
 72
  2000
 73
     1
 74
     1
 75
     0
 76
     0
 77
     0
 78
     0
  0
ENDTAB
  0
TABLE
  2
LTYPE
 70
    11
  0
LTYPE
  2
CONTINUOUS
 70
     0
  3
Solid line
 72
    65
 73
     0
 40
0.0
  0
ENDTAB
  0
TABLE
  2
LAYER
 70
     6
  0
LAYER
  2
0
 70
     0
 62
     7
  6
CONTINUOUS
  0
LAYER
  2
DATA
 70
     0
 62
     7
  6
CONTINUOUS
  0
LAYER
  2
HIBINO-BASE
 70
     0
 62
     7
  6
CONTINUOUS
  0
LAYER
  2
SPEC
 70
     0
 62
     7
  6
CONTINUOUS
  0
LAYER
  2
DIMNSIONS
 70
     0
 62
     7
  6
CONTINUOUS
  0
ENDTAB
  0
TABLE
  2
STYLE
 70
     3
  0
STYLE
  2
STANDARD
 70
     0
 40
0.0
 41
1.0
 50
0.0
 71
     0
 42
0.0
  3
txt
  4
BIGFONT.SHX
  0
ENDTAB
  0
TABLE
  2
VIEW
 70
     0
  0
ENDTAB
  0
TABLE
  2
UCS
 70
     0
  0
ENDTAB
  0
TABLE
  2
APPID
 70
     3
  0
APPID
  2
ACAD
 70
     0
  0
APPID
  2
ACADANNOTATIVE
 70
     0
  0
APPID
  2
ACAD_MLEADERVER
 70
     0
  0
ENDTAB
  0
TABLE
  2
DIMSTYLE
 70
     2
  0
DIMSTYLE
  2
STANDARD
 70
     0
  3

  4

  5

  6

  7

 40
1.0
 41
0.18
 42
0.0625
 43
0.38
 44
0.18
 45
0.0
 46
0.0
 47
0.0
 48
0.0
140
0.18
141
0.09
142
0.0
143
25.399999999999999
144
1.0
145
0.0
146
1.0
147
0.09
 71
     0
 72
     0
 73
     1
 74
     1
 75
     0
 76
     0
 77
     0
 78
     0
170
     0
171
     2
172
     0
173
     0
174
     0
175
     0
176
     0
177
     0
178
     0
  0
ENDTAB
  0
ENDSEC
  0
SECTION
  2
BLOCKS
  0
BLOCK
  8
0
  2
$MODEL_SPACE
 70
     0
 10
0.0
 20
0.0
 30
0.0
  3
$MODEL_SPACE
  1

  0
ENDBLK
  5
284
  8
0
  0
BLOCK
 67
     1
  8
0
  2
$PAPER_SPACE
 70
     0
 10
0.0
 20
0.0
 30
0.0
  3
$PAPER_SPACE
  1

  0
ENDBLK
  5
280
 67
     1
  8
0
  0
ENDSEC
  0
SECTION
  2
ENTITIES
  0
LINE
  5
2D
  8
HIBINO-BASE
  6
CONTINUOUS
 62
     7
 10
-169.99999999999989
 20
537.06729578973182
 30
0.0
 11
370.0
 21
537.06729578973182
 31
0.0
  0
LINE
  5
2E
  8
HIBINO-BASE
  6
CONTINUOUS
 62
     7
 10
370.0
 20
-242.93270421026821
 30
0.0
 11
-169.99999999999989
 21
-242.93270421026821
 31
0.0
  0
LINE
  5
2F
  8
HIBINO-BASE
  6
CONTINUOUS
 62
     7
 10
-169.99999999999989
 20
-242.93270421026821
 30
0.0
 11
-169.99999999999989
 21
537.06729578973182
 31
0.0
  0
LINE
  5
30
  8
HIBINO-BASE
  6
CONTINUOUS
 62
     7
 10
370.0
 20
537.06729578973182
 30
0.0
 11
370.0
 21
-242.93270421026821
 31
0.0
  0
LINE
  5
31
  8
HIBINO-BASE
  6
CONTINUOUS
 62
     7
 10
100.0
 20
-175.4327042102681
 30
0.0
 11
370.0
 21
-175.4327042102681
 31
0.0
  0
LINE
  5
32
  8
HIBINO-BASE
  6
CONTINUOUS
 62
     7
 10
100.0
 20
-242.93270421026821
 30
0.0
 11
100.0
 21
-175.4327042102681
 31
0.0
  0
TEXT
  5
33
  8
HIBINO-BASE
 62
     7
 10
102.7
 20
-182.95878421026811
 30
0.0
 40
4.8865234374999993
  1
NOTE
 41
0.75
 11
102.7
 21
-178.0722607727682
 31
0.0
 73
     3
  0
LINE
  5
34
  8
HIBINO-BASE
  6
CONTINUOUS
 62
     7
 10
205.0
 20
-242.93270421026821
 30
0.0
 11
205.0
 21
-175.4327042102681
 31
0.0
  0
TEXT
  5
35
  8
HIBINO-BASE
 62
     7
 10
207.69999999999999
 20
-182.95878421026811
 30
0.0
 40
4.8865234374999993
  1
TITLE
 41
0.75
 11
207.69999999999999
 21
-178.0722607727682
 31
0.0
 73
     3
  0
LINE
  5
36
  8
HIBINO-BASE
  6
CONTINUOUS
 62
     7
 10
100.0
 20
-212.9327042102681
 30
0.0
 11
370.0
 21
-212.9327042102681
 31
0.0
  0
TEXT
  5
37
  8
HIBINO-BASE
 62
     7
 10
245.19999999999999
 20
-220.28982421026819
 30
0.0
 40
4.8865234374999993
  1
DRAWN
 41
0.75
 11
245.19999999999999
 21
-215.4033007727682
 31
0.0
 73
     3
  0
TEXT
  5
38
  8
HIBINO-BASE
 62
     7
 10
170.19999999999999
 20
-220.28982421026819
 30
0.0
 40
4.8865234374999993
  1
DATE
 41
0.75
 11
170.19999999999999
 21
-215.4033007727682
 31
0.0
 73
     3
  0
TEXT
  5
39
  8
HIBINO-BASE
 62
     7
 10
140.19999999999999
 20
-220.28982421026819
 30
0.0
 40
4.8865234374999993
  1
SCALE
 41
0.75
 11
140.19999999999999
 21
-215.4033007727682
 31
0.0
 73
     3
  0
TEXT
  5
3A
  8
HIBINO-BASE
 62
     7
 10
207.69999999999999
 20
-220.28982421026819
 30
0.0
 40
4.8865234374999993
  1
DESIGN
 41
0.75
 11
207.69999999999999
 21
-215.4033007727682
 31
0.0
 73
     3
  0
TEXT
  5
3B
  8
HIBINO-BASE
 62
     7
 10
320.19999999999999
 20
-220.28982421026819
 30
0.0
 40
4.8865234374999993
  1
DRAWING NO.
 41
0.75
 11
320.19999999999999
 21
-215.4033007727682
 31
0.0
 73
     3
  0
TEXT
  5
3C
  8
HIBINO-BASE
 62
     7
 10
282.69999999999999
 20
-220.28982421026819
 30
0.0
 40
4.8865234374999993
  1
CHECK
 41
0.75
 11
282.69999999999999
 21
-215.4033007727682
 31
0.0
 73
     3
  0
LINE
  5
3D
  8
HIBINO-BASE
  6
CONTINUOUS
 62
     7
 10
143.12499999999989
 20
-239.18270421026821
 30
0.0
 11
154.375
 21
-227.9327042102681
 31
0.0
  0
TEXT
  5
3E
  8
HIBINO-BASE
 62
     7
 10
141.24999999999989
 20
-231.25953421026821
 30
0.0
 40
4.8865234374999993
  1
1
 41
0.75
 11
141.24999999999989
 21
-226.3730107727682
 31
0.0
 73
     3
  0
LINE
  5
3F
  8
HIBINO-BASE
  6
CONTINUOUS
 62
     7
 10
137.5
 20
-242.93270421026821
 30
0.0
 11
137.5
 21
-212.9327042102681
 31
0.0
  0
LINE
  5
40
  8
HIBINO-BASE
  6
CONTINUOUS
 62
     7
 10
167.5
 20
-242.93270421026821
 30
0.0
 11
167.5
 21
-212.9327042102681
 31
0.0
  0
LINE
  5
41
  8
HIBINO-BASE
  6
CONTINUOUS
 62
     7
 10
242.5
 20
-212.9327042102681
 30
0.0
 11
242.5
 21
-242.93270421026821
 31
0.0
  0
LINE
  5
42
  8
HIBINO-BASE
  6
CONTINUOUS
 62
     7
 10
317.5
 20
-212.9327042102681
 30
0.0
 11
317.5
 21
-242.93270421026821
 31
0.0
  0
LINE
  5
43
  8
HIBINO-BASE
  6
CONTINUOUS
 62
     7
 10
279.99999999999989
 20
-242.93270421026821
 30
0.0
 11
279.99999999999989
 21
-212.9327042102681
 31
0.0
  0
TEXT
  5
44
  8
HIBINO-BASE
 62
     7
 10
170.06961999999999
 20
-234.3417642102682
 30
0.0
 40
4.8865234374999993
  1
'11.01.
 41
0.75
 11
170.06961999999999
 21
-229.45524077276821
 31
0.0
 73
     3
  0
TEXT
  5
45
  8
HIBINO-BASE
 62
     7
 10
152.5
 20
-236.88453421026821
 30
0.0
 40
4.8865234374999993
  1
3
 41
0.75
 11
152.5
 21
-231.9980107727682
 31
0.0
 73
     3
  0
TEXT
  5
46
  8
HIBINO-BASE
 62
     7
 10
247.01743003310389
 20
-234.3417642102682
 30
0.0
 40
4.8865234374999993
  1
T.Ootake
 41
0.75
 11
247.01743003310389
 21
-229.45524077276821
 31
0.0
 73
     3
  0
TEXT
  5
47
  8
HIBINO-BASE
 62
     7
 10
111.65000000000001
 20
-237.0047042102681
 30
0.0
 40
9.7730468749999986
  1
A4
 41
0.75
 11
111.65000000000001
 21
-227.2316573352681
 31
0.0
 73
     3
  0
TEXT
  5
48
  8
HIBINO-BASE
 62
     7
 10
102.875
 20
-220.79106921026809
 30
0.0
 40
4.8865234374999993
  1
PAPER SIZE
 41
0.75
 11
102.875
 21
-215.9045457727681
 31
0.0
 73
     3
  0
TEXT
  5
49
  8
HIBINO-BASE
 62
     7
 10
-161.7210942293294
 20
-262.20842491279689
 30
0.0
 40
10.58746744791666
  1
Hibino-Intersound Corporation
 41
0.75
 11
-161.7210942293294
 21
-251.62095746488029
 31
0.0
 73
     3
  0
TEXT
  5
4A
  8
HIBINO-BASE
 62
     7
 10
160.54182904064169
 20
-261.15516015292872
 30
0.0
 40
10.58746744791666
  1
ヒビノインターサウンド株式会社
 41
0.75
 11
160.54182904064169
 21
-250.56769270501201
 31
0.0
 73
     3
  0
LINE
  5
4B
  8
SPEC
  6
CONTINUOUS
 62
     7
 10
-147.49999999999989
 20
507.0672957897317
 30
0.0
 11
295.0
 21
507.0672957897317
 31
0.0
  0
LINE
  5
4C
  8
SPEC
  6
CONTINUOUS
 62
     7
 10
-147.49999999999989
 20
495.8172957897317
 30
0.0
 11
295.0
 21
495.8172957897317
 31
0.0
  0
LINE
  5
4D
  8
SPEC
  6
CONTINUOUS
 62
     7
 10
-147.49999999999989
 20
473.3172957897317
 30
0.0
 11
295.0
 21
473.3172957897317
 31
0.0
  0
LINE
  5
4E
  8
SPEC
  6
CONTINUOUS
 62
     7
 10
-147.49999999999989
 20
484.5672957897317
 30
0.0
 11
295.0
 21
484.5672957897317
 31
0.0
  0
LINE
  5
4F
  8
SPEC
  6
CONTINUOUS
 62
     7
 10
-147.49999999999989
 20
507.0672957897317
 30
0.0
 11
-147.49999999999989
 21
372.0672957897317
 31
0.0
  0
TEXT
  5
50
  8
SPEC
 62
     7
 10
-143.74999999999989
 20
511.24710578973179
 30
0.0
 40
7.3297851562499989
  1
仕様
 41
0.75
 11
-143.74999999999989
 21
518.57689094598175
 31
0.0
 73
     3
  0
LINE
  5
51
  8
SPEC
  6
CONTINUOUS
 62
     7
 10
-50.0
 20
507.0672957897317
 30
0.0
 11
-50.000000000000021
 21
372.0672957897317
 31
0.0
  0
LINE
  5
52
  8
SPEC
  6
CONTINUOUS
 62
     7
 10
295.0
 20
507.0672957897317
 30
0.0
 11
295.0
 21
372.0672957897317
 31
0.0
  0
LINE
  5
53
  8
SPEC
  6
CONTINUOUS
 62
     7
 10
-147.49999999999989
 20
462.0672957897317
 30
0.0
 11
295.0
 21
462.0672957897317
 31
0.0
  0
LINE
  5
54
  8
SPEC
  6
CONTINUOUS
 62
     7
 10
-147.49999999999989
 20
450.8172957897317
 30
0.0
 11
295.0
 21
450.8172957897317
 31
0.0
  0
LINE
  5
55
  8
SPEC
  6
CONTINUOUS
 62
     7
 10
-147.49999999999989
 20
439.5672957897317
 30
0.0
 11
295.0
 21
439.5672957897317
 31
0.0
  0
LINE
  5
56
  8
SPEC
  6
CONTINUOUS
 62
     7
 10
-147.49999999999989
 20
428.3172957897317
 30
0.0
 11
295.0
 21
428.3172957897317
 31
0.0
  0
LINE
  5
57
  8
SPEC
  6
CONTINUOUS
 62
     7
 10
-147.49999999999989
 20
417.0672957897317
 30
0.0
 11
295.0
 21
417.0672957897317
 31
0.0
  0
LINE
  5
58
  8
SPEC
  6
CONTINUOUS
 62
     7
 10
-147.49999999999989
 20
405.8172957897317
 30
0.0
 11
295.0
 21
405.8172957897317
 31
0.0
  0
LINE
  5
59
  8
SPEC
  6
CONTINUOUS
 62
     7
 10
-147.49999999999989
 20
394.5672957897317
 30
0.0
 11
295.0
 21
394.5672957897317
 31
0.0
  0
LINE
  5
5A
  8
SPEC
  6
CONTINUOUS
 62
     7
 10
-147.49999999999989
 20
383.31729578973182
 30
0.0
 11
295.0
 21
383.31729578973182
 31
0.0
  0
LINE
  5
5B
  8
SPEC
  6
CONTINUOUS
 62
     7
 10
-147.49999999999989
 20
372.0672957897317
 30
0.0
 11
295.0
 21
372.0672957897317
 31
0.0
  0
TEXT
  5
5C
  8
SPEC
 62
     7
 10
-145.0308467897359
 20
386.66363980858392
 30
0.0
 40
5.7009440104166673
  1
寸法
 41
0.75
 11
-145.0308467897359
 21
392.36458381900047
 31
0.0
 73
     3
  0
TEXT
  5
5D
  8
SPEC
 62
     7
 10
-47.256699203138538
 20
386.18779811823879
 30
0.0
 40
5.7009440104166673
  1
213(W)\U+00D743(H)\U+00D7174(D)mm(突起部含まず）
 41
0.75
 11
-47.256699203138538
 21
391.88874212865539
 31
0.0
 73
     3
  0
TEXT
  5
5E
  8
SPEC
 62
     7
 10
-47.419419734441512
 20
375.34855144055541
 30
0.0
 40
5.7009440104166673
  1
約650g
 41
0.75
 11
-47.419419734441512
 21
381.04949545097207
 31
0.0
 73
     3
  0
TEXT
  5
5F
  8
SPEC
 62
     7
 10
-144.9920630814311
 20
375.48366439502968
 30
0.0
 40
5.7009440104166673
  1
重量
 41
0.75
 11
-144.9920630814311
 21
381.18460840544628
 31
0.0
 73
     3
  0
TEXT
  5
60
  8
SPEC
 62
     7
 10
-144.9345005103348
 20
408.74388632110367
 30
0.0
 40
5.7009440104166673
  1
電源
 41
0.75
 11
-144.9345005103348
 21
414.44483033152028
 31
0.0
 73
     3
  0
TEXT
  5
61
  8
SPEC
 62
     7
 10
-47.248096143273969
 20
408.4268922298279
 30
0.0
 40
5.7009440104166673
  1
5V DC
 41
0.75
 11
-47.248096143273969
 21
414.12783624024462
 31
0.0
 73
     3
  0
TEXT
  5
62
  8
SPEC
 62
     7
 10
-144.9482492025918
 20
397.72331052556899
 30
0.0
 40
5.7009440104166673
  1
消費電力
 41
0.75
 11
-144.9482492025918
 21
403.42425453598571
 31
0.0
 73
     3
  0
TEXT
  5
63
  8
SPEC
 62
     7
 10
-47.251706941571634
 20
397.51865075918897
 30
0.0
 40
5.7009440104166673
  1
20W(最大)
 41
0.75
 11
-47.251706941571634
 21
403.21959476960558
 31
0.0
 73
     3
  0
TEXT
  5
64
  8
SPEC
 62
     7
 10
-144.94826867752411
 20
498.46293614679041
 30
0.0
 40
5.7009440104166673
  1
入力ビデオアンプ帯域
 41
0.75
 11
-144.94826867752411
 21
504.16388015720707
 31
0.0
 73
     3
  0
TEXT
  5
65
  8
SPEC
 62
     7
 10
-47.070582918968718
 20
498.19317707762161
 30
0.0
 40
5.7009440104166673
  1
225MHz
 41
0.75
 11
-47.070582918968718
 21
503.89412108803822
 31
0.0
 73
     3
  0
TEXT
  5
66
  8
SPEC
 62
     7
 10
-47.170771986761572
 20
486.84306363694583
 30
0.0
 40
5.7009440104166673
  1
2\U+00D73.0Gbps
 41
0.75
 11
-47.170771986761572
 21
492.54400764736238
 31
0.0
 73
     3
  0
TEXT
  5
67
  8
SPEC
 62
     7
 10
-144.9502265433502
 20
476.41961039925297
 30
0.0
 40
5.7009440104166673
  1
入出力最大対応解像度
 41
0.75
 11
-144.9502265433502
 21
482.12055440966958
 31
0.0
 73
     3
  0
TEXT
  5
68
  8
SPEC
 62
     7
 10
-47.470204783382997
 20
475.8932527047387
 30
0.0
 40
5.7009440104166673
  1
1080p/60Hz and 2K(2048\U+00D71080p/60)
 41
0.75
 11
-47.470204783382997
 21
481.59419671515531
 31
0.0
 73
     3
  0
TEXT
  5
69
  8
SPEC
 62
     7
 10
-144.805413104812
 20
465.11652303435471
 30
0.0
 40
5.7009440104166673
  1
HDMI入出力端子
 41
0.75
 11
-144.805413104812
 21
470.81746704477138
 31
0.0
 73
     3
  0
TEXT
  5
6A
  8
SPEC
 62
     7
 10
-47.218225718095098
 20
464.91491630696271
 30
0.0
 40
5.7009440104166673
  1
Type A 19pin female
 41
0.75
 11
-47.218225718095098
 21
470.61586031737932
 31
0.0
 73
     3
  0
TEXT
  5
6B
  8
SPEC
 62
     7
 10
-144.7646842333908
 20
453.925253695278
 30
0.0
 40
5.7009440104166673
  1
3G-SDI 出力端子
 41
0.75
 11
-144.7646842333908
 21
459.62619770569461
 31
0.0
 73
     3
  0
TEXT
  5
6C
  8
SPEC
 62
     7
 10
-48.634296301054391
 20
453.76068753988272
 30
0.0
 40
5.7009440104166673
  1
(2)BNC female(Mirrored outputs)
 41
0.75
 11
-48.634296301054391
 21
459.46163155029927
 31
0.0
 73
     3
  0
TEXT
  5
6D
  8
SPEC
 62
     7
 10
-144.7224355270354
 20
442.3545237054181
 30
0.0
 40
5.7009440104166673
  1
SDI準拠
 41
0.75
 11
-144.7224355270354
 21
448.05546771583482
 31
0.0
 73
     3
  0
TEXT
  5
6E
  8
SPEC
 62
     7
 10
-47.170582918968712
 20
442.51227722932111
 30
0.0
 40
5.7009440104166673
  1
SMTPE 259M、360Mb/sまで
 41
0.75
 11
-47.170582918968712
 21
448.21322123973772
 31
0.0
 73
     3
  0
TEXT
  5
6F
  8
SPEC
 62
     7
 10
-145.24038488795529
 20
487.28628522233902
 30
0.0
 40
5.7009440104166673
  1
出力ビデオアンプ帯域
 41
0.75
 11
-145.24038488795529
 21
492.98722923275568
 31
0.0
 73
     3
  0
TEXT
  5
70
  8
SPEC
 62
     7
 10
-144.67379665487479
 20
431.2314774060971
 30
0.0
 40
5.7009440104166673
  1
HD-SDI準拠
 41
0.75
 11
-144.67379665487479
 21
436.93242141651371
 31
0.0
 73
     3
  0
TEXT
  5
71
  8
SPEC
 62
     7
 10
-47.152832187645558
 20
431.06311072921523
 30
0.0
 40
5.7009440104166673
  1
SMTPE 292M、1.485Gbpsまで
 41
0.75
 11
-47.152832187645558
 21
436.76405473963189
 31
0.0
 73
     3
  0
TEXT
  5
72
  8
SPEC
 62
     7
 10
-144.8177791685255
 20
419.5375268630595
 30
0.0
 40
5.7009440104166673
  1
3G-SDI準拠
 41
0.75
 11
-144.8177791685255
 21
425.2384708734761
 31
0.0
 73
     3
  0
TEXT
  5
73
  8
SPEC
 62
     7
 10
-47.165591901093883
 20
419.79712671904838
 30
0.0
 40
5.7009440104166673
  1
SMTPE 424M/425M、3.0Gbpsまで
 41
0.75
 11
-47.165591901093883
 21
425.4980707294651
 31
0.0
 73
     3
  0
TEXT
  5
74
  8
DIMNSIONS
 62
     7
 10
40.0
 20
-206.12423421026821
 30
0.0
 40
7.3297851562499989
  1
(単位：mm)
 41
0.75
 11
40.0
 21
-198.79444905401809
 31
0.0
 73
     3
  0
LINE
  5
75
  8
DIMNSIONS
  6
CONTINUOUS
 62
     7
 10
-99.750000000000014
 20
-68.75
 30
0.0
 11
-124.75
 21
-68.75
 31
0.0
  0
LINE
  5
76
  8
DIMNSIONS
  6
CONTINUOUS
 62
     7
 10
-99.750000000000014
 20
-25.75
 30
0.0
 11
-124.75
 21
-25.75
 31
0.0
  0
LINE
  5
77
  8
DIMNSIONS
  6
CONTINUOUS
 62
     7
 10
-118.75
 20
-68.75
 30
0.0
 11
-118.75
 21
-25.75
 31
0.0
  0
LINE
  5
78
  8
DIMNSIONS
  6
CONTINUOUS
 62
     7
 10
-118.75
 20
-68.75
 30
0.0
 11
-120.76011938545069
 21
-61.248132324218737
 31
0.0
  0
LINE
  5
79
  8
DIMNSIONS
  6
CONTINUOUS
 62
     7
 10
-118.75
 20
-68.75
 30
0.0
 11
-116.73988061454919
 21
-61.248132324218737
 31
0.0
  0
LINE
  5
7A
  8
DIMNSIONS
  6
CONTINUOUS
 62
     7
 10
-118.75
 20
-25.75
 30
0.0
 11
-116.73988061454919
 21
-33.251867675781263
 31
0.0
  0
LINE
  5
7B
  8
DIMNSIONS
  6
CONTINUOUS
 62
     7
 10
-118.75
 20
-25.75
 30
0.0
 11
-120.76011938545069
 21
-33.251867675781263
 31
0.0
  0
TEXT
  5
7C
  8
DIMNSIONS
 62
     7
 10
-121.7316666666666
 20
-52.541666666666657
 30
0.0
 40
8.1442057291666661
  1
43
 50
90.0
 41
0.75
 11
-129.87587239583331
 21
-52.541666666666657
 31
0.0
 73
     3
  0
LINE
  5
7D
  8
DIMNSIONS
  6
CONTINUOUS
 62
     7
 10
-100.5
 20
-71.75
 30
0.0
 11
-124.75
 21
-71.75
 31
0.0
  0
LINE
  5
7E
  8
DIMNSIONS
  6
CONTINUOUS
 62
     7
 10
-105.6961524227066
 20
-68.75
 30
0.0
 11
-124.75
 21
-68.75
 31
0.0
  0
LINE
  5
7F
  8
DIMNSIONS
  6
CONTINUOUS
 62
     7
 10
-118.75
 20
-68.75
 30
0.0
 11
-118.75
 21
-71.75
 31
0.0
  0
LINE
  5
80
  8
DIMNSIONS
  6
CONTINUOUS
 62
     7
 10
-118.75
 20
-71.75
 30
0.0
 11
-118.75
 21
-86.291666666666657
 31
0.0
  0
LINE
  5
81
  8
DIMNSIONS
  6
CONTINUOUS
 62
     7
 10
-118.75
 20
-71.75
 30
0.0
 11
-116.73988061454919
 21
-79.251867675781256
 31
0.0
  0
LINE
  5
82
  8
DIMNSIONS
  6
CONTINUOUS
 62
     7
 10
-118.75
 20
-71.75
 30
0.0
 11
-120.76011938545069
 21
-79.251867675781256
 31
0.0
  0
LINE
  5
83
  8
DIMNSIONS
  6
CONTINUOUS
 62
     7
 10
-118.75
 20
-68.75
 30
0.0
 11
-118.75
 21
-53.75
 31
0.0
  0
LINE
  5
84
  8
DIMNSIONS
  6
CONTINUOUS
 62
     7
 10
-118.75
 20
-68.75
 30
0.0
 11
-120.76011938545069
 21
-61.248132324218737
 31
0.0
  0
LINE
  5
85
  8
DIMNSIONS
  6
CONTINUOUS
 62
     7
 10
-118.75
 20
-68.75
 30
0.0
 11
-116.73988061454919
 21
-61.248132324218737
 31
0.0
  0
TEXT
  5
86
  8
DIMNSIONS
 62
     7
 10
-121.7316666666667
 20
-86.291666666666657
 30
0.0
 40
8.1442057291666661
  1
3
 50
90.0
 41
0.75
 11
-129.8758723958334
 21
-86.291666666666657
 31
0.0
 73
     3
  0
LINE
  5
87
  8
DIMNSIONS
  6
CONTINUOUS
 62
     7
 10
-93.75
 20
-74.75
 30
0.0
 11
-93.75
 21
-99.750000000000014
 31
0.0
  0
LINE
  5
88
  8
DIMNSIONS
  6
CONTINUOUS
 62
     7
 10
119.25
 20
-74.75
 30
0.0
 11
119.25
 21
-99.750000000000014
 31
0.0
  0
LINE
  5
89
  8
DIMNSIONS
  6
CONTINUOUS
 62
     7
 10
-93.75
 20
-93.75
 30
0.0
 11
119.25
 21
-93.75
 31
0.0
  0
LINE
  5
8A
  8
DIMNSIONS
  6
CONTINUOUS
 62
     7
 10
-93.75
 20
-93.75
 30
0.0
 11
-86.248132324218759
 21
-91.739880614549264
 31
0.0
  0
LINE
  5
8B
  8
DIMNSIONS
  6
CONTINUOUS
 62
     7
 10
-93.75
 20
-93.75
 30
0.0
 11
-86.248132324218759
 21
-95.760119385450722
 31
0.0
  0
LINE
  5
8C
  8
DIMNSIONS
  6
CONTINUOUS
 62
     7
 10
119.25
 20
-93.75
 30
0.0
 11
111.7481323242187
 21
-95.760119385450722
 31
0.0
  0
LINE
  5
8D
  8
DIMNSIONS
  6
CONTINUOUS
 62
     7
 10
119.25
 20
-93.75
 30
0.0
 11
111.7481323242187
 21
-91.739880614549264
 31
0.0
  0
TEXT
  5
8E
  8
DIMNSIONS
 62
     7
 10
4.812499999999984
 20
-90.768333333333345
 30
0.0
 40
8.1442057291666661
  1
213
 41
0.75
 11
4.8124999999999849
 21
-82.624127604166674
 31
0.0
 73
     3
  0
LINE
  5
8F
  8
DIMNSIONS
  6
CONTINUOUS
 62
     7
 10
-99.750000000000014
 20
6.3499999999999934
 30
0.0
 11
-124.75
 21
6.3499999999999934
 31
0.0
  0
LINE
  5
90
  8
DIMNSIONS
  6
CONTINUOUS
 62
     7
 10
-99.750000000000014
 20
180.34999999999999
 30
0.0
 11
-124.75
 21
180.34999999999999
 31
0.0
  0
LINE
  5
91
  8
DIMNSIONS
  6
CONTINUOUS
 62
     7
 10
-118.75
 20
6.3499999999999934
 30
0.0
 11
-118.75
 21
180.34999999999999
 31
0.0
  0
LINE
  5
92
  8
DIMNSIONS
  6
CONTINUOUS
 62
     7
 10
-118.75
 20
6.3499999999999934
 30
0.0
 11
-120.76011938545069
 21
13.85186767578125
 31
0.0
  0
LINE
  5
93
  8
DIMNSIONS
  6
CONTINUOUS
 62
     7
 10
-118.75
 20
6.3499999999999934
 30
0.0
 11
-116.73988061454919
 21
13.85186767578125
 31
0.0
  0
LINE
  5
94
  8
DIMNSIONS
  6
CONTINUOUS
 62
     7
 10
-118.75
 20
180.34999999999999
 30
0.0
 11
-116.73988061454919
 21
172.84813232421871
 31
0.0
  0
LINE
  5
95
  8
DIMNSIONS
  6
CONTINUOUS
 62
     7
 10
-118.75
 20
180.34999999999999
 30
0.0
 11
-120.76011938545069
 21
172.84813232421871
 31
0.0
  0
TEXT
  5
96
  8
DIMNSIONS
 62
     7
 10
-121.7316666666666
 20
85.41249999999998
 30
0.0
 40
8.1442057291666661
  1
174
 50
90.0
 41
0.75
 11
-129.87587239583331
 21
85.41249999999998
 31
0.0
 73
     3
  0
LINE
  5
97
  8
DIMNSIONS
  6
CONTINUOUS
 62
     7
 10
-99.750000000000014
 20
180.34999999999999
 30
0.0
 11
-124.75
 21
180.34999999999999
 31
0.0
  0
LINE
  5
98
  8
DIMNSIONS
  6
CONTINUOUS
 62
     7
 10
50.582489021745317
 20
199.34999999999999
 30
0.0
 11
-124.75
 21
199.34999999999999
 31
0.0
  0
LINE
  5
99
  8
DIMNSIONS
  6
CONTINUOUS
 62
     7
 10
-118.75
 20
199.34999999999999
 30
0.0
 11
-118.75
 21
180.34999999999999
 31
0.0
  0
LINE
  5
9A
  8
DIMNSIONS
  6
CONTINUOUS
 62
     7
 10
-118.75
 20
180.34999999999999
 30
0.0
 11
-118.75
 21
165.34999999999999
 31
0.0
  0
LINE
  5
9B
  8
DIMNSIONS
  6
CONTINUOUS
 62
     7
 10
-118.75
 20
180.34999999999999
 30
0.0
 11
-116.73988061454919
 21
172.84813232421871
 31
0.0
  0
LINE
  5
9C
  8
DIMNSIONS
  6
CONTINUOUS
 62
     7
 10
-118.75
 20
180.34999999999999
 30
0.0
 11
-120.76011938545069
 21
172.84813232421871
 31
0.0
  0
LINE
  5
9D
  8
DIMNSIONS
  6
CONTINUOUS
 62
     7
 10
-118.75
 20
199.34999999999999
 30
0.0
 11
-118.75
 21
216.83333333333329
 31
0.0
  0
LINE
  5
9E
  8
DIMNSIONS
  6
CONTINUOUS
 62
     7
 10
-118.75
 20
199.34999999999999
 30
0.0
 11
-120.76011938545069
 21
206.85186767578119
 31
0.0
  0
LINE
  5
9F
  8
DIMNSIONS
  6
CONTINUOUS
 62
     7
 10
-118.75
 20
199.34999999999999
 30
0.0
 11
-116.73988061454919
 21
206.85186767578119
 31
0.0
  0
TEXT
  5
A0
  8
DIMNSIONS
 62
     7
 10
-121.7316666666666
 20
206.25
 30
0.0
 40
8.1442057291666661
  1
19
 50
90.0
 41
0.75
 11
-129.87587239583331
 21
206.25
 31
0.0
 73
     3
  0
TEXT
  5
A1
  8
DATA
 62
     7
 10
250.0
 20
-210.288246439261
 30
0.0
 40
7.3297851562499989
  1
EXT-HDMI1.3-2-3GSDIS
 41
0.75
 11
250.0
 21
-202.95846128301099
 31
0.0
 73
     3
  0
TEXT
  5
A2
  8
DATA
 62
     7
 10
250.0
 20
-187.7900342102682
 30
0.0
 40
7.3297851562499989
  1
Gefen
 41
0.75
 11
250.0
 21
-180.46024905401811
 31
0.0
 73
     3
  0
TEXT
  5
A3
  8
DATA
 62
     7
 10
243.68394955381709
 20
-197.62233302707381
 30
0.0
 40
4.8865311328124994
  1
HDMI1.3 to 3GSDIスケーラー
 41
0.75
 11
243.68394955381709
 21
-192.7358018942613
 31
0.0
 73
     3
  0
TEXT
  5
A4
  8
DATA
 62
     7
 10
-139.99999999999989
 20
-230.21870421026821
 30
0.0
 40
4.8865234374999993
  1
仕様および外観は予告なく変更されることがありますので、ご了承ください。
 41
0.75
 11
-139.99999999999989
 21
-225.3321807727682
 31
0.0
 73
     3
  0
LINE
  5
A5
  8
DATA
  6
CONTINUOUS
 62
     7
 10
-93.75
 20
-68.75
 30
0.0
 11
-93.75
 21
-25.75
 31
0.0
  0
LINE
  5
A6
  8
DATA
  6
CONTINUOUS
 62
     7
 10
119.25
 20
-68.75
 30
0.0
 11
-93.75
 21
-68.75
 31
0.0
  0
LINE
  5
A7
  8
DATA
  6
CONTINUOUS
 62
     7
 10
119.25
 20
-25.75
 30
0.0
 11
119.25
 21
-68.75
 31
0.0
  0
LINE
  5
A8
  8
DATA
  6
CONTINUOUS
 62
     7
 10
-93.75
 20
-25.75
 30
0.0
 11
119.25
 21
-25.75
 31
0.0
  0
LINE
  5
A9
  8
DATA
  6
CONTINUOUS
 62
     7
 10
-93.75
 20
6.3499999999999934
 30
0.0
 11
-93.75
 21
180.34999999999999
 31
0.0
  0
LINE
  5
AA
  8
DATA
  6
CONTINUOUS
 62
     7
 10
119.25
 20
6.3499999999999934
 30
0.0
 11
-93.75
 21
6.3499999999999934
 31
0.0
  0
LINE
  5
AB
  8
DATA
  6
CONTINUOUS
 62
     7
 10
119.25
 20
180.34999999999999
 30
0.0
 11
119.25
 21
6.3499999999999934
 31
0.0
  0
LINE
  5
AC
  8
DATA
  6
CONTINUOUS
 62
     7
 10
-93.75
 20
180.34999999999999
 30
0.0
 11
119.25
 21
180.34999999999999
 31
0.0
  0
LINE
  5
AD
  8
DATA
  6
CONTINUOUS
 62
     7
 10
-88.250000000000014
 20
-71.75
 30
0.0
 11
-78.250000000000014
 21
-71.75
 31
0.0
  0
LINE
  5
AE
  8
DATA
  6
CONTINUOUS
 62
     7
 10
-88.250000000000014
 20
-71.75
 30
0.0
 11
-89.750000000000014
 21
-68.75
 31
0.0
  0
LINE
  5
AF
  8
DATA
  6
CONTINUOUS
 62
     7
 10
-78.250000000000014
 20
-71.75
 30
0.0
 11
-76.750000000000014
 21
-68.75
 31
0.0
  0
LINE
  5
B0
  8
DATA
  6
CONTINUOUS
 62
     7
 10
113.75
 20
-71.75
 30
0.0
 11
103.75
 21
-71.75
 31
0.0
  0
LINE
  5
B1
  8
DATA
  6
CONTINUOUS
 62
     7
 10
113.75
 20
-71.75
 30
0.0
 11
115.25
 21
-68.75
 31
0.0
  0
LINE
  5
B2
  8
DATA
  6
CONTINUOUS
 62
     7
 10
103.75
 20
-71.75
 30
0.0
 11
102.25
 21
-68.75
 31
0.0
  0
CIRCLE
  5
B3
  8
DATA
  6
CONTINUOUS
 62
     7
 10
-68.750000000000014
 20
-54.75
 30
0.0
 40
4.9000000000000048
  0
TEXT
  5
B4
  8
DATA
 62
     7
 10
-70.093303123130923
 20
-65.611065024685814
 30
0.0
 40
2.2803776041666661
  1
IR
 41
0.75
 11
-70.093303123130923
 21
-63.330687420519148
 31
0.0
 73
     3
  0
CIRCLE
  5
B5
  8
DATA
  6
CONTINUOUS
 62
     7
 10
95.249999999999986
 20
-53.75
 30
0.0
 40
1.4499999999999991
  0
CIRCLE
  5
B6
  8
DATA
  6
CONTINUOUS
 62
     7
 10
75.45662224506259
 20
-53.75
 30
0.0
 40
1.4499999999999951
  0
TEXT
  5
B7
  8
DATA
 62
     7
 10
72.153014206484301
 20
-61.529640633641158
 30
0.0
 40
2.2803776041666661
  1
3GSDI
 41
0.75
 11
72.153014206484301
 21
-59.249263029474498
 31
0.0
 73
     3
  0
TEXT
  5
B8
  8
DATA
 62
     7
 10
91.926951563985327
 20
-61.529640633641158
 30
0.0
 40
2.2803776041666661
  1
Power
 41
0.75
 11
91.926951563985327
 21
-59.249263029474498
 31
0.0
 73
     3
  0
TEXT
  5
B9
  8
DATA
 62
     7
 10
55.784117047335393
 20
-37.997817291999517
 30
0.0
 40
7.3297851562499989
  1
HDMIto3GSDI
 41
0.75
 11
55.784117047335393
 21
-30.66803213574952
 31
0.0
 73
     3
  0
TEXT
  5
BA
  8
DATA
 62
     7
 10
79.158668434005619
 20
-48.091679445332012
 30
0.0
 40
7.3297851562499989
  1
Scaler
 41
0.75
 11
79.158668434005619
 21
-40.761894289082008
 31
0.0
 73
     3
  0
LINE
  5
BB
  8
DATA
  6
CONTINUOUS
 62
     7
 10
119.25
 20
16.349999999999991
 30
0.0
 11
-93.75
 21
16.349999999999991
 31
0.0
  0
LINE
  5
BC
  8
DATA
  6
CONTINUOUS
 62
     7
 10
-93.75
 20
274.25000000025449
 30
0.0
 11
-93.75
 21
231.25000000025449
 31
0.0
  0
LINE
  5
BD
  8
DATA
  6
CONTINUOUS
 62
     7
 10
119.25
 20
274.25000000025449
 30
0.0
 11
-93.75
 21
274.25000000025449
 31
0.0
  0
LINE
  5
BE
  8
DATA
  6
CONTINUOUS
 62
     7
 10
119.25
 20
231.25000000025449
 30
0.0
 11
119.25
 21
274.25000000025449
 31
0.0
  0
LINE
  5
BF
  8
DATA
  6
CONTINUOUS
 62
     7
 10
-93.75
 20
231.25000000025449
 30
0.0
 11
119.25
 21
231.25000000025449
 31
0.0
  0
LINE
  5
C0
  8
DATA
  6
CONTINUOUS
 62
     7
 10
-88.250000000000014
 20
277.25000000025449
 30
0.0
 11
-78.250000000000014
 21
277.25000000025449
 31
0.0
  0
LINE
  5
C1
  8
DATA
  6
CONTINUOUS
 62
     7
 10
-88.250000000000014
 20
277.25000000025449
 30
0.0
 11
-89.750000000000014
 21
274.25000000025449
 31
0.0
  0
LINE
  5
C2
  8
DATA
  6
CONTINUOUS
 62
     7
 10
-78.250000000000014
 20
277.25000000025449
 30
0.0
 11
-76.750000000000014
 21
274.25000000025449
 31
0.0
  0
LINE
  5
C3
  8
DATA
  6
CONTINUOUS
 62
     7
 10
113.75
 20
277.25000000025449
 30
0.0
 11
103.75
 21
277.25000000025449
 31
0.0
  0
LINE
  5
C4
  8
DATA
  6
CONTINUOUS
 62
     7
 10
113.75
 20
277.25000000025449
 30
0.0
 11
115.25
 21
274.25000000025449
 31
0.0
  0
LINE
  5
C5
  8
DATA
  6
CONTINUOUS
 62
     7
 10
103.75
 20
277.25000000025449
 30
0.0
 11
102.25
 21
274.25000000025449
 31
0.0
  0
CIRCLE
  5
C6
  8
DATA
  6
CONTINUOUS
 62
     7
 10
-63.754993678993053
 20
257.25000000025449
 30
0.0
 40
4.7500000000001696
  0
POLYLINE
  5
C7
  8
DATA
  6
CONTINUOUS
 62
     7
 66
     1
 10
0.0
 20
0.0
 30
0.0
 70
     1
  0
VERTEX
  5
2B1
  8
DATA
  6
CONTINUOUS
 62
     7
 10
-67.796445563320646
 20
264.25000000025449
 30
0.0
  0
VERTEX
  5
2B2
  8
DATA
  6
CONTINUOUS
 62
     7
 10
-71.837897447648274
 20
257.25000000025449
 30
0.0
  0
VERTEX
  5
2B3
  8
DATA
  6
CONTINUOUS
 62
     7
 10
-67.796445563320646
 20
250.25000000025449
 30
0.0
  0
VERTEX
  5
2B4
  8
DATA
  6
CONTINUOUS
 62
     7
 10
-59.713541794665488
 20
250.25000000025449
 30
0.0
  0
VERTEX
  5
2B5
  8
DATA
  6
CONTINUOUS
 62
     7
 10
-55.672089910338109
 20
257.25000000025449
 30
0.0
  0
VERTEX
  5
2B6
  8
DATA
  6
CONTINUOUS
 62
     7
 10
-59.713541794665488
 20
264.25000000025449
 30
0.0
  0
SEQEND
  5
2B7
  8
DATA
  6
CONTINUOUS
 62
     7
  0
CIRCLE
  5
D0
  8
DATA
  6
CONTINUOUS
 62
     7
 10
-63.754993678993053
 20
257.25000000025449
 30
0.0
 40
1.500000000000056
  0
CIRCLE
  5
D1
  8
DATA
  6
CONTINUOUS
 62
     7
 10
-63.754993678993053
 20
257.25000000025449
 30
0.0
 40
0.5
  0
CIRCLE
  5
D2
  8
DATA
  6
CONTINUOUS
 62
     7
 10
-63.754993678993053
 20
257.25000000025449
 30
0.0
 40
8.0829037686548766
  0
CIRCLE
  5
D3
  8
DATA
  6
CONTINUOUS
 62
     7
 10
61.24773094366148
 20
257.25000000025449
 30
0.0
 40
4.7499999999998721
  0
POLYLINE
  5
D4
  8
DATA
  6
CONTINUOUS
 62
     7
 66
     1
 10
0.0
 20
0.0
 30
0.0
 70
     1
  0
VERTEX
  5
2B8
  8
DATA
  6
CONTINUOUS
 62
     7
 10
68.24773094366148
 20
261.29145188458182
 30
0.0
  0
VERTEX
  5
2B9
  8
DATA
  6
CONTINUOUS
 62
     7
 10
61.24773094366148
 20
265.3329037689092
 30
0.0
  0
VERTEX
  5
2BA
  8
DATA
  6
CONTINUOUS
 62
     7
 10
54.24773094366148
 20
261.29145188458182
 30
0.0
  0
VERTEX
  5
2BB
  8
DATA
  6
CONTINUOUS
 62
     7
 10
54.24773094366148
 20
253.20854811592719
 30
0.0
  0
VERTEX
  5
2BC
  8
DATA
  6
CONTINUOUS
 62
     7
 10
61.24773094366148
 20
249.1670962316
 30
0.0
  0
VERTEX
  5
2BD
  8
DATA
  6
CONTINUOUS
 62
     7
 10
68.24773094366148
 20
253.20854811592719
 30
0.0
  0
SEQEND
  5
2BE
  8
DATA
  6
CONTINUOUS
 62
     7
  0
CIRCLE
  5
DD
  8
DATA
  6
CONTINUOUS
 62
     7
 10
61.24773094366148
 20
257.25000000025449
 30
0.0
 40
1.4999999999999569
  0
CIRCLE
  5
DE
  8
DATA
  6
CONTINUOUS
 62
     7
 10
61.24773094366148
 20
257.25000000025449
 30
0.0
 40
0.4999999999999858
  0
CIRCLE
  5
DF
  8
DATA
  6
CONTINUOUS
 62
     7
 10
61.24773094366148
 20
257.25000000025449
 30
0.0
 40
8.0829037686547061
  0
CIRCLE
  5
E0
  8
DATA
  6
CONTINUOUS
 62
     7
 10
41.241265983696671
 20
256.60964959798702
 30
0.0
 40
4.1500000000000048
  0
CIRCLE
  5
E1
  8
DATA
  6
CONTINUOUS
 62
     7
 10
41.241265983696671
 20
256.60964959798702
 30
0.0
 40
1.75
  0
CIRCLE
  5
E2
  8
DATA
  6
CONTINUOUS
 62
     7
 10
96.25
 20
256.25000000025449
 30
0.0
 40
3.8999999999999981
  0
POLYLINE
  5
E3
  8
DATA
  6
CONTINUOUS
 62
     7
 66
     1
 10
0.0
 20
0.0
 30
0.0
 70
     1
  0
VERTEX
  5
2BF
  8
DATA
  6
CONTINUOUS
 62
     7
 10
93.536453734808731
 20
260.95000000025448
 30
0.0
  0
VERTEX
  5
2C0
  8
DATA
  6
CONTINUOUS
 62
     7
 10
90.822907469617505
 20
256.25000000025449
 30
0.0
  0
VERTEX
  5
2C1
  8
DATA
  6
CONTINUOUS
 62
     7
 10
93.536453734808731
 20
251.5500000002545
 30
0.0
  0
VERTEX
  5
2C2
  8
DATA
  6
CONTINUOUS
 62
     7
 10
98.963546265191212
 20
251.5500000002545
 30
0.0
  0
VERTEX
  5
2C3
  8
DATA
  6
CONTINUOUS
 62
     7
 10
101.6770925303825
 20
256.25000000025449
 30
0.0
  0
VERTEX
  5
2C4
  8
DATA
  6
CONTINUOUS
 62
     7
 10
98.963546265191212
 20
260.95000000025448
 30
0.0
  0
SEQEND
  5
2C5
  8
DATA
  6
CONTINUOUS
 62
     7
  0
CIRCLE
  5
EC
  8
DATA
  6
CONTINUOUS
 62
     7
 10
96.25
 20
256.25000000025449
 30
0.0
 40
0.5
  0
POLYLINE
  5
ED
  8
DATA
  6
CONTINUOUS
 62
     7
 66
     1
 10
0.0
 20
0.0
 30
0.0
 70
     1
  0
VERTEX
  5
2C6
  8
DATA
  6
CONTINUOUS
 62
     7
 10
73.499999999999986
 20
265.30039427231458
 30
0.0
  0
VERTEX
  5
2C7
  8
DATA
  6
CONTINUOUS
 62
     7
 10
84.999999999999986
 20
265.30039427231458
 30
0.0
  0
VERTEX
  5
2C8
  8
DATA
  6
CONTINUOUS
 62
     7
 10
84.999999999999986
 20
253.80039427231461
 30
0.0
  0
VERTEX
  5
2C9
  8
DATA
  6
CONTINUOUS
 62
     7
 10
73.499999999999986
 20
253.80039427231461
 30
0.0
  0
SEQEND
  5
2CA
  8
DATA
  6
CONTINUOUS
 62
     7
  0
POLYLINE
  5
F4
  8
DATA
  6
CONTINUOUS
 62
     7
 66
     1
 10
0.0
 20
0.0
 30
0.0
  0
VERTEX
  5
2CB
  8
DATA
  6
CONTINUOUS
 62
     7
 10
74.950000000000003
 20
256.4503942723145
 30
0.0
  0
VERTEX
  5
2CC
  8
DATA
  6
CONTINUOUS
 62
     7
 10
74.950000000000003
 20
263.85039427231459
 30
0.0
  0
VERTEX
  5
2CD
  8
DATA
  6
CONTINUOUS
 62
     7
 10
83.549999999999983
 20
263.85039427231459
 30
0.0
  0
VERTEX
  5
2CE
  8
DATA
  6
CONTINUOUS
 62
     7
 10
83.549999999999983
 20
256.4503942723145
 30
0.0
  0
SEQEND
  5
2CF
  8
DATA
  6
CONTINUOUS
 62
     7
  0
LINE
  5
FB
  8
DATA
  6
CONTINUOUS
 62
     7
 10
82.349999999999966
 20
255.25039427231451
 30
0.0
 11
76.149999999999977
 21
255.25039427231451
 31
0.0
  0
POLYLINE
  5
FC
  8
DATA
  6
CONTINUOUS
 62
     7
 66
     1
 10
0.0
 20
0.0
 30
0.0
 70
     1
  0
VERTEX
  5
2D0
  8
DATA
  6
CONTINUOUS
 62
     7
 10
76.249999999999986
 20
261.55039427231458
 30
0.0
  0
VERTEX
  5
2D1
  8
DATA
  6
CONTINUOUS
 62
     7
 10
82.249999999999986
 20
261.55039427231458
 30
0.0
  0
VERTEX
  5
2D2
  8
DATA
  6
CONTINUOUS
 62
     7
 10
82.249999999999986
 20
257.55039427231458
 30
0.0
  0
VERTEX
  5
2D3
  8
DATA
  6
CONTINUOUS
 62
     7
 10
76.249999999999986
 20
257.55039427231458
 30
0.0
  0
SEQEND
  5
2D4
  8
DATA
  6
CONTINUOUS
 62
     7
  0
LINE
  5
103
  8
DATA
  6
CONTINUOUS
 62
     7
 10
76.149999999999977
 20
255.25039427231451
 30
0.0
 11
74.950000000000003
 21
256.4503942723145
 31
0.0
  0
LINE
  5
104
  8
DATA
  6
CONTINUOUS
 62
     7
 10
82.349999999999966
 20
255.25039427231451
 30
0.0
 11
83.549999999999983
 21
256.4503942723145
 31
0.0
  0
TEXT
  5
105
  8
DATA
 62
     7
 10
100.52041172097761
 20
272.11621457871797
 30
0.0
 40
2.7703125000000002
  1
5V DC
 50
180.0
 41
0.75
 11
100.52041172097761
 21
269.34590207871798
 31
0.0
 73
     3
  0
TEXT
  5
106
  8
DATA
 62
     7
 10
84.549536326672325
 20
272.11621457871797
 30
0.0
 40
2.7703125000000002
  1
USB In
 50
180.0
 41
0.75
 11
84.549536326672325
 21
269.34590207871798
 31
0.0
 73
     3
  0
CIRCLE
  5
107
  8
DATA
  6
CONTINUOUS
 62
     7
 10
66.830151705025003
 20
240.27583410977371
 30
0.0
 40
1.1750000000000109
  0
POLYLINE
  5
108
  8
DATA
  6
CONTINUOUS
 62
     7
 66
     1
 10
0.0
 20
0.0
 30
0.0
 70
     1
  0
VERTEX
  5
2D5
  8
DATA
  6
CONTINUOUS
 62
     7
 10
66.830151705025003
 20
237.57583410977389
 30
0.0
  0
VERTEX
  5
2D6
  8
DATA
  6
CONTINUOUS
 62
     7
 10
69.168420295242811
 20
238.9258341097738
 30
0.0
  0
VERTEX
  5
2D7
  8
DATA
  6
CONTINUOUS
 62
     7
 10
69.168420295242811
 20
241.62583410977351
 30
0.0
  0
VERTEX
  5
2D8
  8
DATA
  6
CONTINUOUS
 62
     7
 10
66.830151705025003
 20
242.9758341097735
 30
0.0
  0
VERTEX
  5
2D9
  8
DATA
  6
CONTINUOUS
 62
     7
 10
64.491883114807024
 20
241.62583410977351
 30
0.0
  0
VERTEX
  5
2DA
  8
DATA
  6
CONTINUOUS
 62
     7
 10
64.491883114807024
 20
238.9258341097738
 30
0.0
  0
SEQEND
  5
2DB
  8
DATA
  6
CONTINUOUS
 62
     7
  0
CIRCLE
  5
111
  8
DATA
  6
CONTINUOUS
 62
     7
 10
91.830151705025116
 20
240.27583410977371
 30
0.0
 40
1.1750000000000389
  0
POLYLINE
  5
112
  8
DATA
  6
CONTINUOUS
 62
     7
 66
     1
 10
0.0
 20
0.0
 30
0.0
 70
     1
  0
VERTEX
  5
2DC
  8
DATA
  6
CONTINUOUS
 62
     7
 10
91.830151705025116
 20
237.57583410977389
 30
0.0
  0
VERTEX
  5
2DD
  8
DATA
  6
CONTINUOUS
 62
     7
 10
94.168420295242996
 20
238.9258341097738
 30
0.0
  0
VERTEX
  5
2DE
  8
DATA
  6
CONTINUOUS
 62
     7
 10
94.168420295242996
 20
241.62583410977351
 30
0.0
  0
VERTEX
  5
2DF
  8
DATA
  6
CONTINUOUS
 62
     7
 10
91.830151705025116
 20
242.9758341097735
 30
0.0
  0
VERTEX
  5
2E0
  8
DATA
  6
CONTINUOUS
 62
     7
 10
89.491883114807067
 20
241.62583410977351
 30
0.0
  0
VERTEX
  5
2E1
  8
DATA
  6
CONTINUOUS
 62
     7
 10
89.491883114807067
 20
238.9258341097738
 30
0.0
  0
SEQEND
  5
2E2
  8
DATA
  6
CONTINUOUS
 62
     7
  0
LINE
  5
11B
  8
DATA
  6
CONTINUOUS
 62
     7
 10
73.728388494836338
 20
244.2758341097736
 30
0.0
 11
84.931914915213554
 21
244.2758341097736
 31
0.0
  0
LINE
  5
11C
  8
DATA
  6
CONTINUOUS
 62
     7
 10
85.74441491521344
 20
236.2758341097738
 30
0.0
 11
72.915888494836338
 21
236.2758341097738
 31
0.0
  0
LINE
  5
11D
  8
DATA
  6
CONTINUOUS
 62
     7
 10
86.3151317624651
 20
243.0919617421566
 30
0.0
 11
87.127631762464986
 21
237.89196174215689
 31
0.0
  0
LINE
  5
11E
  8
DATA
  6
CONTINUOUS
 62
     7
 10
71.532671647584777
 20
237.89196174215689
 30
0.0
 11
72.345171647584763
 21
243.0919617421566
 31
0.0
  0
CIRCLE
  5
11F
  8
DATA
  6
CONTINUOUS
 62
     7
 10
79.356781475499872
 20
238.63952593862021
 30
0.0
 40
0.5
  0
ARC
  5
120
  8
DATA
  6
CONTINUOUS
 62
     7
 10
85.74441491521344
 20
237.6758341097738
 30
0.0
 40
1.399999999999977
 50
270.0
 51
8.8806591505205574
  0
ARC
  5
121
  8
DATA
  6
CONTINUOUS
 62
     7
 10
72.915888494836338
 20
237.6758341097738
 30
0.0
 40
1.400000000000019
 50
171.1193408494795
 51
270.0
  0
ARC
  5
122
  8
DATA
  6
CONTINUOUS
 62
     7
 10
84.931914915213554
 20
242.87583410977351
 30
0.0
 40
1.4000000000000281
 50
8.8806591505228312
 51
90.0
  0
ARC
  5
123
  8
DATA
  6
CONTINUOUS
 62
     7
 10
73.728388494836338
 20
242.87583410977351
 30
0.0
 40
1.4000000000001469
 50
90.0
 51
171.11934084947711
  0
CIRCLE
  5
124
  8
DATA
  6
CONTINUOUS
 62
     7
 10
81.856781475499872
 20
238.63952593862021
 30
0.0
 40
0.5
  0
CIRCLE
  5
125
  8
DATA
  6
CONTINUOUS
 62
     7
 10
84.356781475499872
 20
238.63952593862021
 30
0.0
 40
0.5
  0
CIRCLE
  5
126
  8
DATA
  6
CONTINUOUS
 62
     7
 10
76.856781475499872
 20
238.63952593862021
 30
0.0
 40
0.5
  0
CIRCLE
  5
127
  8
DATA
  6
CONTINUOUS
 62
     7
 10
74.356781475499872
 20
238.63952593862021
 30
0.0
 40
0.5
  0
CIRCLE
  5
128
  8
DATA
  6
CONTINUOUS
 62
     7
 10
80.552292651571122
 20
242.25804635738251
 30
0.0
 40
0.5
  0
CIRCLE
  5
129
  8
DATA
  6
CONTINUOUS
 62
     7
 10
83.052292651571122
 20
242.25804635738251
 30
0.0
 40
0.5
  0
CIRCLE
  5
12A
  8
DATA
  6
CONTINUOUS
 62
     7
 10
78.052292651571122
 20
242.25804635738251
 30
0.0
 40
0.5
  0
CIRCLE
  5
12B
  8
DATA
  6
CONTINUOUS
 62
     7
 10
75.552292651571122
 20
242.25804635738251
 30
0.0
 40
0.5
  0
TEXT
  5
12C
  8
DATA
 62
     7
 10
88.237487784783568
 20
249.05427103902241
 30
0.0
 40
2.7703125000000002
  1
RS-232/422
 50
180.0
 41
0.75
 11
88.237487784783568
 21
246.28395853902239
 31
0.0
 73
     3
  0
TEXT
  5
12D
  8
DATA
 62
     7
 10
47.868864114308408
 20
271.95486371505638
 30
0.0
 40
2.7703125000000002
  1
Coax Out
 50
180.0
 41
0.75
 11
47.868864114308408
 21
269.18455121505639
 31
0.0
 73
     3
  0
TEXT
  5
12E
  8
DATA
 62
     7
 10
67.393452951465576
 20
272.0647649030592
 30
0.0
 40
2.7703125000000002
  1
Ref In 
 50
180.0
 41
0.75
 11
67.393452951465576
 21
269.29445240305921
 31
0.0
 73
     3
  0
TEXT
  5
12F
  8
DATA
 62
     7
 10
-58.383188557881553
 20
272.13653366582082
 30
0.0
 40
2.7703125000000002
  1
Out B
 50
180.0
 41
0.75
 11
-58.383188557881553
 21
269.36622116582078
 31
0.0
 73
     3
  0
TEXT
  5
130
  8
DATA
 62
     7
 10
3.8954656013098372
 20
271.98898126285422
 30
0.0
 40
2.7703125000000002
  1
MDMI In
 50
180.0
 41
0.75
 11
3.8954656013098359
 21
269.21866876285418
 31
0.0
 73
     3
  0
POLYLINE
  5
131
  8
DATA
  6
CONTINUOUS
 62
     7
 66
     1
 10
0.0
 20
0.0
 30
0.0
 70
     1
  0
VERTEX
  5
2E3
  8
DATA
  6
CONTINUOUS
 62
     7
 10
-4.7553618779051732
 20
250.7805826094733
 30
0.0
  0
VERTEX
  5
2E4
  8
DATA
  6
CONTINUOUS
 62
     7
 10
-2.2553618779051718
 20
249.33720693649931
 30
0.0
  0
VERTEX
  5
2E5
  8
DATA
  6
CONTINUOUS
 62
     7
 10
0.2446381220948268
 20
250.7805826094733
 30
0.0
  0
VERTEX
  5
2E6
  8
DATA
  6
CONTINUOUS
 62
     7
 10
0.2446381220948268
 20
253.66733395542141
 30
0.0
  0
VERTEX
  5
2E7
  8
DATA
  6
CONTINUOUS
 62
     7
 10
-2.2553618779051718
 20
255.11070962839551
 30
0.0
  0
VERTEX
  5
2E8
  8
DATA
  6
CONTINUOUS
 62
     7
 10
-4.7553618779051732
 20
253.66733395542141
 30
0.0
  0
SEQEND
  5
2E9
  8
DATA
  6
CONTINUOUS
 62
     7
  0
CIRCLE
  5
13A
  8
DATA
  6
CONTINUOUS
 62
     7
 10
-2.2553618779051718
 20
252.2239582824474
 30
0.0
 40
1.200000000000045
  0
LINE
  5
13B
  8
DATA
  6
CONTINUOUS
 62
     7
 10
-10.105361877905141
 20
259.22395828244743
 30
0.0
 11
5.5946381220948487
 21
259.22395828244743
 31
0.0
  0
LINE
  5
13C
  8
DATA
  6
CONTINUOUS
 62
     7
 10
-10.105361877905141
 20
259.22395828244743
 30
0.0
 11
-10.105361877905141
 21
263.52395828244738
 31
0.0
  0
LINE
  5
13D
  8
DATA
  6
CONTINUOUS
 62
     7
 10
5.5946381220948487
 20
259.22395828244743
 30
0.0
 11
5.5946381220948487
 21
263.52395828244738
 31
0.0
  0
LINE
  5
13E
  8
DATA
  6
CONTINUOUS
 62
     7
 10
-10.105361877905141
 20
263.52395828244738
 30
0.0
 11
-7.5053618779051732
 21
265.22395828244743
 31
0.0
  0
LINE
  5
13F
  8
DATA
  6
CONTINUOUS
 62
     7
 10
5.5946381220948487
 20
263.52395828244738
 30
0.0
 11
2.9946381220948259
 21
265.22395828244743
 31
0.0
  0
LINE
  5
140
  8
DATA
  6
CONTINUOUS
 62
     7
 10
-7.5053618779051732
 20
265.22395828244743
 30
0.0
 11
2.9946381220948259
 21
265.22395828244743
 31
0.0
  0
POLYLINE
  5
141
  8
DATA
  6
CONTINUOUS
 62
     7
 66
     1
 10
0.0
 20
0.0
 30
0.0
 70
     1
  0
VERTEX
  5
2EA
  8
DATA
  6
CONTINUOUS
 62
     7
 10
-7.2553618779051732
 20
262.01012145694023
 30
0.0
  0
VERTEX
  5
2EB
  8
DATA
  6
CONTINUOUS
 62
     7
 10
2.7446381220948259
 20
262.01012145694023
 30
0.0
  0
VERTEX
  5
2EC
  8
DATA
  6
CONTINUOUS
 62
     7
 10
2.7446381220948259
 20
261.51012145694023
 30
0.0
  0
VERTEX
  5
2ED
  8
DATA
  6
CONTINUOUS
 62
     7
 10
-7.2553618779051732
 20
261.51012145694023
 30
0.0
  0
SEQEND
  5
2EE
  8
DATA
  6
CONTINUOUS
 62
     7
  0
TEXT
  5
148
  8
DATA
 62
     7
 10
-46.879325319813951
 20
245.37352895158779
 30
0.0
 40
2.7703125000000002
  1
3GSDI
 50
180.0
 41
0.75
 11
-46.879325319813951
 21
242.6032164515878
 31
0.0
 73
     3
  0
LINE
  5
149
  8
DATA
  6
CONTINUOUS
 62
     7
 10
-59.136390722802972
 20
196.34999999999999
 30
0.0
 11
-68.636390722802972
 21
196.34999999999999
 31
0.0
  0
LINE
  5
14A
  8
DATA
  6
CONTINUOUS
 62
     7
 10
37.099999999999973
 20
187.34999999999999
 30
0.0
 11
37.099999999999973
 21
180.34999999999999
 31
0.0
  0
LINE
  5
14B
  8
DATA
  6
CONTINUOUS
 62
     7
 10
45.399999999999991
 20
187.34999999999999
 30
0.0
 11
45.399999999999991
 21
180.34999999999999
 31
0.0
  0
LINE
  5
14C
  8
DATA
  6
CONTINUOUS
 62
     7
 10
37.099999999999973
 20
187.34999999999999
 30
0.0
 11
45.399999999999991
 21
187.34999999999999
 31
0.0
  0
LINE
  5
14D
  8
DATA
  6
CONTINUOUS
 62
     7
 10
64.491883114807024
 20
185.34999999999999
 30
0.0
 11
64.491883114807024
 21
180.34999999999999
 31
0.0
  0
LINE
  5
14E
  8
DATA
  6
CONTINUOUS
 62
     7
 10
69.168420295242811
 20
185.34999999999999
 30
0.0
 11
69.168420295242811
 21
180.34999999999999
 31
0.0
  0
LINE
  5
14F
  8
DATA
  6
CONTINUOUS
 62
     7
 10
89.491883114807067
 20
185.34999999999999
 30
0.0
 11
89.491883114807067
 21
180.34999999999999
 31
0.0
  0
LINE
  5
150
  8
DATA
  6
CONTINUOUS
 62
     7
 10
94.168420295242996
 20
185.34999999999999
 30
0.0
 11
94.168420295242996
 21
180.34999999999999
 31
0.0
  0
LINE
  5
151
  8
DATA
  6
CONTINUOUS
 62
     7
 10
71.517943865105025
 20
185.34999999999999
 30
0.0
 11
71.517943865105025
 21
180.34999999999999
 31
0.0
  0
LINE
  5
152
  8
DATA
  6
CONTINUOUS
 62
     7
 10
87.138748367733825
 20
185.34999999999999
 30
0.0
 11
87.138748367733825
 21
180.34999999999999
 31
0.0
  0
LINE
  5
153
  8
DATA
  6
CONTINUOUS
 62
     7
 10
64.491883114807024
 20
185.34999999999999
 30
0.0
 11
69.168420295242811
 21
185.34999999999999
 31
0.0
  0
LINE
  5
154
  8
DATA
  6
CONTINUOUS
 62
     7
 10
71.517943865105025
 20
185.34999999999999
 30
0.0
 11
87.138748367733825
 21
185.34999999999999
 31
0.0
  0
LINE
  5
155
  8
DATA
  6
CONTINUOUS
 62
     7
 10
89.491883114807067
 20
185.34999999999999
 30
0.0
 11
94.168420295242996
 21
185.34999999999999
 31
0.0
  0
LINE
  5
156
  8
DATA
  6
CONTINUOUS
 62
     7
 10
100.15000000000001
 20
186.34999999999999
 30
0.0
 11
92.349999999999994
 21
186.34999999999999
 31
0.0
  0
LINE
  5
157
  8
DATA
  6
CONTINUOUS
 62
     7
 10
101.6770925303825
 20
182.34999999999999
 30
0.0
 11
101.6770925303825
 21
180.34999999999999
 31
0.0
  0
LINE
  5
158
  8
DATA
  6
CONTINUOUS
 62
     7
 10
92.349999999999994
 20
186.34999999999999
 30
0.0
 11
92.349999999999994
 21
185.34999999999999
 31
0.0
  0
LINE
  5
159
  8
DATA
  6
CONTINUOUS
 62
     7
 10
100.15000000000001
 20
186.34999999999999
 30
0.0
 11
100.15000000000001
 21
182.34999999999999
 31
0.0
  0
LINE
  5
15A
  8
DATA
  6
CONTINUOUS
 62
     7
 10
101.6770925303825
 20
182.34999999999999
 30
0.0
 11
94.168420295242996
 21
182.34999999999999
 31
0.0
  0
LINE
  5
15B
  8
DATA
  6
CONTINUOUS
 62
     7
 10
-4.7304965339573348
 20
184.84999999999999
 30
0.0
 11
-4.7304965339573348
 21
180.34999999999999
 31
0.0
  0
LINE
  5
15C
  8
DATA
  6
CONTINUOUS
 62
     7
 10
0.2695034660426643
 20
184.84999999999999
 30
0.0
 11
0.2695034660426643
 21
180.34999999999999
 31
0.0
  0
LINE
  5
15D
  8
DATA
  6
CONTINUOUS
 62
     7
 10
0.2695034660426643
 20
184.84999999999999
 30
0.0
 11
-4.7304965339573348
 21
184.84999999999999
 31
0.0
  0
LINE
  5
15E
  8
DATA
  6
CONTINUOUS
 62
     7
 10
-68.636390722802972
 20
196.34999999999999
 30
0.0
 11
-68.636390722802972
 21
184.84999999999999
 31
0.0
  0
LINE
  5
15F
  8
DATA
  6
CONTINUOUS
 62
     7
 10
-59.136390722802972
 20
196.34999999999999
 30
0.0
 11
-59.136390722802972
 21
184.84999999999999
 31
0.0
  0
LINE
  5
160
  8
DATA
  6
CONTINUOUS
 62
     7
 10
-71.969294491457745
 20
184.84999999999999
 30
0.0
 11
-55.803486954148198
 21
184.84999999999999
 31
0.0
  0
LINE
  5
161
  8
DATA
  6
CONTINUOUS
 62
     7
 10
-71.969294491457745
 20
184.84999999999999
 30
0.0
 11
-71.969294491457745
 21
180.34999999999999
 31
0.0
  0
LINE
  5
162
  8
DATA
  6
CONTINUOUS
 62
     7
 10
-55.803486954148198
 20
184.84999999999999
 30
0.0
 11
-55.803486954148198
 21
180.34999999999999
 31
0.0
  0
LINE
  5
163
  8
DATA
  6
CONTINUOUS
 62
     7
 10
-67.927842607130358
 20
184.84999999999999
 30
0.0
 11
-67.927842607130358
 21
180.34999999999999
 31
0.0
  0
LINE
  5
164
  8
DATA
  6
CONTINUOUS
 62
     7
 10
-59.844938838475592
 20
184.84999999999999
 30
0.0
 11
-59.844938838475592
 21
180.34999999999999
 31
0.0
  0
POLYLINE
  5
165
  8
DATA
  6
CONTINUOUS
 62
     7
 66
     1
 10
0.0
 20
0.0
 30
0.0
  0
VERTEX
  5
2EF
  8
DATA
  6
CONTINUOUS
 62
     7
 10
-59.09103613201647
 20
258.15000000025452
 30
0.0
  0
VERTEX
  5
2F0
  8
DATA
  6
CONTINUOUS
 62
     7
 10
-58.254993678992882
 20
258.15000000025452
 30
0.0
  0
VERTEX
  5
2F1
  8
DATA
  6
CONTINUOUS
 62
     7
 10
-58.254993678992882
 20
256.3500000002544
 30
0.0
  0
VERTEX
  5
2F2
  8
DATA
  6
CONTINUOUS
 62
     7
 10
-59.09103613201647
 20
256.3500000002544
 30
0.0
  0
SEQEND
  5
2F3
  8
DATA
  6
CONTINUOUS
 62
     7
  0
POLYLINE
  5
16C
  8
DATA
  6
CONTINUOUS
 62
     7
 66
     1
 10
0.0
 20
0.0
 30
0.0
  0
VERTEX
  5
2F4
  8
DATA
  6
CONTINUOUS
 62
     7
 10
-68.418951225969707
 20
256.3500000002544
 30
0.0
  0
VERTEX
  5
2F5
  8
DATA
  6
CONTINUOUS
 62
     7
 10
-69.25499367899333
 20
256.3500000002544
 30
0.0
  0
VERTEX
  5
2F6
  8
DATA
  6
CONTINUOUS
 62
     7
 10
-69.25499367899333
 20
258.15000000025452
 30
0.0
  0
VERTEX
  5
2F7
  8
DATA
  6
CONTINUOUS
 62
     7
 10
-68.418951225969707
 20
258.15000000025452
 30
0.0
  0
SEQEND
  5
2F8
  8
DATA
  6
CONTINUOUS
 62
     7
  0
POLYLINE
  5
173
  8
DATA
  6
CONTINUOUS
 62
     7
 66
     1
 10
0.0
 20
0.0
 30
0.0
  0
VERTEX
  5
2F9
  8
DATA
  6
CONTINUOUS
 62
     7
 10
62.147730943661479
 20
252.5860424532782
 30
0.0
  0
VERTEX
  5
2FA
  8
DATA
  6
CONTINUOUS
 62
     7
 10
62.147730943661479
 20
251.7500000002546
 30
0.0
  0
VERTEX
  5
2FB
  8
DATA
  6
CONTINUOUS
 62
     7
 10
60.347730943661482
 20
251.7500000002546
 30
0.0
  0
VERTEX
  5
2FC
  8
DATA
  6
CONTINUOUS
 62
     7
 10
60.347730943661482
 20
252.5860424532782
 30
0.0
  0
SEQEND
  5
2FD
  8
DATA
  6
CONTINUOUS
 62
     7
  0
POLYLINE
  5
17A
  8
DATA
  6
CONTINUOUS
 62
     7
 66
     1
 10
0.0
 20
0.0
 30
0.0
  0
VERTEX
  5
2FE
  8
DATA
  6
CONTINUOUS
 62
     7
 10
60.347730943661482
 20
261.91395754723078
 30
0.0
  0
VERTEX
  5
2FF
  8
DATA
  6
CONTINUOUS
 62
     7
 10
60.347730943661482
 20
262.75000000025437
 30
0.0
  0
VERTEX
  5
300
  8
DATA
  6
CONTINUOUS
 62
     7
 10
62.147730943661479
 20
262.75000000025437
 30
0.0
  0
VERTEX
  5
301
  8
DATA
  6
CONTINUOUS
 62
     7
 10
62.147730943661479
 20
261.91395754723078
 30
0.0
  0
SEQEND
  5
302
  8
DATA
  6
CONTINUOUS
 62
     7
  0
POLYLINE
  5
181
  8
DATA
  6
CONTINUOUS
 62
     7
 66
     1
 10
0.0
 20
0.0
 30
0.0
  0
VERTEX
  5
303
  8
DATA
  6
CONTINUOUS
 62
     7
 10
-59.136390722802972
 20
193.25
 30
0.0
  0
VERTEX
  5
304
  8
DATA
  6
CONTINUOUS
 62
     7
 10
-58.386390722802972
 20
193.25
 30
0.0
  0
VERTEX
  5
305
  8
DATA
  6
CONTINUOUS
 62
     7
 10
-58.386390722802972
 20
191.44999999999999
 30
0.0
  0
VERTEX
  5
306
  8
DATA
  6
CONTINUOUS
 62
     7
 10
-59.136390722802972
 20
191.44999999999999
 30
0.0
  0
SEQEND
  5
307
  8
DATA
  6
CONTINUOUS
 62
     7
  0
POLYLINE
  5
188
  8
DATA
  6
CONTINUOUS
 62
     7
 66
     1
 10
0.0
 20
0.0
 30
0.0
  0
VERTEX
  5
308
  8
DATA
  6
CONTINUOUS
 62
     7
 10
-68.636390722802972
 20
191.44999999999999
 30
0.0
  0
VERTEX
  5
309
  8
DATA
  6
CONTINUOUS
 62
     7
 10
-69.386390722802972
 20
191.44999999999999
 30
0.0
  0
VERTEX
  5
30A
  8
DATA
  6
CONTINUOUS
 62
     7
 10
-69.386390722802972
 20
193.25
 30
0.0
  0
VERTEX
  5
30B
  8
DATA
  6
CONTINUOUS
 62
     7
 10
-68.636390722802972
 20
193.25
 30
0.0
  0
SEQEND
  5
30C
  8
DATA
  6
CONTINUOUS
 62
     7
  0
LINE
  5
18F
  8
DATA
  6
CONTINUOUS
 62
     7
 10
-34.000000000000007
 20
196.34999999999999
 30
0.0
 11
-43.500000000000021
 21
196.34999999999999
 31
0.0
  0
LINE
  5
190
  8
DATA
  6
CONTINUOUS
 62
     7
 10
-43.500000000000021
 20
196.34999999999999
 30
0.0
 11
-43.500000000000021
 21
184.84999999999999
 31
0.0
  0
LINE
  5
191
  8
DATA
  6
CONTINUOUS
 62
     7
 10
-34.000000000000007
 20
196.34999999999999
 30
0.0
 11
-34.000000000000007
 21
184.84999999999999
 31
0.0
  0
LINE
  5
192
  8
DATA
  6
CONTINUOUS
 62
     7
 10
-46.832903768654781
 20
184.84999999999999
 30
0.0
 11
-30.667096231345241
 21
184.84999999999999
 31
0.0
  0
LINE
  5
193
  8
DATA
  6
CONTINUOUS
 62
     7
 10
-46.832903768654781
 20
184.84999999999999
 30
0.0
 11
-46.832903768654781
 21
180.34999999999999
 31
0.0
  0
LINE
  5
194
  8
DATA
  6
CONTINUOUS
 62
     7
 10
-30.667096231345241
 20
184.84999999999999
 30
0.0
 11
-30.667096231345241
 21
180.34999999999999
 31
0.0
  0
LINE
  5
195
  8
DATA
  6
CONTINUOUS
 62
     7
 10
-42.791451884327387
 20
184.84999999999999
 30
0.0
 11
-42.791451884327387
 21
180.34999999999999
 31
0.0
  0
LINE
  5
196
  8
DATA
  6
CONTINUOUS
 62
     7
 10
-34.708548115672642
 20
184.84999999999999
 30
0.0
 11
-34.708548115672642
 21
180.34999999999999
 31
0.0
  0
POLYLINE
  5
197
  8
DATA
  6
CONTINUOUS
 62
     7
 66
     1
 10
0.0
 20
0.0
 30
0.0
  0
VERTEX
  5
30D
  8
DATA
  6
CONTINUOUS
 62
     7
 10
-34.000000000000007
 20
193.25
 30
0.0
  0
VERTEX
  5
30E
  8
DATA
  6
CONTINUOUS
 62
     7
 10
-33.250000000000007
 20
193.25
 30
0.0
  0
VERTEX
  5
30F
  8
DATA
  6
CONTINUOUS
 62
     7
 10
-33.250000000000007
 20
191.44999999999999
 30
0.0
  0
VERTEX
  5
310
  8
DATA
  6
CONTINUOUS
 62
     7
 10
-34.000000000000007
 20
191.44999999999999
 30
0.0
  0
SEQEND
  5
311
  8
DATA
  6
CONTINUOUS
 62
     7
  0
POLYLINE
  5
19E
  8
DATA
  6
CONTINUOUS
 62
     7
 66
     1
 10
0.0
 20
0.0
 30
0.0
  0
VERTEX
  5
312
  8
DATA
  6
CONTINUOUS
 62
     7
 10
-43.500000000000021
 20
191.44999999999999
 30
0.0
  0
VERTEX
  5
313
  8
DATA
  6
CONTINUOUS
 62
     7
 10
-44.250000000000021
 20
191.44999999999999
 30
0.0
  0
VERTEX
  5
314
  8
DATA
  6
CONTINUOUS
 62
     7
 10
-44.250000000000021
 20
193.25
 30
0.0
  0
VERTEX
  5
315
  8
DATA
  6
CONTINUOUS
 62
     7
 10
-43.500000000000021
 20
193.25
 30
0.0
  0
SEQEND
  5
316
  8
DATA
  6
CONTINUOUS
 62
     7
  0
LINE
  5
1A5
  8
DATA
  6
CONTINUOUS
 62
     7
 10
66.082489021745275
 20
199.34999999999999
 30
0.0
 11
56.58248902174531
 21
199.34999999999999
 31
0.0
  0
LINE
  5
1A6
  8
DATA
  6
CONTINUOUS
 62
     7
 10
56.58248902174531
 20
199.34999999999999
 30
0.0
 11
56.58248902174531
 21
184.84999999999999
 31
0.0
  0
LINE
  5
1A7
  8
DATA
  6
CONTINUOUS
 62
     7
 10
66.082489021745275
 20
199.34999999999999
 30
0.0
 11
66.082489021745275
 21
185.34999999999999
 31
0.0
  0
LINE
  5
1A8
  8
DATA
  6
CONTINUOUS
 62
     7
 10
53.249585253090537
 20
184.84999999999999
 30
0.0
 11
64.491883114807024
 21
184.84999999999999
 31
0.0
  0
LINE
  5
1A9
  8
DATA
  6
CONTINUOUS
 62
     7
 10
69.168420295242811
 20
184.84999999999999
 30
0.0
 11
69.415392790400006
 21
184.84999999999999
 31
0.0
  0
LINE
  5
1AA
  8
DATA
  6
CONTINUOUS
 62
     7
 10
53.249585253090537
 20
184.84999999999999
 30
0.0
 11
53.249585253090537
 21
180.34999999999999
 31
0.0
  0
LINE
  5
1AB
  8
DATA
  6
CONTINUOUS
 62
     7
 10
69.415392790400006
 20
184.84999999999999
 30
0.0
 11
69.415392790400006
 21
180.34999999999999
 31
0.0
  0
LINE
  5
1AC
  8
DATA
  6
CONTINUOUS
 62
     7
 10
57.291037137417931
 20
184.84999999999999
 30
0.0
 11
57.291037137417931
 21
180.34999999999999
 31
0.0
  0
POLYLINE
  5
1AD
  8
DATA
  6
CONTINUOUS
 62
     7
 66
     1
 10
0.0
 20
0.0
 30
0.0
  0
VERTEX
  5
317
  8
DATA
  6
CONTINUOUS
 62
     7
 10
66.082489021745275
 20
196.25
 30
0.0
  0
VERTEX
  5
318
  8
DATA
  6
CONTINUOUS
 62
     7
 10
66.832489021745261
 20
196.25
 30
0.0
  0
VERTEX
  5
319
  8
DATA
  6
CONTINUOUS
 62
     7
 10
66.832489021745261
 20
194.44999999999999
 30
0.0
  0
VERTEX
  5
31A
  8
DATA
  6
CONTINUOUS
 62
     7
 10
66.082489021745275
 20
194.44999999999999
 30
0.0
  0
SEQEND
  5
31B
  8
DATA
  6
CONTINUOUS
 62
     7
  0
POLYLINE
  5
1B4
  8
DATA
  6
CONTINUOUS
 62
     7
 66
     1
 10
0.0
 20
0.0
 30
0.0
  0
VERTEX
  5
31C
  8
DATA
  6
CONTINUOUS
 62
     7
 10
56.58248902174531
 20
194.44999999999999
 30
0.0
  0
VERTEX
  5
31D
  8
DATA
  6
CONTINUOUS
 62
     7
 10
55.83248902174531
 20
194.44999999999999
 30
0.0
  0
VERTEX
  5
31E
  8
DATA
  6
CONTINUOUS
 62
     7
 10
55.83248902174531
 20
196.25
 30
0.0
  0
VERTEX
  5
31F
  8
DATA
  6
CONTINUOUS
 62
     7
 10
56.58248902174531
 20
196.25
 30
0.0
  0
SEQEND
  5
320
  8
DATA
  6
CONTINUOUS
 62
     7
  0
LINE
  5
1BB
  8
DATA
  6
CONTINUOUS
 62
     7
 10
-2.2304965339573362
 20
184.84999999999999
 30
0.0
 11
-2.2304965339573362
 21
180.34999999999999
 31
0.0
  0
ARC
  5
1BC
  8
DATA
  6
CONTINUOUS
 62
     7
 10
95.249999999999986
 20
6.4247389198481519
 30
0.0
 40
1.4500000000000011
 50
182.95456765995169
 51
357.04543234004831
  0
ARC
  5
1BD
  8
DATA
  6
CONTINUOUS
 62
     7
 10
75.45662224506259
 20
6.7112881433995133
 30
0.0
 40
1.45
 50
194.4280615488623
 51
345.57193845113761
  0
LINE
  5
1BE
  8
DATA
  6
CONTINUOUS
 62
     7
 10
144.94999999999999
 20
-68.75
 30
0.0
 11
316.55000000000001
 21
-68.75
 31
0.0
  0
LINE
  5
1BF
  8
DATA
  6
CONTINUOUS
 62
     7
 10
144.94999999999999
 20
-25.75
 30
0.0
 11
317.75
 21
-25.75
 31
0.0
  0
LINE
  5
1C0
  8
DATA
  6
CONTINUOUS
 62
     7
 10
143.75
 20
-67.550000000000011
 30
0.0
 11
143.75
 21
-26.949999999999989
 31
0.0
  0
LINE
  5
1C1
  8
DATA
  6
CONTINUOUS
 62
     7
 10
317.75
 20
-67.550000000000011
 30
0.0
 11
317.75
 21
-25.75
 31
0.0
  0
LINE
  5
1C2
  8
DATA
  6
CONTINUOUS
 62
     7
 10
158.8593908522989
 20
-71.75
 30
0.0
 11
148.8593908522989
 21
-71.75
 31
0.0
  0
LINE
  5
1C3
  8
DATA
  6
CONTINUOUS
 62
     7
 10
158.8593908522989
 20
-71.75
 30
0.0
 11
160.3593908522989
 21
-68.75
 31
0.0
  0
LINE
  5
1C4
  8
DATA
  6
CONTINUOUS
 62
     7
 10
148.8593908522989
 20
-71.75
 30
0.0
 11
147.3593908522989
 21
-68.75
 31
0.0
  0
LINE
  5
1C5
  8
DATA
  6
CONTINUOUS
 62
     7
 10
302.36844702894251
 20
-71.75
 30
0.0
 11
292.36844702894251
 21
-71.75
 31
0.0
  0
LINE
  5
1C6
  8
DATA
  6
CONTINUOUS
 62
     7
 10
302.36844702894251
 20
-71.75
 30
0.0
 11
303.86844702894251
 21
-68.75
 31
0.0
  0
LINE
  5
1C7
  8
DATA
  6
CONTINUOUS
 62
     7
 10
292.36844702894251
 20
-71.75
 30
0.0
 11
290.86844702894251
 21
-68.75
 31
0.0
  0
LINE
  5
1C8
  8
DATA
  6
CONTINUOUS
 62
     7
 10
144.94999999999999
 20
-66.350000000000023
 30
0.0
 11
144.94999999999999
 21
-28.149999999999981
 31
0.0
  0
LINE
  5
1C9
  8
DATA
  6
CONTINUOUS
 62
     7
 10
146.15000000000001
 20
-26.949999999999989
 30
0.0
 11
152.75
 21
-26.949999999999989
 31
0.0
  0
LINE
  5
1CA
  8
DATA
  6
CONTINUOUS
 62
     7
 10
146.15000000000001
 20
-67.550000000000011
 30
0.0
 11
150.75
 21
-67.550000000000011
 31
0.0
  0
LINE
  5
1CB
  8
DATA
  6
CONTINUOUS
 62
     7
 10
152.75
 20
-26.949999999999989
 30
0.0
 11
152.75
 21
-25.75
 31
0.0
  0
LINE
  5
1CC
  8
DATA
  6
CONTINUOUS
 62
     7
 10
150.75
 20
-68.75
 30
0.0
 11
150.75
 21
-67.550000000000011
 31
0.0
  0
ARC
  5
1CD
  8
DATA
  6
CONTINUOUS
 62
     7
 10
144.94999999999999
 20
-26.949999999999989
 30
0.0
 40
1.199999999999988
 50
90.0
 51
180.0
  0
ARC
  5
1CE
  8
DATA
  6
CONTINUOUS
 62
     7
 10
146.15000000000001
 20
-28.149999999999981
 30
0.0
 40
1.199999999999988
 50
90.0
 51
180.0
  0
ARC
  5
1CF
  8
DATA
  6
CONTINUOUS
 62
     7
 10
146.15000000000001
 20
-66.350000000000023
 30
0.0
 40
1.200000000000002
 50
180.0
 51
270.0
  0
ARC
  5
1D0
  8
DATA
  6
CONTINUOUS
 62
     7
 10
144.94999999999999
 20
-67.550000000000011
 30
0.0
 40
1.200000000000002
 50
180.0
 51
270.0
  0
LINE
  5
1D1
  8
DATA
  6
CONTINUOUS
 62
     7
 10
305.94999999999999
 20
-68.75
 30
0.0
 11
305.94999999999999
 21
-67.550000000000011
 31
0.0
  0
LINE
  5
1D2
  8
DATA
  6
CONTINUOUS
 62
     7
 10
316.55000000000001
 20
-66.350000000000023
 30
0.0
 11
316.55000000000001
 21
-26.949999999999989
 31
0.0
  0
LINE
  5
1D3
  8
DATA
  6
CONTINUOUS
 62
     7
 10
305.94999999999999
 20
-67.550000000000011
 30
0.0
 11
315.35000000000002
 21
-67.550000000000011
 31
0.0
  0
ARC
  5
1D4
  8
DATA
  6
CONTINUOUS
 62
     7
 10
315.35000000000002
 20
-66.350000000000023
 30
0.0
 40
1.199999999999988
 50
270.0
 51
0.0
  0
ARC
  5
1D5
  8
DATA
  6
CONTINUOUS
 62
     7
 10
316.55000000000001
 20
-67.550000000000011
 30
0.0
 40
1.199999999999988
 50
270.0
 51
0.0
  0
CIRCLE
  5
1D6
  8
DATA
  6
CONTINUOUS
 62
     7
 10
157.25
 20
-62.75
 30
0.0
 40
2.450000000000002
  0
LINE
  5
1D7
  8
DATA
  6
CONTINUOUS
 62
     7
 10
156.0
 20
-62.75
 30
0.0
 11
158.5
 21
-62.75
 31
0.0
  0
LINE
  5
1D8
  8
DATA
  6
CONTINUOUS
 62
     7
 10
157.25
 20
-64.0
 30
0.0
 11
157.25
 21
-61.5
 31
0.0
  0
CIRCLE
  5
1D9
  8
DATA
  6
CONTINUOUS
 62
     7
 10
157.25
 20
-32.75
 30
0.0
 40
2.450000000000002
  0
LINE
  5
1DA
  8
DATA
  6
CONTINUOUS
 62
     7
 10
156.0
 20
-32.75
 30
0.0
 11
158.5
 21
-32.75
 31
0.0
  0
LINE
  5
1DB
  8
DATA
  6
CONTINUOUS
 62
     7
 10
157.25
 20
-34.0
 30
0.0
 11
157.25
 21
-31.5
 31
0.0
  0
CIRCLE
  5
1DC
  8
DATA
  6
CONTINUOUS
 62
     7
 10
227.25
 20
-62.75
 30
0.0
 40
2.450000000000002
  0
LINE
  5
1DD
  8
DATA
  6
CONTINUOUS
 62
     7
 10
226.0
 20
-62.75
 30
0.0
 11
228.5
 21
-62.75
 31
0.0
  0
LINE
  5
1DE
  8
DATA
  6
CONTINUOUS
 62
     7
 10
227.25
 20
-64.0
 30
0.0
 11
227.25
 21
-61.5
 31
0.0
  0
CIRCLE
  5
1DF
  8
DATA
  6
CONTINUOUS
 62
     7
 10
297.25
 20
-62.75
 30
0.0
 40
2.4500000000000162
  0
LINE
  5
1E0
  8
DATA
  6
CONTINUOUS
 62
     7
 10
296.0
 20
-62.75
 30
0.0
 11
298.5
 21
-62.75
 31
0.0
  0
LINE
  5
1E1
  8
DATA
  6
CONTINUOUS
 62
     7
 10
297.25
 20
-64.0
 30
0.0
 11
297.25
 21
-61.5
 31
0.0
  0
LINE
  5
1E2
  8
DATA
  6
CONTINUOUS
 62
     7
 10
333.74999999968259
 20
-56.423131637145417
 30
0.0
 11
333.74999999968259
 21
-46.923131637145417
 31
0.0
  0
LINE
  5
1E3
  8
DATA
  6
CONTINUOUS
 62
     7
 10
333.74999999968259
 20
-46.923131637145417
 30
0.0
 11
323.75354626519129
 21
-46.923131637145417
 31
0.0
  0
LINE
  5
1E4
  8
DATA
  6
CONTINUOUS
 62
     7
 10
333.74999999968259
 20
-56.423131637145417
 30
0.0
 11
322.2499999996827
 21
-56.423131637145417
 31
0.0
  0
LINE
  5
1E5
  8
DATA
  6
CONTINUOUS
 62
     7
 10
322.2499999996827
 20
-43.590227868490629
 30
0.0
 11
322.2499999996827
 21
-46.851693644086538
 31
0.0
  0
LINE
  5
1E6
  8
DATA
  6
CONTINUOUS
 62
     7
 10
322.2499999996827
 20
-54.651693644086521
 30
0.0
 11
322.2499999996827
 21
-59.756035405800191
 31
0.0
  0
LINE
  5
1E7
  8
DATA
  6
CONTINUOUS
 62
     7
 10
322.2499999996827
 20
-43.590227868490629
 30
0.0
 11
317.74999999968259
 21
-43.590227868490629
 31
0.0
  0
LINE
  5
1E8
  8
DATA
  6
CONTINUOUS
 62
     7
 10
322.2499999996827
 20
-59.756035405800191
 30
0.0
 11
317.74999999968259
 21
-59.756035405800191
 31
0.0
  0
LINE
  5
1E9
  8
DATA
  6
CONTINUOUS
 62
     7
 10
322.2499999996827
 20
-55.714583521472797
 30
0.0
 11
319.75354626519129
 21
-55.714583521472797
 31
0.0
  0
LINE
  5
1EA
  8
DATA
  6
CONTINUOUS
 62
     7
 10
323.75354626519129
 20
-54.651693644086521
 30
0.0
 11
323.75354626519129
 21
-46.851693644086538
 31
0.0
  0
LINE
  5
1EB
  8
DATA
  6
CONTINUOUS
 62
     7
 10
319.75354626519129
 20
-56.178786174469032
 30
0.0
 11
317.75
 21
-56.178786174469032
 31
0.0
  0
LINE
  5
1EC
  8
DATA
  6
CONTINUOUS
 62
     7
 10
323.75354626519129
 20
-46.851693644086538
 30
0.0
 11
319.75354626519129
 21
-46.851693644086538
 31
0.0
  0
LINE
  5
1ED
  8
DATA
  6
CONTINUOUS
 62
     7
 10
323.75354626519129
 20
-54.651693644086521
 30
0.0
 11
319.75354626519129
 21
-54.651693644086521
 31
0.0
  0
LINE
  5
1EE
  8
DATA
  6
CONTINUOUS
 62
     7
 10
319.75354626519129
 20
-56.178786174469032
 30
0.0
 11
319.75354626519129
 21
-45.321693644086537
 31
0.0
  0
LINE
  5
1EF
  8
DATA
  6
CONTINUOUS
 62
     7
 10
319.75354626519129
 20
-45.321693644086537
 30
0.0
 11
317.75
 21
-45.321693644086537
 31
0.0
  0
ARC
  5
1F0
  8
DATA
  6
CONTINUOUS
 62
     7
 10
144.03487690691051
 20
-53.749999999999972
 30
0.0
 40
1.4500000000000259
 50
101.3304246067468
 51
258.66957539325352
  0
LINE
  5
1F1
  8
DATA
  6
CONTINUOUS
 62
     7
 10
321.75000000018019
 20
-39.006725984425287
 30
0.0
 11
317.75000000018031
 21
-39.006725984425287
 31
0.0
  0
LINE
  5
1F2
  8
DATA
  6
CONTINUOUS
 62
     7
 10
317.75000000018031
 20
-33.806725984425242
 30
0.0
 11
321.75000000018019
 21
-33.806725984425242
 31
0.0
  0
LINE
  5
1F3
  8
DATA
  6
CONTINUOUS
 62
     7
 10
321.75000000018019
 20
-40.406725984425272
 30
0.0
 11
317.75000000018031
 21
-40.406725984425272
 31
0.0
  0
LINE
  5
1F4
  8
DATA
  6
CONTINUOUS
 62
     7
 10
317.75000000018031
 20
-32.406725984425272
 30
0.0
 11
321.75000000018019
 21
-32.406725984425272
 31
0.0
  0
LINE
  5
1F5
  8
DATA
  6
CONTINUOUS
 62
     7
 10
321.75000000018019
 20
-32.406725984425272
 30
0.0
 11
321.75000000018019
 21
-40.406725984425272
 31
0.0
  0
LINE
  5
1F6
  8
DATA
  6
CONTINUOUS
 62
     7
 10
317.75000000018031
 20
-36.746202481455249
 30
0.0
 11
321.75000000018019
 21
-36.746202481455249
 31
0.0
  0
CIRCLE
  5
1F7
  8
DATA
  6
CONTINUOUS
 62
     7
 10
329.74999999968259
 20
-51.673131637145417
 30
0.0
 40
0.9000000000000056
  0
CIRCLE
  5
1F8
  8
DATA
  6
CONTINUOUS
 62
     7
 10
-38.754993678993053
 20
257.25000000025449
 30
0.0
 40
4.7500000000001696
  0
POLYLINE
  5
1F9
  8
DATA
  6
CONTINUOUS
 62
     7
 66
     1
 10
0.0
 20
0.0
 30
0.0
 70
     1
  0
VERTEX
  5
321
  8
DATA
  6
CONTINUOUS
 62
     7
 10
-42.796445563320653
 20
264.25000000025449
 30
0.0
  0
VERTEX
  5
322
  8
DATA
  6
CONTINUOUS
 62
     7
 10
-46.837897447648267
 20
257.25000000025449
 30
0.0
  0
VERTEX
  5
323
  8
DATA
  6
CONTINUOUS
 62
     7
 10
-42.796445563320653
 20
250.25000000025449
 30
0.0
  0
VERTEX
  5
324
  8
DATA
  6
CONTINUOUS
 62
     7
 10
-34.713541794665488
 20
250.25000000025449
 30
0.0
  0
VERTEX
  5
325
  8
DATA
  6
CONTINUOUS
 62
     7
 10
-30.672089910338102
 20
257.25000000025449
 30
0.0
  0
VERTEX
  5
326
  8
DATA
  6
CONTINUOUS
 62
     7
 10
-34.713541794665488
 20
264.25000000025449
 30
0.0
  0
SEQEND
  5
327
  8
DATA
  6
CONTINUOUS
 62
     7
  0
CIRCLE
  5
202
  8
DATA
  6
CONTINUOUS
 62
     7
 10
-38.754993678993053
 20
257.25000000025449
 30
0.0
 40
1.500000000000056
  0
CIRCLE
  5
203
  8
DATA
  6
CONTINUOUS
 62
     7
 10
-38.754993678993053
 20
257.25000000025449
 30
0.0
 40
0.5
  0
CIRCLE
  5
204
  8
DATA
  6
CONTINUOUS
 62
     7
 10
-38.754993678993053
 20
257.25000000025449
 30
0.0
 40
8.0829037686548766
  0
TEXT
  5
205
  8
DATA
 62
     7
 10
-33.38318855788156
 20
272.13653366582082
 30
0.0
 40
2.7703125000000002
  1
Out A
 50
180.0
 41
0.75
 11
-33.38318855788156
 21
269.36622116582078
 31
0.0
 73
     3
  0
POLYLINE
  5
206
  8
DATA
  6
CONTINUOUS
 62
     7
 66
     1
 10
0.0
 20
0.0
 30
0.0
  0
VERTEX
  5
328
  8
DATA
  6
CONTINUOUS
 62
     7
 10
-34.09103613201647
 20
258.15000000025452
 30
0.0
  0
VERTEX
  5
329
  8
DATA
  6
CONTINUOUS
 62
     7
 10
-33.254993678992882
 20
258.15000000025452
 30
0.0
  0
VERTEX
  5
32A
  8
DATA
  6
CONTINUOUS
 62
     7
 10
-33.254993678992882
 20
256.3500000002544
 30
0.0
  0
VERTEX
  5
32B
  8
DATA
  6
CONTINUOUS
 62
     7
 10
-34.09103613201647
 20
256.3500000002544
 30
0.0
  0
SEQEND
  5
32C
  8
DATA
  6
CONTINUOUS
 62
     7
  0
POLYLINE
  5
20D
  8
DATA
  6
CONTINUOUS
 62
     7
 66
     1
 10
0.0
 20
0.0
 30
0.0
  0
VERTEX
  5
32D
  8
DATA
  6
CONTINUOUS
 62
     7
 10
-43.4189512259697
 20
256.3500000002544
 30
0.0
  0
VERTEX
  5
32E
  8
DATA
  6
CONTINUOUS
 62
     7
 10
-44.25499367899333
 20
256.3500000002544
 30
0.0
  0
VERTEX
  5
32F
  8
DATA
  6
CONTINUOUS
 62
     7
 10
-44.25499367899333
 20
258.15000000025452
 30
0.0
  0
VERTEX
  5
330
  8
DATA
  6
CONTINUOUS
 62
     7
 10
-43.4189512259697
 20
258.15000000025452
 30
0.0
  0
SEQEND
  5
331
  8
DATA
  6
CONTINUOUS
 62
     7
  0
LINE
  5
214
  8
DATA
  6
CONTINUOUS
 62
     7
 10
-57.700000000000003
 20
244.09999999999999
 30
0.0
 11
-71.837897447648274
 21
244.09999999999999
 31
0.0
  0
LINE
  5
215
  8
DATA
  6
CONTINUOUS
 62
     7
 10
-44.809987357986422
 20
244.09999999999999
 30
0.0
 11
-30.672089910338158
 21
244.09999999999999
 31
0.0
  0
ENDSEC
  0
EOF
