  0
SECTION
  2
HEADER
  9
$ACADVER
  1
AC1009
  9
$INSBASE
 10
0.0
 20
0.0
 30
0.0
  9
$EXTMIN
 10
-350.02746372486848
 20
-533.89146579433964
 30
-0.0015258207003583
  9
$EXTMAX
 10
550.02746791582013
 20
804.17534592390302
 30
0.0000000349246037
  9
$LIMMIN
 10
0.0
 20
0.0
  9
$LIMMAX
 10
0.0
 20
0.0
  9
$ORTHOMODE
 70
     0
  9
$REGENMODE
 70
     1
  9
$FILLMODE
 70
     1
  9
$QTEXTMODE
 70
     0
  9
$MIRRTEXT
 70
     1
  9
$DRAGMODE
 70
     2
  9
$LTSCALE
 40
25.399999999999999
  9
$OSMODE
 70
   231
  9
$ATTMODE
 70
     1
  9
$TEXTSIZE
 40
0.0
  9
$TRACEWID
 40
1.0
  9
$TEXTSTYLE
  7
STANDARD
  9
$CLAYER
  8
DATA
  9
$CELTYPE
  6
BYLAYER
  9
$CECOLOR
 62
   256
  9
$DIMSCALE
 40
1.0
  9
$DIMASZ
 40
0.18
  9
$DIMEXO
 40
0.0625
  9
$DIMDLI
 40
0.38
  9
$DIMRND
 40
0.0
  9
$DIMDLE
 40
0.0
  9
$DIMEXE
 40
0.18
  9
$DIMTP
 40
0.0
  9
$DIMTM
 40
0.0
  9
$DIMTXT
 40
0.18
  9
$DIMCEN
 40
0.09
  9
$DIMTSZ
 40
0.0
  9
$DIMTOL
 70
     0
  9
$DIMLIM
 70
     0
  9
$DIMTIH
 70
     1
  9
$DIMTOH
 70
     1
  9
$DIMSE1
 70
     0
  9
$DIMSE2
 70
     0
  9
$DIMTAD
 70
     0
  9
$DIMZIN
 70
     0
  9
$DIMBLK
  1

  9
$DIMASO
 70
     1
  9
$DIMSHO
 70
     1
  9
$DIMPOST
  1

  9
$DIMAPOST
  1

  9
$DIMALT
 70
     0
  9
$DIMALTD
 70
     2
  9
$DIMALTF
 40
25.399999999999999
  9
$DIMLFAC
 40
1.0
  9
$DIMTOFL
 70
     0
  9
$DIMTVP
 40
0.0
  9
$DIMTIX
 70
     0
  9
$DIMSOXD
 70
     0
  9
$DIMSAH
 70
     0
  9
$DIMBLK1
  1

  9
$DIMBLK2
  1

  9
$DIMSTYLE
  2
STANDARD
  9
$DIMCLRD
 70
     0
  9
$DIMCLRE
 70
     0
  9
$DIMCLRT
 70
     0
  9
$DIMTFAC
 40
1.0
  9
$DIMGAP
 40
0.09
  9
$LUNITS
 70
     2
  9
$LUPREC
 70
     4
  9
$SKETCHINC
 40
0.1
  9
$FILLETRAD
 40
0.0
  9
$AUNITS
 70
     0
  9
$AUPREC
 70
     0
  9
$MENU
  1
acad
  9
$ELEVATION
 40
0.0
  9
$PELEVATION
 40
0.0
  9
$THICKNESS
 40
0.0
  9
$LIMCHECK
 70
     0
  9
$BLIPMODE
 70
     0
  9
$CHAMFERA
 40
0.0
  9
$CHAMFERB
 40
0.0
  9
$SKPOLY
 70
     0
  9
$TDCREATE
 40
2455477.4190046298
  9
$TDUPDATE
 40
2455477.4275539238
  9
$TDINDWG
 40
0.0002781134
  9
$TDUSRTIMER
 40
0.0002781134
  9
$USRTIMER
 70
     1
  9
$ANGBASE
 50
0.0
  9
$ANGDIR
 70
     0
  9
$PDMODE
 70
     1
  9
$PDSIZE
 40
-2.0
  9
$PLINEWID
 40
0.0
  9
$COORDS
 70
     0
  9
$SPLFRAME
 70
     0
  9
$SPLINETYPE
 70
     6
  9
$SPLINESEGS
 70
     8
  9
$ATTDIA
 70
     0
  9
$ATTREQ
 70
     1
  9
$HANDLING
 70
     1
  9
$HANDSEED
  5
1143
  9
$SURFTAB1
 70
     6
  9
$SURFTAB2
 70
     6
  9
$SURFTYPE
 70
     6
  9
$SURFU
 70
     6
  9
$SURFV
 70
     6
  9
$UCSNAME
  2

  9
$UCSORG
 10
0.0
 20
0.0
 30
0.0
  9
$UCSXDIR
 10
1.0
 20
0.0
 30
0.0
  9
$UCSYDIR
 10
0.0
 20
1.0
 30
0.0
  9
$PUCSNAME
  2

  9
$PUCSORG
 10
0.0
 20
0.0
 30
0.0
  9
$PUCSXDIR
 10
1.0
 20
0.0
 30
0.0
  9
$PUCSYDIR
 10
0.0
 20
1.0
 30
0.0
  9
$USERI1
 70
     0
  9
$USERI2
 70
     0
  9
$USERI3
 70
     0
  9
$USERI4
 70
     0
  9
$USERI5
 70
     0
  9
$USERR1
 40
0.0
  9
$USERR2
 40
0.0
  9
$USERR3
 40
0.0
  9
$USERR4
 40
0.0
  9
$USERR5
 40
0.0
  9
$WORLDVIEW
 70
     1
  9
$SHADEDGE
 70
     3
  9
$SHADEDIF
 70
    70
  9
$TILEMODE
 70
     1
  9
$MAXACTVP
 70
    64
  9
$PLIMCHECK
 70
     0
  9
$PEXTMIN
 10
1.0000000000000000E+020
 20
1.0000000000000000E+020
 30
1.0000000000000000E+020
  9
$PEXTMAX
 10
-1.0000000000000000E+020
 20
-1.0000000000000000E+020
 30
-1.0000000000000000E+020
  9
$PLIMMIN
 10
0.0
 20
0.0
  9
$PLIMMAX
 10
12.0
 20
9.0
  9
$UNITMODE
 70
     0
  9
$VISRETAIN
 70
     0
  9
$PLINEGEN
 70
     1
  9
$PSLTSCALE
 70
     0
  0
ENDSEC
  0
SECTION
  2
TABLES
  0
TABLE
  2
VPORT
 70
     1
  0
VPORT
  2
*ACTIVE
 70
     0
 10
0.0
 20
0.0
 11
1.0
 21
1.0
 12
100.00000209547591
 22
135.14194006478169
 13
0.0
 23
0.0
 14
1.0
 24
1.0
 15
0.0
 25
0.0
 16
0.0
 26
0.0
 36
1.0
 17
0.0
 27
0.0
 37
0.0
 40
1347.917610332119
 41
1.9619164619164611
 42
50.0
 43
0.0
 44
0.0
 50
0.0
 51
0.0
 71
     0
 72
  2000
 73
     1
 74
     1
 75
     0
 76
     0
 77
     0
 78
     0
  0
ENDTAB
  0
TABLE
  2
LTYPE
 70
    11
  0
LTYPE
  2
CONTINUOUS
 70
     0
  3
Solid line
 72
    65
 73
     0
 40
0.0
  0
ENDTAB
  0
TABLE
  2
LAYER
 70
     5
  0
LAYER
  2
0
 70
     0
 62
     7
  6
CONTINUOUS
  0
LAYER
  2
DATA
 70
     0
 62
     7
  6
CONTINUOUS
  0
LAYER
  2
HIBINO-BASE
 70
     0
 62
     7
  6
CONTINUOUS
  0
LAYER
  2
SPEC
 70
     0
 62
     7
  6
CONTINUOUS
  0
LAYER
  2
DIMNSIONS
 70
     0
 62
     7
  6
CONTINUOUS
  0
ENDTAB
  0
TABLE
  2
STYLE
 70
     3
  0
STYLE
  2
STANDARD
 70
     0
 40
0.0
 41
1.0
 50
0.0
 71
     0
 42
0.0
  3
txt
  4
BIGFONT.SHX
  0
ENDTAB
  0
TABLE
  2
VIEW
 70
     0
  0
ENDTAB
  0
TABLE
  2
UCS
 70
     0
  0
ENDTAB
  0
TABLE
  2
APPID
 70
     3
  0
APPID
  2
ACAD
 70
     0
  0
APPID
  2
ACADANNOTATIVE
 70
     0
  0
APPID
  2
ACAD_MLEADERVER
 70
     0
  0
ENDTAB
  0
TABLE
  2
DIMSTYLE
 70
     2
  0
DIMSTYLE
  2
STANDARD
 70
     0
  3

  4

  5

  6

  7

 40
1.0
 41
0.18
 42
0.0625
 43
0.38
 44
0.18
 45
0.0
 46
0.0
 47
0.0
 48
0.0
140
0.18
141
0.09
142
0.0
143
25.399999999999999
144
1.0
145
0.0
146
1.0
147
0.09
 71
     0
 72
     0
 73
     1
 74
     1
 75
     0
 76
     0
 77
     0
 78
     0
170
     0
171
     2
172
     0
173
     0
174
     0
175
     0
176
     0
177
     0
178
     0
  0
ENDTAB
  0
ENDSEC
  0
SECTION
  2
BLOCKS
  0
BLOCK
  8
0
  2
$MODEL_SPACE
 70
     0
 10
0.0
 20
0.0
 30
0.0
  3
$MODEL_SPACE
  1

  0
ENDBLK
  5
AB3
  8
0
  0
BLOCK
 67
     1
  8
0
  2
$PAPER_SPACE
 70
     0
 10
0.0
 20
0.0
 30
0.0
  3
$PAPER_SPACE
  1

  0
ENDBLK
  5
AAF
 67
     1
  8
0
  0
ENDSEC
  0
SECTION
  2
ENTITIES
  0
LINE
  5
2C
  8
HIBINO-BASE
  6
CONTINUOUS
 62
     7
 10
-350.0
 20
804.13459157946363
 30
0.0
 11
549.99999999999989
 21
804.13459157946363
 31
0.0
  0
LINE
  5
2D
  8
HIBINO-BASE
  6
CONTINUOUS
 62
     7
 10
549.99999999999989
 20
-495.86540842053631
 30
0.0
 11
-350.0
 21
-495.86540842053631
 31
0.0
  0
LINE
  5
2E
  8
HIBINO-BASE
  6
CONTINUOUS
 62
     7
 10
-350.0
 20
-495.86540842053631
 30
0.0
 11
-350.0
 21
804.13459157946363
 31
0.0
  0
LINE
  5
2F
  8
HIBINO-BASE
  6
CONTINUOUS
 62
     7
 10
549.99999999999989
 20
804.13459157946363
 30
0.0
 11
549.99999999999989
 21
-495.86540842053631
 31
0.0
  0
LINE
  5
30
  8
HIBINO-BASE
  6
CONTINUOUS
 62
     7
 10
100.0
 20
-383.36540842053631
 30
0.0
 11
549.99999999999989
 21
-383.36540842053631
 31
0.0
  0
LINE
  5
31
  8
HIBINO-BASE
  6
CONTINUOUS
 62
     7
 10
100.0
 20
-495.86540842053631
 30
0.0
 11
100.0
 21
-383.36540842053631
 31
0.0
  0
TEXT
  5
32
  8
HIBINO-BASE
 62
     7
 10
104.5
 20
-395.90887508720289
 30
0.0
 40
8.1442057291666661
  1
NOTE
 41
0.7
 11
104.5
 21
-387.76466935803631
 31
0.0
 73
     3
  0
LINE
  5
33
  8
HIBINO-BASE
  6
CONTINUOUS
 62
     7
 10
275.0
 20
-495.86540842053631
 30
0.0
 11
275.0
 21
-383.36540842053631
 31
0.0
  0
TEXT
  5
34
  8
HIBINO-BASE
 62
     7
 10
279.5
 20
-395.90887508720289
 30
0.0
 40
8.1442057291666661
  1
TITLE
 41
0.7
 11
279.5
 21
-387.76466935803631
 31
0.0
 73
     3
  0
LINE
  5
35
  8
HIBINO-BASE
  6
CONTINUOUS
 62
     7
 10
100.0
 20
-445.8654084205362
 30
0.0
 11
549.99999999999989
 21
-445.8654084205362
 31
0.0
  0
TEXT
  5
36
  8
HIBINO-BASE
 62
     7
 10
342.0
 20
-458.1272750872028
 30
0.0
 40
8.1442057291666661
  1
DRAWN
 41
0.7
 11
342.0
 21
-449.98306935803618
 31
0.0
 73
     3
  0
TEXT
  5
37
  8
HIBINO-BASE
 62
     7
 10
217.0
 20
-458.1272750872028
 30
0.0
 40
8.1442057291666661
  1
DATE
 41
0.7
 11
217.0
 21
-449.98306935803618
 31
0.0
 73
     3
  0
TEXT
  5
38
  8
HIBINO-BASE
 62
     7
 10
167.0
 20
-458.1272750872028
 30
0.0
 40
8.1442057291666661
  1
SCALE
 41
0.7
 11
167.0
 21
-449.98306935803618
 31
0.0
 73
     3
  0
TEXT
  5
39
  8
HIBINO-BASE
 62
     7
 10
279.5
 20
-458.1272750872028
 30
0.0
 40
8.1442057291666661
  1
DESIGN
 41
0.7
 11
279.5
 21
-449.98306935803618
 31
0.0
 73
     3
  0
TEXT
  5
3A
  8
HIBINO-BASE
 62
     7
 10
467.0
 20
-458.1272750872028
 30
0.0
 40
8.1442057291666661
  1
DRAWING NO.
 41
0.7
 11
467.0
 21
-449.98306935803618
 31
0.0
 73
     3
  0
TEXT
  5
3B
  8
HIBINO-BASE
 62
     7
 10
404.49999999999989
 20
-458.1272750872028
 30
0.0
 40
8.1442057291666661
  1
CHECK
 41
0.7
 11
404.49999999999989
 21
-449.98306935803618
 31
0.0
 73
     3
  0
LINE
  5
3C
  8
HIBINO-BASE
  6
CONTINUOUS
 62
     7
 10
171.875
 20
-489.61540842053631
 30
0.0
 11
190.625
 21
-470.8654084205362
 31
0.0
  0
TEXT
  5
3D
  8
HIBINO-BASE
 62
     7
 10
168.75
 20
-476.41012508720291
 30
0.0
 40
8.1442057291666661
  1
1
 41
0.7
 11
168.75
 21
-468.26591935803617
 31
0.0
 73
     3
  0
LINE
  5
3E
  8
HIBINO-BASE
  6
CONTINUOUS
 62
     7
 10
162.5
 20
-495.86540842053631
 30
0.0
 11
162.5
 21
-445.8654084205362
 31
0.0
  0
LINE
  5
3F
  8
HIBINO-BASE
  6
CONTINUOUS
 62
     7
 10
212.5
 20
-495.86540842053631
 30
0.0
 11
212.5
 21
-445.8654084205362
 31
0.0
  0
LINE
  5
40
  8
HIBINO-BASE
  6
CONTINUOUS
 62
     7
 10
337.5
 20
-445.8654084205362
 30
0.0
 11
337.5
 21
-495.86540842053631
 31
0.0
  0
LINE
  5
41
  8
HIBINO-BASE
  6
CONTINUOUS
 62
     7
 10
462.5
 20
-445.8654084205362
 30
0.0
 11
462.5
 21
-495.86540842053631
 31
0.0
  0
LINE
  5
42
  8
HIBINO-BASE
  6
CONTINUOUS
 62
     7
 10
400.0
 20
-495.86540842053631
 30
0.0
 11
400.0
 21
-445.8654084205362
 31
0.0
  0
TEXT
  5
43
  8
HIBINO-BASE
 62
     7
 10
216.78270000000001
 20
-481.5471750872029
 30
0.0
 40
8.1442057291666661
  1
'10.10.
 41
0.7
 11
216.78270000000001
 21
-473.40296935803627
 31
0.0
 73
     3
  0
TEXT
  5
44
  8
HIBINO-BASE
 62
     7
 10
187.5
 20
-485.78512508720291
 30
0.0
 40
8.1442057291666661
  1
5
 41
0.7
 11
187.5
 21
-477.64091935803617
 31
0.0
 73
     3
  0
TEXT
  5
45
  8
HIBINO-BASE
 62
     7
 10
345.02905005517312
 20
-481.5471750872029
 30
0.0
 40
8.1442057291666661
  1
T.Ootake
 41
0.7
 11
345.02905005517312
 21
-473.40296935803627
 31
0.0
 73
     3
  0
TEXT
  5
46
  8
HIBINO-BASE
 62
     7
 10
119.4166666666667
 20
-485.98540842053632
 30
0.0
 40
16.288411458333329
  1
A4
 41
0.7
 11
119.4166666666667
 21
-469.69699696220289
 31
0.0
 73
     3
  0
TEXT
  5
47
  8
HIBINO-BASE
 62
     7
 10
104.7916666666666
 20
-458.96268342053628
 30
0.0
 40
8.1442057291666661
  1
PAPER SIZE
 41
0.7
 11
104.7916666666666
 21
-450.81847769136959
 31
0.0
 73
     3
  0
TEXT
  5
48
  8
HIBINO-BASE
 62
     7
 10
-336.20182371554898
 20
-527.99160959141761
 30
0.0
 40
17.645779079861111
  1
Hibino-Intersound Corporation
 41
0.7
 11
-336.20182371554898
 21
-510.34583051155641
 31
0.0
 73
     3
  0
TEXT
  5
49
  8
HIBINO-BASE
 62
     7
 10
200.9030484010695
 20
-526.23616832497055
 30
0.0
 40
17.645779079861111
  1
ヒビノインターサウンド株式会社
 41
0.7
 11
200.9030484010695
 21
-508.59038924510941
 31
0.0
 73
     3
  0
LINE
  5
4A
  8
SPEC
  6
CONTINUOUS
 62
     7
 10
-312.5
 20
754.13459157946352
 30
0.0
 11
425.0
 21
754.13459157946352
 31
0.0
  0
LINE
  5
4B
  8
SPEC
  6
CONTINUOUS
 62
     7
 10
-312.5
 20
735.38459157946352
 30
0.0
 11
425.0
 21
735.38459157946352
 31
0.0
  0
LINE
  5
4C
  8
SPEC
  6
CONTINUOUS
 62
     7
 10
-312.5
 20
697.88459157946352
 30
0.0
 11
425.0
 21
697.88459157946352
 31
0.0
  0
LINE
  5
4D
  8
SPEC
  6
CONTINUOUS
 62
     7
 10
-312.5
 20
716.63459157946352
 30
0.0
 11
425.0
 21
716.63459157946352
 31
0.0
  0
LINE
  5
4E
  8
SPEC
  6
CONTINUOUS
 62
     7
 10
-312.5
 20
754.13459157946352
 30
0.0
 11
-312.5
 21
566.63459157946363
 31
0.0
  0
TEXT
  5
4F
  8
SPEC
 62
     7
 10
-306.25
 20
761.10094157946355
 30
0.0
 40
12.21630859375
  1
仕様
 41
0.7
 11
-306.25
 21
773.31725017321355
 31
0.0
 73
     3
  0
LINE
  5
50
  8
SPEC
  6
CONTINUOUS
 62
     7
 10
-118.75
 20
754.13459157946352
 30
0.0
 11
-118.75
 21
566.63459157946363
 31
0.0
  0
LINE
  5
51
  8
SPEC
  6
CONTINUOUS
 62
     7
 10
425.0
 20
754.13459157946352
 30
0.0
 11
425.0
 21
566.63459157946363
 31
0.0
  0
LINE
  5
52
  8
SPEC
  6
CONTINUOUS
 62
     7
 10
-312.5
 20
679.13459157946352
 30
0.0
 11
425.0
 21
679.13459157946352
 31
0.0
  0
LINE
  5
53
  8
SPEC
  6
CONTINUOUS
 62
     7
 10
-312.5
 20
660.38459157946352
 30
0.0
 11
425.0
 21
660.38459157946352
 31
0.0
  0
LINE
  5
54
  8
SPEC
  6
CONTINUOUS
 62
     7
 10
-312.5
 20
641.63459157946363
 30
0.0
 11
425.0
 21
641.63459157946363
 31
0.0
  0
LINE
  5
55
  8
SPEC
  6
CONTINUOUS
 62
     7
 10
-312.5
 20
622.88459157946363
 30
0.0
 11
425.0
 21
622.88459157946363
 31
0.0
  0
LINE
  5
56
  8
SPEC
  6
CONTINUOUS
 62
     7
 10
-312.5
 20
604.13459157946363
 30
0.0
 11
425.0
 21
604.13459157946363
 31
0.0
  0
LINE
  5
57
  8
SPEC
  6
CONTINUOUS
 62
     7
 10
-312.5
 20
585.38459157946363
 30
0.0
 11
425.0
 21
585.38459157946363
 31
0.0
  0
LINE
  5
58
  8
SPEC
  6
CONTINUOUS
 62
     7
 10
-312.5
 20
566.63459157946363
 30
0.0
 11
425.0
 21
566.63459157946363
 31
0.0
  0
TEXT
  5
59
  8
SPEC
 62
     7
 10
-114.29116059617451
 20
739.84114378738377
 30
0.0
 40
9.5015562499999984
  1
DVI分配機
 41
0.7
 11
-114.29116059617451
 21
749.34270003738391
 31
0.0
 73
     3
  0
TEXT
  5
5A
  8
SPEC
 62
     7
 10
-308.26162942482949
 20
740.44398212256351
 30
0.0
 40
9.5015562499999984
  1
形式
 41
0.7
 11
-308.26162942482949
 21
749.94553837256353
 31
0.0
 73
     3
  0
TEXT
  5
5B
  8
SPEC
 62
     7
 10
-308.5167942481728
 20
590.69566726917219
 30
0.0
 40
9.5015562499999984
  1
寸法
 41
0.7
 11
-308.5167942481728
 21
600.19722351917233
 31
0.0
 73
     3
  0
TEXT
  5
5C
  8
SPEC
 62
     7
 10
-308.1824543282271
 20
571.74978161877937
 30
0.0
 40
9.5015562499999984
  1
重量
 41
0.7
 11
-308.1824543282271
 21
581.25133786877939
 31
0.0
 73
     3
  0
TEXT
  5
5D
  8
SPEC
 62
     7
 10
-114.3268078082194
 20
627.27865511758557
 30
0.0
 40
9.5015562499999984
  1
24V DC
 41
0.7
 11
-114.3268078082194
 21
636.78021136758559
 31
0.0
 73
     3
  0
TEXT
  5
5E
  8
SPEC
 62
     7
 10
-308.4087089071507
 20
627.85348351620758
 30
0.0
 40
9.5015562499999984
  1
電源
 41
0.7
 11
-308.4087089071507
 21
637.35503976620771
 31
0.0
 73
     3
  0
TEXT
  5
5F
  8
SPEC
 62
     7
 10
-309.0955864034683
 20
703.09006783540349
 30
0.0
 40
9.5015562499999984
  1
シングルリンク最大対応解像度
 41
0.7
 11
-309.0955864034683
 21
712.59162408540362
 31
0.0
 73
     3
  0
TEXT
  5
60
  8
SPEC
 62
     7
 10
-114.8021970513141
 20
702.49954582623013
 30
0.0
 40
9.5015562499999984
  1
1080p/1920\U+00D71200
 41
0.7
 11
-114.8021970513141
 21
712.00110207623015
 31
0.0
 73
     3
  0
TEXT
  5
61
  8
SPEC
 62
     7
 10
-308.27793800143428
 20
665.72333959654827
 30
0.0
 40
9.5015733506944464
  1
入力ビデオ信号
 41
0.7
 11
-308.27793800143428
 21
675.22491294724273
 31
0.0
 73
     3
  0
TEXT
  5
62
  8
SPEC
 62
     7
 10
-113.6076388888889
 20
664.69153790224493
 30
0.0
 40
9.5015733506944464
  1
1.2Vp-p
 41
0.7
 11
-113.6076388888889
 21
674.19311125293927
 31
0.0
 73
     3
  0
TEXT
  5
63
  8
SPEC
 62
     7
 10
-308.1947799710095
 20
684.12118274549312
 30
0.0
 40
9.5015733506944464
  1
入力DDC信号
 41
0.7
 11
-308.1947799710095
 21
693.62275609618746
 31
0.0
 73
     3
  0
TEXT
  5
64
  8
SPEC
 62
     7
 10
-114.2808602812292
 20
683.51477024916755
 30
0.0
 40
9.5015733506944464
  1
5Vp-p(TTL)
 41
0.7
 11
-114.2808602812292
 21
693.01634359986201
 31
0.0
 73
     3
  0
TEXT
  5
65
  8
SPEC
 62
     7
 10
-308.28311766364988
 20
609.37865672419321
 30
0.0
 40
9.5015562499999984
  1
消費電力
 41
0.7
 11
-308.28311766364988
 21
618.88021297419323
 31
0.0
 73
     3
  0
TEXT
  5
66
  8
SPEC
 62
     7
 10
-114.3558761961861
 20
608.94626477618044
 30
0.0
 40
9.5015562499999984
  1
60W(最大)
 41
0.7
 11
-114.3558761961861
 21
618.44782102618035
 31
0.0
 73
     3
  0
TEXT
  5
67
  8
SPEC
 62
     7
 10
-114.11652597237
 20
590.21341269563493
 30
0.0
 40
9.5015733506944464
  1
435(W)\U+00D744(H)\U+00D7137(D)mm(突起部含まず)
 41
0.7
 11
-114.11652597237
 21
599.71498604632927
 31
0.0
 73
     3
  0
TEXT
  5
68
  8
SPEC
 62
     7
 10
-114.4878921866589
 20
572.50551115269593
 30
0.0
 40
9.5015733506944464
  1
約1kg
 41
0.7
 11
-114.4878921866589
 21
582.00708450339027
 31
0.0
 73
     3
  0
TEXT
  5
69
  8
SPEC
 62
     7
 10
-308.16190121831158
 20
646.7672536640423
 30
0.0
 40
9.5015733506944464
  1
入出力端子
 41
0.7
 11
-308.16190121831158
 21
656.26882701473676
 31
0.0
 73
     3
  0
TEXT
  5
6A
  8
SPEC
 62
     7
 10
-114.2136797499158
 20
645.9620666332703
 30
0.0
 40
9.5015733506944464
  1
DVI(digital only)
 41
0.7
 11
-114.2136797499158
 21
655.46363998396475
 31
0.0
 73
     3
  0
TEXT
  5
6B
  8
SPEC
 62
     7
 10
-114.71758872785431
 20
721.09114378738377
 30
0.0
 40
9.5015562499999984
  1
165MHz
 41
0.7
 11
-114.71758872785431
 21
730.59270003738391
 31
0.0
 73
     3
  0
TEXT
  5
6C
  8
SPEC
 62
     7
 10
-310.23238752781742
 20
721.64207531221905
 30
0.0
 40
9.5015562499999984
  1
ビデオアンプ帯域
 41
0.7
 11
-310.23238752781742
 21
731.14363156221907
 31
0.0
 73
     3
  0
TEXT
  5
6D
  8
DIMNSIONS
 62
     7
 10
-0.0000000000000149
 20
-434.51795842053627
 30
0.0
 40
12.21630859375
  1
(単位：mm)
 41
0.7
 11
-0.0000000000000142
 21
-422.30164982678627
 31
0.0
 73
     3
  0
LINE
  5
6E
  8
DIMNSIONS
  6
CONTINUOUS
 62
     7
 10
-235.000000000055
 20
-150.00000000018071
 30
0.0
 11
-272.50000000005491
 21
-150.00000000018071
 31
0.0
  0
LINE
  5
6F
  8
DIMNSIONS
  6
CONTINUOUS
 62
     7
 10
-235.000000000055
 20
-106.00000000018071
 30
0.0
 11
-272.50000000005491
 21
-106.00000000018071
 31
0.0
  0
LINE
  5
70
  8
DIMNSIONS
  6
CONTINUOUS
 62
     7
 10
-262.50000000005491
 20
-150.00000000018071
 30
0.0
 11
-262.50000000005491
 21
-106.00000000018071
 31
0.0
  0
LINE
  5
71
  8
DIMNSIONS
  6
CONTINUOUS
 62
     7
 10
-262.50000000005491
 20
-150.00000000018071
 30
0.0
 11
-265.85019897580611
 21
-137.49688720721201
 31
0.0
  0
LINE
  5
72
  8
DIMNSIONS
  6
CONTINUOUS
 62
     7
 10
-262.50000000005491
 20
-150.00000000018071
 30
0.0
 11
-259.14980102430371
 21
-137.49688720721201
 31
0.0
  0
LINE
  5
73
  8
DIMNSIONS
  6
CONTINUOUS
 62
     7
 10
-262.50000000005491
 20
-106.00000000018071
 30
0.0
 11
-259.14980102430371
 21
-118.5031127931495
 31
0.0
  0
LINE
  5
74
  8
DIMNSIONS
  6
CONTINUOUS
 62
     7
 10
-262.50000000005491
 20
-106.00000000018071
 30
0.0
 11
-265.85019897580611
 21
-118.5031127931495
 31
0.0
  0
TEXT
  5
75
  8
DIMNSIONS
 62
     7
 10
-267.4694444444994
 20
-136.81944444462519
 30
0.0
 40
13.57367621527778
  1
44
 50
90.0
 41
0.7
 11
-281.04312065977717
 21
-136.81944444462519
 31
0.0
 73
     3
  0
LINE
  5
76
  8
DIMNSIONS
  6
CONTINUOUS
 62
     7
 10
-225.000000000055
 20
-160.00000000018071
 30
0.0
 11
-225.000000000055
 21
-197.50000000018079
 31
0.0
  0
LINE
  5
77
  8
DIMNSIONS
  6
CONTINUOUS
 62
     7
 10
209.99999999994549
 20
-160.00000000018071
 30
0.0
 11
209.99999999994549
 21
-197.50000000018079
 31
0.0
  0
LINE
  5
78
  8
DIMNSIONS
  6
CONTINUOUS
 62
     7
 10
-225.000000000055
 20
-187.50000000018079
 30
0.0
 11
209.99999999994549
 21
-187.50000000018079
 31
0.0
  0
LINE
  5
79
  8
DIMNSIONS
  6
CONTINUOUS
 62
     7
 10
-225.000000000055
 20
-187.50000000018079
 30
0.0
 11
-212.4968872070863
 21
-184.14980102442959
 31
0.0
  0
LINE
  5
7A
  8
DIMNSIONS
  6
CONTINUOUS
 62
     7
 10
-225.000000000055
 20
-187.50000000018079
 30
0.0
 11
-212.4968872070863
 21
-190.85019897593199
 31
0.0
  0
LINE
  5
7B
  8
DIMNSIONS
  6
CONTINUOUS
 62
     7
 10
209.99999999994549
 20
-187.50000000018079
 30
0.0
 11
197.49688720697679
 21
-190.85019897593199
 31
0.0
  0
LINE
  5
7C
  8
DIMNSIONS
  6
CONTINUOUS
 62
     7
 10
209.99999999994549
 20
-187.50000000018079
 30
0.0
 11
197.49688720697679
 21
-184.14980102442959
 31
0.0
  0
TEXT
  5
7D
  8
DIMNSIONS
 62
     7
 10
-20.729166666721401
 20
-182.53055555573621
 30
0.0
 40
13.57367621527778
  1
435
 41
0.7
 11
-20.729166666721401
 21
-168.9568793404585
 31
0.0
 73
     3
  0
LINE
  5
7E
  8
DIMNSIONS
  6
CONTINUOUS
 62
     7
 10
-224.20538299221641
 20
-154.00000000018071
 30
0.0
 11
-272.50000000005491
 21
-154.00000000018071
 31
0.0
  0
LINE
  5
7F
  8
DIMNSIONS
  6
CONTINUOUS
 62
     7
 10
-235.00000000005491
 20
-150.00000000018071
 30
0.0
 11
-272.50000000005491
 21
-150.00000000018071
 31
0.0
  0
LINE
  5
80
  8
DIMNSIONS
  6
CONTINUOUS
 62
     7
 10
-262.50000000005491
 20
-150.00000000018071
 30
0.0
 11
-262.50000000005491
 21
-154.00000000018071
 31
0.0
  0
LINE
  5
81
  8
DIMNSIONS
  6
CONTINUOUS
 62
     7
 10
-262.50000000005491
 20
-154.00000000018071
 30
0.0
 11
-262.50000000005491
 21
-176.81944444462519
 31
0.0
  0
LINE
  5
82
  8
DIMNSIONS
  6
CONTINUOUS
 62
     7
 10
-262.50000000005491
 20
-154.00000000018071
 30
0.0
 11
-259.14980102430371
 21
-166.50311279314951
 31
0.0
  0
LINE
  5
83
  8
DIMNSIONS
  6
CONTINUOUS
 62
     7
 10
-262.50000000005491
 20
-154.00000000018071
 30
0.0
 11
-265.85019897580611
 21
-166.50311279314951
 31
0.0
  0
LINE
  5
84
  8
DIMNSIONS
  6
CONTINUOUS
 62
     7
 10
-262.50000000005491
 20
-150.00000000018071
 30
0.0
 11
-262.50000000005491
 21
-125.00000000018071
 31
0.0
  0
LINE
  5
85
  8
DIMNSIONS
  6
CONTINUOUS
 62
     7
 10
-262.50000000005491
 20
-150.00000000018071
 30
0.0
 11
-265.85019897580611
 21
-137.49688720721201
 31
0.0
  0
LINE
  5
86
  8
DIMNSIONS
  6
CONTINUOUS
 62
     7
 10
-262.50000000005491
 20
-150.00000000018071
 30
0.0
 11
-259.14980102430371
 21
-137.49688720721201
 31
0.0
  0
TEXT
  5
87
  8
DIMNSIONS
 62
     7
 10
-267.4694444444994
 20
-176.81944444462519
 30
0.0
 40
13.57367621527778
  1
4
 50
90.0
 41
0.7
 11
-281.04312065977717
 21
-176.81944444462519
 31
0.0
 73
     3
  0
LINE
  5
88
  8
DIMNSIONS
  6
CONTINUOUS
 62
     7
 10
-235.000000000055
 20
-50.000000000180762
 30
0.0
 11
-272.50000000005491
 21
-50.000000000180762
 31
0.0
  0
LINE
  5
89
  8
DIMNSIONS
  6
CONTINUOUS
 62
     7
 10
-235.000000000055
 20
86.999999999819224
 30
0.0
 11
-272.50000000005491
 21
86.999999999819224
 31
0.0
  0
LINE
  5
8A
  8
DIMNSIONS
  6
CONTINUOUS
 62
     7
 10
-262.50000000005491
 20
-50.000000000180762
 30
0.0
 11
-262.50000000005491
 21
86.999999999819224
 31
0.0
  0
LINE
  5
8B
  8
DIMNSIONS
  6
CONTINUOUS
 62
     7
 10
-262.50000000005491
 20
-50.000000000180762
 30
0.0
 11
-265.85019897580611
 21
-37.496887207212012
 31
0.0
  0
LINE
  5
8C
  8
DIMNSIONS
  6
CONTINUOUS
 62
     7
 10
-262.50000000005491
 20
-50.000000000180762
 30
0.0
 11
-259.14980102430371
 21
-37.496887207212012
 31
0.0
  0
LINE
  5
8D
  8
DIMNSIONS
  6
CONTINUOUS
 62
     7
 10
-262.50000000005491
 20
86.999999999819224
 30
0.0
 11
-259.14980102430371
 21
74.496887206850445
 31
0.0
  0
LINE
  5
8E
  8
DIMNSIONS
  6
CONTINUOUS
 62
     7
 10
-262.50000000005491
 20
86.999999999819224
 30
0.0
 11
-265.85019897580611
 21
74.496887206850445
 31
0.0
  0
TEXT
  5
8F
  8
DIMNSIONS
 62
     7
 10
-267.4694444444994
 20
5.2708333331525496
 30
0.0
 40
13.57367621527778
  1
137
 50
90.0
 41
0.7
 11
-281.04312065977717
 21
5.2708333331525523
 31
0.0
 73
     3
  0
LINE
  5
90
  8
DIMNSIONS
  6
CONTINUOUS
 62
     7
 10
-193.5570843729484
 20
-55.000000000180762
 30
0.0
 11
-272.50000000005491
 21
-55.000000000180762
 31
0.0
  0
LINE
  5
91
  8
DIMNSIONS
  6
CONTINUOUS
 62
     7
 10
-235.000000000055
 20
-50.000000000180762
 30
0.0
 11
-272.50000000005491
 21
-50.000000000180762
 31
0.0
  0
LINE
  5
92
  8
DIMNSIONS
  6
CONTINUOUS
 62
     7
 10
-262.50000000005491
 20
-50.000000000180762
 30
0.0
 11
-262.50000000005491
 21
-55.000000000180762
 31
0.0
  0
LINE
  5
93
  8
DIMNSIONS
  6
CONTINUOUS
 62
     7
 10
-262.50000000005491
 20
-55.000000000180762
 30
0.0
 11
-262.50000000005491
 21
-76.319444444625233
 31
0.0
  0
LINE
  5
94
  8
DIMNSIONS
  6
CONTINUOUS
 62
     7
 10
-262.50000000005491
 20
-55.000000000180762
 30
0.0
 11
-259.14980102430371
 21
-67.503112793149512
 31
0.0
  0
LINE
  5
95
  8
DIMNSIONS
  6
CONTINUOUS
 62
     7
 10
-262.50000000005491
 20
-55.000000000180762
 30
0.0
 11
-265.85019897580611
 21
-67.503112793149512
 31
0.0
  0
LINE
  5
96
  8
DIMNSIONS
  6
CONTINUOUS
 62
     7
 10
-262.50000000005491
 20
-50.000000000180762
 30
0.0
 11
-262.50000000005491
 21
-25.000000000180759
 31
0.0
  0
LINE
  5
97
  8
DIMNSIONS
  6
CONTINUOUS
 62
     7
 10
-262.50000000005491
 20
-50.000000000180762
 30
0.0
 11
-265.85019897580611
 21
-37.496887207212012
 31
0.0
  0
LINE
  5
98
  8
DIMNSIONS
  6
CONTINUOUS
 62
     7
 10
-262.50000000005491
 20
-50.000000000180762
 30
0.0
 11
-259.14980102430371
 21
-37.496887207212012
 31
0.0
  0
TEXT
  5
99
  8
DIMNSIONS
 62
     7
 10
-267.4694444444994
 20
-76.319444444625233
 30
0.0
 40
13.57367621527778
  1
5
 50
90.0
 41
0.7
 11
-281.04312065977717
 21
-76.319444444625233
 31
0.0
 73
     3
  0
LINE
  5
9A
  8
DIMNSIONS
  6
CONTINUOUS
 62
     7
 10
-235.000000000055
 20
86.999999999819224
 30
0.0
 11
-272.50000000005491
 21
86.999999999819224
 31
0.0
  0
LINE
  5
9B
  8
DIMNSIONS
  6
CONTINUOUS
 62
     7
 10
146.13649065385931
 20
91.999999999819224
 30
0.0
 11
-272.50000000005491
 21
91.999999999819224
 31
0.0
  0
LINE
  5
9C
  8
DIMNSIONS
  6
CONTINUOUS
 62
     7
 10
-262.50000000005491
 20
91.999999999819224
 30
0.0
 11
-262.50000000005491
 21
86.999999999819224
 31
0.0
  0
LINE
  5
9D
  8
DIMNSIONS
  6
CONTINUOUS
 62
     7
 10
-262.50000000005491
 20
86.999999999819224
 30
0.0
 11
-262.50000000005491
 21
61.999999999819231
 31
0.0
  0
LINE
  5
9E
  8
DIMNSIONS
  6
CONTINUOUS
 62
     7
 10
-262.50000000005491
 20
86.999999999819224
 30
0.0
 11
-259.14980102430371
 21
74.496887206850445
 31
0.0
  0
LINE
  5
9F
  8
DIMNSIONS
  6
CONTINUOUS
 62
     7
 10
-262.50000000005491
 20
86.999999999819224
 30
0.0
 11
-265.85019897580611
 21
74.496887206850445
 31
0.0
  0
LINE
  5
A0
  8
DIMNSIONS
  6
CONTINUOUS
 62
     7
 10
-262.50000000005491
 20
91.999999999819224
 30
0.0
 11
-262.50000000005491
 21
116.61944444426371
 31
0.0
  0
LINE
  5
A1
  8
DIMNSIONS
  6
CONTINUOUS
 62
     7
 10
-262.50000000005491
 20
91.999999999819224
 30
0.0
 11
-265.85019897580611
 21
104.5031127927879
 31
0.0
  0
LINE
  5
A2
  8
DIMNSIONS
  6
CONTINUOUS
 62
     7
 10
-262.50000000005491
 20
91.999999999819224
 30
0.0
 11
-259.14980102430371
 21
104.5031127927879
 31
0.0
  0
TEXT
  5
A3
  8
DIMNSIONS
 62
     7
 10
-267.4694444444994
 20
107.79999999981921
 30
0.0
 40
13.57367621527778
  1
5
 50
90.0
 41
0.7
 11
-281.04312065977717
 21
107.79999999981921
 31
0.0
 73
     3
  0
TEXT
  5
A4
  8
DATA
 62
     7
 10
350.0
 20
-441.45797880219112
 30
0.0
 40
12.21630859375
  1
EXT-DVI-148
 41
0.7
 11
350.0
 21
-429.24167020844118
 31
0.0
 73
     3
  0
TEXT
  5
A5
  8
DATA
 62
     7
 10
350.0
 20
-403.96095842053631
 30
0.0
 40
12.21630859375
  1
Gefen
 41
0.7
 11
350.0
 21
-391.74464982678637
 31
0.0
 73
     3
  0
TEXT
  5
A6
  8
DATA
 62
     7
 10
343.8874048953171
 20
-420.34812311521239
 30
0.0
 40
8.1442185546874981
  1
DVI分配機
 41
0.7
 11
343.8874048953171
 21
-412.2039045605249
 31
0.0
 73
     3
  0
TEXT
  5
A7
  8
DATA
 62
     7
 10
-300.0
 20
-474.6754084205362
 30
0.0
 40
8.1442057291666661
  1
仕様および外観は予告なく変更されることがありますので、ご了承ください。
 41
0.7
 11
-300.0
 21
-466.53120269136957
 31
0.0
 73
     3
  0
LINE
  5
A8
  8
DATA
  6
CONTINUOUS
 62
     7
 10
-225.000000000055
 20
-150.00000000018071
 30
0.0
 11
-225.000000000055
 21
-106.00000000018071
 31
0.0
  0
LINE
  5
A9
  8
DATA
  6
CONTINUOUS
 62
     7
 10
209.99999999994549
 20
-150.00000000018071
 30
0.0
 11
-225.000000000055
 21
-150.00000000018071
 31
0.0
  0
LINE
  5
AA
  8
DATA
  6
CONTINUOUS
 62
     7
 10
209.99999999994549
 20
-106.00000000018071
 30
0.0
 11
209.99999999994549
 21
-150.00000000018071
 31
0.0
  0
LINE
  5
AB
  8
DATA
  6
CONTINUOUS
 62
     7
 10
-225.000000000055
 20
-106.00000000018071
 30
0.0
 11
209.99999999994549
 21
-106.00000000018071
 31
0.0
  0
LINE
  5
AC
  8
DATA
  6
CONTINUOUS
 62
     7
 10
-214.20538299221641
 20
-154.00000000018071
 30
0.0
 11
-215.20538299221641
 21
-150.00000000018071
 31
0.0
  0
LINE
  5
AD
  8
DATA
  6
CONTINUOUS
 62
     7
 10
-197.20538299221641
 20
-150.00000000018071
 30
0.0
 11
-198.20538299221641
 21
-154.00000000018071
 31
0.0
  0
LINE
  5
AE
  8
DATA
  6
CONTINUOUS
 62
     7
 10
-214.20538299221641
 20
-154.00000000018071
 30
0.0
 11
-198.20538299221641
 21
-154.00000000018071
 31
0.0
  0
LINE
  5
AF
  8
DATA
  6
CONTINUOUS
 62
     7
 10
199.20538299210699
 20
-154.00000000018071
 30
0.0
 11
200.20538299210699
 21
-150.00000000018071
 31
0.0
  0
LINE
  5
B0
  8
DATA
  6
CONTINUOUS
 62
     7
 10
182.20538299210679
 20
-150.00000000018071
 30
0.0
 11
183.20538299210691
 21
-154.00000000018071
 31
0.0
  0
LINE
  5
B1
  8
DATA
  6
CONTINUOUS
 62
     7
 10
199.20538299210699
 20
-154.00000000018071
 30
0.0
 11
183.20538299210691
 21
-154.00000000018071
 31
0.0
  0
CIRCLE
  5
B2
  8
DATA
  6
CONTINUOUS
 62
     7
 10
-148.49897651878049
 20
-132.99733158335471
 30
0.0
 40
1.175000000000068
  0
POLYLINE
  5
B3
  8
DATA
  6
CONTINUOUS
 62
     7
 66
     1
 10
0.0
 20
0.0
 30
0.0
 70
     1
  0
VERTEX
  5
ADF
  8
DATA
  6
CONTINUOUS
 62
     7
 10
-148.49897651878049
 20
-130.29733158335469
 30
0.0
  0
VERTEX
  5
AE0
  8
DATA
  6
CONTINUOUS
 62
     7
 10
-146.1607079285626
 20
-131.64733158335471
 30
0.0
  0
VERTEX
  5
AE1
  8
DATA
  6
CONTINUOUS
 62
     7
 10
-146.1607079285626
 20
-134.3473315833547
 30
0.0
  0
VERTEX
  5
AE2
  8
DATA
  6
CONTINUOUS
 62
     7
 10
-148.49897651878049
 20
-135.6973315833547
 30
0.0
  0
VERTEX
  5
AE3
  8
DATA
  6
CONTINUOUS
 62
     7
 10
-150.8372451089985
 20
-134.3473315833547
 30
0.0
  0
VERTEX
  5
AE4
  8
DATA
  6
CONTINUOUS
 62
     7
 10
-150.8372451089985
 20
-131.64733158335471
 30
0.0
  0
SEQEND
  5
AE5
  8
DATA
  6
CONTINUOUS
 62
     7
  0
CIRCLE
  5
BC
  8
DATA
  6
CONTINUOUS
 62
     7
 10
-180.99897651878041
 20
-132.99733158335471
 30
0.0
 40
1.175000000000068
  0
POLYLINE
  5
BD
  8
DATA
  6
CONTINUOUS
 62
     7
 66
     1
 10
0.0
 20
0.0
 30
0.0
 70
     1
  0
VERTEX
  5
AE6
  8
DATA
  6
CONTINUOUS
 62
     7
 10
-180.99897651878041
 20
-130.29733158335469
 30
0.0
  0
VERTEX
  5
AE7
  8
DATA
  6
CONTINUOUS
 62
     7
 10
-178.6607079285624
 20
-131.64733158335471
 30
0.0
  0
VERTEX
  5
AE8
  8
DATA
  6
CONTINUOUS
 62
     7
 10
-178.6607079285624
 20
-134.3473315833547
 30
0.0
  0
VERTEX
  5
AE9
  8
DATA
  6
CONTINUOUS
 62
     7
 10
-180.99897651878041
 20
-135.6973315833547
 30
0.0
  0
VERTEX
  5
AEA
  8
DATA
  6
CONTINUOUS
 62
     7
 10
-183.33724510899839
 20
-134.3473315833547
 30
0.0
  0
VERTEX
  5
AEB
  8
DATA
  6
CONTINUOUS
 62
     7
 10
-183.33724510899839
 20
-131.64733158335471
 30
0.0
  0
SEQEND
  5
AEC
  8
DATA
  6
CONTINUOUS
 62
     7
  0
LINE
  5
C6
  8
DATA
  6
CONTINUOUS
 62
     7
 10
-175.7009715065669
 20
-129.0723315833547
 30
0.0
 11
-153.80116173218349
 21
-129.0723315833547
 31
0.0
  0
LINE
  5
C7
  8
DATA
  6
CONTINUOUS
 62
     7
 10
-154.3600789296357
 20
-136.92233158335469
 30
0.0
 11
-175.1420543091146
 21
-136.92233158335469
 31
0.0
  0
POLYLINE
  5
C8
  8
DATA
  6
CONTINUOUS
 62
     7
 66
     1
 10
0.0
 20
0.0
 30
0.0
 70
     1
  0
VERTEX
  5
AED
  8
DATA
  6
CONTINUOUS
 62
     7
 10
-175.75113279055441
 20
-132.23233158335469
 30
0.0
  0
VERTEX
  5
AEE
  8
DATA
  6
CONTINUOUS
 62
     7
 10
-174.22113279055449
 20
-132.23233158335469
 30
0.0
  0
VERTEX
  5
AEF
  8
DATA
  6
CONTINUOUS
 62
     7
 10
-174.22113279055449
 20
-133.76233158335469
 30
0.0
  0
VERTEX
  5
AF0
  8
DATA
  6
CONTINUOUS
 62
     7
 10
-175.75113279055441
 20
-133.76233158335469
 30
0.0
  0
SEQEND
  5
AF1
  8
DATA
  6
CONTINUOUS
 62
     7
  0
POLYLINE
  5
CF
  8
DATA
  6
CONTINUOUS
 62
     7
 66
     1
 10
0.0
 20
0.0
 30
0.0
 70
     1
  0
VERTEX
  5
AF2
  8
DATA
  6
CONTINUOUS
 62
     7
 10
-173.75113279055441
 20
-132.23233158335469
 30
0.0
  0
VERTEX
  5
AF3
  8
DATA
  6
CONTINUOUS
 62
     7
 10
-172.22113279055449
 20
-132.23233158335469
 30
0.0
  0
VERTEX
  5
AF4
  8
DATA
  6
CONTINUOUS
 62
     7
 10
-172.22113279055449
 20
-133.76233158335469
 30
0.0
  0
VERTEX
  5
AF5
  8
DATA
  6
CONTINUOUS
 62
     7
 10
-173.75113279055441
 20
-133.76233158335469
 30
0.0
  0
SEQEND
  5
AF6
  8
DATA
  6
CONTINUOUS
 62
     7
  0
POLYLINE
  5
D6
  8
DATA
  6
CONTINUOUS
 62
     7
 66
     1
 10
0.0
 20
0.0
 30
0.0
 70
     1
  0
VERTEX
  5
AF7
  8
DATA
  6
CONTINUOUS
 62
     7
 10
-171.75113279055441
 20
-132.23233158335469
 30
0.0
  0
VERTEX
  5
AF8
  8
DATA
  6
CONTINUOUS
 62
     7
 10
-170.22113279055449
 20
-132.23233158335469
 30
0.0
  0
VERTEX
  5
AF9
  8
DATA
  6
CONTINUOUS
 62
     7
 10
-170.22113279055449
 20
-133.76233158335469
 30
0.0
  0
VERTEX
  5
AFA
  8
DATA
  6
CONTINUOUS
 62
     7
 10
-171.75113279055441
 20
-133.76233158335469
 30
0.0
  0
SEQEND
  5
AFB
  8
DATA
  6
CONTINUOUS
 62
     7
  0
POLYLINE
  5
DD
  8
DATA
  6
CONTINUOUS
 62
     7
 66
     1
 10
0.0
 20
0.0
 30
0.0
 70
     1
  0
VERTEX
  5
AFC
  8
DATA
  6
CONTINUOUS
 62
     7
 10
-169.75113279055441
 20
-132.23233158335469
 30
0.0
  0
VERTEX
  5
AFD
  8
DATA
  6
CONTINUOUS
 62
     7
 10
-168.22113279055449
 20
-132.23233158335469
 30
0.0
  0
VERTEX
  5
AFE
  8
DATA
  6
CONTINUOUS
 62
     7
 10
-168.22113279055449
 20
-133.76233158335469
 30
0.0
  0
VERTEX
  5
AFF
  8
DATA
  6
CONTINUOUS
 62
     7
 10
-169.75113279055441
 20
-133.76233158335469
 30
0.0
  0
SEQEND
  5
B00
  8
DATA
  6
CONTINUOUS
 62
     7
  0
POLYLINE
  5
E4
  8
DATA
  6
CONTINUOUS
 62
     7
 66
     1
 10
0.0
 20
0.0
 30
0.0
 70
     1
  0
VERTEX
  5
B01
  8
DATA
  6
CONTINUOUS
 62
     7
 10
-167.75113279055441
 20
-132.23233158335469
 30
0.0
  0
VERTEX
  5
B02
  8
DATA
  6
CONTINUOUS
 62
     7
 10
-166.22113279055449
 20
-132.23233158335469
 30
0.0
  0
VERTEX
  5
B03
  8
DATA
  6
CONTINUOUS
 62
     7
 10
-166.22113279055449
 20
-133.76233158335469
 30
0.0
  0
VERTEX
  5
B04
  8
DATA
  6
CONTINUOUS
 62
     7
 10
-167.75113279055441
 20
-133.76233158335469
 30
0.0
  0
SEQEND
  5
B05
  8
DATA
  6
CONTINUOUS
 62
     7
  0
POLYLINE
  5
EB
  8
DATA
  6
CONTINUOUS
 62
     7
 66
     1
 10
0.0
 20
0.0
 30
0.0
 70
     1
  0
VERTEX
  5
B06
  8
DATA
  6
CONTINUOUS
 62
     7
 10
-165.75113279055441
 20
-132.23233158335469
 30
0.0
  0
VERTEX
  5
B07
  8
DATA
  6
CONTINUOUS
 62
     7
 10
-164.22113279055449
 20
-132.23233158335469
 30
0.0
  0
VERTEX
  5
B08
  8
DATA
  6
CONTINUOUS
 62
     7
 10
-164.22113279055449
 20
-133.76233158335469
 30
0.0
  0
VERTEX
  5
B09
  8
DATA
  6
CONTINUOUS
 62
     7
 10
-165.75113279055441
 20
-133.76233158335469
 30
0.0
  0
SEQEND
  5
B0A
  8
DATA
  6
CONTINUOUS
 62
     7
  0
POLYLINE
  5
F2
  8
DATA
  6
CONTINUOUS
 62
     7
 66
     1
 10
0.0
 20
0.0
 30
0.0
 70
     1
  0
VERTEX
  5
B0B
  8
DATA
  6
CONTINUOUS
 62
     7
 10
-163.75113279055449
 20
-132.23233158335469
 30
0.0
  0
VERTEX
  5
B0C
  8
DATA
  6
CONTINUOUS
 62
     7
 10
-162.22113279055461
 20
-132.23233158335469
 30
0.0
  0
VERTEX
  5
B0D
  8
DATA
  6
CONTINUOUS
 62
     7
 10
-162.22113279055461
 20
-133.76233158335469
 30
0.0
  0
VERTEX
  5
B0E
  8
DATA
  6
CONTINUOUS
 62
     7
 10
-163.75113279055449
 20
-133.76233158335469
 30
0.0
  0
SEQEND
  5
B0F
  8
DATA
  6
CONTINUOUS
 62
     7
  0
POLYLINE
  5
F9
  8
DATA
  6
CONTINUOUS
 62
     7
 66
     1
 10
0.0
 20
0.0
 30
0.0
 70
     1
  0
VERTEX
  5
B10
  8
DATA
  6
CONTINUOUS
 62
     7
 10
-161.75113279055449
 20
-132.23233158335469
 30
0.0
  0
VERTEX
  5
B11
  8
DATA
  6
CONTINUOUS
 62
     7
 10
-160.22113279055449
 20
-132.23233158335469
 30
0.0
  0
VERTEX
  5
B12
  8
DATA
  6
CONTINUOUS
 62
     7
 10
-160.22113279055449
 20
-133.76233158335469
 30
0.0
  0
VERTEX
  5
B13
  8
DATA
  6
CONTINUOUS
 62
     7
 10
-161.75113279055449
 20
-133.76233158335469
 30
0.0
  0
SEQEND
  5
B14
  8
DATA
  6
CONTINUOUS
 62
     7
  0
POLYLINE
  5
100
  8
DATA
  6
CONTINUOUS
 62
     7
 66
     1
 10
0.0
 20
0.0
 30
0.0
 70
     1
  0
VERTEX
  5
B15
  8
DATA
  6
CONTINUOUS
 62
     7
 10
-175.75113279055441
 20
-130.23233158335469
 30
0.0
  0
VERTEX
  5
B16
  8
DATA
  6
CONTINUOUS
 62
     7
 10
-174.22113279055449
 20
-130.23233158335469
 30
0.0
  0
VERTEX
  5
B17
  8
DATA
  6
CONTINUOUS
 62
     7
 10
-174.22113279055449
 20
-131.76233158335469
 30
0.0
  0
VERTEX
  5
B18
  8
DATA
  6
CONTINUOUS
 62
     7
 10
-175.75113279055441
 20
-131.76233158335469
 30
0.0
  0
SEQEND
  5
B19
  8
DATA
  6
CONTINUOUS
 62
     7
  0
POLYLINE
  5
107
  8
DATA
  6
CONTINUOUS
 62
     7
 66
     1
 10
0.0
 20
0.0
 30
0.0
 70
     1
  0
VERTEX
  5
B1A
  8
DATA
  6
CONTINUOUS
 62
     7
 10
-173.75113279055441
 20
-130.23233158335469
 30
0.0
  0
VERTEX
  5
B1B
  8
DATA
  6
CONTINUOUS
 62
     7
 10
-172.22113279055449
 20
-130.23233158335469
 30
0.0
  0
VERTEX
  5
B1C
  8
DATA
  6
CONTINUOUS
 62
     7
 10
-172.22113279055449
 20
-131.76233158335469
 30
0.0
  0
VERTEX
  5
B1D
  8
DATA
  6
CONTINUOUS
 62
     7
 10
-173.75113279055441
 20
-131.76233158335469
 30
0.0
  0
SEQEND
  5
B1E
  8
DATA
  6
CONTINUOUS
 62
     7
  0
POLYLINE
  5
10E
  8
DATA
  6
CONTINUOUS
 62
     7
 66
     1
 10
0.0
 20
0.0
 30
0.0
 70
     1
  0
VERTEX
  5
B1F
  8
DATA
  6
CONTINUOUS
 62
     7
 10
-171.75113279055441
 20
-130.23233158335469
 30
0.0
  0
VERTEX
  5
B20
  8
DATA
  6
CONTINUOUS
 62
     7
 10
-170.22113279055449
 20
-130.23233158335469
 30
0.0
  0
VERTEX
  5
B21
  8
DATA
  6
CONTINUOUS
 62
     7
 10
-170.22113279055449
 20
-131.76233158335469
 30
0.0
  0
VERTEX
  5
B22
  8
DATA
  6
CONTINUOUS
 62
     7
 10
-171.75113279055441
 20
-131.76233158335469
 30
0.0
  0
SEQEND
  5
B23
  8
DATA
  6
CONTINUOUS
 62
     7
  0
POLYLINE
  5
115
  8
DATA
  6
CONTINUOUS
 62
     7
 66
     1
 10
0.0
 20
0.0
 30
0.0
 70
     1
  0
VERTEX
  5
B24
  8
DATA
  6
CONTINUOUS
 62
     7
 10
-169.75113279055441
 20
-130.23233158335469
 30
0.0
  0
VERTEX
  5
B25
  8
DATA
  6
CONTINUOUS
 62
     7
 10
-168.22113279055449
 20
-130.23233158335469
 30
0.0
  0
VERTEX
  5
B26
  8
DATA
  6
CONTINUOUS
 62
     7
 10
-168.22113279055449
 20
-131.76233158335469
 30
0.0
  0
VERTEX
  5
B27
  8
DATA
  6
CONTINUOUS
 62
     7
 10
-169.75113279055441
 20
-131.76233158335469
 30
0.0
  0
SEQEND
  5
B28
  8
DATA
  6
CONTINUOUS
 62
     7
  0
POLYLINE
  5
11C
  8
DATA
  6
CONTINUOUS
 62
     7
 66
     1
 10
0.0
 20
0.0
 30
0.0
 70
     1
  0
VERTEX
  5
B29
  8
DATA
  6
CONTINUOUS
 62
     7
 10
-167.75113279055441
 20
-130.23233158335469
 30
0.0
  0
VERTEX
  5
B2A
  8
DATA
  6
CONTINUOUS
 62
     7
 10
-166.22113279055449
 20
-130.23233158335469
 30
0.0
  0
VERTEX
  5
B2B
  8
DATA
  6
CONTINUOUS
 62
     7
 10
-166.22113279055449
 20
-131.76233158335469
 30
0.0
  0
VERTEX
  5
B2C
  8
DATA
  6
CONTINUOUS
 62
     7
 10
-167.75113279055441
 20
-131.76233158335469
 30
0.0
  0
SEQEND
  5
B2D
  8
DATA
  6
CONTINUOUS
 62
     7
  0
POLYLINE
  5
123
  8
DATA
  6
CONTINUOUS
 62
     7
 66
     1
 10
0.0
 20
0.0
 30
0.0
 70
     1
  0
VERTEX
  5
B2E
  8
DATA
  6
CONTINUOUS
 62
     7
 10
-165.75113279055441
 20
-130.23233158335469
 30
0.0
  0
VERTEX
  5
B2F
  8
DATA
  6
CONTINUOUS
 62
     7
 10
-164.22113279055449
 20
-130.23233158335469
 30
0.0
  0
VERTEX
  5
B30
  8
DATA
  6
CONTINUOUS
 62
     7
 10
-164.22113279055449
 20
-131.76233158335469
 30
0.0
  0
VERTEX
  5
B31
  8
DATA
  6
CONTINUOUS
 62
     7
 10
-165.75113279055441
 20
-131.76233158335469
 30
0.0
  0
SEQEND
  5
B32
  8
DATA
  6
CONTINUOUS
 62
     7
  0
POLYLINE
  5
12A
  8
DATA
  6
CONTINUOUS
 62
     7
 66
     1
 10
0.0
 20
0.0
 30
0.0
 70
     1
  0
VERTEX
  5
B33
  8
DATA
  6
CONTINUOUS
 62
     7
 10
-163.75113279055449
 20
-130.23233158335469
 30
0.0
  0
VERTEX
  5
B34
  8
DATA
  6
CONTINUOUS
 62
     7
 10
-162.22113279055461
 20
-130.23233158335469
 30
0.0
  0
VERTEX
  5
B35
  8
DATA
  6
CONTINUOUS
 62
     7
 10
-162.22113279055461
 20
-131.76233158335469
 30
0.0
  0
VERTEX
  5
B36
  8
DATA
  6
CONTINUOUS
 62
     7
 10
-163.75113279055449
 20
-131.76233158335469
 30
0.0
  0
SEQEND
  5
B37
  8
DATA
  6
CONTINUOUS
 62
     7
  0
POLYLINE
  5
131
  8
DATA
  6
CONTINUOUS
 62
     7
 66
     1
 10
0.0
 20
0.0
 30
0.0
 70
     1
  0
VERTEX
  5
B38
  8
DATA
  6
CONTINUOUS
 62
     7
 10
-161.75113279055449
 20
-130.23233158335469
 30
0.0
  0
VERTEX
  5
B39
  8
DATA
  6
CONTINUOUS
 62
     7
 10
-160.22113279055449
 20
-130.23233158335469
 30
0.0
  0
VERTEX
  5
B3A
  8
DATA
  6
CONTINUOUS
 62
     7
 10
-160.22113279055449
 20
-131.76233158335469
 30
0.0
  0
VERTEX
  5
B3B
  8
DATA
  6
CONTINUOUS
 62
     7
 10
-161.75113279055449
 20
-131.76233158335469
 30
0.0
  0
SEQEND
  5
B3C
  8
DATA
  6
CONTINUOUS
 62
     7
  0
POLYLINE
  5
138
  8
DATA
  6
CONTINUOUS
 62
     7
 66
     1
 10
0.0
 20
0.0
 30
0.0
 70
     1
  0
VERTEX
  5
B3D
  8
DATA
  6
CONTINUOUS
 62
     7
 10
-175.75113279055441
 20
-134.23233158335469
 30
0.0
  0
VERTEX
  5
B3E
  8
DATA
  6
CONTINUOUS
 62
     7
 10
-174.22113279055449
 20
-134.23233158335469
 30
0.0
  0
VERTEX
  5
B3F
  8
DATA
  6
CONTINUOUS
 62
     7
 10
-174.22113279055449
 20
-135.76233158335469
 30
0.0
  0
VERTEX
  5
B40
  8
DATA
  6
CONTINUOUS
 62
     7
 10
-175.75113279055441
 20
-135.76233158335469
 30
0.0
  0
SEQEND
  5
B41
  8
DATA
  6
CONTINUOUS
 62
     7
  0
POLYLINE
  5
13F
  8
DATA
  6
CONTINUOUS
 62
     7
 66
     1
 10
0.0
 20
0.0
 30
0.0
 70
     1
  0
VERTEX
  5
B42
  8
DATA
  6
CONTINUOUS
 62
     7
 10
-173.75113279055441
 20
-134.23233158335469
 30
0.0
  0
VERTEX
  5
B43
  8
DATA
  6
CONTINUOUS
 62
     7
 10
-172.22113279055449
 20
-134.23233158335469
 30
0.0
  0
VERTEX
  5
B44
  8
DATA
  6
CONTINUOUS
 62
     7
 10
-172.22113279055449
 20
-135.76233158335469
 30
0.0
  0
VERTEX
  5
B45
  8
DATA
  6
CONTINUOUS
 62
     7
 10
-173.75113279055441
 20
-135.76233158335469
 30
0.0
  0
SEQEND
  5
B46
  8
DATA
  6
CONTINUOUS
 62
     7
  0
POLYLINE
  5
146
  8
DATA
  6
CONTINUOUS
 62
     7
 66
     1
 10
0.0
 20
0.0
 30
0.0
 70
     1
  0
VERTEX
  5
B47
  8
DATA
  6
CONTINUOUS
 62
     7
 10
-171.75113279055441
 20
-134.23233158335469
 30
0.0
  0
VERTEX
  5
B48
  8
DATA
  6
CONTINUOUS
 62
     7
 10
-170.22113279055449
 20
-134.23233158335469
 30
0.0
  0
VERTEX
  5
B49
  8
DATA
  6
CONTINUOUS
 62
     7
 10
-170.22113279055449
 20
-135.76233158335469
 30
0.0
  0
VERTEX
  5
B4A
  8
DATA
  6
CONTINUOUS
 62
     7
 10
-171.75113279055441
 20
-135.76233158335469
 30
0.0
  0
SEQEND
  5
B4B
  8
DATA
  6
CONTINUOUS
 62
     7
  0
POLYLINE
  5
14D
  8
DATA
  6
CONTINUOUS
 62
     7
 66
     1
 10
0.0
 20
0.0
 30
0.0
 70
     1
  0
VERTEX
  5
B4C
  8
DATA
  6
CONTINUOUS
 62
     7
 10
-169.75113279055441
 20
-134.23233158335469
 30
0.0
  0
VERTEX
  5
B4D
  8
DATA
  6
CONTINUOUS
 62
     7
 10
-168.22113279055449
 20
-134.23233158335469
 30
0.0
  0
VERTEX
  5
B4E
  8
DATA
  6
CONTINUOUS
 62
     7
 10
-168.22113279055449
 20
-135.76233158335469
 30
0.0
  0
VERTEX
  5
B4F
  8
DATA
  6
CONTINUOUS
 62
     7
 10
-169.75113279055441
 20
-135.76233158335469
 30
0.0
  0
SEQEND
  5
B50
  8
DATA
  6
CONTINUOUS
 62
     7
  0
POLYLINE
  5
154
  8
DATA
  6
CONTINUOUS
 62
     7
 66
     1
 10
0.0
 20
0.0
 30
0.0
 70
     1
  0
VERTEX
  5
B51
  8
DATA
  6
CONTINUOUS
 62
     7
 10
-167.75113279055441
 20
-134.23233158335469
 30
0.0
  0
VERTEX
  5
B52
  8
DATA
  6
CONTINUOUS
 62
     7
 10
-166.22113279055449
 20
-134.23233158335469
 30
0.0
  0
VERTEX
  5
B53
  8
DATA
  6
CONTINUOUS
 62
     7
 10
-166.22113279055449
 20
-135.76233158335469
 30
0.0
  0
VERTEX
  5
B54
  8
DATA
  6
CONTINUOUS
 62
     7
 10
-167.75113279055441
 20
-135.76233158335469
 30
0.0
  0
SEQEND
  5
B55
  8
DATA
  6
CONTINUOUS
 62
     7
  0
POLYLINE
  5
15B
  8
DATA
  6
CONTINUOUS
 62
     7
 66
     1
 10
0.0
 20
0.0
 30
0.0
 70
     1
  0
VERTEX
  5
B56
  8
DATA
  6
CONTINUOUS
 62
     7
 10
-165.75113279055441
 20
-134.23233158335469
 30
0.0
  0
VERTEX
  5
B57
  8
DATA
  6
CONTINUOUS
 62
     7
 10
-164.22113279055449
 20
-134.23233158335469
 30
0.0
  0
VERTEX
  5
B58
  8
DATA
  6
CONTINUOUS
 62
     7
 10
-164.22113279055449
 20
-135.76233158335469
 30
0.0
  0
VERTEX
  5
B59
  8
DATA
  6
CONTINUOUS
 62
     7
 10
-165.75113279055441
 20
-135.76233158335469
 30
0.0
  0
SEQEND
  5
B5A
  8
DATA
  6
CONTINUOUS
 62
     7
  0
POLYLINE
  5
162
  8
DATA
  6
CONTINUOUS
 62
     7
 66
     1
 10
0.0
 20
0.0
 30
0.0
 70
     1
  0
VERTEX
  5
B5B
  8
DATA
  6
CONTINUOUS
 62
     7
 10
-163.75113279055449
 20
-134.23233158335469
 30
0.0
  0
VERTEX
  5
B5C
  8
DATA
  6
CONTINUOUS
 62
     7
 10
-162.22113279055461
 20
-134.23233158335469
 30
0.0
  0
VERTEX
  5
B5D
  8
DATA
  6
CONTINUOUS
 62
     7
 10
-162.22113279055461
 20
-135.76233158335469
 30
0.0
  0
VERTEX
  5
B5E
  8
DATA
  6
CONTINUOUS
 62
     7
 10
-163.75113279055449
 20
-135.76233158335469
 30
0.0
  0
SEQEND
  5
B5F
  8
DATA
  6
CONTINUOUS
 62
     7
  0
POLYLINE
  5
169
  8
DATA
  6
CONTINUOUS
 62
     7
 66
     1
 10
0.0
 20
0.0
 30
0.0
 70
     1
  0
VERTEX
  5
B60
  8
DATA
  6
CONTINUOUS
 62
     7
 10
-161.75113279055449
 20
-134.23233158335469
 30
0.0
  0
VERTEX
  5
B61
  8
DATA
  6
CONTINUOUS
 62
     7
 10
-160.22113279055449
 20
-134.23233158335469
 30
0.0
  0
VERTEX
  5
B62
  8
DATA
  6
CONTINUOUS
 62
     7
 10
-160.22113279055449
 20
-135.76233158335469
 30
0.0
  0
VERTEX
  5
B63
  8
DATA
  6
CONTINUOUS
 62
     7
 10
-161.75113279055449
 20
-135.76233158335469
 30
0.0
  0
SEQEND
  5
B64
  8
DATA
  6
CONTINUOUS
 62
     7
  0
POLYLINE
  5
170
  8
DATA
  6
CONTINUOUS
 62
     7
 66
     1
 10
0.0
 20
0.0
 30
0.0
  0
VERTEX
  5
B65
  8
DATA
  6
CONTINUOUS
 62
     7
 10
-156.2010666193751
 20
-132.5973315833547
 30
0.0
  0
VERTEX
  5
B66
  8
DATA
  6
CONTINUOUS
 62
     7
 10
-154.1010666193751
 20
-132.5973315833547
 30
0.0
  0
VERTEX
  5
B67
  8
DATA
  6
CONTINUOUS
 62
     7
 10
-154.1010666193751
 20
-133.39733158335471
 30
0.0
  0
VERTEX
  5
B68
  8
DATA
  6
CONTINUOUS
 62
     7
 10
-156.2010666193751
 20
-133.39733158335471
 30
0.0
  0
SEQEND
  5
B69
  8
DATA
  6
CONTINUOUS
 62
     7
  0
POLYLINE
  5
177
  8
DATA
  6
CONTINUOUS
 62
     7
 66
     1
 10
0.0
 20
0.0
 30
0.0
  0
VERTEX
  5
B6A
  8
DATA
  6
CONTINUOUS
 62
     7
 10
-157.00106661937511
 20
-133.39733158335471
 30
0.0
  0
VERTEX
  5
B6B
  8
DATA
  6
CONTINUOUS
 62
     7
 10
-159.1010666193751
 20
-133.39733158335471
 30
0.0
  0
VERTEX
  5
B6C
  8
DATA
  6
CONTINUOUS
 62
     7
 10
-159.1010666193751
 20
-132.5973315833547
 30
0.0
  0
VERTEX
  5
B6D
  8
DATA
  6
CONTINUOUS
 62
     7
 10
-157.00106661937511
 20
-132.5973315833547
 30
0.0
  0
SEQEND
  5
B6E
  8
DATA
  6
CONTINUOUS
 62
     7
  0
POLYLINE
  5
17E
  8
DATA
  6
CONTINUOUS
 62
     7
 66
     1
 10
0.0
 20
0.0
 30
0.0
  0
VERTEX
  5
B6F
  8
DATA
  6
CONTINUOUS
 62
     7
 10
-156.2010666193751
 20
-133.39733158335471
 30
0.0
  0
VERTEX
  5
B70
  8
DATA
  6
CONTINUOUS
 62
     7
 10
-156.2010666193751
 20
-135.49733158335471
 30
0.0
  0
VERTEX
  5
B71
  8
DATA
  6
CONTINUOUS
 62
     7
 10
-157.00106661937511
 20
-135.49733158335471
 30
0.0
  0
VERTEX
  5
B72
  8
DATA
  6
CONTINUOUS
 62
     7
 10
-157.00106661937511
 20
-133.39733158335471
 30
0.0
  0
SEQEND
  5
B73
  8
DATA
  6
CONTINUOUS
 62
     7
  0
POLYLINE
  5
185
  8
DATA
  6
CONTINUOUS
 62
     7
 66
     1
 10
0.0
 20
0.0
 30
0.0
  0
VERTEX
  5
B74
  8
DATA
  6
CONTINUOUS
 62
     7
 10
-157.00106661937511
 20
-132.5973315833547
 30
0.0
  0
VERTEX
  5
B75
  8
DATA
  6
CONTINUOUS
 62
     7
 10
-157.00106661937511
 20
-130.49733158335471
 30
0.0
  0
VERTEX
  5
B76
  8
DATA
  6
CONTINUOUS
 62
     7
 10
-156.2010666193751
 20
-130.49733158335471
 30
0.0
  0
VERTEX
  5
B77
  8
DATA
  6
CONTINUOUS
 62
     7
 10
-156.2010666193751
 20
-132.5973315833547
 30
0.0
  0
SEQEND
  5
B78
  8
DATA
  6
CONTINUOUS
 62
     7
  0
POLYLINE
  5
18C
  8
DATA
  6
CONTINUOUS
 62
     7
 66
     1
 10
0.0
 20
0.0
 30
0.0
 70
     1
  0
VERTEX
  5
B79
  8
DATA
  6
CONTINUOUS
 62
     7
 10
-158.4613510498468
 20
-131.23790377270481
 30
0.0
  0
VERTEX
  5
B7A
  8
DATA
  6
CONTINUOUS
 62
     7
 10
-157.4613510498468
 20
-131.23790377270481
 30
0.0
  0
VERTEX
  5
B7B
  8
DATA
  6
CONTINUOUS
 62
     7
 10
-157.4613510498468
 20
-132.23790377270481
 30
0.0
  0
VERTEX
  5
B7C
  8
DATA
  6
CONTINUOUS
 62
     7
 10
-158.4613510498468
 20
-132.23790377270481
 30
0.0
  0
SEQEND
  5
B7D
  8
DATA
  6
CONTINUOUS
 62
     7
  0
POLYLINE
  5
193
  8
DATA
  6
CONTINUOUS
 62
     7
 66
     1
 10
0.0
 20
0.0
 30
0.0
 70
     1
  0
VERTEX
  5
B7E
  8
DATA
  6
CONTINUOUS
 62
     7
 10
-155.74078218890341
 20
-131.23790377270481
 30
0.0
  0
VERTEX
  5
B7F
  8
DATA
  6
CONTINUOUS
 62
     7
 10
-154.74078218890341
 20
-131.23790377270481
 30
0.0
  0
VERTEX
  5
B80
  8
DATA
  6
CONTINUOUS
 62
     7
 10
-154.74078218890341
 20
-132.23790377270481
 30
0.0
  0
VERTEX
  5
B81
  8
DATA
  6
CONTINUOUS
 62
     7
 10
-155.74078218890341
 20
-132.23790377270481
 30
0.0
  0
SEQEND
  5
B82
  8
DATA
  6
CONTINUOUS
 62
     7
  0
POLYLINE
  5
19A
  8
DATA
  6
CONTINUOUS
 62
     7
 66
     1
 10
0.0
 20
0.0
 30
0.0
 70
     1
  0
VERTEX
  5
B83
  8
DATA
  6
CONTINUOUS
 62
     7
 10
-158.4613510498468
 20
-133.7567593940046
 30
0.0
  0
VERTEX
  5
B84
  8
DATA
  6
CONTINUOUS
 62
     7
 10
-157.4613510498468
 20
-133.7567593940046
 30
0.0
  0
VERTEX
  5
B85
  8
DATA
  6
CONTINUOUS
 62
     7
 10
-157.4613510498468
 20
-134.7567593940046
 30
0.0
  0
VERTEX
  5
B86
  8
DATA
  6
CONTINUOUS
 62
     7
 10
-158.4613510498468
 20
-134.7567593940046
 30
0.0
  0
SEQEND
  5
B87
  8
DATA
  6
CONTINUOUS
 62
     7
  0
POLYLINE
  5
1A1
  8
DATA
  6
CONTINUOUS
 62
     7
 66
     1
 10
0.0
 20
0.0
 30
0.0
 70
     1
  0
VERTEX
  5
B88
  8
DATA
  6
CONTINUOUS
 62
     7
 10
-155.74078218890341
 20
-133.7567593940046
 30
0.0
  0
VERTEX
  5
B89
  8
DATA
  6
CONTINUOUS
 62
     7
 10
-154.74078218890341
 20
-133.7567593940046
 30
0.0
  0
VERTEX
  5
B8A
  8
DATA
  6
CONTINUOUS
 62
     7
 10
-154.74078218890341
 20
-134.7567593940046
 30
0.0
  0
VERTEX
  5
B8B
  8
DATA
  6
CONTINUOUS
 62
     7
 10
-155.74078218890341
 20
-134.7567593940046
 30
0.0
  0
SEQEND
  5
B8C
  8
DATA
  6
CONTINUOUS
 62
     7
  0
LINE
  5
1A8
  8
DATA
  6
CONTINUOUS
 62
     7
 10
-176.6964384373222
 20
-130.1674398888409
 30
0.0
 11
-176.13752123987001
 21
-136.0174398888409
 31
0.0
  0
LINE
  5
1A9
  8
DATA
  6
CONTINUOUS
 62
     7
 10
-152.80569480142799
 20
-130.1674398888409
 30
0.0
 11
-153.36461199888029
 21
-136.0174398888409
 31
0.0
  0
ARC
  5
1AA
  8
DATA
  6
CONTINUOUS
 62
     7
 10
-175.7009715065669
 20
-130.0723315833547
 30
0.0
 40
1.0
 50
90.0
 51
185.45755348510761
  0
ARC
  5
1AB
  8
DATA
  6
CONTINUOUS
 62
     7
 10
-153.8011617321834
 20
-130.0723315833547
 30
0.0
 40
0.9999999999999754
 50
354.54244651489228
 51
90.000000000003226
  0
ARC
  5
1AC
  8
DATA
  6
CONTINUOUS
 62
     7
 10
-175.1420543091146
 20
-135.92233158335469
 30
0.0
 40
0.9999999999999754
 50
185.45755348510761
 51
270.0
  0
ARC
  5
1AD
  8
DATA
  6
CONTINUOUS
 62
     7
 10
-154.3600789296357
 20
-135.92233158335469
 30
0.0
 40
1.0
 50
270.0
 51
354.5424465148958
  0
TEXT
  5
1AE
  8
DATA
 62
     7
 10
-166.72069182001869
 20
-147.6288734669007
 30
0.0
 40
2.9319140625000002
  1
1
 41
0.7
 11
-166.72069182001869
 21
-144.6969594044007
 31
0.0
 73
     3
  0
CIRCLE
  5
1AF
  8
DATA
  6
CONTINUOUS
 62
     7
 10
-103.49897651878049
 20
-132.99733158335471
 30
0.0
 40
1.175000000000068
  0
POLYLINE
  5
1B0
  8
DATA
  6
CONTINUOUS
 62
     7
 66
     1
 10
0.0
 20
0.0
 30
0.0
 70
     1
  0
VERTEX
  5
B8D
  8
DATA
  6
CONTINUOUS
 62
     7
 10
-103.49897651878049
 20
-130.29733158335469
 30
0.0
  0
VERTEX
  5
B8E
  8
DATA
  6
CONTINUOUS
 62
     7
 10
-101.1607079285626
 20
-131.64733158335471
 30
0.0
  0
VERTEX
  5
B8F
  8
DATA
  6
CONTINUOUS
 62
     7
 10
-101.1607079285626
 20
-134.3473315833547
 30
0.0
  0
VERTEX
  5
B90
  8
DATA
  6
CONTINUOUS
 62
     7
 10
-103.49897651878049
 20
-135.6973315833547
 30
0.0
  0
VERTEX
  5
B91
  8
DATA
  6
CONTINUOUS
 62
     7
 10
-105.8372451089985
 20
-134.3473315833547
 30
0.0
  0
VERTEX
  5
B92
  8
DATA
  6
CONTINUOUS
 62
     7
 10
-105.8372451089985
 20
-131.64733158335471
 30
0.0
  0
SEQEND
  5
B93
  8
DATA
  6
CONTINUOUS
 62
     7
  0
CIRCLE
  5
1B9
  8
DATA
  6
CONTINUOUS
 62
     7
 10
-135.99897651878041
 20
-132.99733158335471
 30
0.0
 40
1.175000000000068
  0
POLYLINE
  5
1BA
  8
DATA
  6
CONTINUOUS
 62
     7
 66
     1
 10
0.0
 20
0.0
 30
0.0
 70
     1
  0
VERTEX
  5
B94
  8
DATA
  6
CONTINUOUS
 62
     7
 10
-135.99897651878041
 20
-130.29733158335469
 30
0.0
  0
VERTEX
  5
B95
  8
DATA
  6
CONTINUOUS
 62
     7
 10
-133.66070792856249
 20
-131.64733158335471
 30
0.0
  0
VERTEX
  5
B96
  8
DATA
  6
CONTINUOUS
 62
     7
 10
-133.66070792856249
 20
-134.3473315833547
 30
0.0
  0
VERTEX
  5
B97
  8
DATA
  6
CONTINUOUS
 62
     7
 10
-135.99897651878041
 20
-135.6973315833547
 30
0.0
  0
VERTEX
  5
B98
  8
DATA
  6
CONTINUOUS
 62
     7
 10
-138.33724510899839
 20
-134.3473315833547
 30
0.0
  0
VERTEX
  5
B99
  8
DATA
  6
CONTINUOUS
 62
     7
 10
-138.33724510899839
 20
-131.64733158335471
 30
0.0
  0
SEQEND
  5
B9A
  8
DATA
  6
CONTINUOUS
 62
     7
  0
LINE
  5
1C3
  8
DATA
  6
CONTINUOUS
 62
     7
 10
-130.7009715065669
 20
-129.0723315833547
 30
0.0
 11
-108.8011617321834
 21
-129.0723315833547
 31
0.0
  0
LINE
  5
1C4
  8
DATA
  6
CONTINUOUS
 62
     7
 10
-109.3600789296357
 20
-136.92233158335469
 30
0.0
 11
-130.1420543091146
 21
-136.92233158335469
 31
0.0
  0
POLYLINE
  5
1C5
  8
DATA
  6
CONTINUOUS
 62
     7
 66
     1
 10
0.0
 20
0.0
 30
0.0
 70
     1
  0
VERTEX
  5
B9B
  8
DATA
  6
CONTINUOUS
 62
     7
 10
-130.75113279055449
 20
-132.23233158335469
 30
0.0
  0
VERTEX
  5
B9C
  8
DATA
  6
CONTINUOUS
 62
     7
 10
-129.22113279055449
 20
-132.23233158335469
 30
0.0
  0
VERTEX
  5
B9D
  8
DATA
  6
CONTINUOUS
 62
     7
 10
-129.22113279055449
 20
-133.76233158335469
 30
0.0
  0
VERTEX
  5
B9E
  8
DATA
  6
CONTINUOUS
 62
     7
 10
-130.75113279055449
 20
-133.76233158335469
 30
0.0
  0
SEQEND
  5
B9F
  8
DATA
  6
CONTINUOUS
 62
     7
  0
POLYLINE
  5
1CC
  8
DATA
  6
CONTINUOUS
 62
     7
 66
     1
 10
0.0
 20
0.0
 30
0.0
 70
     1
  0
VERTEX
  5
BA0
  8
DATA
  6
CONTINUOUS
 62
     7
 10
-128.75113279055449
 20
-132.23233158335469
 30
0.0
  0
VERTEX
  5
BA1
  8
DATA
  6
CONTINUOUS
 62
     7
 10
-127.22113279055451
 20
-132.23233158335469
 30
0.0
  0
VERTEX
  5
BA2
  8
DATA
  6
CONTINUOUS
 62
     7
 10
-127.22113279055451
 20
-133.76233158335469
 30
0.0
  0
VERTEX
  5
BA3
  8
DATA
  6
CONTINUOUS
 62
     7
 10
-128.75113279055449
 20
-133.76233158335469
 30
0.0
  0
SEQEND
  5
BA4
  8
DATA
  6
CONTINUOUS
 62
     7
  0
POLYLINE
  5
1D3
  8
DATA
  6
CONTINUOUS
 62
     7
 66
     1
 10
0.0
 20
0.0
 30
0.0
 70
     1
  0
VERTEX
  5
BA5
  8
DATA
  6
CONTINUOUS
 62
     7
 10
-126.75113279055439
 20
-132.23233158335469
 30
0.0
  0
VERTEX
  5
BA6
  8
DATA
  6
CONTINUOUS
 62
     7
 10
-125.22113279055451
 20
-132.23233158335469
 30
0.0
  0
VERTEX
  5
BA7
  8
DATA
  6
CONTINUOUS
 62
     7
 10
-125.22113279055451
 20
-133.76233158335469
 30
0.0
  0
VERTEX
  5
BA8
  8
DATA
  6
CONTINUOUS
 62
     7
 10
-126.75113279055439
 20
-133.76233158335469
 30
0.0
  0
SEQEND
  5
BA9
  8
DATA
  6
CONTINUOUS
 62
     7
  0
POLYLINE
  5
1DA
  8
DATA
  6
CONTINUOUS
 62
     7
 66
     1
 10
0.0
 20
0.0
 30
0.0
 70
     1
  0
VERTEX
  5
BAA
  8
DATA
  6
CONTINUOUS
 62
     7
 10
-124.75113279055439
 20
-132.23233158335469
 30
0.0
  0
VERTEX
  5
BAB
  8
DATA
  6
CONTINUOUS
 62
     7
 10
-123.22113279055451
 20
-132.23233158335469
 30
0.0
  0
VERTEX
  5
BAC
  8
DATA
  6
CONTINUOUS
 62
     7
 10
-123.22113279055451
 20
-133.76233158335469
 30
0.0
  0
VERTEX
  5
BAD
  8
DATA
  6
CONTINUOUS
 62
     7
 10
-124.75113279055439
 20
-133.76233158335469
 30
0.0
  0
SEQEND
  5
BAE
  8
DATA
  6
CONTINUOUS
 62
     7
  0
POLYLINE
  5
1E1
  8
DATA
  6
CONTINUOUS
 62
     7
 66
     1
 10
0.0
 20
0.0
 30
0.0
 70
     1
  0
VERTEX
  5
BAF
  8
DATA
  6
CONTINUOUS
 62
     7
 10
-122.75113279055439
 20
-132.23233158335469
 30
0.0
  0
VERTEX
  5
BB0
  8
DATA
  6
CONTINUOUS
 62
     7
 10
-121.22113279055451
 20
-132.23233158335469
 30
0.0
  0
VERTEX
  5
BB1
  8
DATA
  6
CONTINUOUS
 62
     7
 10
-121.22113279055451
 20
-133.76233158335469
 30
0.0
  0
VERTEX
  5
BB2
  8
DATA
  6
CONTINUOUS
 62
     7
 10
-122.75113279055439
 20
-133.76233158335469
 30
0.0
  0
SEQEND
  5
BB3
  8
DATA
  6
CONTINUOUS
 62
     7
  0
POLYLINE
  5
1E8
  8
DATA
  6
CONTINUOUS
 62
     7
 66
     1
 10
0.0
 20
0.0
 30
0.0
 70
     1
  0
VERTEX
  5
BB4
  8
DATA
  6
CONTINUOUS
 62
     7
 10
-120.75113279055439
 20
-132.23233158335469
 30
0.0
  0
VERTEX
  5
BB5
  8
DATA
  6
CONTINUOUS
 62
     7
 10
-119.22113279055451
 20
-132.23233158335469
 30
0.0
  0
VERTEX
  5
BB6
  8
DATA
  6
CONTINUOUS
 62
     7
 10
-119.22113279055451
 20
-133.76233158335469
 30
0.0
  0
VERTEX
  5
BB7
  8
DATA
  6
CONTINUOUS
 62
     7
 10
-120.75113279055439
 20
-133.76233158335469
 30
0.0
  0
SEQEND
  5
BB8
  8
DATA
  6
CONTINUOUS
 62
     7
  0
POLYLINE
  5
1EF
  8
DATA
  6
CONTINUOUS
 62
     7
 66
     1
 10
0.0
 20
0.0
 30
0.0
 70
     1
  0
VERTEX
  5
BB9
  8
DATA
  6
CONTINUOUS
 62
     7
 10
-118.75113279055449
 20
-132.23233158335469
 30
0.0
  0
VERTEX
  5
BBA
  8
DATA
  6
CONTINUOUS
 62
     7
 10
-117.22113279055461
 20
-132.23233158335469
 30
0.0
  0
VERTEX
  5
BBB
  8
DATA
  6
CONTINUOUS
 62
     7
 10
-117.22113279055461
 20
-133.76233158335469
 30
0.0
  0
VERTEX
  5
BBC
  8
DATA
  6
CONTINUOUS
 62
     7
 10
-118.75113279055449
 20
-133.76233158335469
 30
0.0
  0
SEQEND
  5
BBD
  8
DATA
  6
CONTINUOUS
 62
     7
  0
POLYLINE
  5
1F6
  8
DATA
  6
CONTINUOUS
 62
     7
 66
     1
 10
0.0
 20
0.0
 30
0.0
 70
     1
  0
VERTEX
  5
BBE
  8
DATA
  6
CONTINUOUS
 62
     7
 10
-116.75113279055449
 20
-132.23233158335469
 30
0.0
  0
VERTEX
  5
BBF
  8
DATA
  6
CONTINUOUS
 62
     7
 10
-115.22113279055451
 20
-132.23233158335469
 30
0.0
  0
VERTEX
  5
BC0
  8
DATA
  6
CONTINUOUS
 62
     7
 10
-115.22113279055451
 20
-133.76233158335469
 30
0.0
  0
VERTEX
  5
BC1
  8
DATA
  6
CONTINUOUS
 62
     7
 10
-116.75113279055449
 20
-133.76233158335469
 30
0.0
  0
SEQEND
  5
BC2
  8
DATA
  6
CONTINUOUS
 62
     7
  0
POLYLINE
  5
1FD
  8
DATA
  6
CONTINUOUS
 62
     7
 66
     1
 10
0.0
 20
0.0
 30
0.0
 70
     1
  0
VERTEX
  5
BC3
  8
DATA
  6
CONTINUOUS
 62
     7
 10
-130.75113279055449
 20
-130.23233158335469
 30
0.0
  0
VERTEX
  5
BC4
  8
DATA
  6
CONTINUOUS
 62
     7
 10
-129.22113279055449
 20
-130.23233158335469
 30
0.0
  0
VERTEX
  5
BC5
  8
DATA
  6
CONTINUOUS
 62
     7
 10
-129.22113279055449
 20
-131.76233158335469
 30
0.0
  0
VERTEX
  5
BC6
  8
DATA
  6
CONTINUOUS
 62
     7
 10
-130.75113279055449
 20
-131.76233158335469
 30
0.0
  0
SEQEND
  5
BC7
  8
DATA
  6
CONTINUOUS
 62
     7
  0
POLYLINE
  5
204
  8
DATA
  6
CONTINUOUS
 62
     7
 66
     1
 10
0.0
 20
0.0
 30
0.0
 70
     1
  0
VERTEX
  5
BC8
  8
DATA
  6
CONTINUOUS
 62
     7
 10
-128.75113279055449
 20
-130.23233158335469
 30
0.0
  0
VERTEX
  5
BC9
  8
DATA
  6
CONTINUOUS
 62
     7
 10
-127.22113279055451
 20
-130.23233158335469
 30
0.0
  0
VERTEX
  5
BCA
  8
DATA
  6
CONTINUOUS
 62
     7
 10
-127.22113279055451
 20
-131.76233158335469
 30
0.0
  0
VERTEX
  5
BCB
  8
DATA
  6
CONTINUOUS
 62
     7
 10
-128.75113279055449
 20
-131.76233158335469
 30
0.0
  0
SEQEND
  5
BCC
  8
DATA
  6
CONTINUOUS
 62
     7
  0
POLYLINE
  5
20B
  8
DATA
  6
CONTINUOUS
 62
     7
 66
     1
 10
0.0
 20
0.0
 30
0.0
 70
     1
  0
VERTEX
  5
BCD
  8
DATA
  6
CONTINUOUS
 62
     7
 10
-126.75113279055439
 20
-130.23233158335469
 30
0.0
  0
VERTEX
  5
BCE
  8
DATA
  6
CONTINUOUS
 62
     7
 10
-125.22113279055451
 20
-130.23233158335469
 30
0.0
  0
VERTEX
  5
BCF
  8
DATA
  6
CONTINUOUS
 62
     7
 10
-125.22113279055451
 20
-131.76233158335469
 30
0.0
  0
VERTEX
  5
BD0
  8
DATA
  6
CONTINUOUS
 62
     7
 10
-126.75113279055439
 20
-131.76233158335469
 30
0.0
  0
SEQEND
  5
BD1
  8
DATA
  6
CONTINUOUS
 62
     7
  0
POLYLINE
  5
212
  8
DATA
  6
CONTINUOUS
 62
     7
 66
     1
 10
0.0
 20
0.0
 30
0.0
 70
     1
  0
VERTEX
  5
BD2
  8
DATA
  6
CONTINUOUS
 62
     7
 10
-124.75113279055439
 20
-130.23233158335469
 30
0.0
  0
VERTEX
  5
BD3
  8
DATA
  6
CONTINUOUS
 62
     7
 10
-123.22113279055451
 20
-130.23233158335469
 30
0.0
  0
VERTEX
  5
BD4
  8
DATA
  6
CONTINUOUS
 62
     7
 10
-123.22113279055451
 20
-131.76233158335469
 30
0.0
  0
VERTEX
  5
BD5
  8
DATA
  6
CONTINUOUS
 62
     7
 10
-124.75113279055439
 20
-131.76233158335469
 30
0.0
  0
SEQEND
  5
BD6
  8
DATA
  6
CONTINUOUS
 62
     7
  0
POLYLINE
  5
219
  8
DATA
  6
CONTINUOUS
 62
     7
 66
     1
 10
0.0
 20
0.0
 30
0.0
 70
     1
  0
VERTEX
  5
BD7
  8
DATA
  6
CONTINUOUS
 62
     7
 10
-122.75113279055439
 20
-130.23233158335469
 30
0.0
  0
VERTEX
  5
BD8
  8
DATA
  6
CONTINUOUS
 62
     7
 10
-121.22113279055451
 20
-130.23233158335469
 30
0.0
  0
VERTEX
  5
BD9
  8
DATA
  6
CONTINUOUS
 62
     7
 10
-121.22113279055451
 20
-131.76233158335469
 30
0.0
  0
VERTEX
  5
BDA
  8
DATA
  6
CONTINUOUS
 62
     7
 10
-122.75113279055439
 20
-131.76233158335469
 30
0.0
  0
SEQEND
  5
BDB
  8
DATA
  6
CONTINUOUS
 62
     7
  0
POLYLINE
  5
220
  8
DATA
  6
CONTINUOUS
 62
     7
 66
     1
 10
0.0
 20
0.0
 30
0.0
 70
     1
  0
VERTEX
  5
BDC
  8
DATA
  6
CONTINUOUS
 62
     7
 10
-120.75113279055439
 20
-130.23233158335469
 30
0.0
  0
VERTEX
  5
BDD
  8
DATA
  6
CONTINUOUS
 62
     7
 10
-119.22113279055451
 20
-130.23233158335469
 30
0.0
  0
VERTEX
  5
BDE
  8
DATA
  6
CONTINUOUS
 62
     7
 10
-119.22113279055451
 20
-131.76233158335469
 30
0.0
  0
VERTEX
  5
BDF
  8
DATA
  6
CONTINUOUS
 62
     7
 10
-120.75113279055439
 20
-131.76233158335469
 30
0.0
  0
SEQEND
  5
BE0
  8
DATA
  6
CONTINUOUS
 62
     7
  0
POLYLINE
  5
227
  8
DATA
  6
CONTINUOUS
 62
     7
 66
     1
 10
0.0
 20
0.0
 30
0.0
 70
     1
  0
VERTEX
  5
BE1
  8
DATA
  6
CONTINUOUS
 62
     7
 10
-118.75113279055449
 20
-130.23233158335469
 30
0.0
  0
VERTEX
  5
BE2
  8
DATA
  6
CONTINUOUS
 62
     7
 10
-117.22113279055461
 20
-130.23233158335469
 30
0.0
  0
VERTEX
  5
BE3
  8
DATA
  6
CONTINUOUS
 62
     7
 10
-117.22113279055461
 20
-131.76233158335469
 30
0.0
  0
VERTEX
  5
BE4
  8
DATA
  6
CONTINUOUS
 62
     7
 10
-118.75113279055449
 20
-131.76233158335469
 30
0.0
  0
SEQEND
  5
BE5
  8
DATA
  6
CONTINUOUS
 62
     7
  0
POLYLINE
  5
22E
  8
DATA
  6
CONTINUOUS
 62
     7
 66
     1
 10
0.0
 20
0.0
 30
0.0
 70
     1
  0
VERTEX
  5
BE6
  8
DATA
  6
CONTINUOUS
 62
     7
 10
-116.75113279055449
 20
-130.23233158335469
 30
0.0
  0
VERTEX
  5
BE7
  8
DATA
  6
CONTINUOUS
 62
     7
 10
-115.22113279055451
 20
-130.23233158335469
 30
0.0
  0
VERTEX
  5
BE8
  8
DATA
  6
CONTINUOUS
 62
     7
 10
-115.22113279055451
 20
-131.76233158335469
 30
0.0
  0
VERTEX
  5
BE9
  8
DATA
  6
CONTINUOUS
 62
     7
 10
-116.75113279055449
 20
-131.76233158335469
 30
0.0
  0
SEQEND
  5
BEA
  8
DATA
  6
CONTINUOUS
 62
     7
  0
POLYLINE
  5
235
  8
DATA
  6
CONTINUOUS
 62
     7
 66
     1
 10
0.0
 20
0.0
 30
0.0
 70
     1
  0
VERTEX
  5
BEB
  8
DATA
  6
CONTINUOUS
 62
     7
 10
-130.75113279055449
 20
-134.23233158335469
 30
0.0
  0
VERTEX
  5
BEC
  8
DATA
  6
CONTINUOUS
 62
     7
 10
-129.22113279055449
 20
-134.23233158335469
 30
0.0
  0
VERTEX
  5
BED
  8
DATA
  6
CONTINUOUS
 62
     7
 10
-129.22113279055449
 20
-135.76233158335469
 30
0.0
  0
VERTEX
  5
BEE
  8
DATA
  6
CONTINUOUS
 62
     7
 10
-130.75113279055449
 20
-135.76233158335469
 30
0.0
  0
SEQEND
  5
BEF
  8
DATA
  6
CONTINUOUS
 62
     7
  0
POLYLINE
  5
23C
  8
DATA
  6
CONTINUOUS
 62
     7
 66
     1
 10
0.0
 20
0.0
 30
0.0
 70
     1
  0
VERTEX
  5
BF0
  8
DATA
  6
CONTINUOUS
 62
     7
 10
-128.75113279055449
 20
-134.23233158335469
 30
0.0
  0
VERTEX
  5
BF1
  8
DATA
  6
CONTINUOUS
 62
     7
 10
-127.22113279055451
 20
-134.23233158335469
 30
0.0
  0
VERTEX
  5
BF2
  8
DATA
  6
CONTINUOUS
 62
     7
 10
-127.22113279055451
 20
-135.76233158335469
 30
0.0
  0
VERTEX
  5
BF3
  8
DATA
  6
CONTINUOUS
 62
     7
 10
-128.75113279055449
 20
-135.76233158335469
 30
0.0
  0
SEQEND
  5
BF4
  8
DATA
  6
CONTINUOUS
 62
     7
  0
POLYLINE
  5
243
  8
DATA
  6
CONTINUOUS
 62
     7
 66
     1
 10
0.0
 20
0.0
 30
0.0
 70
     1
  0
VERTEX
  5
BF5
  8
DATA
  6
CONTINUOUS
 62
     7
 10
-126.75113279055439
 20
-134.23233158335469
 30
0.0
  0
VERTEX
  5
BF6
  8
DATA
  6
CONTINUOUS
 62
     7
 10
-125.22113279055451
 20
-134.23233158335469
 30
0.0
  0
VERTEX
  5
BF7
  8
DATA
  6
CONTINUOUS
 62
     7
 10
-125.22113279055451
 20
-135.76233158335469
 30
0.0
  0
VERTEX
  5
BF8
  8
DATA
  6
CONTINUOUS
 62
     7
 10
-126.75113279055439
 20
-135.76233158335469
 30
0.0
  0
SEQEND
  5
BF9
  8
DATA
  6
CONTINUOUS
 62
     7
  0
POLYLINE
  5
24A
  8
DATA
  6
CONTINUOUS
 62
     7
 66
     1
 10
0.0
 20
0.0
 30
0.0
 70
     1
  0
VERTEX
  5
BFA
  8
DATA
  6
CONTINUOUS
 62
     7
 10
-124.75113279055439
 20
-134.23233158335469
 30
0.0
  0
VERTEX
  5
BFB
  8
DATA
  6
CONTINUOUS
 62
     7
 10
-123.22113279055451
 20
-134.23233158335469
 30
0.0
  0
VERTEX
  5
BFC
  8
DATA
  6
CONTINUOUS
 62
     7
 10
-123.22113279055451
 20
-135.76233158335469
 30
0.0
  0
VERTEX
  5
BFD
  8
DATA
  6
CONTINUOUS
 62
     7
 10
-124.75113279055439
 20
-135.76233158335469
 30
0.0
  0
SEQEND
  5
BFE
  8
DATA
  6
CONTINUOUS
 62
     7
  0
POLYLINE
  5
251
  8
DATA
  6
CONTINUOUS
 62
     7
 66
     1
 10
0.0
 20
0.0
 30
0.0
 70
     1
  0
VERTEX
  5
BFF
  8
DATA
  6
CONTINUOUS
 62
     7
 10
-122.75113279055439
 20
-134.23233158335469
 30
0.0
  0
VERTEX
  5
C00
  8
DATA
  6
CONTINUOUS
 62
     7
 10
-121.22113279055451
 20
-134.23233158335469
 30
0.0
  0
VERTEX
  5
C01
  8
DATA
  6
CONTINUOUS
 62
     7
 10
-121.22113279055451
 20
-135.76233158335469
 30
0.0
  0
VERTEX
  5
C02
  8
DATA
  6
CONTINUOUS
 62
     7
 10
-122.75113279055439
 20
-135.76233158335469
 30
0.0
  0
SEQEND
  5
C03
  8
DATA
  6
CONTINUOUS
 62
     7
  0
POLYLINE
  5
258
  8
DATA
  6
CONTINUOUS
 62
     7
 66
     1
 10
0.0
 20
0.0
 30
0.0
 70
     1
  0
VERTEX
  5
C04
  8
DATA
  6
CONTINUOUS
 62
     7
 10
-120.75113279055439
 20
-134.23233158335469
 30
0.0
  0
VERTEX
  5
C05
  8
DATA
  6
CONTINUOUS
 62
     7
 10
-119.22113279055451
 20
-134.23233158335469
 30
0.0
  0
VERTEX
  5
C06
  8
DATA
  6
CONTINUOUS
 62
     7
 10
-119.22113279055451
 20
-135.76233158335469
 30
0.0
  0
VERTEX
  5
C07
  8
DATA
  6
CONTINUOUS
 62
     7
 10
-120.75113279055439
 20
-135.76233158335469
 30
0.0
  0
SEQEND
  5
C08
  8
DATA
  6
CONTINUOUS
 62
     7
  0
POLYLINE
  5
25F
  8
DATA
  6
CONTINUOUS
 62
     7
 66
     1
 10
0.0
 20
0.0
 30
0.0
 70
     1
  0
VERTEX
  5
C09
  8
DATA
  6
CONTINUOUS
 62
     7
 10
-118.75113279055449
 20
-134.23233158335469
 30
0.0
  0
VERTEX
  5
C0A
  8
DATA
  6
CONTINUOUS
 62
     7
 10
-117.22113279055461
 20
-134.23233158335469
 30
0.0
  0
VERTEX
  5
C0B
  8
DATA
  6
CONTINUOUS
 62
     7
 10
-117.22113279055461
 20
-135.76233158335469
 30
0.0
  0
VERTEX
  5
C0C
  8
DATA
  6
CONTINUOUS
 62
     7
 10
-118.75113279055449
 20
-135.76233158335469
 30
0.0
  0
SEQEND
  5
C0D
  8
DATA
  6
CONTINUOUS
 62
     7
  0
POLYLINE
  5
266
  8
DATA
  6
CONTINUOUS
 62
     7
 66
     1
 10
0.0
 20
0.0
 30
0.0
 70
     1
  0
VERTEX
  5
C0E
  8
DATA
  6
CONTINUOUS
 62
     7
 10
-116.75113279055449
 20
-134.23233158335469
 30
0.0
  0
VERTEX
  5
C0F
  8
DATA
  6
CONTINUOUS
 62
     7
 10
-115.22113279055451
 20
-134.23233158335469
 30
0.0
  0
VERTEX
  5
C10
  8
DATA
  6
CONTINUOUS
 62
     7
 10
-115.22113279055451
 20
-135.76233158335469
 30
0.0
  0
VERTEX
  5
C11
  8
DATA
  6
CONTINUOUS
 62
     7
 10
-116.75113279055449
 20
-135.76233158335469
 30
0.0
  0
SEQEND
  5
C12
  8
DATA
  6
CONTINUOUS
 62
     7
  0
POLYLINE
  5
26D
  8
DATA
  6
CONTINUOUS
 62
     7
 66
     1
 10
0.0
 20
0.0
 30
0.0
  0
VERTEX
  5
C13
  8
DATA
  6
CONTINUOUS
 62
     7
 10
-111.201066619375
 20
-132.5973315833547
 30
0.0
  0
VERTEX
  5
C14
  8
DATA
  6
CONTINUOUS
 62
     7
 10
-109.1010666193751
 20
-132.5973315833547
 30
0.0
  0
VERTEX
  5
C15
  8
DATA
  6
CONTINUOUS
 62
     7
 10
-109.1010666193751
 20
-133.39733158335471
 30
0.0
  0
VERTEX
  5
C16
  8
DATA
  6
CONTINUOUS
 62
     7
 10
-111.201066619375
 20
-133.39733158335471
 30
0.0
  0
SEQEND
  5
C17
  8
DATA
  6
CONTINUOUS
 62
     7
  0
POLYLINE
  5
274
  8
DATA
  6
CONTINUOUS
 62
     7
 66
     1
 10
0.0
 20
0.0
 30
0.0
  0
VERTEX
  5
C18
  8
DATA
  6
CONTINUOUS
 62
     7
 10
-112.0010666193751
 20
-133.39733158335471
 30
0.0
  0
VERTEX
  5
C19
  8
DATA
  6
CONTINUOUS
 62
     7
 10
-114.101066619375
 20
-133.39733158335471
 30
0.0
  0
VERTEX
  5
C1A
  8
DATA
  6
CONTINUOUS
 62
     7
 10
-114.101066619375
 20
-132.5973315833547
 30
0.0
  0
VERTEX
  5
C1B
  8
DATA
  6
CONTINUOUS
 62
     7
 10
-112.0010666193751
 20
-132.5973315833547
 30
0.0
  0
SEQEND
  5
C1C
  8
DATA
  6
CONTINUOUS
 62
     7
  0
POLYLINE
  5
27B
  8
DATA
  6
CONTINUOUS
 62
     7
 66
     1
 10
0.0
 20
0.0
 30
0.0
  0
VERTEX
  5
C1D
  8
DATA
  6
CONTINUOUS
 62
     7
 10
-111.201066619375
 20
-133.39733158335471
 30
0.0
  0
VERTEX
  5
C1E
  8
DATA
  6
CONTINUOUS
 62
     7
 10
-111.201066619375
 20
-135.49733158335471
 30
0.0
  0
VERTEX
  5
C1F
  8
DATA
  6
CONTINUOUS
 62
     7
 10
-112.0010666193751
 20
-135.49733158335471
 30
0.0
  0
VERTEX
  5
C20
  8
DATA
  6
CONTINUOUS
 62
     7
 10
-112.0010666193751
 20
-133.39733158335471
 30
0.0
  0
SEQEND
  5
C21
  8
DATA
  6
CONTINUOUS
 62
     7
  0
POLYLINE
  5
282
  8
DATA
  6
CONTINUOUS
 62
     7
 66
     1
 10
0.0
 20
0.0
 30
0.0
  0
VERTEX
  5
C22
  8
DATA
  6
CONTINUOUS
 62
     7
 10
-112.0010666193751
 20
-132.5973315833547
 30
0.0
  0
VERTEX
  5
C23
  8
DATA
  6
CONTINUOUS
 62
     7
 10
-112.0010666193751
 20
-130.49733158335471
 30
0.0
  0
VERTEX
  5
C24
  8
DATA
  6
CONTINUOUS
 62
     7
 10
-111.201066619375
 20
-130.49733158335471
 30
0.0
  0
VERTEX
  5
C25
  8
DATA
  6
CONTINUOUS
 62
     7
 10
-111.201066619375
 20
-132.5973315833547
 30
0.0
  0
SEQEND
  5
C26
  8
DATA
  6
CONTINUOUS
 62
     7
  0
POLYLINE
  5
289
  8
DATA
  6
CONTINUOUS
 62
     7
 66
     1
 10
0.0
 20
0.0
 30
0.0
 70
     1
  0
VERTEX
  5
C27
  8
DATA
  6
CONTINUOUS
 62
     7
 10
-113.4613510498468
 20
-131.23790377270481
 30
0.0
  0
VERTEX
  5
C28
  8
DATA
  6
CONTINUOUS
 62
     7
 10
-112.4613510498468
 20
-131.23790377270481
 30
0.0
  0
VERTEX
  5
C29
  8
DATA
  6
CONTINUOUS
 62
     7
 10
-112.4613510498468
 20
-132.23790377270481
 30
0.0
  0
VERTEX
  5
C2A
  8
DATA
  6
CONTINUOUS
 62
     7
 10
-113.4613510498468
 20
-132.23790377270481
 30
0.0
  0
SEQEND
  5
C2B
  8
DATA
  6
CONTINUOUS
 62
     7
  0
POLYLINE
  5
290
  8
DATA
  6
CONTINUOUS
 62
     7
 66
     1
 10
0.0
 20
0.0
 30
0.0
 70
     1
  0
VERTEX
  5
C2C
  8
DATA
  6
CONTINUOUS
 62
     7
 10
-110.7407821889033
 20
-131.23790377270481
 30
0.0
  0
VERTEX
  5
C2D
  8
DATA
  6
CONTINUOUS
 62
     7
 10
-109.7407821889033
 20
-131.23790377270481
 30
0.0
  0
VERTEX
  5
C2E
  8
DATA
  6
CONTINUOUS
 62
     7
 10
-109.7407821889033
 20
-132.23790377270481
 30
0.0
  0
VERTEX
  5
C2F
  8
DATA
  6
CONTINUOUS
 62
     7
 10
-110.7407821889033
 20
-132.23790377270481
 30
0.0
  0
SEQEND
  5
C30
  8
DATA
  6
CONTINUOUS
 62
     7
  0
POLYLINE
  5
297
  8
DATA
  6
CONTINUOUS
 62
     7
 66
     1
 10
0.0
 20
0.0
 30
0.0
 70
     1
  0
VERTEX
  5
C31
  8
DATA
  6
CONTINUOUS
 62
     7
 10
-113.4613510498468
 20
-133.7567593940046
 30
0.0
  0
VERTEX
  5
C32
  8
DATA
  6
CONTINUOUS
 62
     7
 10
-112.4613510498468
 20
-133.7567593940046
 30
0.0
  0
VERTEX
  5
C33
  8
DATA
  6
CONTINUOUS
 62
     7
 10
-112.4613510498468
 20
-134.7567593940046
 30
0.0
  0
VERTEX
  5
C34
  8
DATA
  6
CONTINUOUS
 62
     7
 10
-113.4613510498468
 20
-134.7567593940046
 30
0.0
  0
SEQEND
  5
C35
  8
DATA
  6
CONTINUOUS
 62
     7
  0
POLYLINE
  5
29E
  8
DATA
  6
CONTINUOUS
 62
     7
 66
     1
 10
0.0
 20
0.0
 30
0.0
 70
     1
  0
VERTEX
  5
C36
  8
DATA
  6
CONTINUOUS
 62
     7
 10
-110.7407821889033
 20
-133.7567593940046
 30
0.0
  0
VERTEX
  5
C37
  8
DATA
  6
CONTINUOUS
 62
     7
 10
-109.7407821889033
 20
-133.7567593940046
 30
0.0
  0
VERTEX
  5
C38
  8
DATA
  6
CONTINUOUS
 62
     7
 10
-109.7407821889033
 20
-134.7567593940046
 30
0.0
  0
VERTEX
  5
C39
  8
DATA
  6
CONTINUOUS
 62
     7
 10
-110.7407821889033
 20
-134.7567593940046
 30
0.0
  0
SEQEND
  5
C3A
  8
DATA
  6
CONTINUOUS
 62
     7
  0
LINE
  5
2A5
  8
DATA
  6
CONTINUOUS
 62
     7
 10
-131.69643843732231
 20
-130.1674398888409
 30
0.0
 11
-131.13752123987001
 21
-136.0174398888409
 31
0.0
  0
LINE
  5
2A6
  8
DATA
  6
CONTINUOUS
 62
     7
 10
-107.805694801428
 20
-130.1674398888409
 30
0.0
 11
-108.36461199888031
 21
-136.0174398888409
 31
0.0
  0
ARC
  5
2A7
  8
DATA
  6
CONTINUOUS
 62
     7
 10
-130.7009715065669
 20
-130.0723315833547
 30
0.0
 40
1.0
 50
90.0
 51
185.45755348510761
  0
ARC
  5
2A8
  8
DATA
  6
CONTINUOUS
 62
     7
 10
-108.8011617321834
 20
-130.0723315833547
 30
0.0
 40
0.9999999999999754
 50
354.54244651489228
 51
90.000000000003226
  0
ARC
  5
2A9
  8
DATA
  6
CONTINUOUS
 62
     7
 10
-130.1420543091146
 20
-135.92233158335469
 30
0.0
 40
0.9999999999999754
 50
185.45755348510761
 51
270.0
  0
ARC
  5
2AA
  8
DATA
  6
CONTINUOUS
 62
     7
 10
-109.3600789296357
 20
-135.92233158335469
 30
0.0
 40
1.0
 50
270.0
 51
354.5424465148958
  0
TEXT
  5
2AB
  8
DATA
 62
     7
 10
-121.7206918200187
 20
-147.6288734669007
 30
0.0
 40
2.9319140625000002
  1
2
 41
0.7
 11
-121.7206918200187
 21
-144.6969594044007
 31
0.0
 73
     3
  0
CIRCLE
  5
2AC
  8
DATA
  6
CONTINUOUS
 62
     7
 10
-58.498976518780502
 20
-132.99733158335471
 30
0.0
 40
1.175000000000068
  0
POLYLINE
  5
2AD
  8
DATA
  6
CONTINUOUS
 62
     7
 66
     1
 10
0.0
 20
0.0
 30
0.0
 70
     1
  0
VERTEX
  5
C3B
  8
DATA
  6
CONTINUOUS
 62
     7
 10
-58.498976518780502
 20
-130.29733158335469
 30
0.0
  0
VERTEX
  5
C3C
  8
DATA
  6
CONTINUOUS
 62
     7
 10
-56.160707928562573
 20
-131.64733158335471
 30
0.0
  0
VERTEX
  5
C3D
  8
DATA
  6
CONTINUOUS
 62
     7
 10
-56.160707928562573
 20
-134.3473315833547
 30
0.0
  0
VERTEX
  5
C3E
  8
DATA
  6
CONTINUOUS
 62
     7
 10
-58.498976518780502
 20
-135.6973315833547
 30
0.0
  0
VERTEX
  5
C3F
  8
DATA
  6
CONTINUOUS
 62
     7
 10
-60.837245108998538
 20
-134.3473315833547
 30
0.0
  0
VERTEX
  5
C40
  8
DATA
  6
CONTINUOUS
 62
     7
 10
-60.837245108998538
 20
-131.64733158335471
 30
0.0
  0
SEQEND
  5
C41
  8
DATA
  6
CONTINUOUS
 62
     7
  0
CIRCLE
  5
2B6
  8
DATA
  6
CONTINUOUS
 62
     7
 10
-90.99897651878041
 20
-132.99733158335471
 30
0.0
 40
1.175000000000068
  0
POLYLINE
  5
2B7
  8
DATA
  6
CONTINUOUS
 62
     7
 66
     1
 10
0.0
 20
0.0
 30
0.0
 70
     1
  0
VERTEX
  5
C42
  8
DATA
  6
CONTINUOUS
 62
     7
 10
-90.99897651878041
 20
-130.29733158335469
 30
0.0
  0
VERTEX
  5
C43
  8
DATA
  6
CONTINUOUS
 62
     7
 10
-88.660707928562445
 20
-131.64733158335471
 30
0.0
  0
VERTEX
  5
C44
  8
DATA
  6
CONTINUOUS
 62
     7
 10
-88.660707928562445
 20
-134.3473315833547
 30
0.0
  0
VERTEX
  5
C45
  8
DATA
  6
CONTINUOUS
 62
     7
 10
-90.99897651878041
 20
-135.6973315833547
 30
0.0
  0
VERTEX
  5
C46
  8
DATA
  6
CONTINUOUS
 62
     7
 10
-93.337245108998431
 20
-134.3473315833547
 30
0.0
  0
VERTEX
  5
C47
  8
DATA
  6
CONTINUOUS
 62
     7
 10
-93.337245108998431
 20
-131.64733158335471
 30
0.0
  0
SEQEND
  5
C48
  8
DATA
  6
CONTINUOUS
 62
     7
  0
LINE
  5
2C0
  8
DATA
  6
CONTINUOUS
 62
     7
 10
-85.700971506566916
 20
-129.0723315833547
 30
0.0
 11
-63.801161732183459
 21
-129.0723315833547
 31
0.0
  0
LINE
  5
2C1
  8
DATA
  6
CONTINUOUS
 62
     7
 10
-64.360078929635719
 20
-136.92233158335469
 30
0.0
 11
-85.142054309114656
 21
-136.92233158335469
 31
0.0
  0
POLYLINE
  5
2C2
  8
DATA
  6
CONTINUOUS
 62
     7
 66
     1
 10
0.0
 20
0.0
 30
0.0
 70
     1
  0
VERTEX
  5
C49
  8
DATA
  6
CONTINUOUS
 62
     7
 10
-85.751132790554479
 20
-132.23233158335469
 30
0.0
  0
VERTEX
  5
C4A
  8
DATA
  6
CONTINUOUS
 62
     7
 10
-84.221132790554506
 20
-132.23233158335469
 30
0.0
  0
VERTEX
  5
C4B
  8
DATA
  6
CONTINUOUS
 62
     7
 10
-84.221132790554506
 20
-133.76233158335469
 30
0.0
  0
VERTEX
  5
C4C
  8
DATA
  6
CONTINUOUS
 62
     7
 10
-85.751132790554479
 20
-133.76233158335469
 30
0.0
  0
SEQEND
  5
C4D
  8
DATA
  6
CONTINUOUS
 62
     7
  0
POLYLINE
  5
2C9
  8
DATA
  6
CONTINUOUS
 62
     7
 66
     1
 10
0.0
 20
0.0
 30
0.0
 70
     1
  0
VERTEX
  5
C4E
  8
DATA
  6
CONTINUOUS
 62
     7
 10
-83.751132790554465
 20
-132.23233158335469
 30
0.0
  0
VERTEX
  5
C4F
  8
DATA
  6
CONTINUOUS
 62
     7
 10
-82.221132790554506
 20
-132.23233158335469
 30
0.0
  0
VERTEX
  5
C50
  8
DATA
  6
CONTINUOUS
 62
     7
 10
-82.221132790554506
 20
-133.76233158335469
 30
0.0
  0
VERTEX
  5
C51
  8
DATA
  6
CONTINUOUS
 62
     7
 10
-83.751132790554465
 20
-133.76233158335469
 30
0.0
  0
SEQEND
  5
C52
  8
DATA
  6
CONTINUOUS
 62
     7
  0
POLYLINE
  5
2D0
  8
DATA
  6
CONTINUOUS
 62
     7
 66
     1
 10
0.0
 20
0.0
 30
0.0
 70
     1
  0
VERTEX
  5
C53
  8
DATA
  6
CONTINUOUS
 62
     7
 10
-81.751132790554479
 20
-132.23233158335469
 30
0.0
  0
VERTEX
  5
C54
  8
DATA
  6
CONTINUOUS
 62
     7
 10
-80.221132790554506
 20
-132.23233158335469
 30
0.0
  0
VERTEX
  5
C55
  8
DATA
  6
CONTINUOUS
 62
     7
 10
-80.221132790554506
 20
-133.76233158335469
 30
0.0
  0
VERTEX
  5
C56
  8
DATA
  6
CONTINUOUS
 62
     7
 10
-81.751132790554479
 20
-133.76233158335469
 30
0.0
  0
SEQEND
  5
C57
  8
DATA
  6
CONTINUOUS
 62
     7
  0
POLYLINE
  5
2D7
  8
DATA
  6
CONTINUOUS
 62
     7
 66
     1
 10
0.0
 20
0.0
 30
0.0
 70
     1
  0
VERTEX
  5
C58
  8
DATA
  6
CONTINUOUS
 62
     7
 10
-79.751132790554479
 20
-132.23233158335469
 30
0.0
  0
VERTEX
  5
C59
  8
DATA
  6
CONTINUOUS
 62
     7
 10
-78.221132790554506
 20
-132.23233158335469
 30
0.0
  0
VERTEX
  5
C5A
  8
DATA
  6
CONTINUOUS
 62
     7
 10
-78.221132790554506
 20
-133.76233158335469
 30
0.0
  0
VERTEX
  5
C5B
  8
DATA
  6
CONTINUOUS
 62
     7
 10
-79.751132790554479
 20
-133.76233158335469
 30
0.0
  0
SEQEND
  5
C5C
  8
DATA
  6
CONTINUOUS
 62
     7
  0
POLYLINE
  5
2DE
  8
DATA
  6
CONTINUOUS
 62
     7
 66
     1
 10
0.0
 20
0.0
 30
0.0
 70
     1
  0
VERTEX
  5
C5D
  8
DATA
  6
CONTINUOUS
 62
     7
 10
-77.751132790554479
 20
-132.23233158335469
 30
0.0
  0
VERTEX
  5
C5E
  8
DATA
  6
CONTINUOUS
 62
     7
 10
-76.221132790554506
 20
-132.23233158335469
 30
0.0
  0
VERTEX
  5
C5F
  8
DATA
  6
CONTINUOUS
 62
     7
 10
-76.221132790554506
 20
-133.76233158335469
 30
0.0
  0
VERTEX
  5
C60
  8
DATA
  6
CONTINUOUS
 62
     7
 10
-77.751132790554479
 20
-133.76233158335469
 30
0.0
  0
SEQEND
  5
C61
  8
DATA
  6
CONTINUOUS
 62
     7
  0
POLYLINE
  5
2E5
  8
DATA
  6
CONTINUOUS
 62
     7
 66
     1
 10
0.0
 20
0.0
 30
0.0
 70
     1
  0
VERTEX
  5
C62
  8
DATA
  6
CONTINUOUS
 62
     7
 10
-75.751132790554479
 20
-132.23233158335469
 30
0.0
  0
VERTEX
  5
C63
  8
DATA
  6
CONTINUOUS
 62
     7
 10
-74.221132790554506
 20
-132.23233158335469
 30
0.0
  0
VERTEX
  5
C64
  8
DATA
  6
CONTINUOUS
 62
     7
 10
-74.221132790554506
 20
-133.76233158335469
 30
0.0
  0
VERTEX
  5
C65
  8
DATA
  6
CONTINUOUS
 62
     7
 10
-75.751132790554479
 20
-133.76233158335469
 30
0.0
  0
SEQEND
  5
C66
  8
DATA
  6
CONTINUOUS
 62
     7
  0
POLYLINE
  5
2EC
  8
DATA
  6
CONTINUOUS
 62
     7
 66
     1
 10
0.0
 20
0.0
 30
0.0
 70
     1
  0
VERTEX
  5
C67
  8
DATA
  6
CONTINUOUS
 62
     7
 10
-73.751132790554536
 20
-132.23233158335469
 30
0.0
  0
VERTEX
  5
C68
  8
DATA
  6
CONTINUOUS
 62
     7
 10
-72.221132790554634
 20
-132.23233158335469
 30
0.0
  0
VERTEX
  5
C69
  8
DATA
  6
CONTINUOUS
 62
     7
 10
-72.221132790554634
 20
-133.76233158335469
 30
0.0
  0
VERTEX
  5
C6A
  8
DATA
  6
CONTINUOUS
 62
     7
 10
-73.751132790554536
 20
-133.76233158335469
 30
0.0
  0
SEQEND
  5
C6B
  8
DATA
  6
CONTINUOUS
 62
     7
  0
POLYLINE
  5
2F3
  8
DATA
  6
CONTINUOUS
 62
     7
 66
     1
 10
0.0
 20
0.0
 30
0.0
 70
     1
  0
VERTEX
  5
C6C
  8
DATA
  6
CONTINUOUS
 62
     7
 10
-71.751132790554536
 20
-132.23233158335469
 30
0.0
  0
VERTEX
  5
C6D
  8
DATA
  6
CONTINUOUS
 62
     7
 10
-70.221132790554506
 20
-132.23233158335469
 30
0.0
  0
VERTEX
  5
C6E
  8
DATA
  6
CONTINUOUS
 62
     7
 10
-70.221132790554506
 20
-133.76233158335469
 30
0.0
  0
VERTEX
  5
C6F
  8
DATA
  6
CONTINUOUS
 62
     7
 10
-71.751132790554536
 20
-133.76233158335469
 30
0.0
  0
SEQEND
  5
C70
  8
DATA
  6
CONTINUOUS
 62
     7
  0
POLYLINE
  5
2FA
  8
DATA
  6
CONTINUOUS
 62
     7
 66
     1
 10
0.0
 20
0.0
 30
0.0
 70
     1
  0
VERTEX
  5
C71
  8
DATA
  6
CONTINUOUS
 62
     7
 10
-85.751132790554479
 20
-130.23233158335469
 30
0.0
  0
VERTEX
  5
C72
  8
DATA
  6
CONTINUOUS
 62
     7
 10
-84.221132790554506
 20
-130.23233158335469
 30
0.0
  0
VERTEX
  5
C73
  8
DATA
  6
CONTINUOUS
 62
     7
 10
-84.221132790554506
 20
-131.76233158335469
 30
0.0
  0
VERTEX
  5
C74
  8
DATA
  6
CONTINUOUS
 62
     7
 10
-85.751132790554479
 20
-131.76233158335469
 30
0.0
  0
SEQEND
  5
C75
  8
DATA
  6
CONTINUOUS
 62
     7
  0
POLYLINE
  5
301
  8
DATA
  6
CONTINUOUS
 62
     7
 66
     1
 10
0.0
 20
0.0
 30
0.0
 70
     1
  0
VERTEX
  5
C76
  8
DATA
  6
CONTINUOUS
 62
     7
 10
-83.751132790554465
 20
-130.23233158335469
 30
0.0
  0
VERTEX
  5
C77
  8
DATA
  6
CONTINUOUS
 62
     7
 10
-82.221132790554506
 20
-130.23233158335469
 30
0.0
  0
VERTEX
  5
C78
  8
DATA
  6
CONTINUOUS
 62
     7
 10
-82.221132790554506
 20
-131.76233158335469
 30
0.0
  0
VERTEX
  5
C79
  8
DATA
  6
CONTINUOUS
 62
     7
 10
-83.751132790554465
 20
-131.76233158335469
 30
0.0
  0
SEQEND
  5
C7A
  8
DATA
  6
CONTINUOUS
 62
     7
  0
POLYLINE
  5
308
  8
DATA
  6
CONTINUOUS
 62
     7
 66
     1
 10
0.0
 20
0.0
 30
0.0
 70
     1
  0
VERTEX
  5
C7B
  8
DATA
  6
CONTINUOUS
 62
     7
 10
-81.751132790554479
 20
-130.23233158335469
 30
0.0
  0
VERTEX
  5
C7C
  8
DATA
  6
CONTINUOUS
 62
     7
 10
-80.221132790554506
 20
-130.23233158335469
 30
0.0
  0
VERTEX
  5
C7D
  8
DATA
  6
CONTINUOUS
 62
     7
 10
-80.221132790554506
 20
-131.76233158335469
 30
0.0
  0
VERTEX
  5
C7E
  8
DATA
  6
CONTINUOUS
 62
     7
 10
-81.751132790554479
 20
-131.76233158335469
 30
0.0
  0
SEQEND
  5
C7F
  8
DATA
  6
CONTINUOUS
 62
     7
  0
POLYLINE
  5
30F
  8
DATA
  6
CONTINUOUS
 62
     7
 66
     1
 10
0.0
 20
0.0
 30
0.0
 70
     1
  0
VERTEX
  5
C80
  8
DATA
  6
CONTINUOUS
 62
     7
 10
-79.751132790554479
 20
-130.23233158335469
 30
0.0
  0
VERTEX
  5
C81
  8
DATA
  6
CONTINUOUS
 62
     7
 10
-78.221132790554506
 20
-130.23233158335469
 30
0.0
  0
VERTEX
  5
C82
  8
DATA
  6
CONTINUOUS
 62
     7
 10
-78.221132790554506
 20
-131.76233158335469
 30
0.0
  0
VERTEX
  5
C83
  8
DATA
  6
CONTINUOUS
 62
     7
 10
-79.751132790554479
 20
-131.76233158335469
 30
0.0
  0
SEQEND
  5
C84
  8
DATA
  6
CONTINUOUS
 62
     7
  0
POLYLINE
  5
316
  8
DATA
  6
CONTINUOUS
 62
     7
 66
     1
 10
0.0
 20
0.0
 30
0.0
 70
     1
  0
VERTEX
  5
C85
  8
DATA
  6
CONTINUOUS
 62
     7
 10
-77.751132790554479
 20
-130.23233158335469
 30
0.0
  0
VERTEX
  5
C86
  8
DATA
  6
CONTINUOUS
 62
     7
 10
-76.221132790554506
 20
-130.23233158335469
 30
0.0
  0
VERTEX
  5
C87
  8
DATA
  6
CONTINUOUS
 62
     7
 10
-76.221132790554506
 20
-131.76233158335469
 30
0.0
  0
VERTEX
  5
C88
  8
DATA
  6
CONTINUOUS
 62
     7
 10
-77.751132790554479
 20
-131.76233158335469
 30
0.0
  0
SEQEND
  5
C89
  8
DATA
  6
CONTINUOUS
 62
     7
  0
POLYLINE
  5
31D
  8
DATA
  6
CONTINUOUS
 62
     7
 66
     1
 10
0.0
 20
0.0
 30
0.0
 70
     1
  0
VERTEX
  5
C8A
  8
DATA
  6
CONTINUOUS
 62
     7
 10
-75.751132790554479
 20
-130.23233158335469
 30
0.0
  0
VERTEX
  5
C8B
  8
DATA
  6
CONTINUOUS
 62
     7
 10
-74.221132790554506
 20
-130.23233158335469
 30
0.0
  0
VERTEX
  5
C8C
  8
DATA
  6
CONTINUOUS
 62
     7
 10
-74.221132790554506
 20
-131.76233158335469
 30
0.0
  0
VERTEX
  5
C8D
  8
DATA
  6
CONTINUOUS
 62
     7
 10
-75.751132790554479
 20
-131.76233158335469
 30
0.0
  0
SEQEND
  5
C8E
  8
DATA
  6
CONTINUOUS
 62
     7
  0
POLYLINE
  5
324
  8
DATA
  6
CONTINUOUS
 62
     7
 66
     1
 10
0.0
 20
0.0
 30
0.0
 70
     1
  0
VERTEX
  5
C8F
  8
DATA
  6
CONTINUOUS
 62
     7
 10
-73.751132790554536
 20
-130.23233158335469
 30
0.0
  0
VERTEX
  5
C90
  8
DATA
  6
CONTINUOUS
 62
     7
 10
-72.221132790554634
 20
-130.23233158335469
 30
0.0
  0
VERTEX
  5
C91
  8
DATA
  6
CONTINUOUS
 62
     7
 10
-72.221132790554634
 20
-131.76233158335469
 30
0.0
  0
VERTEX
  5
C92
  8
DATA
  6
CONTINUOUS
 62
     7
 10
-73.751132790554536
 20
-131.76233158335469
 30
0.0
  0
SEQEND
  5
C93
  8
DATA
  6
CONTINUOUS
 62
     7
  0
POLYLINE
  5
32B
  8
DATA
  6
CONTINUOUS
 62
     7
 66
     1
 10
0.0
 20
0.0
 30
0.0
 70
     1
  0
VERTEX
  5
C94
  8
DATA
  6
CONTINUOUS
 62
     7
 10
-71.751132790554536
 20
-130.23233158335469
 30
0.0
  0
VERTEX
  5
C95
  8
DATA
  6
CONTINUOUS
 62
     7
 10
-70.221132790554506
 20
-130.23233158335469
 30
0.0
  0
VERTEX
  5
C96
  8
DATA
  6
CONTINUOUS
 62
     7
 10
-70.221132790554506
 20
-131.76233158335469
 30
0.0
  0
VERTEX
  5
C97
  8
DATA
  6
CONTINUOUS
 62
     7
 10
-71.751132790554536
 20
-131.76233158335469
 30
0.0
  0
SEQEND
  5
C98
  8
DATA
  6
CONTINUOUS
 62
     7
  0
POLYLINE
  5
332
  8
DATA
  6
CONTINUOUS
 62
     7
 66
     1
 10
0.0
 20
0.0
 30
0.0
 70
     1
  0
VERTEX
  5
C99
  8
DATA
  6
CONTINUOUS
 62
     7
 10
-85.751132790554479
 20
-134.23233158335469
 30
0.0
  0
VERTEX
  5
C9A
  8
DATA
  6
CONTINUOUS
 62
     7
 10
-84.221132790554506
 20
-134.23233158335469
 30
0.0
  0
VERTEX
  5
C9B
  8
DATA
  6
CONTINUOUS
 62
     7
 10
-84.221132790554506
 20
-135.76233158335469
 30
0.0
  0
VERTEX
  5
C9C
  8
DATA
  6
CONTINUOUS
 62
     7
 10
-85.751132790554479
 20
-135.76233158335469
 30
0.0
  0
SEQEND
  5
C9D
  8
DATA
  6
CONTINUOUS
 62
     7
  0
POLYLINE
  5
339
  8
DATA
  6
CONTINUOUS
 62
     7
 66
     1
 10
0.0
 20
0.0
 30
0.0
 70
     1
  0
VERTEX
  5
C9E
  8
DATA
  6
CONTINUOUS
 62
     7
 10
-83.751132790554465
 20
-134.23233158335469
 30
0.0
  0
VERTEX
  5
C9F
  8
DATA
  6
CONTINUOUS
 62
     7
 10
-82.221132790554506
 20
-134.23233158335469
 30
0.0
  0
VERTEX
  5
CA0
  8
DATA
  6
CONTINUOUS
 62
     7
 10
-82.221132790554506
 20
-135.76233158335469
 30
0.0
  0
VERTEX
  5
CA1
  8
DATA
  6
CONTINUOUS
 62
     7
 10
-83.751132790554465
 20
-135.76233158335469
 30
0.0
  0
SEQEND
  5
CA2
  8
DATA
  6
CONTINUOUS
 62
     7
  0
POLYLINE
  5
340
  8
DATA
  6
CONTINUOUS
 62
     7
 66
     1
 10
0.0
 20
0.0
 30
0.0
 70
     1
  0
VERTEX
  5
CA3
  8
DATA
  6
CONTINUOUS
 62
     7
 10
-81.751132790554479
 20
-134.23233158335469
 30
0.0
  0
VERTEX
  5
CA4
  8
DATA
  6
CONTINUOUS
 62
     7
 10
-80.221132790554506
 20
-134.23233158335469
 30
0.0
  0
VERTEX
  5
CA5
  8
DATA
  6
CONTINUOUS
 62
     7
 10
-80.221132790554506
 20
-135.76233158335469
 30
0.0
  0
VERTEX
  5
CA6
  8
DATA
  6
CONTINUOUS
 62
     7
 10
-81.751132790554479
 20
-135.76233158335469
 30
0.0
  0
SEQEND
  5
CA7
  8
DATA
  6
CONTINUOUS
 62
     7
  0
POLYLINE
  5
347
  8
DATA
  6
CONTINUOUS
 62
     7
 66
     1
 10
0.0
 20
0.0
 30
0.0
 70
     1
  0
VERTEX
  5
CA8
  8
DATA
  6
CONTINUOUS
 62
     7
 10
-79.751132790554479
 20
-134.23233158335469
 30
0.0
  0
VERTEX
  5
CA9
  8
DATA
  6
CONTINUOUS
 62
     7
 10
-78.221132790554506
 20
-134.23233158335469
 30
0.0
  0
VERTEX
  5
CAA
  8
DATA
  6
CONTINUOUS
 62
     7
 10
-78.221132790554506
 20
-135.76233158335469
 30
0.0
  0
VERTEX
  5
CAB
  8
DATA
  6
CONTINUOUS
 62
     7
 10
-79.751132790554479
 20
-135.76233158335469
 30
0.0
  0
SEQEND
  5
CAC
  8
DATA
  6
CONTINUOUS
 62
     7
  0
POLYLINE
  5
34E
  8
DATA
  6
CONTINUOUS
 62
     7
 66
     1
 10
0.0
 20
0.0
 30
0.0
 70
     1
  0
VERTEX
  5
CAD
  8
DATA
  6
CONTINUOUS
 62
     7
 10
-77.751132790554479
 20
-134.23233158335469
 30
0.0
  0
VERTEX
  5
CAE
  8
DATA
  6
CONTINUOUS
 62
     7
 10
-76.221132790554506
 20
-134.23233158335469
 30
0.0
  0
VERTEX
  5
CAF
  8
DATA
  6
CONTINUOUS
 62
     7
 10
-76.221132790554506
 20
-135.76233158335469
 30
0.0
  0
VERTEX
  5
CB0
  8
DATA
  6
CONTINUOUS
 62
     7
 10
-77.751132790554479
 20
-135.76233158335469
 30
0.0
  0
SEQEND
  5
CB1
  8
DATA
  6
CONTINUOUS
 62
     7
  0
POLYLINE
  5
355
  8
DATA
  6
CONTINUOUS
 62
     7
 66
     1
 10
0.0
 20
0.0
 30
0.0
 70
     1
  0
VERTEX
  5
CB2
  8
DATA
  6
CONTINUOUS
 62
     7
 10
-75.751132790554479
 20
-134.23233158335469
 30
0.0
  0
VERTEX
  5
CB3
  8
DATA
  6
CONTINUOUS
 62
     7
 10
-74.221132790554506
 20
-134.23233158335469
 30
0.0
  0
VERTEX
  5
CB4
  8
DATA
  6
CONTINUOUS
 62
     7
 10
-74.221132790554506
 20
-135.76233158335469
 30
0.0
  0
VERTEX
  5
CB5
  8
DATA
  6
CONTINUOUS
 62
     7
 10
-75.751132790554479
 20
-135.76233158335469
 30
0.0
  0
SEQEND
  5
CB6
  8
DATA
  6
CONTINUOUS
 62
     7
  0
POLYLINE
  5
35C
  8
DATA
  6
CONTINUOUS
 62
     7
 66
     1
 10
0.0
 20
0.0
 30
0.0
 70
     1
  0
VERTEX
  5
CB7
  8
DATA
  6
CONTINUOUS
 62
     7
 10
-73.751132790554536
 20
-134.23233158335469
 30
0.0
  0
VERTEX
  5
CB8
  8
DATA
  6
CONTINUOUS
 62
     7
 10
-72.221132790554634
 20
-134.23233158335469
 30
0.0
  0
VERTEX
  5
CB9
  8
DATA
  6
CONTINUOUS
 62
     7
 10
-72.221132790554634
 20
-135.76233158335469
 30
0.0
  0
VERTEX
  5
CBA
  8
DATA
  6
CONTINUOUS
 62
     7
 10
-73.751132790554536
 20
-135.76233158335469
 30
0.0
  0
SEQEND
  5
CBB
  8
DATA
  6
CONTINUOUS
 62
     7
  0
POLYLINE
  5
363
  8
DATA
  6
CONTINUOUS
 62
     7
 66
     1
 10
0.0
 20
0.0
 30
0.0
 70
     1
  0
VERTEX
  5
CBC
  8
DATA
  6
CONTINUOUS
 62
     7
 10
-71.751132790554536
 20
-134.23233158335469
 30
0.0
  0
VERTEX
  5
CBD
  8
DATA
  6
CONTINUOUS
 62
     7
 10
-70.221132790554506
 20
-134.23233158335469
 30
0.0
  0
VERTEX
  5
CBE
  8
DATA
  6
CONTINUOUS
 62
     7
 10
-70.221132790554506
 20
-135.76233158335469
 30
0.0
  0
VERTEX
  5
CBF
  8
DATA
  6
CONTINUOUS
 62
     7
 10
-71.751132790554536
 20
-135.76233158335469
 30
0.0
  0
SEQEND
  5
CC0
  8
DATA
  6
CONTINUOUS
 62
     7
  0
POLYLINE
  5
36A
  8
DATA
  6
CONTINUOUS
 62
     7
 66
     1
 10
0.0
 20
0.0
 30
0.0
  0
VERTEX
  5
CC1
  8
DATA
  6
CONTINUOUS
 62
     7
 10
-66.201066619375069
 20
-132.5973315833547
 30
0.0
  0
VERTEX
  5
CC2
  8
DATA
  6
CONTINUOUS
 62
     7
 10
-64.101066619375089
 20
-132.5973315833547
 30
0.0
  0
VERTEX
  5
CC3
  8
DATA
  6
CONTINUOUS
 62
     7
 10
-64.101066619375089
 20
-133.39733158335471
 30
0.0
  0
VERTEX
  5
CC4
  8
DATA
  6
CONTINUOUS
 62
     7
 10
-66.201066619375069
 20
-133.39733158335471
 30
0.0
  0
SEQEND
  5
CC5
  8
DATA
  6
CONTINUOUS
 62
     7
  0
POLYLINE
  5
371
  8
DATA
  6
CONTINUOUS
 62
     7
 66
     1
 10
0.0
 20
0.0
 30
0.0
  0
VERTEX
  5
CC6
  8
DATA
  6
CONTINUOUS
 62
     7
 10
-67.001066619375095
 20
-133.39733158335471
 30
0.0
  0
VERTEX
  5
CC7
  8
DATA
  6
CONTINUOUS
 62
     7
 10
-69.101066619375089
 20
-133.39733158335471
 30
0.0
  0
VERTEX
  5
CC8
  8
DATA
  6
CONTINUOUS
 62
     7
 10
-69.101066619375089
 20
-132.5973315833547
 30
0.0
  0
VERTEX
  5
CC9
  8
DATA
  6
CONTINUOUS
 62
     7
 10
-67.001066619375095
 20
-132.5973315833547
 30
0.0
  0
SEQEND
  5
CCA
  8
DATA
  6
CONTINUOUS
 62
     7
  0
POLYLINE
  5
378
  8
DATA
  6
CONTINUOUS
 62
     7
 66
     1
 10
0.0
 20
0.0
 30
0.0
  0
VERTEX
  5
CCB
  8
DATA
  6
CONTINUOUS
 62
     7
 10
-66.201066619375069
 20
-133.39733158335471
 30
0.0
  0
VERTEX
  5
CCC
  8
DATA
  6
CONTINUOUS
 62
     7
 10
-66.201066619375069
 20
-135.49733158335471
 30
0.0
  0
VERTEX
  5
CCD
  8
DATA
  6
CONTINUOUS
 62
     7
 10
-67.001066619375095
 20
-135.49733158335471
 30
0.0
  0
VERTEX
  5
CCE
  8
DATA
  6
CONTINUOUS
 62
     7
 10
-67.001066619375095
 20
-133.39733158335471
 30
0.0
  0
SEQEND
  5
CCF
  8
DATA
  6
CONTINUOUS
 62
     7
  0
POLYLINE
  5
37F
  8
DATA
  6
CONTINUOUS
 62
     7
 66
     1
 10
0.0
 20
0.0
 30
0.0
  0
VERTEX
  5
CD0
  8
DATA
  6
CONTINUOUS
 62
     7
 10
-67.001066619375095
 20
-132.5973315833547
 30
0.0
  0
VERTEX
  5
CD1
  8
DATA
  6
CONTINUOUS
 62
     7
 10
-67.001066619375095
 20
-130.49733158335471
 30
0.0
  0
VERTEX
  5
CD2
  8
DATA
  6
CONTINUOUS
 62
     7
 10
-66.201066619375069
 20
-130.49733158335471
 30
0.0
  0
VERTEX
  5
CD3
  8
DATA
  6
CONTINUOUS
 62
     7
 10
-66.201066619375069
 20
-132.5973315833547
 30
0.0
  0
SEQEND
  5
CD4
  8
DATA
  6
CONTINUOUS
 62
     7
  0
POLYLINE
  5
386
  8
DATA
  6
CONTINUOUS
 62
     7
 66
     1
 10
0.0
 20
0.0
 30
0.0
 70
     1
  0
VERTEX
  5
CD5
  8
DATA
  6
CONTINUOUS
 62
     7
 10
-68.461351049846812
 20
-131.23790377270481
 30
0.0
  0
VERTEX
  5
CD6
  8
DATA
  6
CONTINUOUS
 62
     7
 10
-67.461351049846812
 20
-131.23790377270481
 30
0.0
  0
VERTEX
  5
CD7
  8
DATA
  6
CONTINUOUS
 62
     7
 10
-67.461351049846812
 20
-132.23790377270481
 30
0.0
  0
VERTEX
  5
CD8
  8
DATA
  6
CONTINUOUS
 62
     7
 10
-68.461351049846812
 20
-132.23790377270481
 30
0.0
  0
SEQEND
  5
CD9
  8
DATA
  6
CONTINUOUS
 62
     7
  0
POLYLINE
  5
38D
  8
DATA
  6
CONTINUOUS
 62
     7
 66
     1
 10
0.0
 20
0.0
 30
0.0
 70
     1
  0
VERTEX
  5
CDA
  8
DATA
  6
CONTINUOUS
 62
     7
 10
-65.740782188903367
 20
-131.23790377270481
 30
0.0
  0
VERTEX
  5
CDB
  8
DATA
  6
CONTINUOUS
 62
     7
 10
-64.740782188903367
 20
-131.23790377270481
 30
0.0
  0
VERTEX
  5
CDC
  8
DATA
  6
CONTINUOUS
 62
     7
 10
-64.740782188903367
 20
-132.23790377270481
 30
0.0
  0
VERTEX
  5
CDD
  8
DATA
  6
CONTINUOUS
 62
     7
 10
-65.740782188903367
 20
-132.23790377270481
 30
0.0
  0
SEQEND
  5
CDE
  8
DATA
  6
CONTINUOUS
 62
     7
  0
POLYLINE
  5
394
  8
DATA
  6
CONTINUOUS
 62
     7
 66
     1
 10
0.0
 20
0.0
 30
0.0
 70
     1
  0
VERTEX
  5
CDF
  8
DATA
  6
CONTINUOUS
 62
     7
 10
-68.461351049846812
 20
-133.7567593940046
 30
0.0
  0
VERTEX
  5
CE0
  8
DATA
  6
CONTINUOUS
 62
     7
 10
-67.461351049846812
 20
-133.7567593940046
 30
0.0
  0
VERTEX
  5
CE1
  8
DATA
  6
CONTINUOUS
 62
     7
 10
-67.461351049846812
 20
-134.7567593940046
 30
0.0
  0
VERTEX
  5
CE2
  8
DATA
  6
CONTINUOUS
 62
     7
 10
-68.461351049846812
 20
-134.7567593940046
 30
0.0
  0
SEQEND
  5
CE3
  8
DATA
  6
CONTINUOUS
 62
     7
  0
POLYLINE
  5
39B
  8
DATA
  6
CONTINUOUS
 62
     7
 66
     1
 10
0.0
 20
0.0
 30
0.0
 70
     1
  0
VERTEX
  5
CE4
  8
DATA
  6
CONTINUOUS
 62
     7
 10
-65.740782188903367
 20
-133.7567593940046
 30
0.0
  0
VERTEX
  5
CE5
  8
DATA
  6
CONTINUOUS
 62
     7
 10
-64.740782188903367
 20
-133.7567593940046
 30
0.0
  0
VERTEX
  5
CE6
  8
DATA
  6
CONTINUOUS
 62
     7
 10
-64.740782188903367
 20
-134.7567593940046
 30
0.0
  0
VERTEX
  5
CE7
  8
DATA
  6
CONTINUOUS
 62
     7
 10
-65.740782188903367
 20
-134.7567593940046
 30
0.0
  0
SEQEND
  5
CE8
  8
DATA
  6
CONTINUOUS
 62
     7
  0
LINE
  5
3A2
  8
DATA
  6
CONTINUOUS
 62
     7
 10
-86.696438437322271
 20
-130.1674398888409
 30
0.0
 11
-86.137521239869983
 21
-136.0174398888409
 31
0.0
  0
LINE
  5
3A3
  8
DATA
  6
CONTINUOUS
 62
     7
 10
-62.805694801428032
 20
-130.1674398888409
 30
0.0
 11
-63.364611998880306
 21
-136.0174398888409
 31
0.0
  0
ARC
  5
3A4
  8
DATA
  6
CONTINUOUS
 62
     7
 10
-85.700971506566916
 20
-130.0723315833547
 30
0.0
 40
1.0
 50
90.0
 51
185.45755348510761
  0
ARC
  5
3A5
  8
DATA
  6
CONTINUOUS
 62
     7
 10
-63.801161732183381
 20
-130.0723315833547
 30
0.0
 40
0.9999999999999754
 50
354.54244651489228
 51
90.000000000003226
  0
ARC
  5
3A6
  8
DATA
  6
CONTINUOUS
 62
     7
 10
-85.142054309114656
 20
-135.92233158335469
 30
0.0
 40
0.9999999999999754
 50
185.45755348510761
 51
270.0
  0
ARC
  5
3A7
  8
DATA
  6
CONTINUOUS
 62
     7
 10
-64.360078929635719
 20
-135.92233158335469
 30
0.0
 40
1.0
 50
270.0
 51
354.5424465148958
  0
TEXT
  5
3A8
  8
DATA
 62
     7
 10
-76.7206918200187
 20
-147.6288734669007
 30
0.0
 40
2.9319140625000002
  1
3
 41
0.7
 11
-76.7206918200187
 21
-144.6969594044007
 31
0.0
 73
     3
  0
CIRCLE
  5
3A9
  8
DATA
  6
CONTINUOUS
 62
     7
 10
-13.49897651878015
 20
-132.99733158335471
 30
0.0
 40
1.175000000000082
  0
POLYLINE
  5
3AA
  8
DATA
  6
CONTINUOUS
 62
     7
 66
     1
 10
0.0
 20
0.0
 30
0.0
 70
     1
  0
VERTEX
  5
CE9
  8
DATA
  6
CONTINUOUS
 62
     7
 10
-13.49897651878015
 20
-130.29733158335469
 30
0.0
  0
VERTEX
  5
CEA
  8
DATA
  6
CONTINUOUS
 62
     7
 10
-11.160707928562211
 20
-131.64733158335471
 30
0.0
  0
VERTEX
  5
CEB
  8
DATA
  6
CONTINUOUS
 62
     7
 10
-11.160707928562211
 20
-134.3473315833547
 30
0.0
  0
VERTEX
  5
CEC
  8
DATA
  6
CONTINUOUS
 62
     7
 10
-13.49897651878015
 20
-135.6973315833547
 30
0.0
  0
VERTEX
  5
CED
  8
DATA
  6
CONTINUOUS
 62
     7
 10
-15.83724510899822
 20
-134.3473315833547
 30
0.0
  0
VERTEX
  5
CEE
  8
DATA
  6
CONTINUOUS
 62
     7
 10
-15.83724510899822
 20
-131.64733158335471
 30
0.0
  0
SEQEND
  5
CEF
  8
DATA
  6
CONTINUOUS
 62
     7
  0
CIRCLE
  5
3B3
  8
DATA
  6
CONTINUOUS
 62
     7
 10
-45.99897651878031
 20
-132.99733158335471
 30
0.0
 40
1.175000000000068
  0
POLYLINE
  5
3B4
  8
DATA
  6
CONTINUOUS
 62
     7
 66
     1
 10
0.0
 20
0.0
 30
0.0
 70
     1
  0
VERTEX
  5
CF0
  8
DATA
  6
CONTINUOUS
 62
     7
 10
-45.99897651878031
 20
-130.29733158335469
 30
0.0
  0
VERTEX
  5
CF1
  8
DATA
  6
CONTINUOUS
 62
     7
 10
-43.660707928562353
 20
-131.64733158335471
 30
0.0
  0
VERTEX
  5
CF2
  8
DATA
  6
CONTINUOUS
 62
     7
 10
-43.660707928562353
 20
-134.3473315833547
 30
0.0
  0
VERTEX
  5
CF3
  8
DATA
  6
CONTINUOUS
 62
     7
 10
-45.99897651878031
 20
-135.6973315833547
 30
0.0
  0
VERTEX
  5
CF4
  8
DATA
  6
CONTINUOUS
 62
     7
 10
-48.337245108998367
 20
-134.3473315833547
 30
0.0
  0
VERTEX
  5
CF5
  8
DATA
  6
CONTINUOUS
 62
     7
 10
-48.337245108998367
 20
-131.64733158335471
 30
0.0
  0
SEQEND
  5
CF6
  8
DATA
  6
CONTINUOUS
 62
     7
  0
LINE
  5
3BD
  8
DATA
  6
CONTINUOUS
 62
     7
 10
-40.700971506566788
 20
-129.0723315833547
 30
0.0
 11
-18.801161732183129
 21
-129.0723315833547
 31
0.0
  0
LINE
  5
3BE
  8
DATA
  6
CONTINUOUS
 62
     7
 10
-19.360078929635421
 20
-136.92233158335469
 30
0.0
 11
-40.142054309114492
 21
-136.92233158335469
 31
0.0
  0
POLYLINE
  5
3BF
  8
DATA
  6
CONTINUOUS
 62
     7
 66
     1
 10
0.0
 20
0.0
 30
0.0
 70
     1
  0
VERTEX
  5
CF7
  8
DATA
  6
CONTINUOUS
 62
     7
 10
-40.751132790554358
 20
-132.23233158335469
 30
0.0
  0
VERTEX
  5
CF8
  8
DATA
  6
CONTINUOUS
 62
     7
 10
-39.221132790554357
 20
-132.23233158335469
 30
0.0
  0
VERTEX
  5
CF9
  8
DATA
  6
CONTINUOUS
 62
     7
 10
-39.221132790554357
 20
-133.76233158335469
 30
0.0
  0
VERTEX
  5
CFA
  8
DATA
  6
CONTINUOUS
 62
     7
 10
-40.751132790554358
 20
-133.76233158335469
 30
0.0
  0
SEQEND
  5
CFB
  8
DATA
  6
CONTINUOUS
 62
     7
  0
POLYLINE
  5
3C6
  8
DATA
  6
CONTINUOUS
 62
     7
 66
     1
 10
0.0
 20
0.0
 30
0.0
 70
     1
  0
VERTEX
  5
CFC
  8
DATA
  6
CONTINUOUS
 62
     7
 10
-38.751132790554337
 20
-132.23233158335469
 30
0.0
  0
VERTEX
  5
CFD
  8
DATA
  6
CONTINUOUS
 62
     7
 10
-37.221132790554343
 20
-132.23233158335469
 30
0.0
  0
VERTEX
  5
CFE
  8
DATA
  6
CONTINUOUS
 62
     7
 10
-37.221132790554343
 20
-133.76233158335469
 30
0.0
  0
VERTEX
  5
CFF
  8
DATA
  6
CONTINUOUS
 62
     7
 10
-38.751132790554337
 20
-133.76233158335469
 30
0.0
  0
SEQEND
  5
D00
  8
DATA
  6
CONTINUOUS
 62
     7
  0
POLYLINE
  5
3CD
  8
DATA
  6
CONTINUOUS
 62
     7
 66
     1
 10
0.0
 20
0.0
 30
0.0
 70
     1
  0
VERTEX
  5
D01
  8
DATA
  6
CONTINUOUS
 62
     7
 10
-36.751132790554323
 20
-132.23233158335469
 30
0.0
  0
VERTEX
  5
D02
  8
DATA
  6
CONTINUOUS
 62
     7
 10
-35.221132790554343
 20
-132.23233158335469
 30
0.0
  0
VERTEX
  5
D03
  8
DATA
  6
CONTINUOUS
 62
     7
 10
-35.221132790554343
 20
-133.76233158335469
 30
0.0
  0
VERTEX
  5
D04
  8
DATA
  6
CONTINUOUS
 62
     7
 10
-36.751132790554323
 20
-133.76233158335469
 30
0.0
  0
SEQEND
  5
D05
  8
DATA
  6
CONTINUOUS
 62
     7
  0
POLYLINE
  5
3D4
  8
DATA
  6
CONTINUOUS
 62
     7
 66
     1
 10
0.0
 20
0.0
 30
0.0
 70
     1
  0
VERTEX
  5
D06
  8
DATA
  6
CONTINUOUS
 62
     7
 10
-34.751132790554308
 20
-132.23233158335469
 30
0.0
  0
VERTEX
  5
D07
  8
DATA
  6
CONTINUOUS
 62
     7
 10
-33.221132790554307
 20
-132.23233158335469
 30
0.0
  0
VERTEX
  5
D08
  8
DATA
  6
CONTINUOUS
 62
     7
 10
-33.221132790554307
 20
-133.76233158335469
 30
0.0
  0
VERTEX
  5
D09
  8
DATA
  6
CONTINUOUS
 62
     7
 10
-34.751132790554308
 20
-133.76233158335469
 30
0.0
  0
SEQEND
  5
D0A
  8
DATA
  6
CONTINUOUS
 62
     7
  0
POLYLINE
  5
3DB
  8
DATA
  6
CONTINUOUS
 62
     7
 66
     1
 10
0.0
 20
0.0
 30
0.0
 70
     1
  0
VERTEX
  5
D0B
  8
DATA
  6
CONTINUOUS
 62
     7
 10
-32.75113279055428
 20
-132.23233158335469
 30
0.0
  0
VERTEX
  5
D0C
  8
DATA
  6
CONTINUOUS
 62
     7
 10
-31.221132790554311
 20
-132.23233158335469
 30
0.0
  0
VERTEX
  5
D0D
  8
DATA
  6
CONTINUOUS
 62
     7
 10
-31.221132790554311
 20
-133.76233158335469
 30
0.0
  0
VERTEX
  5
D0E
  8
DATA
  6
CONTINUOUS
 62
     7
 10
-32.75113279055428
 20
-133.76233158335469
 30
0.0
  0
SEQEND
  5
D0F
  8
DATA
  6
CONTINUOUS
 62
     7
  0
POLYLINE
  5
3E2
  8
DATA
  6
CONTINUOUS
 62
     7
 66
     1
 10
0.0
 20
0.0
 30
0.0
 70
     1
  0
VERTEX
  5
D10
  8
DATA
  6
CONTINUOUS
 62
     7
 10
-30.75113279055428
 20
-132.23233158335469
 30
0.0
  0
VERTEX
  5
D11
  8
DATA
  6
CONTINUOUS
 62
     7
 10
-29.221132790554279
 20
-132.23233158335469
 30
0.0
  0
VERTEX
  5
D12
  8
DATA
  6
CONTINUOUS
 62
     7
 10
-29.221132790554279
 20
-133.76233158335469
 30
0.0
  0
VERTEX
  5
D13
  8
DATA
  6
CONTINUOUS
 62
     7
 10
-30.75113279055428
 20
-133.76233158335469
 30
0.0
  0
SEQEND
  5
D14
  8
DATA
  6
CONTINUOUS
 62
     7
  0
POLYLINE
  5
3E9
  8
DATA
  6
CONTINUOUS
 62
     7
 66
     1
 10
0.0
 20
0.0
 30
0.0
 70
     1
  0
VERTEX
  5
D15
  8
DATA
  6
CONTINUOUS
 62
     7
 10
-28.751132790554308
 20
-132.23233158335469
 30
0.0
  0
VERTEX
  5
D16
  8
DATA
  6
CONTINUOUS
 62
     7
 10
-27.221132790554378
 20
-132.23233158335469
 30
0.0
  0
VERTEX
  5
D17
  8
DATA
  6
CONTINUOUS
 62
     7
 10
-27.221132790554378
 20
-133.76233158335469
 30
0.0
  0
VERTEX
  5
D18
  8
DATA
  6
CONTINUOUS
 62
     7
 10
-28.751132790554308
 20
-133.76233158335469
 30
0.0
  0
SEQEND
  5
D19
  8
DATA
  6
CONTINUOUS
 62
     7
  0
POLYLINE
  5
3F0
  8
DATA
  6
CONTINUOUS
 62
     7
 66
     1
 10
0.0
 20
0.0
 30
0.0
 70
     1
  0
VERTEX
  5
D1A
  8
DATA
  6
CONTINUOUS
 62
     7
 10
-26.751132790554291
 20
-132.23233158335469
 30
0.0
  0
VERTEX
  5
D1B
  8
DATA
  6
CONTINUOUS
 62
     7
 10
-25.22113279055425
 20
-132.23233158335469
 30
0.0
  0
VERTEX
  5
D1C
  8
DATA
  6
CONTINUOUS
 62
     7
 10
-25.22113279055425
 20
-133.76233158335469
 30
0.0
  0
VERTEX
  5
D1D
  8
DATA
  6
CONTINUOUS
 62
     7
 10
-26.751132790554291
 20
-133.76233158335469
 30
0.0
  0
SEQEND
  5
D1E
  8
DATA
  6
CONTINUOUS
 62
     7
  0
POLYLINE
  5
3F7
  8
DATA
  6
CONTINUOUS
 62
     7
 66
     1
 10
0.0
 20
0.0
 30
0.0
 70
     1
  0
VERTEX
  5
D1F
  8
DATA
  6
CONTINUOUS
 62
     7
 10
-40.751132790554358
 20
-130.23233158335469
 30
0.0
  0
VERTEX
  5
D20
  8
DATA
  6
CONTINUOUS
 62
     7
 10
-39.221132790554357
 20
-130.23233158335469
 30
0.0
  0
VERTEX
  5
D21
  8
DATA
  6
CONTINUOUS
 62
     7
 10
-39.221132790554357
 20
-131.76233158335469
 30
0.0
  0
VERTEX
  5
D22
  8
DATA
  6
CONTINUOUS
 62
     7
 10
-40.751132790554358
 20
-131.76233158335469
 30
0.0
  0
SEQEND
  5
D23
  8
DATA
  6
CONTINUOUS
 62
     7
  0
POLYLINE
  5
3FE
  8
DATA
  6
CONTINUOUS
 62
     7
 66
     1
 10
0.0
 20
0.0
 30
0.0
 70
     1
  0
VERTEX
  5
D24
  8
DATA
  6
CONTINUOUS
 62
     7
 10
-38.751132790554337
 20
-130.23233158335469
 30
0.0
  0
VERTEX
  5
D25
  8
DATA
  6
CONTINUOUS
 62
     7
 10
-37.221132790554343
 20
-130.23233158335469
 30
0.0
  0
VERTEX
  5
D26
  8
DATA
  6
CONTINUOUS
 62
     7
 10
-37.221132790554343
 20
-131.76233158335469
 30
0.0
  0
VERTEX
  5
D27
  8
DATA
  6
CONTINUOUS
 62
     7
 10
-38.751132790554337
 20
-131.76233158335469
 30
0.0
  0
SEQEND
  5
D28
  8
DATA
  6
CONTINUOUS
 62
     7
  0
POLYLINE
  5
405
  8
DATA
  6
CONTINUOUS
 62
     7
 66
     1
 10
0.0
 20
0.0
 30
0.0
 70
     1
  0
VERTEX
  5
D29
  8
DATA
  6
CONTINUOUS
 62
     7
 10
-36.751132790554323
 20
-130.23233158335469
 30
0.0
  0
VERTEX
  5
D2A
  8
DATA
  6
CONTINUOUS
 62
     7
 10
-35.221132790554343
 20
-130.23233158335469
 30
0.0
  0
VERTEX
  5
D2B
  8
DATA
  6
CONTINUOUS
 62
     7
 10
-35.221132790554343
 20
-131.76233158335469
 30
0.0
  0
VERTEX
  5
D2C
  8
DATA
  6
CONTINUOUS
 62
     7
 10
-36.751132790554323
 20
-131.76233158335469
 30
0.0
  0
SEQEND
  5
D2D
  8
DATA
  6
CONTINUOUS
 62
     7
  0
POLYLINE
  5
40C
  8
DATA
  6
CONTINUOUS
 62
     7
 66
     1
 10
0.0
 20
0.0
 30
0.0
 70
     1
  0
VERTEX
  5
D2E
  8
DATA
  6
CONTINUOUS
 62
     7
 10
-34.751132790554308
 20
-130.23233158335469
 30
0.0
  0
VERTEX
  5
D2F
  8
DATA
  6
CONTINUOUS
 62
     7
 10
-33.221132790554307
 20
-130.23233158335469
 30
0.0
  0
VERTEX
  5
D30
  8
DATA
  6
CONTINUOUS
 62
     7
 10
-33.221132790554307
 20
-131.76233158335469
 30
0.0
  0
VERTEX
  5
D31
  8
DATA
  6
CONTINUOUS
 62
     7
 10
-34.751132790554308
 20
-131.76233158335469
 30
0.0
  0
SEQEND
  5
D32
  8
DATA
  6
CONTINUOUS
 62
     7
  0
POLYLINE
  5
413
  8
DATA
  6
CONTINUOUS
 62
     7
 66
     1
 10
0.0
 20
0.0
 30
0.0
 70
     1
  0
VERTEX
  5
D33
  8
DATA
  6
CONTINUOUS
 62
     7
 10
-32.75113279055428
 20
-130.23233158335469
 30
0.0
  0
VERTEX
  5
D34
  8
DATA
  6
CONTINUOUS
 62
     7
 10
-31.221132790554311
 20
-130.23233158335469
 30
0.0
  0
VERTEX
  5
D35
  8
DATA
  6
CONTINUOUS
 62
     7
 10
-31.221132790554311
 20
-131.76233158335469
 30
0.0
  0
VERTEX
  5
D36
  8
DATA
  6
CONTINUOUS
 62
     7
 10
-32.75113279055428
 20
-131.76233158335469
 30
0.0
  0
SEQEND
  5
D37
  8
DATA
  6
CONTINUOUS
 62
     7
  0
POLYLINE
  5
41A
  8
DATA
  6
CONTINUOUS
 62
     7
 66
     1
 10
0.0
 20
0.0
 30
0.0
 70
     1
  0
VERTEX
  5
D38
  8
DATA
  6
CONTINUOUS
 62
     7
 10
-30.75113279055428
 20
-130.23233158335469
 30
0.0
  0
VERTEX
  5
D39
  8
DATA
  6
CONTINUOUS
 62
     7
 10
-29.221132790554279
 20
-130.23233158335469
 30
0.0
  0
VERTEX
  5
D3A
  8
DATA
  6
CONTINUOUS
 62
     7
 10
-29.221132790554279
 20
-131.76233158335469
 30
0.0
  0
VERTEX
  5
D3B
  8
DATA
  6
CONTINUOUS
 62
     7
 10
-30.75113279055428
 20
-131.76233158335469
 30
0.0
  0
SEQEND
  5
D3C
  8
DATA
  6
CONTINUOUS
 62
     7
  0
POLYLINE
  5
421
  8
DATA
  6
CONTINUOUS
 62
     7
 66
     1
 10
0.0
 20
0.0
 30
0.0
 70
     1
  0
VERTEX
  5
D3D
  8
DATA
  6
CONTINUOUS
 62
     7
 10
-28.751132790554308
 20
-130.23233158335469
 30
0.0
  0
VERTEX
  5
D3E
  8
DATA
  6
CONTINUOUS
 62
     7
 10
-27.221132790554378
 20
-130.23233158335469
 30
0.0
  0
VERTEX
  5
D3F
  8
DATA
  6
CONTINUOUS
 62
     7
 10
-27.221132790554378
 20
-131.76233158335469
 30
0.0
  0
VERTEX
  5
D40
  8
DATA
  6
CONTINUOUS
 62
     7
 10
-28.751132790554308
 20
-131.76233158335469
 30
0.0
  0
SEQEND
  5
D41
  8
DATA
  6
CONTINUOUS
 62
     7
  0
POLYLINE
  5
428
  8
DATA
  6
CONTINUOUS
 62
     7
 66
     1
 10
0.0
 20
0.0
 30
0.0
 70
     1
  0
VERTEX
  5
D42
  8
DATA
  6
CONTINUOUS
 62
     7
 10
-26.751132790554291
 20
-130.23233158335469
 30
0.0
  0
VERTEX
  5
D43
  8
DATA
  6
CONTINUOUS
 62
     7
 10
-25.22113279055425
 20
-130.23233158335469
 30
0.0
  0
VERTEX
  5
D44
  8
DATA
  6
CONTINUOUS
 62
     7
 10
-25.22113279055425
 20
-131.76233158335469
 30
0.0
  0
VERTEX
  5
D45
  8
DATA
  6
CONTINUOUS
 62
     7
 10
-26.751132790554291
 20
-131.76233158335469
 30
0.0
  0
SEQEND
  5
D46
  8
DATA
  6
CONTINUOUS
 62
     7
  0
POLYLINE
  5
42F
  8
DATA
  6
CONTINUOUS
 62
     7
 66
     1
 10
0.0
 20
0.0
 30
0.0
 70
     1
  0
VERTEX
  5
D47
  8
DATA
  6
CONTINUOUS
 62
     7
 10
-40.751132790554358
 20
-134.23233158335469
 30
0.0
  0
VERTEX
  5
D48
  8
DATA
  6
CONTINUOUS
 62
     7
 10
-39.221132790554357
 20
-134.23233158335469
 30
0.0
  0
VERTEX
  5
D49
  8
DATA
  6
CONTINUOUS
 62
     7
 10
-39.221132790554357
 20
-135.76233158335469
 30
0.0
  0
VERTEX
  5
D4A
  8
DATA
  6
CONTINUOUS
 62
     7
 10
-40.751132790554358
 20
-135.76233158335469
 30
0.0
  0
SEQEND
  5
D4B
  8
DATA
  6
CONTINUOUS
 62
     7
  0
POLYLINE
  5
436
  8
DATA
  6
CONTINUOUS
 62
     7
 66
     1
 10
0.0
 20
0.0
 30
0.0
 70
     1
  0
VERTEX
  5
D4C
  8
DATA
  6
CONTINUOUS
 62
     7
 10
-38.751132790554337
 20
-134.23233158335469
 30
0.0
  0
VERTEX
  5
D4D
  8
DATA
  6
CONTINUOUS
 62
     7
 10
-37.221132790554343
 20
-134.23233158335469
 30
0.0
  0
VERTEX
  5
D4E
  8
DATA
  6
CONTINUOUS
 62
     7
 10
-37.221132790554343
 20
-135.76233158335469
 30
0.0
  0
VERTEX
  5
D4F
  8
DATA
  6
CONTINUOUS
 62
     7
 10
-38.751132790554337
 20
-135.76233158335469
 30
0.0
  0
SEQEND
  5
D50
  8
DATA
  6
CONTINUOUS
 62
     7
  0
POLYLINE
  5
43D
  8
DATA
  6
CONTINUOUS
 62
     7
 66
     1
 10
0.0
 20
0.0
 30
0.0
 70
     1
  0
VERTEX
  5
D51
  8
DATA
  6
CONTINUOUS
 62
     7
 10
-36.751132790554323
 20
-134.23233158335469
 30
0.0
  0
VERTEX
  5
D52
  8
DATA
  6
CONTINUOUS
 62
     7
 10
-35.221132790554343
 20
-134.23233158335469
 30
0.0
  0
VERTEX
  5
D53
  8
DATA
  6
CONTINUOUS
 62
     7
 10
-35.221132790554343
 20
-135.76233158335469
 30
0.0
  0
VERTEX
  5
D54
  8
DATA
  6
CONTINUOUS
 62
     7
 10
-36.751132790554323
 20
-135.76233158335469
 30
0.0
  0
SEQEND
  5
D55
  8
DATA
  6
CONTINUOUS
 62
     7
  0
POLYLINE
  5
444
  8
DATA
  6
CONTINUOUS
 62
     7
 66
     1
 10
0.0
 20
0.0
 30
0.0
 70
     1
  0
VERTEX
  5
D56
  8
DATA
  6
CONTINUOUS
 62
     7
 10
-34.751132790554308
 20
-134.23233158335469
 30
0.0
  0
VERTEX
  5
D57
  8
DATA
  6
CONTINUOUS
 62
     7
 10
-33.221132790554307
 20
-134.23233158335469
 30
0.0
  0
VERTEX
  5
D58
  8
DATA
  6
CONTINUOUS
 62
     7
 10
-33.221132790554307
 20
-135.76233158335469
 30
0.0
  0
VERTEX
  5
D59
  8
DATA
  6
CONTINUOUS
 62
     7
 10
-34.751132790554308
 20
-135.76233158335469
 30
0.0
  0
SEQEND
  5
D5A
  8
DATA
  6
CONTINUOUS
 62
     7
  0
POLYLINE
  5
44B
  8
DATA
  6
CONTINUOUS
 62
     7
 66
     1
 10
0.0
 20
0.0
 30
0.0
 70
     1
  0
VERTEX
  5
D5B
  8
DATA
  6
CONTINUOUS
 62
     7
 10
-32.75113279055428
 20
-134.23233158335469
 30
0.0
  0
VERTEX
  5
D5C
  8
DATA
  6
CONTINUOUS
 62
     7
 10
-31.221132790554311
 20
-134.23233158335469
 30
0.0
  0
VERTEX
  5
D5D
  8
DATA
  6
CONTINUOUS
 62
     7
 10
-31.221132790554311
 20
-135.76233158335469
 30
0.0
  0
VERTEX
  5
D5E
  8
DATA
  6
CONTINUOUS
 62
     7
 10
-32.75113279055428
 20
-135.76233158335469
 30
0.0
  0
SEQEND
  5
D5F
  8
DATA
  6
CONTINUOUS
 62
     7
  0
POLYLINE
  5
452
  8
DATA
  6
CONTINUOUS
 62
     7
 66
     1
 10
0.0
 20
0.0
 30
0.0
 70
     1
  0
VERTEX
  5
D60
  8
DATA
  6
CONTINUOUS
 62
     7
 10
-30.75113279055428
 20
-134.23233158335469
 30
0.0
  0
VERTEX
  5
D61
  8
DATA
  6
CONTINUOUS
 62
     7
 10
-29.221132790554279
 20
-134.23233158335469
 30
0.0
  0
VERTEX
  5
D62
  8
DATA
  6
CONTINUOUS
 62
     7
 10
-29.221132790554279
 20
-135.76233158335469
 30
0.0
  0
VERTEX
  5
D63
  8
DATA
  6
CONTINUOUS
 62
     7
 10
-30.75113279055428
 20
-135.76233158335469
 30
0.0
  0
SEQEND
  5
D64
  8
DATA
  6
CONTINUOUS
 62
     7
  0
POLYLINE
  5
459
  8
DATA
  6
CONTINUOUS
 62
     7
 66
     1
 10
0.0
 20
0.0
 30
0.0
 70
     1
  0
VERTEX
  5
D65
  8
DATA
  6
CONTINUOUS
 62
     7
 10
-28.751132790554308
 20
-134.23233158335469
 30
0.0
  0
VERTEX
  5
D66
  8
DATA
  6
CONTINUOUS
 62
     7
 10
-27.221132790554378
 20
-134.23233158335469
 30
0.0
  0
VERTEX
  5
D67
  8
DATA
  6
CONTINUOUS
 62
     7
 10
-27.221132790554378
 20
-135.76233158335469
 30
0.0
  0
VERTEX
  5
D68
  8
DATA
  6
CONTINUOUS
 62
     7
 10
-28.751132790554308
 20
-135.76233158335469
 30
0.0
  0
SEQEND
  5
D69
  8
DATA
  6
CONTINUOUS
 62
     7
  0
POLYLINE
  5
460
  8
DATA
  6
CONTINUOUS
 62
     7
 66
     1
 10
0.0
 20
0.0
 30
0.0
 70
     1
  0
VERTEX
  5
D6A
  8
DATA
  6
CONTINUOUS
 62
     7
 10
-26.751132790554291
 20
-134.23233158335469
 30
0.0
  0
VERTEX
  5
D6B
  8
DATA
  6
CONTINUOUS
 62
     7
 10
-25.22113279055425
 20
-134.23233158335469
 30
0.0
  0
VERTEX
  5
D6C
  8
DATA
  6
CONTINUOUS
 62
     7
 10
-25.22113279055425
 20
-135.76233158335469
 30
0.0
  0
VERTEX
  5
D6D
  8
DATA
  6
CONTINUOUS
 62
     7
 10
-26.751132790554291
 20
-135.76233158335469
 30
0.0
  0
SEQEND
  5
D6E
  8
DATA
  6
CONTINUOUS
 62
     7
  0
POLYLINE
  5
467
  8
DATA
  6
CONTINUOUS
 62
     7
 66
     1
 10
0.0
 20
0.0
 30
0.0
  0
VERTEX
  5
D6F
  8
DATA
  6
CONTINUOUS
 62
     7
 10
-21.201066619374771
 20
-132.5973315833547
 30
0.0
  0
VERTEX
  5
D70
  8
DATA
  6
CONTINUOUS
 62
     7
 10
-19.101066619374791
 20
-132.5973315833547
 30
0.0
  0
VERTEX
  5
D71
  8
DATA
  6
CONTINUOUS
 62
     7
 10
-19.101066619374791
 20
-133.39733158335471
 30
0.0
  0
VERTEX
  5
D72
  8
DATA
  6
CONTINUOUS
 62
     7
 10
-21.201066619374771
 20
-133.39733158335471
 30
0.0
  0
SEQEND
  5
D73
  8
DATA
  6
CONTINUOUS
 62
     7
  0
POLYLINE
  5
46E
  8
DATA
  6
CONTINUOUS
 62
     7
 66
     1
 10
0.0
 20
0.0
 30
0.0
  0
VERTEX
  5
D74
  8
DATA
  6
CONTINUOUS
 62
     7
 10
-22.001066619374839
 20
-133.39733158335471
 30
0.0
  0
VERTEX
  5
D75
  8
DATA
  6
CONTINUOUS
 62
     7
 10
-24.101066619374841
 20
-133.39733158335471
 30
0.0
  0
VERTEX
  5
D76
  8
DATA
  6
CONTINUOUS
 62
     7
 10
-24.101066619374841
 20
-132.5973315833547
 30
0.0
  0
VERTEX
  5
D77
  8
DATA
  6
CONTINUOUS
 62
     7
 10
-22.001066619374839
 20
-132.5973315833547
 30
0.0
  0
SEQEND
  5
D78
  8
DATA
  6
CONTINUOUS
 62
     7
  0
POLYLINE
  5
475
  8
DATA
  6
CONTINUOUS
 62
     7
 66
     1
 10
0.0
 20
0.0
 30
0.0
  0
VERTEX
  5
D79
  8
DATA
  6
CONTINUOUS
 62
     7
 10
-21.201066619374771
 20
-133.39733158335471
 30
0.0
  0
VERTEX
  5
D7A
  8
DATA
  6
CONTINUOUS
 62
     7
 10
-21.201066619374771
 20
-135.49733158335471
 30
0.0
  0
VERTEX
  5
D7B
  8
DATA
  6
CONTINUOUS
 62
     7
 10
-22.001066619374839
 20
-135.49733158335471
 30
0.0
  0
VERTEX
  5
D7C
  8
DATA
  6
CONTINUOUS
 62
     7
 10
-22.001066619374839
 20
-133.39733158335471
 30
0.0
  0
SEQEND
  5
D7D
  8
DATA
  6
CONTINUOUS
 62
     7
  0
POLYLINE
  5
47C
  8
DATA
  6
CONTINUOUS
 62
     7
 66
     1
 10
0.0
 20
0.0
 30
0.0
  0
VERTEX
  5
D7E
  8
DATA
  6
CONTINUOUS
 62
     7
 10
-22.001066619374839
 20
-132.5973315833547
 30
0.0
  0
VERTEX
  5
D7F
  8
DATA
  6
CONTINUOUS
 62
     7
 10
-22.001066619374839
 20
-130.49733158335471
 30
0.0
  0
VERTEX
  5
D80
  8
DATA
  6
CONTINUOUS
 62
     7
 10
-21.201066619374771
 20
-130.49733158335471
 30
0.0
  0
VERTEX
  5
D81
  8
DATA
  6
CONTINUOUS
 62
     7
 10
-21.201066619374771
 20
-132.5973315833547
 30
0.0
  0
SEQEND
  5
D82
  8
DATA
  6
CONTINUOUS
 62
     7
  0
POLYLINE
  5
483
  8
DATA
  6
CONTINUOUS
 62
     7
 66
     1
 10
0.0
 20
0.0
 30
0.0
 70
     1
  0
VERTEX
  5
D83
  8
DATA
  6
CONTINUOUS
 62
     7
 10
-23.461351049846549
 20
-131.23790377270481
 30
0.0
  0
VERTEX
  5
D84
  8
DATA
  6
CONTINUOUS
 62
     7
 10
-22.461351049846549
 20
-131.23790377270481
 30
0.0
  0
VERTEX
  5
D85
  8
DATA
  6
CONTINUOUS
 62
     7
 10
-22.461351049846549
 20
-132.23790377270481
 30
0.0
  0
VERTEX
  5
D86
  8
DATA
  6
CONTINUOUS
 62
     7
 10
-23.461351049846549
 20
-132.23790377270481
 30
0.0
  0
SEQEND
  5
D87
  8
DATA
  6
CONTINUOUS
 62
     7
  0
POLYLINE
  5
48A
  8
DATA
  6
CONTINUOUS
 62
     7
 66
     1
 10
0.0
 20
0.0
 30
0.0
 70
     1
  0
VERTEX
  5
D88
  8
DATA
  6
CONTINUOUS
 62
     7
 10
-20.74078218890309
 20
-131.23790377270481
 30
0.0
  0
VERTEX
  5
D89
  8
DATA
  6
CONTINUOUS
 62
     7
 10
-19.740782188903069
 20
-131.23790377270481
 30
0.0
  0
VERTEX
  5
D8A
  8
DATA
  6
CONTINUOUS
 62
     7
 10
-19.740782188903069
 20
-132.23790377270481
 30
0.0
  0
VERTEX
  5
D8B
  8
DATA
  6
CONTINUOUS
 62
     7
 10
-20.74078218890309
 20
-132.23790377270481
 30
0.0
  0
SEQEND
  5
D8C
  8
DATA
  6
CONTINUOUS
 62
     7
  0
POLYLINE
  5
491
  8
DATA
  6
CONTINUOUS
 62
     7
 66
     1
 10
0.0
 20
0.0
 30
0.0
 70
     1
  0
VERTEX
  5
D8D
  8
DATA
  6
CONTINUOUS
 62
     7
 10
-23.461351049846549
 20
-133.7567593940046
 30
0.0
  0
VERTEX
  5
D8E
  8
DATA
  6
CONTINUOUS
 62
     7
 10
-22.461351049846549
 20
-133.7567593940046
 30
0.0
  0
VERTEX
  5
D8F
  8
DATA
  6
CONTINUOUS
 62
     7
 10
-22.461351049846549
 20
-134.7567593940046
 30
0.0
  0
VERTEX
  5
D90
  8
DATA
  6
CONTINUOUS
 62
     7
 10
-23.461351049846549
 20
-134.7567593940046
 30
0.0
  0
SEQEND
  5
D91
  8
DATA
  6
CONTINUOUS
 62
     7
  0
POLYLINE
  5
498
  8
DATA
  6
CONTINUOUS
 62
     7
 66
     1
 10
0.0
 20
0.0
 30
0.0
 70
     1
  0
VERTEX
  5
D92
  8
DATA
  6
CONTINUOUS
 62
     7
 10
-20.74078218890309
 20
-133.7567593940046
 30
0.0
  0
VERTEX
  5
D93
  8
DATA
  6
CONTINUOUS
 62
     7
 10
-19.740782188903069
 20
-133.7567593940046
 30
0.0
  0
VERTEX
  5
D94
  8
DATA
  6
CONTINUOUS
 62
     7
 10
-19.740782188903069
 20
-134.7567593940046
 30
0.0
  0
VERTEX
  5
D95
  8
DATA
  6
CONTINUOUS
 62
     7
 10
-20.74078218890309
 20
-134.7567593940046
 30
0.0
  0
SEQEND
  5
D96
  8
DATA
  6
CONTINUOUS
 62
     7
  0
LINE
  5
49F
  8
DATA
  6
CONTINUOUS
 62
     7
 10
-41.696438437322151
 20
-130.1674398888409
 30
0.0
 11
-41.137521239869891
 21
-136.0174398888409
 31
0.0
  0
LINE
  5
4A0
  8
DATA
  6
CONTINUOUS
 62
     7
 10
-17.80569480142772
 20
-130.1674398888409
 30
0.0
 11
-18.36461199887999
 21
-136.0174398888409
 31
0.0
  0
ARC
  5
4A1
  8
DATA
  6
CONTINUOUS
 62
     7
 10
-40.700971506566788
 20
-130.0723315833547
 30
0.0
 40
1.0
 50
90.0
 51
185.45755348510761
  0
ARC
  5
4A2
  8
DATA
  6
CONTINUOUS
 62
     7
 10
-18.801161732183079
 20
-130.0723315833547
 30
0.0
 40
0.9999999999999754
 50
354.54244651489228
 51
90.000000000003226
  0
ARC
  5
4A3
  8
DATA
  6
CONTINUOUS
 62
     7
 10
-40.142054309114492
 20
-135.92233158335469
 30
0.0
 40
1.0000000000000031
 50
185.4575534851075
 51
270.0
  0
ARC
  5
4A4
  8
DATA
  6
CONTINUOUS
 62
     7
 10
-19.360078929635421
 20
-135.92233158335469
 30
0.0
 40
1.0
 50
270.0
 51
354.54244651489591
  0
TEXT
  5
4A5
  8
DATA
 62
     7
 10
-31.720691820018502
 20
-147.6288734669007
 30
0.0
 40
2.9319140625000002
  1
4
 41
0.7
 11
-31.720691820018502
 21
-144.6969594044007
 31
0.0
 73
     3
  0
CIRCLE
  5
4A6
  8
DATA
  6
CONTINUOUS
 62
     7
 10
31.501023481219921
 20
-132.99733158335471
 30
0.0
 40
1.175000000000068
  0
POLYLINE
  5
4A7
  8
DATA
  6
CONTINUOUS
 62
     7
 66
     1
 10
0.0
 20
0.0
 30
0.0
 70
     1
  0
VERTEX
  5
D97
  8
DATA
  6
CONTINUOUS
 62
     7
 10
31.501023481219921
 20
-130.29733158335469
 30
0.0
  0
VERTEX
  5
D98
  8
DATA
  6
CONTINUOUS
 62
     7
 10
33.839292071437832
 20
-131.64733158335471
 30
0.0
  0
VERTEX
  5
D99
  8
DATA
  6
CONTINUOUS
 62
     7
 10
33.839292071437832
 20
-134.3473315833547
 30
0.0
  0
VERTEX
  5
D9A
  8
DATA
  6
CONTINUOUS
 62
     7
 10
31.501023481219921
 20
-135.6973315833547
 30
0.0
  0
VERTEX
  5
D9B
  8
DATA
  6
CONTINUOUS
 62
     7
 10
29.162754891001899
 20
-134.3473315833547
 30
0.0
  0
VERTEX
  5
D9C
  8
DATA
  6
CONTINUOUS
 62
     7
 10
29.162754891001899
 20
-131.64733158335471
 30
0.0
  0
SEQEND
  5
D9D
  8
DATA
  6
CONTINUOUS
 62
     7
  0
CIRCLE
  5
4B0
  8
DATA
  6
CONTINUOUS
 62
     7
 10
-0.9989765187799408
 20
-132.99733158335471
 30
0.0
 40
1.175000000000068
  0
POLYLINE
  5
4B1
  8
DATA
  6
CONTINUOUS
 62
     7
 66
     1
 10
0.0
 20
0.0
 30
0.0
 70
     1
  0
VERTEX
  5
D9E
  8
DATA
  6
CONTINUOUS
 62
     7
 10
-0.9989765187799408
 20
-130.29733158335469
 30
0.0
  0
VERTEX
  5
D9F
  8
DATA
  6
CONTINUOUS
 62
     7
 10
1.339292071438009
 20
-131.64733158335471
 30
0.0
  0
VERTEX
  5
DA0
  8
DATA
  6
CONTINUOUS
 62
     7
 10
1.339292071438009
 20
-134.3473315833547
 30
0.0
  0
VERTEX
  5
DA1
  8
DATA
  6
CONTINUOUS
 62
     7
 10
-0.9989765187799408
 20
-135.6973315833547
 30
0.0
  0
VERTEX
  5
DA2
  8
DATA
  6
CONTINUOUS
 62
     7
 10
-3.33724510899799
 20
-134.3473315833547
 30
0.0
  0
VERTEX
  5
DA3
  8
DATA
  6
CONTINUOUS
 62
     7
 10
-3.33724510899799
 20
-131.64733158335471
 30
0.0
  0
SEQEND
  5
DA4
  8
DATA
  6
CONTINUOUS
 62
     7
  0
LINE
  5
4BA
  8
DATA
  6
CONTINUOUS
 62
     7
 10
4.299028493433581
 20
-129.0723315833547
 30
0.0
 11
26.19883826781701
 21
-129.0723315833547
 31
0.0
  0
LINE
  5
4BB
  8
DATA
  6
CONTINUOUS
 62
     7
 10
25.639921070364728
 20
-136.92233158335469
 30
0.0
 11
4.8579456908858702
 21
-136.92233158335469
 31
0.0
  0
POLYLINE
  5
4BC
  8
DATA
  6
CONTINUOUS
 62
     7
 66
     1
 10
0.0
 20
0.0
 30
0.0
 70
     1
  0
VERTEX
  5
DA5
  8
DATA
  6
CONTINUOUS
 62
     7
 10
4.2488672094460176
 20
-132.23233158335469
 30
0.0
  0
VERTEX
  5
DA6
  8
DATA
  6
CONTINUOUS
 62
     7
 10
5.7788672094460036
 20
-132.23233158335469
 30
0.0
  0
VERTEX
  5
DA7
  8
DATA
  6
CONTINUOUS
 62
     7
 10
5.7788672094460036
 20
-133.76233158335469
 30
0.0
  0
VERTEX
  5
DA8
  8
DATA
  6
CONTINUOUS
 62
     7
 10
4.2488672094460176
 20
-133.76233158335469
 30
0.0
  0
SEQEND
  5
DA9
  8
DATA
  6
CONTINUOUS
 62
     7
  0
POLYLINE
  5
4C3
  8
DATA
  6
CONTINUOUS
 62
     7
 66
     1
 10
0.0
 20
0.0
 30
0.0
 70
     1
  0
VERTEX
  5
DAA
  8
DATA
  6
CONTINUOUS
 62
     7
 10
6.248867209446046
 20
-132.23233158335469
 30
0.0
  0
VERTEX
  5
DAB
  8
DATA
  6
CONTINUOUS
 62
     7
 10
7.7788672094460347
 20
-132.23233158335469
 30
0.0
  0
VERTEX
  5
DAC
  8
DATA
  6
CONTINUOUS
 62
     7
 10
7.7788672094460347
 20
-133.76233158335469
 30
0.0
  0
VERTEX
  5
DAD
  8
DATA
  6
CONTINUOUS
 62
     7
 10
6.248867209446046
 20
-133.76233158335469
 30
0.0
  0
SEQEND
  5
DAE
  8
DATA
  6
CONTINUOUS
 62
     7
  0
POLYLINE
  5
4CA
  8
DATA
  6
CONTINUOUS
 62
     7
 66
     1
 10
0.0
 20
0.0
 30
0.0
 70
     1
  0
VERTEX
  5
DAF
  8
DATA
  6
CONTINUOUS
 62
     7
 10
8.2488672094460611
 20
-132.23233158335469
 30
0.0
  0
VERTEX
  5
DB0
  8
DATA
  6
CONTINUOUS
 62
     7
 10
9.7788672094460463
 20
-132.23233158335469
 30
0.0
  0
VERTEX
  5
DB1
  8
DATA
  6
CONTINUOUS
 62
     7
 10
9.7788672094460463
 20
-133.76233158335469
 30
0.0
  0
VERTEX
  5
DB2
  8
DATA
  6
CONTINUOUS
 62
     7
 10
8.2488672094460611
 20
-133.76233158335469
 30
0.0
  0
SEQEND
  5
DB3
  8
DATA
  6
CONTINUOUS
 62
     7
  0
POLYLINE
  5
4D1
  8
DATA
  6
CONTINUOUS
 62
     7
 66
     1
 10
0.0
 20
0.0
 30
0.0
 70
     1
  0
VERTEX
  5
DB4
  8
DATA
  6
CONTINUOUS
 62
     7
 10
10.248867209446059
 20
-132.23233158335469
 30
0.0
  0
VERTEX
  5
DB5
  8
DATA
  6
CONTINUOUS
 62
     7
 10
11.77886720944603
 20
-132.23233158335469
 30
0.0
  0
VERTEX
  5
DB6
  8
DATA
  6
CONTINUOUS
 62
     7
 10
11.77886720944603
 20
-133.76233158335469
 30
0.0
  0
VERTEX
  5
DB7
  8
DATA
  6
CONTINUOUS
 62
     7
 10
10.248867209446059
 20
-133.76233158335469
 30
0.0
  0
SEQEND
  5
DB8
  8
DATA
  6
CONTINUOUS
 62
     7
  0
POLYLINE
  5
4D8
  8
DATA
  6
CONTINUOUS
 62
     7
 66
     1
 10
0.0
 20
0.0
 30
0.0
 70
     1
  0
VERTEX
  5
DB9
  8
DATA
  6
CONTINUOUS
 62
     7
 10
12.248867209446059
 20
-132.23233158335469
 30
0.0
  0
VERTEX
  5
DBA
  8
DATA
  6
CONTINUOUS
 62
     7
 10
13.77886720944602
 20
-132.23233158335469
 30
0.0
  0
VERTEX
  5
DBB
  8
DATA
  6
CONTINUOUS
 62
     7
 10
13.77886720944602
 20
-133.76233158335469
 30
0.0
  0
VERTEX
  5
DBC
  8
DATA
  6
CONTINUOUS
 62
     7
 10
12.248867209446059
 20
-133.76233158335469
 30
0.0
  0
SEQEND
  5
DBD
  8
DATA
  6
CONTINUOUS
 62
     7
  0
POLYLINE
  5
4DF
  8
DATA
  6
CONTINUOUS
 62
     7
 66
     1
 10
0.0
 20
0.0
 30
0.0
 70
     1
  0
VERTEX
  5
DBE
  8
DATA
  6
CONTINUOUS
 62
     7
 10
14.24886720944605
 20
-132.23233158335469
 30
0.0
  0
VERTEX
  5
DBF
  8
DATA
  6
CONTINUOUS
 62
     7
 10
15.77886720944602
 20
-132.23233158335469
 30
0.0
  0
VERTEX
  5
DC0
  8
DATA
  6
CONTINUOUS
 62
     7
 10
15.77886720944602
 20
-133.76233158335469
 30
0.0
  0
VERTEX
  5
DC1
  8
DATA
  6
CONTINUOUS
 62
     7
 10
14.24886720944605
 20
-133.76233158335469
 30
0.0
  0
SEQEND
  5
DC2
  8
DATA
  6
CONTINUOUS
 62
     7
  0
POLYLINE
  5
4E6
  8
DATA
  6
CONTINUOUS
 62
     7
 66
     1
 10
0.0
 20
0.0
 30
0.0
 70
     1
  0
VERTEX
  5
DC3
  8
DATA
  6
CONTINUOUS
 62
     7
 10
16.24886720944599
 20
-132.23233158335469
 30
0.0
  0
VERTEX
  5
DC4
  8
DATA
  6
CONTINUOUS
 62
     7
 10
17.778867209445892
 20
-132.23233158335469
 30
0.0
  0
VERTEX
  5
DC5
  8
DATA
  6
CONTINUOUS
 62
     7
 10
17.778867209445892
 20
-133.76233158335469
 30
0.0
  0
VERTEX
  5
DC6
  8
DATA
  6
CONTINUOUS
 62
     7
 10
16.24886720944599
 20
-133.76233158335469
 30
0.0
  0
SEQEND
  5
DC7
  8
DATA
  6
CONTINUOUS
 62
     7
  0
POLYLINE
  5
4ED
  8
DATA
  6
CONTINUOUS
 62
     7
 66
     1
 10
0.0
 20
0.0
 30
0.0
 70
     1
  0
VERTEX
  5
DC8
  8
DATA
  6
CONTINUOUS
 62
     7
 10
18.248867209445969
 20
-132.23233158335469
 30
0.0
  0
VERTEX
  5
DC9
  8
DATA
  6
CONTINUOUS
 62
     7
 10
19.778867209445998
 20
-132.23233158335469
 30
0.0
  0
VERTEX
  5
DCA
  8
DATA
  6
CONTINUOUS
 62
     7
 10
19.778867209445998
 20
-133.76233158335469
 30
0.0
  0
VERTEX
  5
DCB
  8
DATA
  6
CONTINUOUS
 62
     7
 10
18.248867209445969
 20
-133.76233158335469
 30
0.0
  0
SEQEND
  5
DCC
  8
DATA
  6
CONTINUOUS
 62
     7
  0
POLYLINE
  5
4F4
  8
DATA
  6
CONTINUOUS
 62
     7
 66
     1
 10
0.0
 20
0.0
 30
0.0
 70
     1
  0
VERTEX
  5
DCD
  8
DATA
  6
CONTINUOUS
 62
     7
 10
4.2488672094460176
 20
-130.23233158335469
 30
0.0
  0
VERTEX
  5
DCE
  8
DATA
  6
CONTINUOUS
 62
     7
 10
5.7788672094460036
 20
-130.23233158335469
 30
0.0
  0
VERTEX
  5
DCF
  8
DATA
  6
CONTINUOUS
 62
     7
 10
5.7788672094460036
 20
-131.76233158335469
 30
0.0
  0
VERTEX
  5
DD0
  8
DATA
  6
CONTINUOUS
 62
     7
 10
4.2488672094460176
 20
-131.76233158335469
 30
0.0
  0
SEQEND
  5
DD1
  8
DATA
  6
CONTINUOUS
 62
     7
  0
POLYLINE
  5
4FB
  8
DATA
  6
CONTINUOUS
 62
     7
 66
     1
 10
0.0
 20
0.0
 30
0.0
 70
     1
  0
VERTEX
  5
DD2
  8
DATA
  6
CONTINUOUS
 62
     7
 10
6.248867209446046
 20
-130.23233158335469
 30
0.0
  0
VERTEX
  5
DD3
  8
DATA
  6
CONTINUOUS
 62
     7
 10
7.7788672094460347
 20
-130.23233158335469
 30
0.0
  0
VERTEX
  5
DD4
  8
DATA
  6
CONTINUOUS
 62
     7
 10
7.7788672094460347
 20
-131.76233158335469
 30
0.0
  0
VERTEX
  5
DD5
  8
DATA
  6
CONTINUOUS
 62
     7
 10
6.248867209446046
 20
-131.76233158335469
 30
0.0
  0
SEQEND
  5
DD6
  8
DATA
  6
CONTINUOUS
 62
     7
  0
POLYLINE
  5
502
  8
DATA
  6
CONTINUOUS
 62
     7
 66
     1
 10
0.0
 20
0.0
 30
0.0
 70
     1
  0
VERTEX
  5
DD7
  8
DATA
  6
CONTINUOUS
 62
     7
 10
8.2488672094460611
 20
-130.23233158335469
 30
0.0
  0
VERTEX
  5
DD8
  8
DATA
  6
CONTINUOUS
 62
     7
 10
9.7788672094460463
 20
-130.23233158335469
 30
0.0
  0
VERTEX
  5
DD9
  8
DATA
  6
CONTINUOUS
 62
     7
 10
9.7788672094460463
 20
-131.76233158335469
 30
0.0
  0
VERTEX
  5
DDA
  8
DATA
  6
CONTINUOUS
 62
     7
 10
8.2488672094460611
 20
-131.76233158335469
 30
0.0
  0
SEQEND
  5
DDB
  8
DATA
  6
CONTINUOUS
 62
     7
  0
POLYLINE
  5
509
  8
DATA
  6
CONTINUOUS
 62
     7
 66
     1
 10
0.0
 20
0.0
 30
0.0
 70
     1
  0
VERTEX
  5
DDC
  8
DATA
  6
CONTINUOUS
 62
     7
 10
10.248867209446059
 20
-130.23233158335469
 30
0.0
  0
VERTEX
  5
DDD
  8
DATA
  6
CONTINUOUS
 62
     7
 10
11.77886720944603
 20
-130.23233158335469
 30
0.0
  0
VERTEX
  5
DDE
  8
DATA
  6
CONTINUOUS
 62
     7
 10
11.77886720944603
 20
-131.76233158335469
 30
0.0
  0
VERTEX
  5
DDF
  8
DATA
  6
CONTINUOUS
 62
     7
 10
10.248867209446059
 20
-131.76233158335469
 30
0.0
  0
SEQEND
  5
DE0
  8
DATA
  6
CONTINUOUS
 62
     7
  0
POLYLINE
  5
510
  8
DATA
  6
CONTINUOUS
 62
     7
 66
     1
 10
0.0
 20
0.0
 30
0.0
 70
     1
  0
VERTEX
  5
DE1
  8
DATA
  6
CONTINUOUS
 62
     7
 10
12.248867209446059
 20
-130.23233158335469
 30
0.0
  0
VERTEX
  5
DE2
  8
DATA
  6
CONTINUOUS
 62
     7
 10
13.77886720944602
 20
-130.23233158335469
 30
0.0
  0
VERTEX
  5
DE3
  8
DATA
  6
CONTINUOUS
 62
     7
 10
13.77886720944602
 20
-131.76233158335469
 30
0.0
  0
VERTEX
  5
DE4
  8
DATA
  6
CONTINUOUS
 62
     7
 10
12.248867209446059
 20
-131.76233158335469
 30
0.0
  0
SEQEND
  5
DE5
  8
DATA
  6
CONTINUOUS
 62
     7
  0
POLYLINE
  5
517
  8
DATA
  6
CONTINUOUS
 62
     7
 66
     1
 10
0.0
 20
0.0
 30
0.0
 70
     1
  0
VERTEX
  5
DE6
  8
DATA
  6
CONTINUOUS
 62
     7
 10
14.24886720944605
 20
-130.23233158335469
 30
0.0
  0
VERTEX
  5
DE7
  8
DATA
  6
CONTINUOUS
 62
     7
 10
15.77886720944602
 20
-130.23233158335469
 30
0.0
  0
VERTEX
  5
DE8
  8
DATA
  6
CONTINUOUS
 62
     7
 10
15.77886720944602
 20
-131.76233158335469
 30
0.0
  0
VERTEX
  5
DE9
  8
DATA
  6
CONTINUOUS
 62
     7
 10
14.24886720944605
 20
-131.76233158335469
 30
0.0
  0
SEQEND
  5
DEA
  8
DATA
  6
CONTINUOUS
 62
     7
  0
POLYLINE
  5
51E
  8
DATA
  6
CONTINUOUS
 62
     7
 66
     1
 10
0.0
 20
0.0
 30
0.0
 70
     1
  0
VERTEX
  5
DEB
  8
DATA
  6
CONTINUOUS
 62
     7
 10
16.24886720944599
 20
-130.23233158335469
 30
0.0
  0
VERTEX
  5
DEC
  8
DATA
  6
CONTINUOUS
 62
     7
 10
17.778867209445892
 20
-130.23233158335469
 30
0.0
  0
VERTEX
  5
DED
  8
DATA
  6
CONTINUOUS
 62
     7
 10
17.778867209445892
 20
-131.76233158335469
 30
0.0
  0
VERTEX
  5
DEE
  8
DATA
  6
CONTINUOUS
 62
     7
 10
16.24886720944599
 20
-131.76233158335469
 30
0.0
  0
SEQEND
  5
DEF
  8
DATA
  6
CONTINUOUS
 62
     7
  0
POLYLINE
  5
525
  8
DATA
  6
CONTINUOUS
 62
     7
 66
     1
 10
0.0
 20
0.0
 30
0.0
 70
     1
  0
VERTEX
  5
DF0
  8
DATA
  6
CONTINUOUS
 62
     7
 10
18.248867209445969
 20
-130.23233158335469
 30
0.0
  0
VERTEX
  5
DF1
  8
DATA
  6
CONTINUOUS
 62
     7
 10
19.778867209445998
 20
-130.23233158335469
 30
0.0
  0
VERTEX
  5
DF2
  8
DATA
  6
CONTINUOUS
 62
     7
 10
19.778867209445998
 20
-131.76233158335469
 30
0.0
  0
VERTEX
  5
DF3
  8
DATA
  6
CONTINUOUS
 62
     7
 10
18.248867209445969
 20
-131.76233158335469
 30
0.0
  0
SEQEND
  5
DF4
  8
DATA
  6
CONTINUOUS
 62
     7
  0
POLYLINE
  5
52C
  8
DATA
  6
CONTINUOUS
 62
     7
 66
     1
 10
0.0
 20
0.0
 30
0.0
 70
     1
  0
VERTEX
  5
DF5
  8
DATA
  6
CONTINUOUS
 62
     7
 10
4.2488672094460176
 20
-134.23233158335469
 30
0.0
  0
VERTEX
  5
DF6
  8
DATA
  6
CONTINUOUS
 62
     7
 10
5.7788672094460036
 20
-134.23233158335469
 30
0.0
  0
VERTEX
  5
DF7
  8
DATA
  6
CONTINUOUS
 62
     7
 10
5.7788672094460036
 20
-135.76233158335469
 30
0.0
  0
VERTEX
  5
DF8
  8
DATA
  6
CONTINUOUS
 62
     7
 10
4.2488672094460176
 20
-135.76233158335469
 30
0.0
  0
SEQEND
  5
DF9
  8
DATA
  6
CONTINUOUS
 62
     7
  0
POLYLINE
  5
533
  8
DATA
  6
CONTINUOUS
 62
     7
 66
     1
 10
0.0
 20
0.0
 30
0.0
 70
     1
  0
VERTEX
  5
DFA
  8
DATA
  6
CONTINUOUS
 62
     7
 10
6.248867209446046
 20
-134.23233158335469
 30
0.0
  0
VERTEX
  5
DFB
  8
DATA
  6
CONTINUOUS
 62
     7
 10
7.7788672094460347
 20
-134.23233158335469
 30
0.0
  0
VERTEX
  5
DFC
  8
DATA
  6
CONTINUOUS
 62
     7
 10
7.7788672094460347
 20
-135.76233158335469
 30
0.0
  0
VERTEX
  5
DFD
  8
DATA
  6
CONTINUOUS
 62
     7
 10
6.248867209446046
 20
-135.76233158335469
 30
0.0
  0
SEQEND
  5
DFE
  8
DATA
  6
CONTINUOUS
 62
     7
  0
POLYLINE
  5
53A
  8
DATA
  6
CONTINUOUS
 62
     7
 66
     1
 10
0.0
 20
0.0
 30
0.0
 70
     1
  0
VERTEX
  5
DFF
  8
DATA
  6
CONTINUOUS
 62
     7
 10
8.2488672094460611
 20
-134.23233158335469
 30
0.0
  0
VERTEX
  5
E00
  8
DATA
  6
CONTINUOUS
 62
     7
 10
9.7788672094460463
 20
-134.23233158335469
 30
0.0
  0
VERTEX
  5
E01
  8
DATA
  6
CONTINUOUS
 62
     7
 10
9.7788672094460463
 20
-135.76233158335469
 30
0.0
  0
VERTEX
  5
E02
  8
DATA
  6
CONTINUOUS
 62
     7
 10
8.2488672094460611
 20
-135.76233158335469
 30
0.0
  0
SEQEND
  5
E03
  8
DATA
  6
CONTINUOUS
 62
     7
  0
POLYLINE
  5
541
  8
DATA
  6
CONTINUOUS
 62
     7
 66
     1
 10
0.0
 20
0.0
 30
0.0
 70
     1
  0
VERTEX
  5
E04
  8
DATA
  6
CONTINUOUS
 62
     7
 10
10.248867209446059
 20
-134.23233158335469
 30
0.0
  0
VERTEX
  5
E05
  8
DATA
  6
CONTINUOUS
 62
     7
 10
11.77886720944603
 20
-134.23233158335469
 30
0.0
  0
VERTEX
  5
E06
  8
DATA
  6
CONTINUOUS
 62
     7
 10
11.77886720944603
 20
-135.76233158335469
 30
0.0
  0
VERTEX
  5
E07
  8
DATA
  6
CONTINUOUS
 62
     7
 10
10.248867209446059
 20
-135.76233158335469
 30
0.0
  0
SEQEND
  5
E08
  8
DATA
  6
CONTINUOUS
 62
     7
  0
POLYLINE
  5
548
  8
DATA
  6
CONTINUOUS
 62
     7
 66
     1
 10
0.0
 20
0.0
 30
0.0
 70
     1
  0
VERTEX
  5
E09
  8
DATA
  6
CONTINUOUS
 62
     7
 10
12.248867209446059
 20
-134.23233158335469
 30
0.0
  0
VERTEX
  5
E0A
  8
DATA
  6
CONTINUOUS
 62
     7
 10
13.77886720944602
 20
-134.23233158335469
 30
0.0
  0
VERTEX
  5
E0B
  8
DATA
  6
CONTINUOUS
 62
     7
 10
13.77886720944602
 20
-135.76233158335469
 30
0.0
  0
VERTEX
  5
E0C
  8
DATA
  6
CONTINUOUS
 62
     7
 10
12.248867209446059
 20
-135.76233158335469
 30
0.0
  0
SEQEND
  5
E0D
  8
DATA
  6
CONTINUOUS
 62
     7
  0
POLYLINE
  5
54F
  8
DATA
  6
CONTINUOUS
 62
     7
 66
     1
 10
0.0
 20
0.0
 30
0.0
 70
     1
  0
VERTEX
  5
E0E
  8
DATA
  6
CONTINUOUS
 62
     7
 10
14.24886720944605
 20
-134.23233158335469
 30
0.0
  0
VERTEX
  5
E0F
  8
DATA
  6
CONTINUOUS
 62
     7
 10
15.77886720944602
 20
-134.23233158335469
 30
0.0
  0
VERTEX
  5
E10
  8
DATA
  6
CONTINUOUS
 62
     7
 10
15.77886720944602
 20
-135.76233158335469
 30
0.0
  0
VERTEX
  5
E11
  8
DATA
  6
CONTINUOUS
 62
     7
 10
14.24886720944605
 20
-135.76233158335469
 30
0.0
  0
SEQEND
  5
E12
  8
DATA
  6
CONTINUOUS
 62
     7
  0
POLYLINE
  5
556
  8
DATA
  6
CONTINUOUS
 62
     7
 66
     1
 10
0.0
 20
0.0
 30
0.0
 70
     1
  0
VERTEX
  5
E13
  8
DATA
  6
CONTINUOUS
 62
     7
 10
16.24886720944599
 20
-134.23233158335469
 30
0.0
  0
VERTEX
  5
E14
  8
DATA
  6
CONTINUOUS
 62
     7
 10
17.778867209445892
 20
-134.23233158335469
 30
0.0
  0
VERTEX
  5
E15
  8
DATA
  6
CONTINUOUS
 62
     7
 10
17.778867209445892
 20
-135.76233158335469
 30
0.0
  0
VERTEX
  5
E16
  8
DATA
  6
CONTINUOUS
 62
     7
 10
16.24886720944599
 20
-135.76233158335469
 30
0.0
  0
SEQEND
  5
E17
  8
DATA
  6
CONTINUOUS
 62
     7
  0
POLYLINE
  5
55D
  8
DATA
  6
CONTINUOUS
 62
     7
 66
     1
 10
0.0
 20
0.0
 30
0.0
 70
     1
  0
VERTEX
  5
E18
  8
DATA
  6
CONTINUOUS
 62
     7
 10
18.248867209445969
 20
-134.23233158335469
 30
0.0
  0
VERTEX
  5
E19
  8
DATA
  6
CONTINUOUS
 62
     7
 10
19.778867209445998
 20
-134.23233158335469
 30
0.0
  0
VERTEX
  5
E1A
  8
DATA
  6
CONTINUOUS
 62
     7
 10
19.778867209445998
 20
-135.76233158335469
 30
0.0
  0
VERTEX
  5
E1B
  8
DATA
  6
CONTINUOUS
 62
     7
 10
18.248867209445969
 20
-135.76233158335469
 30
0.0
  0
SEQEND
  5
E1C
  8
DATA
  6
CONTINUOUS
 62
     7
  0
POLYLINE
  5
564
  8
DATA
  6
CONTINUOUS
 62
     7
 66
     1
 10
0.0
 20
0.0
 30
0.0
  0
VERTEX
  5
E1D
  8
DATA
  6
CONTINUOUS
 62
     7
 10
23.798933380625432
 20
-132.5973315833547
 30
0.0
  0
VERTEX
  5
E1E
  8
DATA
  6
CONTINUOUS
 62
     7
 10
25.898933380625358
 20
-132.5973315833547
 30
0.0
  0
VERTEX
  5
E1F
  8
DATA
  6
CONTINUOUS
 62
     7
 10
25.898933380625358
 20
-133.39733158335471
 30
0.0
  0
VERTEX
  5
E20
  8
DATA
  6
CONTINUOUS
 62
     7
 10
23.798933380625432
 20
-133.39733158335471
 30
0.0
  0
SEQEND
  5
E21
  8
DATA
  6
CONTINUOUS
 62
     7
  0
POLYLINE
  5
56B
  8
DATA
  6
CONTINUOUS
 62
     7
 66
     1
 10
0.0
 20
0.0
 30
0.0
  0
VERTEX
  5
E22
  8
DATA
  6
CONTINUOUS
 62
     7
 10
22.99893338062537
 20
-133.39733158335471
 30
0.0
  0
VERTEX
  5
E23
  8
DATA
  6
CONTINUOUS
 62
     7
 10
20.898933380625412
 20
-133.39733158335471
 30
0.0
  0
VERTEX
  5
E24
  8
DATA
  6
CONTINUOUS
 62
     7
 10
20.898933380625412
 20
-132.5973315833547
 30
0.0
  0
VERTEX
  5
E25
  8
DATA
  6
CONTINUOUS
 62
     7
 10
22.99893338062537
 20
-132.5973315833547
 30
0.0
  0
SEQEND
  5
E26
  8
DATA
  6
CONTINUOUS
 62
     7
  0
POLYLINE
  5
572
  8
DATA
  6
CONTINUOUS
 62
     7
 66
     1
 10
0.0
 20
0.0
 30
0.0
  0
VERTEX
  5
E27
  8
DATA
  6
CONTINUOUS
 62
     7
 10
23.798933380625432
 20
-133.39733158335471
 30
0.0
  0
VERTEX
  5
E28
  8
DATA
  6
CONTINUOUS
 62
     7
 10
23.798933380625432
 20
-135.49733158335471
 30
0.0
  0
VERTEX
  5
E29
  8
DATA
  6
CONTINUOUS
 62
     7
 10
22.99893338062537
 20
-135.49733158335471
 30
0.0
  0
VERTEX
  5
E2A
  8
DATA
  6
CONTINUOUS
 62
     7
 10
22.99893338062537
 20
-133.39733158335471
 30
0.0
  0
SEQEND
  5
E2B
  8
DATA
  6
CONTINUOUS
 62
     7
  0
POLYLINE
  5
579
  8
DATA
  6
CONTINUOUS
 62
     7
 66
     1
 10
0.0
 20
0.0
 30
0.0
  0
VERTEX
  5
E2C
  8
DATA
  6
CONTINUOUS
 62
     7
 10
22.99893338062537
 20
-132.5973315833547
 30
0.0
  0
VERTEX
  5
E2D
  8
DATA
  6
CONTINUOUS
 62
     7
 10
22.99893338062537
 20
-130.49733158335471
 30
0.0
  0
VERTEX
  5
E2E
  8
DATA
  6
CONTINUOUS
 62
     7
 10
23.798933380625432
 20
-130.49733158335471
 30
0.0
  0
VERTEX
  5
E2F
  8
DATA
  6
CONTINUOUS
 62
     7
 10
23.798933380625432
 20
-132.5973315833547
 30
0.0
  0
SEQEND
  5
E30
  8
DATA
  6
CONTINUOUS
 62
     7
  0
POLYLINE
  5
580
  8
DATA
  6
CONTINUOUS
 62
     7
 66
     1
 10
0.0
 20
0.0
 30
0.0
 70
     1
  0
VERTEX
  5
E31
  8
DATA
  6
CONTINUOUS
 62
     7
 10
21.538648950153689
 20
-131.23790377270481
 30
0.0
  0
VERTEX
  5
E32
  8
DATA
  6
CONTINUOUS
 62
     7
 10
22.538648950153689
 20
-131.23790377270481
 30
0.0
  0
VERTEX
  5
E33
  8
DATA
  6
CONTINUOUS
 62
     7
 10
22.538648950153689
 20
-132.23790377270481
 30
0.0
  0
VERTEX
  5
E34
  8
DATA
  6
CONTINUOUS
 62
     7
 10
21.538648950153689
 20
-132.23790377270481
 30
0.0
  0
SEQEND
  5
E35
  8
DATA
  6
CONTINUOUS
 62
     7
  0
POLYLINE
  5
587
  8
DATA
  6
CONTINUOUS
 62
     7
 66
     1
 10
0.0
 20
0.0
 30
0.0
 70
     1
  0
VERTEX
  5
E36
  8
DATA
  6
CONTINUOUS
 62
     7
 10
24.259217811097091
 20
-131.23790377270481
 30
0.0
  0
VERTEX
  5
E37
  8
DATA
  6
CONTINUOUS
 62
     7
 10
25.259217811097091
 20
-131.23790377270481
 30
0.0
  0
VERTEX
  5
E38
  8
DATA
  6
CONTINUOUS
 62
     7
 10
25.259217811097091
 20
-132.23790377270481
 30
0.0
  0
VERTEX
  5
E39
  8
DATA
  6
CONTINUOUS
 62
     7
 10
24.259217811097091
 20
-132.23790377270481
 30
0.0
  0
SEQEND
  5
E3A
  8
DATA
  6
CONTINUOUS
 62
     7
  0
POLYLINE
  5
58E
  8
DATA
  6
CONTINUOUS
 62
     7
 66
     1
 10
0.0
 20
0.0
 30
0.0
 70
     1
  0
VERTEX
  5
E3B
  8
DATA
  6
CONTINUOUS
 62
     7
 10
21.538648950153689
 20
-133.7567593940046
 30
0.0
  0
VERTEX
  5
E3C
  8
DATA
  6
CONTINUOUS
 62
     7
 10
22.538648950153689
 20
-133.7567593940046
 30
0.0
  0
VERTEX
  5
E3D
  8
DATA
  6
CONTINUOUS
 62
     7
 10
22.538648950153689
 20
-134.7567593940046
 30
0.0
  0
VERTEX
  5
E3E
  8
DATA
  6
CONTINUOUS
 62
     7
 10
21.538648950153689
 20
-134.7567593940046
 30
0.0
  0
SEQEND
  5
E3F
  8
DATA
  6
CONTINUOUS
 62
     7
  0
POLYLINE
  5
595
  8
DATA
  6
CONTINUOUS
 62
     7
 66
     1
 10
0.0
 20
0.0
 30
0.0
 70
     1
  0
VERTEX
  5
E40
  8
DATA
  6
CONTINUOUS
 62
     7
 10
24.259217811097091
 20
-133.7567593940046
 30
0.0
  0
VERTEX
  5
E41
  8
DATA
  6
CONTINUOUS
 62
     7
 10
25.259217811097091
 20
-133.7567593940046
 30
0.0
  0
VERTEX
  5
E42
  8
DATA
  6
CONTINUOUS
 62
     7
 10
25.259217811097091
 20
-134.7567593940046
 30
0.0
  0
VERTEX
  5
E43
  8
DATA
  6
CONTINUOUS
 62
     7
 10
24.259217811097091
 20
-134.7567593940046
 30
0.0
  0
SEQEND
  5
E44
  8
DATA
  6
CONTINUOUS
 62
     7
  0
LINE
  5
59C
  8
DATA
  6
CONTINUOUS
 62
     7
 10
3.303561562678226
 20
-130.1674398888409
 30
0.0
 11
3.8624787601305002
 21
-136.0174398888409
 31
0.0
  0
LINE
  5
59D
  8
DATA
  6
CONTINUOUS
 62
     7
 10
27.194305198572408
 20
-130.1674398888409
 30
0.0
 11
26.635388001120148
 21
-136.0174398888409
 31
0.0
  0
ARC
  5
59E
  8
DATA
  6
CONTINUOUS
 62
     7
 10
4.299028493433581
 20
-130.0723315833547
 30
0.0
 40
1.0
 50
90.0
 51
185.45755348510761
  0
ARC
  5
59F
  8
DATA
  6
CONTINUOUS
 62
     7
 10
26.19883826781707
 20
-130.0723315833547
 30
0.0
 40
0.9999999999999616
 50
354.54244651489228
 51
90.000000000003297
  0
ARC
  5
5A0
  8
DATA
  6
CONTINUOUS
 62
     7
 10
4.8579456908858702
 20
-135.92233158335469
 30
0.0
 40
0.99999999999999
 50
185.45755348510761
 51
270.0
  0
ARC
  5
5A1
  8
DATA
  6
CONTINUOUS
 62
     7
 10
25.639921070364728
 20
-135.92233158335469
 30
0.0
 40
1.0
 50
270.0
 51
354.5424465148958
  0
TEXT
  5
5A2
  8
DATA
 62
     7
 10
13.27930817998184
 20
-147.6288734669007
 30
0.0
 40
2.9319140625000002
  1
5
 41
0.7
 11
13.27930817998184
 21
-144.6969594044007
 31
0.0
 73
     3
  0
CIRCLE
  5
5A3
  8
DATA
  6
CONTINUOUS
 62
     7
 10
76.501023481219818
 20
-132.99733158335471
 30
0.0
 40
1.1750000000000711
  0
POLYLINE
  5
5A4
  8
DATA
  6
CONTINUOUS
 62
     7
 66
     1
 10
0.0
 20
0.0
 30
0.0
 70
     1
  0
VERTEX
  5
E45
  8
DATA
  6
CONTINUOUS
 62
     7
 10
76.501023481219818
 20
-130.29733158335469
 30
0.0
  0
VERTEX
  5
E46
  8
DATA
  6
CONTINUOUS
 62
     7
 10
78.839292071437725
 20
-131.64733158335471
 30
0.0
  0
VERTEX
  5
E47
  8
DATA
  6
CONTINUOUS
 62
     7
 10
78.839292071437725
 20
-134.3473315833547
 30
0.0
  0
VERTEX
  5
E48
  8
DATA
  6
CONTINUOUS
 62
     7
 10
76.501023481219818
 20
-135.6973315833547
 30
0.0
  0
VERTEX
  5
E49
  8
DATA
  6
CONTINUOUS
 62
     7
 10
74.162754891001754
 20
-134.3473315833547
 30
0.0
  0
VERTEX
  5
E4A
  8
DATA
  6
CONTINUOUS
 62
     7
 10
74.162754891001754
 20
-131.64733158335471
 30
0.0
  0
SEQEND
  5
E4B
  8
DATA
  6
CONTINUOUS
 62
     7
  0
CIRCLE
  5
5AD
  8
DATA
  6
CONTINUOUS
 62
     7
 10
44.00102348122001
 20
-132.99733158335471
 30
0.0
 40
1.175000000000068
  0
POLYLINE
  5
5AE
  8
DATA
  6
CONTINUOUS
 62
     7
 66
     1
 10
0.0
 20
0.0
 30
0.0
 70
     1
  0
VERTEX
  5
E4C
  8
DATA
  6
CONTINUOUS
 62
     7
 10
44.00102348122001
 20
-130.29733158335469
 30
0.0
  0
VERTEX
  5
E4D
  8
DATA
  6
CONTINUOUS
 62
     7
 10
46.339292071437931
 20
-131.64733158335471
 30
0.0
  0
VERTEX
  5
E4E
  8
DATA
  6
CONTINUOUS
 62
     7
 10
46.339292071437931
 20
-134.3473315833547
 30
0.0
  0
VERTEX
  5
E4F
  8
DATA
  6
CONTINUOUS
 62
     7
 10
44.00102348122001
 20
-135.6973315833547
 30
0.0
  0
VERTEX
  5
E50
  8
DATA
  6
CONTINUOUS
 62
     7
 10
41.662754891002002
 20
-134.3473315833547
 30
0.0
  0
VERTEX
  5
E51
  8
DATA
  6
CONTINUOUS
 62
     7
 10
41.662754891002002
 20
-131.64733158335471
 30
0.0
  0
SEQEND
  5
E52
  8
DATA
  6
CONTINUOUS
 62
     7
  0
LINE
  5
5B7
  8
DATA
  6
CONTINUOUS
 62
     7
 10
49.299028493433468
 20
-129.0723315833547
 30
0.0
 11
71.198838267816882
 21
-129.0723315833547
 31
0.0
  0
LINE
  5
5B8
  8
DATA
  6
CONTINUOUS
 62
     7
 10
70.639921070364593
 20
-136.92233158335469
 30
0.0
 11
49.857945690885749
 21
-136.92233158335469
 31
0.0
  0
POLYLINE
  5
5B9
  8
DATA
  6
CONTINUOUS
 62
     7
 66
     1
 10
0.0
 20
0.0
 30
0.0
 70
     1
  0
VERTEX
  5
E53
  8
DATA
  6
CONTINUOUS
 62
     7
 10
49.248867209445919
 20
-132.23233158335469
 30
0.0
  0
VERTEX
  5
E54
  8
DATA
  6
CONTINUOUS
 62
     7
 10
50.778867209445878
 20
-132.23233158335469
 30
0.0
  0
VERTEX
  5
E55
  8
DATA
  6
CONTINUOUS
 62
     7
 10
50.778867209445878
 20
-133.76233158335469
 30
0.0
  0
VERTEX
  5
E56
  8
DATA
  6
CONTINUOUS
 62
     7
 10
49.248867209445919
 20
-133.76233158335469
 30
0.0
  0
SEQEND
  5
E57
  8
DATA
  6
CONTINUOUS
 62
     7
  0
POLYLINE
  5
5C0
  8
DATA
  6
CONTINUOUS
 62
     7
 66
     1
 10
0.0
 20
0.0
 30
0.0
 70
     1
  0
VERTEX
  5
E58
  8
DATA
  6
CONTINUOUS
 62
     7
 10
51.248867209445919
 20
-132.23233158335469
 30
0.0
  0
VERTEX
  5
E59
  8
DATA
  6
CONTINUOUS
 62
     7
 10
52.778867209445878
 20
-132.23233158335469
 30
0.0
  0
VERTEX
  5
E5A
  8
DATA
  6
CONTINUOUS
 62
     7
 10
52.778867209445878
 20
-133.76233158335469
 30
0.0
  0
VERTEX
  5
E5B
  8
DATA
  6
CONTINUOUS
 62
     7
 10
51.248867209445919
 20
-133.76233158335469
 30
0.0
  0
SEQEND
  5
E5C
  8
DATA
  6
CONTINUOUS
 62
     7
  0
POLYLINE
  5
5C7
  8
DATA
  6
CONTINUOUS
 62
     7
 66
     1
 10
0.0
 20
0.0
 30
0.0
 70
     1
  0
VERTEX
  5
E5D
  8
DATA
  6
CONTINUOUS
 62
     7
 10
53.248867209445933
 20
-132.23233158335469
 30
0.0
  0
VERTEX
  5
E5E
  8
DATA
  6
CONTINUOUS
 62
     7
 10
54.778867209445892
 20
-132.23233158335469
 30
0.0
  0
VERTEX
  5
E5F
  8
DATA
  6
CONTINUOUS
 62
     7
 10
54.778867209445892
 20
-133.76233158335469
 30
0.0
  0
VERTEX
  5
E60
  8
DATA
  6
CONTINUOUS
 62
     7
 10
53.248867209445933
 20
-133.76233158335469
 30
0.0
  0
SEQEND
  5
E61
  8
DATA
  6
CONTINUOUS
 62
     7
  0
POLYLINE
  5
5CE
  8
DATA
  6
CONTINUOUS
 62
     7
 66
     1
 10
0.0
 20
0.0
 30
0.0
 70
     1
  0
VERTEX
  5
E62
  8
DATA
  6
CONTINUOUS
 62
     7
 10
55.248867209445898
 20
-132.23233158335469
 30
0.0
  0
VERTEX
  5
E63
  8
DATA
  6
CONTINUOUS
 62
     7
 10
56.77886720944587
 20
-132.23233158335469
 30
0.0
  0
VERTEX
  5
E64
  8
DATA
  6
CONTINUOUS
 62
     7
 10
56.77886720944587
 20
-133.76233158335469
 30
0.0
  0
VERTEX
  5
E65
  8
DATA
  6
CONTINUOUS
 62
     7
 10
55.248867209445898
 20
-133.76233158335469
 30
0.0
  0
SEQEND
  5
E66
  8
DATA
  6
CONTINUOUS
 62
     7
  0
POLYLINE
  5
5D5
  8
DATA
  6
CONTINUOUS
 62
     7
 66
     1
 10
0.0
 20
0.0
 30
0.0
 70
     1
  0
VERTEX
  5
E67
  8
DATA
  6
CONTINUOUS
 62
     7
 10
57.248867209445898
 20
-132.23233158335469
 30
0.0
  0
VERTEX
  5
E68
  8
DATA
  6
CONTINUOUS
 62
     7
 10
58.77886720944587
 20
-132.23233158335469
 30
0.0
  0
VERTEX
  5
E69
  8
DATA
  6
CONTINUOUS
 62
     7
 10
58.77886720944587
 20
-133.76233158335469
 30
0.0
  0
VERTEX
  5
E6A
  8
DATA
  6
CONTINUOUS
 62
     7
 10
57.248867209445898
 20
-133.76233158335469
 30
0.0
  0
SEQEND
  5
E6B
  8
DATA
  6
CONTINUOUS
 62
     7
  0
POLYLINE
  5
5DC
  8
DATA
  6
CONTINUOUS
 62
     7
 66
     1
 10
0.0
 20
0.0
 30
0.0
 70
     1
  0
VERTEX
  5
E6C
  8
DATA
  6
CONTINUOUS
 62
     7
 10
59.248867209445898
 20
-132.23233158335469
 30
0.0
  0
VERTEX
  5
E6D
  8
DATA
  6
CONTINUOUS
 62
     7
 10
60.778867209445863
 20
-132.23233158335469
 30
0.0
  0
VERTEX
  5
E6E
  8
DATA
  6
CONTINUOUS
 62
     7
 10
60.778867209445863
 20
-133.76233158335469
 30
0.0
  0
VERTEX
  5
E6F
  8
DATA
  6
CONTINUOUS
 62
     7
 10
59.248867209445898
 20
-133.76233158335469
 30
0.0
  0
SEQEND
  5
E70
  8
DATA
  6
CONTINUOUS
 62
     7
  0
POLYLINE
  5
5E3
  8
DATA
  6
CONTINUOUS
 62
     7
 66
     1
 10
0.0
 20
0.0
 30
0.0
 70
     1
  0
VERTEX
  5
E71
  8
DATA
  6
CONTINUOUS
 62
     7
 10
61.248867209445841
 20
-132.23233158335469
 30
0.0
  0
VERTEX
  5
E72
  8
DATA
  6
CONTINUOUS
 62
     7
 10
62.77886720944575
 20
-132.23233158335469
 30
0.0
  0
VERTEX
  5
E73
  8
DATA
  6
CONTINUOUS
 62
     7
 10
62.77886720944575
 20
-133.76233158335469
 30
0.0
  0
VERTEX
  5
E74
  8
DATA
  6
CONTINUOUS
 62
     7
 10
61.248867209445841
 20
-133.76233158335469
 30
0.0
  0
SEQEND
  5
E75
  8
DATA
  6
CONTINUOUS
 62
     7
  0
POLYLINE
  5
5EA
  8
DATA
  6
CONTINUOUS
 62
     7
 66
     1
 10
0.0
 20
0.0
 30
0.0
 70
     1
  0
VERTEX
  5
E76
  8
DATA
  6
CONTINUOUS
 62
     7
 10
63.248867209445827
 20
-132.23233158335469
 30
0.0
  0
VERTEX
  5
E77
  8
DATA
  6
CONTINUOUS
 62
     7
 10
64.778867209445849
 20
-132.23233158335469
 30
0.0
  0
VERTEX
  5
E78
  8
DATA
  6
CONTINUOUS
 62
     7
 10
64.778867209445849
 20
-133.76233158335469
 30
0.0
  0
VERTEX
  5
E79
  8
DATA
  6
CONTINUOUS
 62
     7
 10
63.248867209445827
 20
-133.76233158335469
 30
0.0
  0
SEQEND
  5
E7A
  8
DATA
  6
CONTINUOUS
 62
     7
  0
POLYLINE
  5
5F1
  8
DATA
  6
CONTINUOUS
 62
     7
 66
     1
 10
0.0
 20
0.0
 30
0.0
 70
     1
  0
VERTEX
  5
E7B
  8
DATA
  6
CONTINUOUS
 62
     7
 10
49.248867209445919
 20
-130.23233158335469
 30
0.0
  0
VERTEX
  5
E7C
  8
DATA
  6
CONTINUOUS
 62
     7
 10
50.778867209445878
 20
-130.23233158335469
 30
0.0
  0
VERTEX
  5
E7D
  8
DATA
  6
CONTINUOUS
 62
     7
 10
50.778867209445878
 20
-131.76233158335469
 30
0.0
  0
VERTEX
  5
E7E
  8
DATA
  6
CONTINUOUS
 62
     7
 10
49.248867209445919
 20
-131.76233158335469
 30
0.0
  0
SEQEND
  5
E7F
  8
DATA
  6
CONTINUOUS
 62
     7
  0
POLYLINE
  5
5F8
  8
DATA
  6
CONTINUOUS
 62
     7
 66
     1
 10
0.0
 20
0.0
 30
0.0
 70
     1
  0
VERTEX
  5
E80
  8
DATA
  6
CONTINUOUS
 62
     7
 10
51.248867209445919
 20
-130.23233158335469
 30
0.0
  0
VERTEX
  5
E81
  8
DATA
  6
CONTINUOUS
 62
     7
 10
52.778867209445878
 20
-130.23233158335469
 30
0.0
  0
VERTEX
  5
E82
  8
DATA
  6
CONTINUOUS
 62
     7
 10
52.778867209445878
 20
-131.76233158335469
 30
0.0
  0
VERTEX
  5
E83
  8
DATA
  6
CONTINUOUS
 62
     7
 10
51.248867209445919
 20
-131.76233158335469
 30
0.0
  0
SEQEND
  5
E84
  8
DATA
  6
CONTINUOUS
 62
     7
  0
POLYLINE
  5
5FF
  8
DATA
  6
CONTINUOUS
 62
     7
 66
     1
 10
0.0
 20
0.0
 30
0.0
 70
     1
  0
VERTEX
  5
E85
  8
DATA
  6
CONTINUOUS
 62
     7
 10
53.248867209445933
 20
-130.23233158335469
 30
0.0
  0
VERTEX
  5
E86
  8
DATA
  6
CONTINUOUS
 62
     7
 10
54.778867209445892
 20
-130.23233158335469
 30
0.0
  0
VERTEX
  5
E87
  8
DATA
  6
CONTINUOUS
 62
     7
 10
54.778867209445892
 20
-131.76233158335469
 30
0.0
  0
VERTEX
  5
E88
  8
DATA
  6
CONTINUOUS
 62
     7
 10
53.248867209445933
 20
-131.76233158335469
 30
0.0
  0
SEQEND
  5
E89
  8
DATA
  6
CONTINUOUS
 62
     7
  0
POLYLINE
  5
606
  8
DATA
  6
CONTINUOUS
 62
     7
 66
     1
 10
0.0
 20
0.0
 30
0.0
 70
     1
  0
VERTEX
  5
E8A
  8
DATA
  6
CONTINUOUS
 62
     7
 10
55.248867209445898
 20
-130.23233158335469
 30
0.0
  0
VERTEX
  5
E8B
  8
DATA
  6
CONTINUOUS
 62
     7
 10
56.77886720944587
 20
-130.23233158335469
 30
0.0
  0
VERTEX
  5
E8C
  8
DATA
  6
CONTINUOUS
 62
     7
 10
56.77886720944587
 20
-131.76233158335469
 30
0.0
  0
VERTEX
  5
E8D
  8
DATA
  6
CONTINUOUS
 62
     7
 10
55.248867209445898
 20
-131.76233158335469
 30
0.0
  0
SEQEND
  5
E8E
  8
DATA
  6
CONTINUOUS
 62
     7
  0
POLYLINE
  5
60D
  8
DATA
  6
CONTINUOUS
 62
     7
 66
     1
 10
0.0
 20
0.0
 30
0.0
 70
     1
  0
VERTEX
  5
E8F
  8
DATA
  6
CONTINUOUS
 62
     7
 10
57.248867209445898
 20
-130.23233158335469
 30
0.0
  0
VERTEX
  5
E90
  8
DATA
  6
CONTINUOUS
 62
     7
 10
58.77886720944587
 20
-130.23233158335469
 30
0.0
  0
VERTEX
  5
E91
  8
DATA
  6
CONTINUOUS
 62
     7
 10
58.77886720944587
 20
-131.76233158335469
 30
0.0
  0
VERTEX
  5
E92
  8
DATA
  6
CONTINUOUS
 62
     7
 10
57.248867209445898
 20
-131.76233158335469
 30
0.0
  0
SEQEND
  5
E93
  8
DATA
  6
CONTINUOUS
 62
     7
  0
POLYLINE
  5
614
  8
DATA
  6
CONTINUOUS
 62
     7
 66
     1
 10
0.0
 20
0.0
 30
0.0
 70
     1
  0
VERTEX
  5
E94
  8
DATA
  6
CONTINUOUS
 62
     7
 10
59.248867209445898
 20
-130.23233158335469
 30
0.0
  0
VERTEX
  5
E95
  8
DATA
  6
CONTINUOUS
 62
     7
 10
60.778867209445863
 20
-130.23233158335469
 30
0.0
  0
VERTEX
  5
E96
  8
DATA
  6
CONTINUOUS
 62
     7
 10
60.778867209445863
 20
-131.76233158335469
 30
0.0
  0
VERTEX
  5
E97
  8
DATA
  6
CONTINUOUS
 62
     7
 10
59.248867209445898
 20
-131.76233158335469
 30
0.0
  0
SEQEND
  5
E98
  8
DATA
  6
CONTINUOUS
 62
     7
  0
POLYLINE
  5
61B
  8
DATA
  6
CONTINUOUS
 62
     7
 66
     1
 10
0.0
 20
0.0
 30
0.0
 70
     1
  0
VERTEX
  5
E99
  8
DATA
  6
CONTINUOUS
 62
     7
 10
61.248867209445841
 20
-130.23233158335469
 30
0.0
  0
VERTEX
  5
E9A
  8
DATA
  6
CONTINUOUS
 62
     7
 10
62.77886720944575
 20
-130.23233158335469
 30
0.0
  0
VERTEX
  5
E9B
  8
DATA
  6
CONTINUOUS
 62
     7
 10
62.77886720944575
 20
-131.76233158335469
 30
0.0
  0
VERTEX
  5
E9C
  8
DATA
  6
CONTINUOUS
 62
     7
 10
61.248867209445841
 20
-131.76233158335469
 30
0.0
  0
SEQEND
  5
E9D
  8
DATA
  6
CONTINUOUS
 62
     7
  0
POLYLINE
  5
622
  8
DATA
  6
CONTINUOUS
 62
     7
 66
     1
 10
0.0
 20
0.0
 30
0.0
 70
     1
  0
VERTEX
  5
E9E
  8
DATA
  6
CONTINUOUS
 62
     7
 10
63.248867209445827
 20
-130.23233158335469
 30
0.0
  0
VERTEX
  5
E9F
  8
DATA
  6
CONTINUOUS
 62
     7
 10
64.778867209445849
 20
-130.23233158335469
 30
0.0
  0
VERTEX
  5
EA0
  8
DATA
  6
CONTINUOUS
 62
     7
 10
64.778867209445849
 20
-131.76233158335469
 30
0.0
  0
VERTEX
  5
EA1
  8
DATA
  6
CONTINUOUS
 62
     7
 10
63.248867209445827
 20
-131.76233158335469
 30
0.0
  0
SEQEND
  5
EA2
  8
DATA
  6
CONTINUOUS
 62
     7
  0
POLYLINE
  5
629
  8
DATA
  6
CONTINUOUS
 62
     7
 66
     1
 10
0.0
 20
0.0
 30
0.0
 70
     1
  0
VERTEX
  5
EA3
  8
DATA
  6
CONTINUOUS
 62
     7
 10
49.248867209445919
 20
-134.23233158335469
 30
0.0
  0
VERTEX
  5
EA4
  8
DATA
  6
CONTINUOUS
 62
     7
 10
50.778867209445878
 20
-134.23233158335469
 30
0.0
  0
VERTEX
  5
EA5
  8
DATA
  6
CONTINUOUS
 62
     7
 10
50.778867209445878
 20
-135.76233158335469
 30
0.0
  0
VERTEX
  5
EA6
  8
DATA
  6
CONTINUOUS
 62
     7
 10
49.248867209445919
 20
-135.76233158335469
 30
0.0
  0
SEQEND
  5
EA7
  8
DATA
  6
CONTINUOUS
 62
     7
  0
POLYLINE
  5
630
  8
DATA
  6
CONTINUOUS
 62
     7
 66
     1
 10
0.0
 20
0.0
 30
0.0
 70
     1
  0
VERTEX
  5
EA8
  8
DATA
  6
CONTINUOUS
 62
     7
 10
51.248867209445919
 20
-134.23233158335469
 30
0.0
  0
VERTEX
  5
EA9
  8
DATA
  6
CONTINUOUS
 62
     7
 10
52.778867209445878
 20
-134.23233158335469
 30
0.0
  0
VERTEX
  5
EAA
  8
DATA
  6
CONTINUOUS
 62
     7
 10
52.778867209445878
 20
-135.76233158335469
 30
0.0
  0
VERTEX
  5
EAB
  8
DATA
  6
CONTINUOUS
 62
     7
 10
51.248867209445919
 20
-135.76233158335469
 30
0.0
  0
SEQEND
  5
EAC
  8
DATA
  6
CONTINUOUS
 62
     7
  0
POLYLINE
  5
637
  8
DATA
  6
CONTINUOUS
 62
     7
 66
     1
 10
0.0
 20
0.0
 30
0.0
 70
     1
  0
VERTEX
  5
EAD
  8
DATA
  6
CONTINUOUS
 62
     7
 10
53.248867209445933
 20
-134.23233158335469
 30
0.0
  0
VERTEX
  5
EAE
  8
DATA
  6
CONTINUOUS
 62
     7
 10
54.778867209445892
 20
-134.23233158335469
 30
0.0
  0
VERTEX
  5
EAF
  8
DATA
  6
CONTINUOUS
 62
     7
 10
54.778867209445892
 20
-135.76233158335469
 30
0.0
  0
VERTEX
  5
EB0
  8
DATA
  6
CONTINUOUS
 62
     7
 10
53.248867209445933
 20
-135.76233158335469
 30
0.0
  0
SEQEND
  5
EB1
  8
DATA
  6
CONTINUOUS
 62
     7
  0
POLYLINE
  5
63E
  8
DATA
  6
CONTINUOUS
 62
     7
 66
     1
 10
0.0
 20
0.0
 30
0.0
 70
     1
  0
VERTEX
  5
EB2
  8
DATA
  6
CONTINUOUS
 62
     7
 10
55.248867209445898
 20
-134.23233158335469
 30
0.0
  0
VERTEX
  5
EB3
  8
DATA
  6
CONTINUOUS
 62
     7
 10
56.77886720944587
 20
-134.23233158335469
 30
0.0
  0
VERTEX
  5
EB4
  8
DATA
  6
CONTINUOUS
 62
     7
 10
56.77886720944587
 20
-135.76233158335469
 30
0.0
  0
VERTEX
  5
EB5
  8
DATA
  6
CONTINUOUS
 62
     7
 10
55.248867209445898
 20
-135.76233158335469
 30
0.0
  0
SEQEND
  5
EB6
  8
DATA
  6
CONTINUOUS
 62
     7
  0
POLYLINE
  5
645
  8
DATA
  6
CONTINUOUS
 62
     7
 66
     1
 10
0.0
 20
0.0
 30
0.0
 70
     1
  0
VERTEX
  5
EB7
  8
DATA
  6
CONTINUOUS
 62
     7
 10
57.248867209445898
 20
-134.23233158335469
 30
0.0
  0
VERTEX
  5
EB8
  8
DATA
  6
CONTINUOUS
 62
     7
 10
58.77886720944587
 20
-134.23233158335469
 30
0.0
  0
VERTEX
  5
EB9
  8
DATA
  6
CONTINUOUS
 62
     7
 10
58.77886720944587
 20
-135.76233158335469
 30
0.0
  0
VERTEX
  5
EBA
  8
DATA
  6
CONTINUOUS
 62
     7
 10
57.248867209445898
 20
-135.76233158335469
 30
0.0
  0
SEQEND
  5
EBB
  8
DATA
  6
CONTINUOUS
 62
     7
  0
POLYLINE
  5
64C
  8
DATA
  6
CONTINUOUS
 62
     7
 66
     1
 10
0.0
 20
0.0
 30
0.0
 70
     1
  0
VERTEX
  5
EBC
  8
DATA
  6
CONTINUOUS
 62
     7
 10
59.248867209445898
 20
-134.23233158335469
 30
0.0
  0
VERTEX
  5
EBD
  8
DATA
  6
CONTINUOUS
 62
     7
 10
60.778867209445863
 20
-134.23233158335469
 30
0.0
  0
VERTEX
  5
EBE
  8
DATA
  6
CONTINUOUS
 62
     7
 10
60.778867209445863
 20
-135.76233158335469
 30
0.0
  0
VERTEX
  5
EBF
  8
DATA
  6
CONTINUOUS
 62
     7
 10
59.248867209445898
 20
-135.76233158335469
 30
0.0
  0
SEQEND
  5
EC0
  8
DATA
  6
CONTINUOUS
 62
     7
  0
POLYLINE
  5
653
  8
DATA
  6
CONTINUOUS
 62
     7
 66
     1
 10
0.0
 20
0.0
 30
0.0
 70
     1
  0
VERTEX
  5
EC1
  8
DATA
  6
CONTINUOUS
 62
     7
 10
61.248867209445841
 20
-134.23233158335469
 30
0.0
  0
VERTEX
  5
EC2
  8
DATA
  6
CONTINUOUS
 62
     7
 10
62.77886720944575
 20
-134.23233158335469
 30
0.0
  0
VERTEX
  5
EC3
  8
DATA
  6
CONTINUOUS
 62
     7
 10
62.77886720944575
 20
-135.76233158335469
 30
0.0
  0
VERTEX
  5
EC4
  8
DATA
  6
CONTINUOUS
 62
     7
 10
61.248867209445841
 20
-135.76233158335469
 30
0.0
  0
SEQEND
  5
EC5
  8
DATA
  6
CONTINUOUS
 62
     7
  0
POLYLINE
  5
65A
  8
DATA
  6
CONTINUOUS
 62
     7
 66
     1
 10
0.0
 20
0.0
 30
0.0
 70
     1
  0
VERTEX
  5
EC6
  8
DATA
  6
CONTINUOUS
 62
     7
 10
63.248867209445827
 20
-134.23233158335469
 30
0.0
  0
VERTEX
  5
EC7
  8
DATA
  6
CONTINUOUS
 62
     7
 10
64.778867209445849
 20
-134.23233158335469
 30
0.0
  0
VERTEX
  5
EC8
  8
DATA
  6
CONTINUOUS
 62
     7
 10
64.778867209445849
 20
-135.76233158335469
 30
0.0
  0
VERTEX
  5
EC9
  8
DATA
  6
CONTINUOUS
 62
     7
 10
63.248867209445827
 20
-135.76233158335469
 30
0.0
  0
SEQEND
  5
ECA
  8
DATA
  6
CONTINUOUS
 62
     7
  0
POLYLINE
  5
661
  8
DATA
  6
CONTINUOUS
 62
     7
 66
     1
 10
0.0
 20
0.0
 30
0.0
  0
VERTEX
  5
ECB
  8
DATA
  6
CONTINUOUS
 62
     7
 10
68.798933380625286
 20
-132.5973315833547
 30
0.0
  0
VERTEX
  5
ECC
  8
DATA
  6
CONTINUOUS
 62
     7
 10
70.898933380625223
 20
-132.5973315833547
 30
0.0
  0
VERTEX
  5
ECD
  8
DATA
  6
CONTINUOUS
 62
     7
 10
70.898933380625223
 20
-133.39733158335471
 30
0.0
  0
VERTEX
  5
ECE
  8
DATA
  6
CONTINUOUS
 62
     7
 10
68.798933380625286
 20
-133.39733158335471
 30
0.0
  0
SEQEND
  5
ECF
  8
DATA
  6
CONTINUOUS
 62
     7
  0
POLYLINE
  5
668
  8
DATA
  6
CONTINUOUS
 62
     7
 66
     1
 10
0.0
 20
0.0
 30
0.0
  0
VERTEX
  5
ED0
  8
DATA
  6
CONTINUOUS
 62
     7
 10
67.998933380625232
 20
-133.39733158335471
 30
0.0
  0
VERTEX
  5
ED1
  8
DATA
  6
CONTINUOUS
 62
     7
 10
65.89893338062528
 20
-133.39733158335471
 30
0.0
  0
VERTEX
  5
ED2
  8
DATA
  6
CONTINUOUS
 62
     7
 10
65.89893338062528
 20
-132.5973315833547
 30
0.0
  0
VERTEX
  5
ED3
  8
DATA
  6
CONTINUOUS
 62
     7
 10
67.998933380625232
 20
-132.5973315833547
 30
0.0
  0
SEQEND
  5
ED4
  8
DATA
  6
CONTINUOUS
 62
     7
  0
POLYLINE
  5
66F
  8
DATA
  6
CONTINUOUS
 62
     7
 66
     1
 10
0.0
 20
0.0
 30
0.0
  0
VERTEX
  5
ED5
  8
DATA
  6
CONTINUOUS
 62
     7
 10
68.798933380625286
 20
-133.39733158335471
 30
0.0
  0
VERTEX
  5
ED6
  8
DATA
  6
CONTINUOUS
 62
     7
 10
68.798933380625286
 20
-135.49733158335471
 30
0.0
  0
VERTEX
  5
ED7
  8
DATA
  6
CONTINUOUS
 62
     7
 10
67.998933380625232
 20
-135.49733158335471
 30
0.0
  0
VERTEX
  5
ED8
  8
DATA
  6
CONTINUOUS
 62
     7
 10
67.998933380625232
 20
-133.39733158335471
 30
0.0
  0
SEQEND
  5
ED9
  8
DATA
  6
CONTINUOUS
 62
     7
  0
POLYLINE
  5
676
  8
DATA
  6
CONTINUOUS
 62
     7
 66
     1
 10
0.0
 20
0.0
 30
0.0
  0
VERTEX
  5
EDA
  8
DATA
  6
CONTINUOUS
 62
     7
 10
67.998933380625232
 20
-132.5973315833547
 30
0.0
  0
VERTEX
  5
EDB
  8
DATA
  6
CONTINUOUS
 62
     7
 10
67.998933380625232
 20
-130.49733158335471
 30
0.0
  0
VERTEX
  5
EDC
  8
DATA
  6
CONTINUOUS
 62
     7
 10
68.798933380625286
 20
-130.49733158335471
 30
0.0
  0
VERTEX
  5
EDD
  8
DATA
  6
CONTINUOUS
 62
     7
 10
68.798933380625286
 20
-132.5973315833547
 30
0.0
  0
SEQEND
  5
EDE
  8
DATA
  6
CONTINUOUS
 62
     7
  0
POLYLINE
  5
67D
  8
DATA
  6
CONTINUOUS
 62
     7
 66
     1
 10
0.0
 20
0.0
 30
0.0
 70
     1
  0
VERTEX
  5
EDF
  8
DATA
  6
CONTINUOUS
 62
     7
 10
66.538648950153544
 20
-131.23790377270481
 30
0.0
  0
VERTEX
  5
EE0
  8
DATA
  6
CONTINUOUS
 62
     7
 10
67.538648950153544
 20
-131.23790377270481
 30
0.0
  0
VERTEX
  5
EE1
  8
DATA
  6
CONTINUOUS
 62
     7
 10
67.538648950153544
 20
-132.23790377270481
 30
0.0
  0
VERTEX
  5
EE2
  8
DATA
  6
CONTINUOUS
 62
     7
 10
66.538648950153544
 20
-132.23790377270481
 30
0.0
  0
SEQEND
  5
EE3
  8
DATA
  6
CONTINUOUS
 62
     7
  0
POLYLINE
  5
684
  8
DATA
  6
CONTINUOUS
 62
     7
 66
     1
 10
0.0
 20
0.0
 30
0.0
 70
     1
  0
VERTEX
  5
EE4
  8
DATA
  6
CONTINUOUS
 62
     7
 10
69.25921781109696
 20
-131.23790377270481
 30
0.0
  0
VERTEX
  5
EE5
  8
DATA
  6
CONTINUOUS
 62
     7
 10
70.259217811096931
 20
-131.23790377270481
 30
0.0
  0
VERTEX
  5
EE6
  8
DATA
  6
CONTINUOUS
 62
     7
 10
70.259217811096931
 20
-132.23790377270481
 30
0.0
  0
VERTEX
  5
EE7
  8
DATA
  6
CONTINUOUS
 62
     7
 10
69.25921781109696
 20
-132.23790377270481
 30
0.0
  0
SEQEND
  5
EE8
  8
DATA
  6
CONTINUOUS
 62
     7
  0
POLYLINE
  5
68B
  8
DATA
  6
CONTINUOUS
 62
     7
 66
     1
 10
0.0
 20
0.0
 30
0.0
 70
     1
  0
VERTEX
  5
EE9
  8
DATA
  6
CONTINUOUS
 62
     7
 10
66.538648950153544
 20
-133.7567593940046
 30
0.0
  0
VERTEX
  5
EEA
  8
DATA
  6
CONTINUOUS
 62
     7
 10
67.538648950153544
 20
-133.7567593940046
 30
0.0
  0
VERTEX
  5
EEB
  8
DATA
  6
CONTINUOUS
 62
     7
 10
67.538648950153544
 20
-134.7567593940046
 30
0.0
  0
VERTEX
  5
EEC
  8
DATA
  6
CONTINUOUS
 62
     7
 10
66.538648950153544
 20
-134.7567593940046
 30
0.0
  0
SEQEND
  5
EED
  8
DATA
  6
CONTINUOUS
 62
     7
  0
POLYLINE
  5
692
  8
DATA
  6
CONTINUOUS
 62
     7
 66
     1
 10
0.0
 20
0.0
 30
0.0
 70
     1
  0
VERTEX
  5
EEE
  8
DATA
  6
CONTINUOUS
 62
     7
 10
69.25921781109696
 20
-133.7567593940046
 30
0.0
  0
VERTEX
  5
EEF
  8
DATA
  6
CONTINUOUS
 62
     7
 10
70.259217811096931
 20
-133.7567593940046
 30
0.0
  0
VERTEX
  5
EF0
  8
DATA
  6
CONTINUOUS
 62
     7
 10
70.259217811096931
 20
-134.7567593940046
 30
0.0
  0
VERTEX
  5
EF1
  8
DATA
  6
CONTINUOUS
 62
     7
 10
69.25921781109696
 20
-134.7567593940046
 30
0.0
  0
SEQEND
  5
EF2
  8
DATA
  6
CONTINUOUS
 62
     7
  0
LINE
  5
699
  8
DATA
  6
CONTINUOUS
 62
     7
 10
48.303561562678127
 20
-130.1674398888409
 30
0.0
 11
48.862478760130386
 21
-136.0174398888409
 31
0.0
  0
LINE
  5
69A
  8
DATA
  6
CONTINUOUS
 62
     7
 10
72.194305198572266
 20
-130.1674398888409
 30
0.0
 11
71.63538800112002
 21
-136.0174398888409
 31
0.0
  0
ARC
  5
69B
  8
DATA
  6
CONTINUOUS
 62
     7
 10
49.299028493433468
 20
-130.0723315833547
 30
0.0
 40
1.0
 50
90.0
 51
185.4575534851077
  0
ARC
  5
69C
  8
DATA
  6
CONTINUOUS
 62
     7
 10
71.198838267816939
 20
-130.0723315833547
 30
0.0
 40
0.9999999999999687
 50
354.54244651489228
 51
90.000000000003226
  0
ARC
  5
69D
  8
DATA
  6
CONTINUOUS
 62
     7
 10
49.857945690885749
 20
-135.92233158335469
 30
0.0
 40
0.9999999999999754
 50
185.45755348510761
 51
270.0
  0
ARC
  5
69E
  8
DATA
  6
CONTINUOUS
 62
     7
 10
70.639921070364593
 20
-135.92233158335469
 30
0.0
 40
1.0
 50
270.0
 51
354.5424465148958
  0
TEXT
  5
69F
  8
DATA
 62
     7
 10
58.27930817998169
 20
-147.6288734669007
 30
0.0
 40
2.9319140625000002
  1
6
 41
0.7
 11
58.27930817998169
 21
-144.6969594044007
 31
0.0
 73
     3
  0
CIRCLE
  5
6A0
  8
DATA
  6
CONTINUOUS
 62
     7
 10
121.5010234812198
 20
-132.99733158335471
 30
0.0
 40
1.175000000000068
  0
POLYLINE
  5
6A1
  8
DATA
  6
CONTINUOUS
 62
     7
 66
     1
 10
0.0
 20
0.0
 30
0.0
 70
     1
  0
VERTEX
  5
EF3
  8
DATA
  6
CONTINUOUS
 62
     7
 10
121.5010234812198
 20
-130.29733158335469
 30
0.0
  0
VERTEX
  5
EF4
  8
DATA
  6
CONTINUOUS
 62
     7
 10
123.8392920714377
 20
-131.64733158335471
 30
0.0
  0
VERTEX
  5
EF5
  8
DATA
  6
CONTINUOUS
 62
     7
 10
123.8392920714377
 20
-134.3473315833547
 30
0.0
  0
VERTEX
  5
EF6
  8
DATA
  6
CONTINUOUS
 62
     7
 10
121.5010234812198
 20
-135.6973315833547
 30
0.0
  0
VERTEX
  5
EF7
  8
DATA
  6
CONTINUOUS
 62
     7
 10
119.1627548910018
 20
-134.3473315833547
 30
0.0
  0
VERTEX
  5
EF8
  8
DATA
  6
CONTINUOUS
 62
     7
 10
119.1627548910018
 20
-131.64733158335471
 30
0.0
  0
SEQEND
  5
EF9
  8
DATA
  6
CONTINUOUS
 62
     7
  0
CIRCLE
  5
6AA
  8
DATA
  6
CONTINUOUS
 62
     7
 10
89.001023481219946
 20
-132.99733158335471
 30
0.0
 40
1.1750000000000711
  0
POLYLINE
  5
6AB
  8
DATA
  6
CONTINUOUS
 62
     7
 66
     1
 10
0.0
 20
0.0
 30
0.0
 70
     1
  0
VERTEX
  5
EFA
  8
DATA
  6
CONTINUOUS
 62
     7
 10
89.001023481219946
 20
-130.29733158335469
 30
0.0
  0
VERTEX
  5
EFB
  8
DATA
  6
CONTINUOUS
 62
     7
 10
91.339292071437853
 20
-131.64733158335471
 30
0.0
  0
VERTEX
  5
EFC
  8
DATA
  6
CONTINUOUS
 62
     7
 10
91.339292071437853
 20
-134.3473315833547
 30
0.0
  0
VERTEX
  5
EFD
  8
DATA
  6
CONTINUOUS
 62
     7
 10
89.001023481219946
 20
-135.6973315833547
 30
0.0
  0
VERTEX
  5
EFE
  8
DATA
  6
CONTINUOUS
 62
     7
 10
86.662754891001924
 20
-134.3473315833547
 30
0.0
  0
VERTEX
  5
EFF
  8
DATA
  6
CONTINUOUS
 62
     7
 10
86.662754891001924
 20
-131.64733158335471
 30
0.0
  0
SEQEND
  5
F00
  8
DATA
  6
CONTINUOUS
 62
     7
  0
LINE
  5
6B4
  8
DATA
  6
CONTINUOUS
 62
     7
 10
94.29902849343344
 20
-129.0723315833547
 30
0.0
 11
116.1988382678168
 21
-129.0723315833547
 31
0.0
  0
LINE
  5
6B5
  8
DATA
  6
CONTINUOUS
 62
     7
 10
115.63992107036459
 20
-136.92233158335469
 30
0.0
 11
94.857945690885714
 21
-136.92233158335469
 31
0.0
  0
POLYLINE
  5
6B6
  8
DATA
  6
CONTINUOUS
 62
     7
 66
     1
 10
0.0
 20
0.0
 30
0.0
 70
     1
  0
VERTEX
  5
F01
  8
DATA
  6
CONTINUOUS
 62
     7
 10
94.248867209445876
 20
-132.23233158335469
 30
0.0
  0
VERTEX
  5
F02
  8
DATA
  6
CONTINUOUS
 62
     7
 10
95.778867209445863
 20
-132.23233158335469
 30
0.0
  0
VERTEX
  5
F03
  8
DATA
  6
CONTINUOUS
 62
     7
 10
95.778867209445863
 20
-133.76233158335469
 30
0.0
  0
VERTEX
  5
F04
  8
DATA
  6
CONTINUOUS
 62
     7
 10
94.248867209445876
 20
-133.76233158335469
 30
0.0
  0
SEQEND
  5
F05
  8
DATA
  6
CONTINUOUS
 62
     7
  0
POLYLINE
  5
6BD
  8
DATA
  6
CONTINUOUS
 62
     7
 66
     1
 10
0.0
 20
0.0
 30
0.0
 70
     1
  0
VERTEX
  5
F06
  8
DATA
  6
CONTINUOUS
 62
     7
 10
96.248867209445876
 20
-132.23233158335469
 30
0.0
  0
VERTEX
  5
F07
  8
DATA
  6
CONTINUOUS
 62
     7
 10
97.778867209445863
 20
-132.23233158335469
 30
0.0
  0
VERTEX
  5
F08
  8
DATA
  6
CONTINUOUS
 62
     7
 10
97.778867209445863
 20
-133.76233158335469
 30
0.0
  0
VERTEX
  5
F09
  8
DATA
  6
CONTINUOUS
 62
     7
 10
96.248867209445876
 20
-133.76233158335469
 30
0.0
  0
SEQEND
  5
F0A
  8
DATA
  6
CONTINUOUS
 62
     7
  0
POLYLINE
  5
6C4
  8
DATA
  6
CONTINUOUS
 62
     7
 66
     1
 10
0.0
 20
0.0
 30
0.0
 70
     1
  0
VERTEX
  5
F0B
  8
DATA
  6
CONTINUOUS
 62
     7
 10
98.248867209445876
 20
-132.23233158335469
 30
0.0
  0
VERTEX
  5
F0C
  8
DATA
  6
CONTINUOUS
 62
     7
 10
99.778867209445863
 20
-132.23233158335469
 30
0.0
  0
VERTEX
  5
F0D
  8
DATA
  6
CONTINUOUS
 62
     7
 10
99.778867209445863
 20
-133.76233158335469
 30
0.0
  0
VERTEX
  5
F0E
  8
DATA
  6
CONTINUOUS
 62
     7
 10
98.248867209445876
 20
-133.76233158335469
 30
0.0
  0
SEQEND
  5
F0F
  8
DATA
  6
CONTINUOUS
 62
     7
  0
POLYLINE
  5
6CB
  8
DATA
  6
CONTINUOUS
 62
     7
 66
     1
 10
0.0
 20
0.0
 30
0.0
 70
     1
  0
VERTEX
  5
F10
  8
DATA
  6
CONTINUOUS
 62
     7
 10
100.2488672094459
 20
-132.23233158335469
 30
0.0
  0
VERTEX
  5
F11
  8
DATA
  6
CONTINUOUS
 62
     7
 10
101.77886720944591
 20
-132.23233158335469
 30
0.0
  0
VERTEX
  5
F12
  8
DATA
  6
CONTINUOUS
 62
     7
 10
101.77886720944591
 20
-133.76233158335469
 30
0.0
  0
VERTEX
  5
F13
  8
DATA
  6
CONTINUOUS
 62
     7
 10
100.2488672094459
 20
-133.76233158335469
 30
0.0
  0
SEQEND
  5
F14
  8
DATA
  6
CONTINUOUS
 62
     7
  0
POLYLINE
  5
6D2
  8
DATA
  6
CONTINUOUS
 62
     7
 66
     1
 10
0.0
 20
0.0
 30
0.0
 70
     1
  0
VERTEX
  5
F15
  8
DATA
  6
CONTINUOUS
 62
     7
 10
102.2488672094459
 20
-132.23233158335469
 30
0.0
  0
VERTEX
  5
F16
  8
DATA
  6
CONTINUOUS
 62
     7
 10
103.77886720944581
 20
-132.23233158335469
 30
0.0
  0
VERTEX
  5
F17
  8
DATA
  6
CONTINUOUS
 62
     7
 10
103.77886720944581
 20
-133.76233158335469
 30
0.0
  0
VERTEX
  5
F18
  8
DATA
  6
CONTINUOUS
 62
     7
 10
102.2488672094459
 20
-133.76233158335469
 30
0.0
  0
SEQEND
  5
F19
  8
DATA
  6
CONTINUOUS
 62
     7
  0
POLYLINE
  5
6D9
  8
DATA
  6
CONTINUOUS
 62
     7
 66
     1
 10
0.0
 20
0.0
 30
0.0
 70
     1
  0
VERTEX
  5
F1A
  8
DATA
  6
CONTINUOUS
 62
     7
 10
104.2488672094459
 20
-132.23233158335469
 30
0.0
  0
VERTEX
  5
F1B
  8
DATA
  6
CONTINUOUS
 62
     7
 10
105.77886720944581
 20
-132.23233158335469
 30
0.0
  0
VERTEX
  5
F1C
  8
DATA
  6
CONTINUOUS
 62
     7
 10
105.77886720944581
 20
-133.76233158335469
 30
0.0
  0
VERTEX
  5
F1D
  8
DATA
  6
CONTINUOUS
 62
     7
 10
104.2488672094459
 20
-133.76233158335469
 30
0.0
  0
SEQEND
  5
F1E
  8
DATA
  6
CONTINUOUS
 62
     7
  0
POLYLINE
  5
6E0
  8
DATA
  6
CONTINUOUS
 62
     7
 66
     1
 10
0.0
 20
0.0
 30
0.0
 70
     1
  0
VERTEX
  5
F1F
  8
DATA
  6
CONTINUOUS
 62
     7
 10
106.24886720944581
 20
-132.23233158335469
 30
0.0
  0
VERTEX
  5
F20
  8
DATA
  6
CONTINUOUS
 62
     7
 10
107.77886720944571
 20
-132.23233158335469
 30
0.0
  0
VERTEX
  5
F21
  8
DATA
  6
CONTINUOUS
 62
     7
 10
107.77886720944571
 20
-133.76233158335469
 30
0.0
  0
VERTEX
  5
F22
  8
DATA
  6
CONTINUOUS
 62
     7
 10
106.24886720944581
 20
-133.76233158335469
 30
0.0
  0
SEQEND
  5
F23
  8
DATA
  6
CONTINUOUS
 62
     7
  0
POLYLINE
  5
6E7
  8
DATA
  6
CONTINUOUS
 62
     7
 66
     1
 10
0.0
 20
0.0
 30
0.0
 70
     1
  0
VERTEX
  5
F24
  8
DATA
  6
CONTINUOUS
 62
     7
 10
108.24886720944581
 20
-132.23233158335469
 30
0.0
  0
VERTEX
  5
F25
  8
DATA
  6
CONTINUOUS
 62
     7
 10
109.77886720944581
 20
-132.23233158335469
 30
0.0
  0
VERTEX
  5
F26
  8
DATA
  6
CONTINUOUS
 62
     7
 10
109.77886720944581
 20
-133.76233158335469
 30
0.0
  0
VERTEX
  5
F27
  8
DATA
  6
CONTINUOUS
 62
     7
 10
108.24886720944581
 20
-133.76233158335469
 30
0.0
  0
SEQEND
  5
F28
  8
DATA
  6
CONTINUOUS
 62
     7
  0
POLYLINE
  5
6EE
  8
DATA
  6
CONTINUOUS
 62
     7
 66
     1
 10
0.0
 20
0.0
 30
0.0
 70
     1
  0
VERTEX
  5
F29
  8
DATA
  6
CONTINUOUS
 62
     7
 10
94.248867209445876
 20
-130.23233158335469
 30
0.0
  0
VERTEX
  5
F2A
  8
DATA
  6
CONTINUOUS
 62
     7
 10
95.778867209445863
 20
-130.23233158335469
 30
0.0
  0
VERTEX
  5
F2B
  8
DATA
  6
CONTINUOUS
 62
     7
 10
95.778867209445863
 20
-131.76233158335469
 30
0.0
  0
VERTEX
  5
F2C
  8
DATA
  6
CONTINUOUS
 62
     7
 10
94.248867209445876
 20
-131.76233158335469
 30
0.0
  0
SEQEND
  5
F2D
  8
DATA
  6
CONTINUOUS
 62
     7
  0
POLYLINE
  5
6F5
  8
DATA
  6
CONTINUOUS
 62
     7
 66
     1
 10
0.0
 20
0.0
 30
0.0
 70
     1
  0
VERTEX
  5
F2E
  8
DATA
  6
CONTINUOUS
 62
     7
 10
96.248867209445876
 20
-130.23233158335469
 30
0.0
  0
VERTEX
  5
F2F
  8
DATA
  6
CONTINUOUS
 62
     7
 10
97.778867209445863
 20
-130.23233158335469
 30
0.0
  0
VERTEX
  5
F30
  8
DATA
  6
CONTINUOUS
 62
     7
 10
97.778867209445863
 20
-131.76233158335469
 30
0.0
  0
VERTEX
  5
F31
  8
DATA
  6
CONTINUOUS
 62
     7
 10
96.248867209445876
 20
-131.76233158335469
 30
0.0
  0
SEQEND
  5
F32
  8
DATA
  6
CONTINUOUS
 62
     7
  0
POLYLINE
  5
6FC
  8
DATA
  6
CONTINUOUS
 62
     7
 66
     1
 10
0.0
 20
0.0
 30
0.0
 70
     1
  0
VERTEX
  5
F33
  8
DATA
  6
CONTINUOUS
 62
     7
 10
98.248867209445876
 20
-130.23233158335469
 30
0.0
  0
VERTEX
  5
F34
  8
DATA
  6
CONTINUOUS
 62
     7
 10
99.778867209445863
 20
-130.23233158335469
 30
0.0
  0
VERTEX
  5
F35
  8
DATA
  6
CONTINUOUS
 62
     7
 10
99.778867209445863
 20
-131.76233158335469
 30
0.0
  0
VERTEX
  5
F36
  8
DATA
  6
CONTINUOUS
 62
     7
 10
98.248867209445876
 20
-131.76233158335469
 30
0.0
  0
SEQEND
  5
F37
  8
DATA
  6
CONTINUOUS
 62
     7
  0
POLYLINE
  5
703
  8
DATA
  6
CONTINUOUS
 62
     7
 66
     1
 10
0.0
 20
0.0
 30
0.0
 70
     1
  0
VERTEX
  5
F38
  8
DATA
  6
CONTINUOUS
 62
     7
 10
100.2488672094459
 20
-130.23233158335469
 30
0.0
  0
VERTEX
  5
F39
  8
DATA
  6
CONTINUOUS
 62
     7
 10
101.77886720944591
 20
-130.23233158335469
 30
0.0
  0
VERTEX
  5
F3A
  8
DATA
  6
CONTINUOUS
 62
     7
 10
101.77886720944591
 20
-131.76233158335469
 30
0.0
  0
VERTEX
  5
F3B
  8
DATA
  6
CONTINUOUS
 62
     7
 10
100.2488672094459
 20
-131.76233158335469
 30
0.0
  0
SEQEND
  5
F3C
  8
DATA
  6
CONTINUOUS
 62
     7
  0
POLYLINE
  5
70A
  8
DATA
  6
CONTINUOUS
 62
     7
 66
     1
 10
0.0
 20
0.0
 30
0.0
 70
     1
  0
VERTEX
  5
F3D
  8
DATA
  6
CONTINUOUS
 62
     7
 10
102.2488672094459
 20
-130.23233158335469
 30
0.0
  0
VERTEX
  5
F3E
  8
DATA
  6
CONTINUOUS
 62
     7
 10
103.77886720944581
 20
-130.23233158335469
 30
0.0
  0
VERTEX
  5
F3F
  8
DATA
  6
CONTINUOUS
 62
     7
 10
103.77886720944581
 20
-131.76233158335469
 30
0.0
  0
VERTEX
  5
F40
  8
DATA
  6
CONTINUOUS
 62
     7
 10
102.2488672094459
 20
-131.76233158335469
 30
0.0
  0
SEQEND
  5
F41
  8
DATA
  6
CONTINUOUS
 62
     7
  0
POLYLINE
  5
711
  8
DATA
  6
CONTINUOUS
 62
     7
 66
     1
 10
0.0
 20
0.0
 30
0.0
 70
     1
  0
VERTEX
  5
F42
  8
DATA
  6
CONTINUOUS
 62
     7
 10
104.2488672094459
 20
-130.23233158335469
 30
0.0
  0
VERTEX
  5
F43
  8
DATA
  6
CONTINUOUS
 62
     7
 10
105.77886720944581
 20
-130.23233158335469
 30
0.0
  0
VERTEX
  5
F44
  8
DATA
  6
CONTINUOUS
 62
     7
 10
105.77886720944581
 20
-131.76233158335469
 30
0.0
  0
VERTEX
  5
F45
  8
DATA
  6
CONTINUOUS
 62
     7
 10
104.2488672094459
 20
-131.76233158335469
 30
0.0
  0
SEQEND
  5
F46
  8
DATA
  6
CONTINUOUS
 62
     7
  0
POLYLINE
  5
718
  8
DATA
  6
CONTINUOUS
 62
     7
 66
     1
 10
0.0
 20
0.0
 30
0.0
 70
     1
  0
VERTEX
  5
F47
  8
DATA
  6
CONTINUOUS
 62
     7
 10
106.24886720944581
 20
-130.23233158335469
 30
0.0
  0
VERTEX
  5
F48
  8
DATA
  6
CONTINUOUS
 62
     7
 10
107.77886720944571
 20
-130.23233158335469
 30
0.0
  0
VERTEX
  5
F49
  8
DATA
  6
CONTINUOUS
 62
     7
 10
107.77886720944571
 20
-131.76233158335469
 30
0.0
  0
VERTEX
  5
F4A
  8
DATA
  6
CONTINUOUS
 62
     7
 10
106.24886720944581
 20
-131.76233158335469
 30
0.0
  0
SEQEND
  5
F4B
  8
DATA
  6
CONTINUOUS
 62
     7
  0
POLYLINE
  5
71F
  8
DATA
  6
CONTINUOUS
 62
     7
 66
     1
 10
0.0
 20
0.0
 30
0.0
 70
     1
  0
VERTEX
  5
F4C
  8
DATA
  6
CONTINUOUS
 62
     7
 10
108.24886720944581
 20
-130.23233158335469
 30
0.0
  0
VERTEX
  5
F4D
  8
DATA
  6
CONTINUOUS
 62
     7
 10
109.77886720944581
 20
-130.23233158335469
 30
0.0
  0
VERTEX
  5
F4E
  8
DATA
  6
CONTINUOUS
 62
     7
 10
109.77886720944581
 20
-131.76233158335469
 30
0.0
  0
VERTEX
  5
F4F
  8
DATA
  6
CONTINUOUS
 62
     7
 10
108.24886720944581
 20
-131.76233158335469
 30
0.0
  0
SEQEND
  5
F50
  8
DATA
  6
CONTINUOUS
 62
     7
  0
POLYLINE
  5
726
  8
DATA
  6
CONTINUOUS
 62
     7
 66
     1
 10
0.0
 20
0.0
 30
0.0
 70
     1
  0
VERTEX
  5
F51
  8
DATA
  6
CONTINUOUS
 62
     7
 10
94.248867209445876
 20
-134.23233158335469
 30
0.0
  0
VERTEX
  5
F52
  8
DATA
  6
CONTINUOUS
 62
     7
 10
95.778867209445863
 20
-134.23233158335469
 30
0.0
  0
VERTEX
  5
F53
  8
DATA
  6
CONTINUOUS
 62
     7
 10
95.778867209445863
 20
-135.76233158335469
 30
0.0
  0
VERTEX
  5
F54
  8
DATA
  6
CONTINUOUS
 62
     7
 10
94.248867209445876
 20
-135.76233158335469
 30
0.0
  0
SEQEND
  5
F55
  8
DATA
  6
CONTINUOUS
 62
     7
  0
POLYLINE
  5
72D
  8
DATA
  6
CONTINUOUS
 62
     7
 66
     1
 10
0.0
 20
0.0
 30
0.0
 70
     1
  0
VERTEX
  5
F56
  8
DATA
  6
CONTINUOUS
 62
     7
 10
96.248867209445876
 20
-134.23233158335469
 30
0.0
  0
VERTEX
  5
F57
  8
DATA
  6
CONTINUOUS
 62
     7
 10
97.778867209445863
 20
-134.23233158335469
 30
0.0
  0
VERTEX
  5
F58
  8
DATA
  6
CONTINUOUS
 62
     7
 10
97.778867209445863
 20
-135.76233158335469
 30
0.0
  0
VERTEX
  5
F59
  8
DATA
  6
CONTINUOUS
 62
     7
 10
96.248867209445876
 20
-135.76233158335469
 30
0.0
  0
SEQEND
  5
F5A
  8
DATA
  6
CONTINUOUS
 62
     7
  0
POLYLINE
  5
734
  8
DATA
  6
CONTINUOUS
 62
     7
 66
     1
 10
0.0
 20
0.0
 30
0.0
 70
     1
  0
VERTEX
  5
F5B
  8
DATA
  6
CONTINUOUS
 62
     7
 10
98.248867209445876
 20
-134.23233158335469
 30
0.0
  0
VERTEX
  5
F5C
  8
DATA
  6
CONTINUOUS
 62
     7
 10
99.778867209445863
 20
-134.23233158335469
 30
0.0
  0
VERTEX
  5
F5D
  8
DATA
  6
CONTINUOUS
 62
     7
 10
99.778867209445863
 20
-135.76233158335469
 30
0.0
  0
VERTEX
  5
F5E
  8
DATA
  6
CONTINUOUS
 62
     7
 10
98.248867209445876
 20
-135.76233158335469
 30
0.0
  0
SEQEND
  5
F5F
  8
DATA
  6
CONTINUOUS
 62
     7
  0
POLYLINE
  5
73B
  8
DATA
  6
CONTINUOUS
 62
     7
 66
     1
 10
0.0
 20
0.0
 30
0.0
 70
     1
  0
VERTEX
  5
F60
  8
DATA
  6
CONTINUOUS
 62
     7
 10
100.2488672094459
 20
-134.23233158335469
 30
0.0
  0
VERTEX
  5
F61
  8
DATA
  6
CONTINUOUS
 62
     7
 10
101.77886720944591
 20
-134.23233158335469
 30
0.0
  0
VERTEX
  5
F62
  8
DATA
  6
CONTINUOUS
 62
     7
 10
101.77886720944591
 20
-135.76233158335469
 30
0.0
  0
VERTEX
  5
F63
  8
DATA
  6
CONTINUOUS
 62
     7
 10
100.2488672094459
 20
-135.76233158335469
 30
0.0
  0
SEQEND
  5
F64
  8
DATA
  6
CONTINUOUS
 62
     7
  0
POLYLINE
  5
742
  8
DATA
  6
CONTINUOUS
 62
     7
 66
     1
 10
0.0
 20
0.0
 30
0.0
 70
     1
  0
VERTEX
  5
F65
  8
DATA
  6
CONTINUOUS
 62
     7
 10
102.2488672094459
 20
-134.23233158335469
 30
0.0
  0
VERTEX
  5
F66
  8
DATA
  6
CONTINUOUS
 62
     7
 10
103.77886720944581
 20
-134.23233158335469
 30
0.0
  0
VERTEX
  5
F67
  8
DATA
  6
CONTINUOUS
 62
     7
 10
103.77886720944581
 20
-135.76233158335469
 30
0.0
  0
VERTEX
  5
F68
  8
DATA
  6
CONTINUOUS
 62
     7
 10
102.2488672094459
 20
-135.76233158335469
 30
0.0
  0
SEQEND
  5
F69
  8
DATA
  6
CONTINUOUS
 62
     7
  0
POLYLINE
  5
749
  8
DATA
  6
CONTINUOUS
 62
     7
 66
     1
 10
0.0
 20
0.0
 30
0.0
 70
     1
  0
VERTEX
  5
F6A
  8
DATA
  6
CONTINUOUS
 62
     7
 10
104.2488672094459
 20
-134.23233158335469
 30
0.0
  0
VERTEX
  5
F6B
  8
DATA
  6
CONTINUOUS
 62
     7
 10
105.77886720944581
 20
-134.23233158335469
 30
0.0
  0
VERTEX
  5
F6C
  8
DATA
  6
CONTINUOUS
 62
     7
 10
105.77886720944581
 20
-135.76233158335469
 30
0.0
  0
VERTEX
  5
F6D
  8
DATA
  6
CONTINUOUS
 62
     7
 10
104.2488672094459
 20
-135.76233158335469
 30
0.0
  0
SEQEND
  5
F6E
  8
DATA
  6
CONTINUOUS
 62
     7
  0
POLYLINE
  5
750
  8
DATA
  6
CONTINUOUS
 62
     7
 66
     1
 10
0.0
 20
0.0
 30
0.0
 70
     1
  0
VERTEX
  5
F6F
  8
DATA
  6
CONTINUOUS
 62
     7
 10
106.24886720944581
 20
-134.23233158335469
 30
0.0
  0
VERTEX
  5
F70
  8
DATA
  6
CONTINUOUS
 62
     7
 10
107.77886720944571
 20
-134.23233158335469
 30
0.0
  0
VERTEX
  5
F71
  8
DATA
  6
CONTINUOUS
 62
     7
 10
107.77886720944571
 20
-135.76233158335469
 30
0.0
  0
VERTEX
  5
F72
  8
DATA
  6
CONTINUOUS
 62
     7
 10
106.24886720944581
 20
-135.76233158335469
 30
0.0
  0
SEQEND
  5
F73
  8
DATA
  6
CONTINUOUS
 62
     7
  0
POLYLINE
  5
757
  8
DATA
  6
CONTINUOUS
 62
     7
 66
     1
 10
0.0
 20
0.0
 30
0.0
 70
     1
  0
VERTEX
  5
F74
  8
DATA
  6
CONTINUOUS
 62
     7
 10
108.24886720944581
 20
-134.23233158335469
 30
0.0
  0
VERTEX
  5
F75
  8
DATA
  6
CONTINUOUS
 62
     7
 10
109.77886720944581
 20
-134.23233158335469
 30
0.0
  0
VERTEX
  5
F76
  8
DATA
  6
CONTINUOUS
 62
     7
 10
109.77886720944581
 20
-135.76233158335469
 30
0.0
  0
VERTEX
  5
F77
  8
DATA
  6
CONTINUOUS
 62
     7
 10
108.24886720944581
 20
-135.76233158335469
 30
0.0
  0
SEQEND
  5
F78
  8
DATA
  6
CONTINUOUS
 62
     7
  0
POLYLINE
  5
75E
  8
DATA
  6
CONTINUOUS
 62
     7
 66
     1
 10
0.0
 20
0.0
 30
0.0
  0
VERTEX
  5
F79
  8
DATA
  6
CONTINUOUS
 62
     7
 10
113.7989333806253
 20
-132.5973315833547
 30
0.0
  0
VERTEX
  5
F7A
  8
DATA
  6
CONTINUOUS
 62
     7
 10
115.89893338062519
 20
-132.5973315833547
 30
0.0
  0
VERTEX
  5
F7B
  8
DATA
  6
CONTINUOUS
 62
     7
 10
115.89893338062519
 20
-133.39733158335471
 30
0.0
  0
VERTEX
  5
F7C
  8
DATA
  6
CONTINUOUS
 62
     7
 10
113.7989333806253
 20
-133.39733158335471
 30
0.0
  0
SEQEND
  5
F7D
  8
DATA
  6
CONTINUOUS
 62
     7
  0
POLYLINE
  5
765
  8
DATA
  6
CONTINUOUS
 62
     7
 66
     1
 10
0.0
 20
0.0
 30
0.0
  0
VERTEX
  5
F7E
  8
DATA
  6
CONTINUOUS
 62
     7
 10
112.9989333806252
 20
-133.39733158335471
 30
0.0
  0
VERTEX
  5
F7F
  8
DATA
  6
CONTINUOUS
 62
     7
 10
110.89893338062529
 20
-133.39733158335471
 30
0.0
  0
VERTEX
  5
F80
  8
DATA
  6
CONTINUOUS
 62
     7
 10
110.89893338062529
 20
-132.5973315833547
 30
0.0
  0
VERTEX
  5
F81
  8
DATA
  6
CONTINUOUS
 62
     7
 10
112.9989333806252
 20
-132.5973315833547
 30
0.0
  0
SEQEND
  5
F82
  8
DATA
  6
CONTINUOUS
 62
     7
  0
POLYLINE
  5
76C
  8
DATA
  6
CONTINUOUS
 62
     7
 66
     1
 10
0.0
 20
0.0
 30
0.0
  0
VERTEX
  5
F83
  8
DATA
  6
CONTINUOUS
 62
     7
 10
113.7989333806253
 20
-133.39733158335471
 30
0.0
  0
VERTEX
  5
F84
  8
DATA
  6
CONTINUOUS
 62
     7
 10
113.7989333806253
 20
-135.49733158335471
 30
0.0
  0
VERTEX
  5
F85
  8
DATA
  6
CONTINUOUS
 62
     7
 10
112.9989333806252
 20
-135.49733158335471
 30
0.0
  0
VERTEX
  5
F86
  8
DATA
  6
CONTINUOUS
 62
     7
 10
112.9989333806252
 20
-133.39733158335471
 30
0.0
  0
SEQEND
  5
F87
  8
DATA
  6
CONTINUOUS
 62
     7
  0
POLYLINE
  5
773
  8
DATA
  6
CONTINUOUS
 62
     7
 66
     1
 10
0.0
 20
0.0
 30
0.0
  0
VERTEX
  5
F88
  8
DATA
  6
CONTINUOUS
 62
     7
 10
112.9989333806252
 20
-132.5973315833547
 30
0.0
  0
VERTEX
  5
F89
  8
DATA
  6
CONTINUOUS
 62
     7
 10
112.9989333806252
 20
-130.49733158335471
 30
0.0
  0
VERTEX
  5
F8A
  8
DATA
  6
CONTINUOUS
 62
     7
 10
113.7989333806253
 20
-130.49733158335471
 30
0.0
  0
VERTEX
  5
F8B
  8
DATA
  6
CONTINUOUS
 62
     7
 10
113.7989333806253
 20
-132.5973315833547
 30
0.0
  0
SEQEND
  5
F8C
  8
DATA
  6
CONTINUOUS
 62
     7
  0
POLYLINE
  5
77A
  8
DATA
  6
CONTINUOUS
 62
     7
 66
     1
 10
0.0
 20
0.0
 30
0.0
 70
     1
  0
VERTEX
  5
F8D
  8
DATA
  6
CONTINUOUS
 62
     7
 10
111.5386489501535
 20
-131.23790377270481
 30
0.0
  0
VERTEX
  5
F8E
  8
DATA
  6
CONTINUOUS
 62
     7
 10
112.5386489501535
 20
-131.23790377270481
 30
0.0
  0
VERTEX
  5
F8F
  8
DATA
  6
CONTINUOUS
 62
     7
 10
112.5386489501535
 20
-132.23790377270481
 30
0.0
  0
VERTEX
  5
F90
  8
DATA
  6
CONTINUOUS
 62
     7
 10
111.5386489501535
 20
-132.23790377270481
 30
0.0
  0
SEQEND
  5
F91
  8
DATA
  6
CONTINUOUS
 62
     7
  0
POLYLINE
  5
781
  8
DATA
  6
CONTINUOUS
 62
     7
 66
     1
 10
0.0
 20
0.0
 30
0.0
 70
     1
  0
VERTEX
  5
F92
  8
DATA
  6
CONTINUOUS
 62
     7
 10
114.2592178110969
 20
-131.23790377270481
 30
0.0
  0
VERTEX
  5
F93
  8
DATA
  6
CONTINUOUS
 62
     7
 10
115.2592178110969
 20
-131.23790377270481
 30
0.0
  0
VERTEX
  5
F94
  8
DATA
  6
CONTINUOUS
 62
     7
 10
115.2592178110969
 20
-132.23790377270481
 30
0.0
  0
VERTEX
  5
F95
  8
DATA
  6
CONTINUOUS
 62
     7
 10
114.2592178110969
 20
-132.23790377270481
 30
0.0
  0
SEQEND
  5
F96
  8
DATA
  6
CONTINUOUS
 62
     7
  0
POLYLINE
  5
788
  8
DATA
  6
CONTINUOUS
 62
     7
 66
     1
 10
0.0
 20
0.0
 30
0.0
 70
     1
  0
VERTEX
  5
F97
  8
DATA
  6
CONTINUOUS
 62
     7
 10
111.5386489501535
 20
-133.7567593940046
 30
0.0
  0
VERTEX
  5
F98
  8
DATA
  6
CONTINUOUS
 62
     7
 10
112.5386489501535
 20
-133.7567593940046
 30
0.0
  0
VERTEX
  5
F99
  8
DATA
  6
CONTINUOUS
 62
     7
 10
112.5386489501535
 20
-134.7567593940046
 30
0.0
  0
VERTEX
  5
F9A
  8
DATA
  6
CONTINUOUS
 62
     7
 10
111.5386489501535
 20
-134.7567593940046
 30
0.0
  0
SEQEND
  5
F9B
  8
DATA
  6
CONTINUOUS
 62
     7
  0
POLYLINE
  5
78F
  8
DATA
  6
CONTINUOUS
 62
     7
 66
     1
 10
0.0
 20
0.0
 30
0.0
 70
     1
  0
VERTEX
  5
F9C
  8
DATA
  6
CONTINUOUS
 62
     7
 10
114.2592178110969
 20
-133.7567593940046
 30
0.0
  0
VERTEX
  5
F9D
  8
DATA
  6
CONTINUOUS
 62
     7
 10
115.2592178110969
 20
-133.7567593940046
 30
0.0
  0
VERTEX
  5
F9E
  8
DATA
  6
CONTINUOUS
 62
     7
 10
115.2592178110969
 20
-134.7567593940046
 30
0.0
  0
VERTEX
  5
F9F
  8
DATA
  6
CONTINUOUS
 62
     7
 10
114.2592178110969
 20
-134.7567593940046
 30
0.0
  0
SEQEND
  5
FA0
  8
DATA
  6
CONTINUOUS
 62
     7
  0
LINE
  5
796
  8
DATA
  6
CONTINUOUS
 62
     7
 10
93.30356156267807
 20
-130.1674398888409
 30
0.0
 11
93.862478760130372
 21
-136.0174398888409
 31
0.0
  0
LINE
  5
797
  8
DATA
  6
CONTINUOUS
 62
     7
 10
117.19430519857229
 20
-130.1674398888409
 30
0.0
 11
116.63538800112001
 21
-136.0174398888409
 31
0.0
  0
ARC
  5
798
  8
DATA
  6
CONTINUOUS
 62
     7
 10
94.29902849343344
 20
-130.0723315833547
 30
0.0
 40
1.0
 50
90.0
 51
185.45755348510761
  0
ARC
  5
799
  8
DATA
  6
CONTINUOUS
 62
     7
 10
116.1988382678169
 20
-130.0723315833547
 30
0.0
 40
0.9999999999999754
 50
354.54244651489228
 51
90.000000000003226
  0
ARC
  5
79A
  8
DATA
  6
CONTINUOUS
 62
     7
 10
94.857945690885714
 20
-135.92233158335469
 30
0.0
 40
0.9999999999999722
 50
185.45755348510761
 51
270.0
  0
ARC
  5
79B
  8
DATA
  6
CONTINUOUS
 62
     7
 10
115.63992107036459
 20
-135.92233158335469
 30
0.0
 40
1.0
 50
270.0
 51
354.5424465148958
  0
TEXT
  5
79C
  8
DATA
 62
     7
 10
103.2793081799816
 20
-147.6288734669007
 30
0.0
 40
2.9319140625000002
  1
7
 41
0.7
 11
103.2793081799816
 21
-144.6969594044007
 31
0.0
 73
     3
  0
CIRCLE
  5
79D
  8
DATA
  6
CONTINUOUS
 62
     7
 10
166.50102348121979
 20
-132.99733158335471
 30
0.0
 40
1.175000000000068
  0
POLYLINE
  5
79E
  8
DATA
  6
CONTINUOUS
 62
     7
 66
     1
 10
0.0
 20
0.0
 30
0.0
 70
     1
  0
VERTEX
  5
FA1
  8
DATA
  6
CONTINUOUS
 62
     7
 10
166.50102348121979
 20
-130.29733158335469
 30
0.0
  0
VERTEX
  5
FA2
  8
DATA
  6
CONTINUOUS
 62
     7
 10
168.8392920714378
 20
-131.64733158335471
 30
0.0
  0
VERTEX
  5
FA3
  8
DATA
  6
CONTINUOUS
 62
     7
 10
168.8392920714378
 20
-134.3473315833547
 30
0.0
  0
VERTEX
  5
FA4
  8
DATA
  6
CONTINUOUS
 62
     7
 10
166.50102348121979
 20
-135.6973315833547
 30
0.0
  0
VERTEX
  5
FA5
  8
DATA
  6
CONTINUOUS
 62
     7
 10
164.16275489100181
 20
-134.3473315833547
 30
0.0
  0
VERTEX
  5
FA6
  8
DATA
  6
CONTINUOUS
 62
     7
 10
164.16275489100181
 20
-131.64733158335471
 30
0.0
  0
SEQEND
  5
FA7
  8
DATA
  6
CONTINUOUS
 62
     7
  0
CIRCLE
  5
7A7
  8
DATA
  6
CONTINUOUS
 62
     7
 10
134.0010234812199
 20
-132.99733158335471
 30
0.0
 40
1.175000000000068
  0
POLYLINE
  5
7A8
  8
DATA
  6
CONTINUOUS
 62
     7
 66
     1
 10
0.0
 20
0.0
 30
0.0
 70
     1
  0
VERTEX
  5
FA8
  8
DATA
  6
CONTINUOUS
 62
     7
 10
134.0010234812199
 20
-130.29733158335469
 30
0.0
  0
VERTEX
  5
FA9
  8
DATA
  6
CONTINUOUS
 62
     7
 10
136.3392920714378
 20
-131.64733158335471
 30
0.0
  0
VERTEX
  5
FAA
  8
DATA
  6
CONTINUOUS
 62
     7
 10
136.3392920714378
 20
-134.3473315833547
 30
0.0
  0
VERTEX
  5
FAB
  8
DATA
  6
CONTINUOUS
 62
     7
 10
134.0010234812199
 20
-135.6973315833547
 30
0.0
  0
VERTEX
  5
FAC
  8
DATA
  6
CONTINUOUS
 62
     7
 10
131.6627548910019
 20
-134.3473315833547
 30
0.0
  0
VERTEX
  5
FAD
  8
DATA
  6
CONTINUOUS
 62
     7
 10
131.6627548910019
 20
-131.64733158335471
 30
0.0
  0
SEQEND
  5
FAE
  8
DATA
  6
CONTINUOUS
 62
     7
  0
LINE
  5
7B1
  8
DATA
  6
CONTINUOUS
 62
     7
 10
139.29902849343341
 20
-129.0723315833547
 30
0.0
 11
161.19883826781691
 21
-129.0723315833547
 31
0.0
  0
LINE
  5
7B2
  8
DATA
  6
CONTINUOUS
 62
     7
 10
160.63992107036461
 20
-136.92233158335469
 30
0.0
 11
139.85794569088571
 21
-136.92233158335469
 31
0.0
  0
POLYLINE
  5
7B3
  8
DATA
  6
CONTINUOUS
 62
     7
 66
     1
 10
0.0
 20
0.0
 30
0.0
 70
     1
  0
VERTEX
  5
FAF
  8
DATA
  6
CONTINUOUS
 62
     7
 10
139.24886720944579
 20
-132.23233158335469
 30
0.0
  0
VERTEX
  5
FB0
  8
DATA
  6
CONTINUOUS
 62
     7
 10
140.77886720944579
 20
-132.23233158335469
 30
0.0
  0
VERTEX
  5
FB1
  8
DATA
  6
CONTINUOUS
 62
     7
 10
140.77886720944579
 20
-133.76233158335469
 30
0.0
  0
VERTEX
  5
FB2
  8
DATA
  6
CONTINUOUS
 62
     7
 10
139.24886720944579
 20
-133.76233158335469
 30
0.0
  0
SEQEND
  5
FB3
  8
DATA
  6
CONTINUOUS
 62
     7
  0
POLYLINE
  5
7BA
  8
DATA
  6
CONTINUOUS
 62
     7
 66
     1
 10
0.0
 20
0.0
 30
0.0
 70
     1
  0
VERTEX
  5
FB4
  8
DATA
  6
CONTINUOUS
 62
     7
 10
141.24886720944579
 20
-132.23233158335469
 30
0.0
  0
VERTEX
  5
FB5
  8
DATA
  6
CONTINUOUS
 62
     7
 10
142.77886720944579
 20
-132.23233158335469
 30
0.0
  0
VERTEX
  5
FB6
  8
DATA
  6
CONTINUOUS
 62
     7
 10
142.77886720944579
 20
-133.76233158335469
 30
0.0
  0
VERTEX
  5
FB7
  8
DATA
  6
CONTINUOUS
 62
     7
 10
141.24886720944579
 20
-133.76233158335469
 30
0.0
  0
SEQEND
  5
FB8
  8
DATA
  6
CONTINUOUS
 62
     7
  0
POLYLINE
  5
7C1
  8
DATA
  6
CONTINUOUS
 62
     7
 66
     1
 10
0.0
 20
0.0
 30
0.0
 70
     1
  0
VERTEX
  5
FB9
  8
DATA
  6
CONTINUOUS
 62
     7
 10
143.24886720944579
 20
-132.23233158335469
 30
0.0
  0
VERTEX
  5
FBA
  8
DATA
  6
CONTINUOUS
 62
     7
 10
144.77886720944579
 20
-132.23233158335469
 30
0.0
  0
VERTEX
  5
FBB
  8
DATA
  6
CONTINUOUS
 62
     7
 10
144.77886720944579
 20
-133.76233158335469
 30
0.0
  0
VERTEX
  5
FBC
  8
DATA
  6
CONTINUOUS
 62
     7
 10
143.24886720944579
 20
-133.76233158335469
 30
0.0
  0
SEQEND
  5
FBD
  8
DATA
  6
CONTINUOUS
 62
     7
  0
POLYLINE
  5
7C8
  8
DATA
  6
CONTINUOUS
 62
     7
 66
     1
 10
0.0
 20
0.0
 30
0.0
 70
     1
  0
VERTEX
  5
FBE
  8
DATA
  6
CONTINUOUS
 62
     7
 10
145.24886720944579
 20
-132.23233158335469
 30
0.0
  0
VERTEX
  5
FBF
  8
DATA
  6
CONTINUOUS
 62
     7
 10
146.77886720944591
 20
-132.23233158335469
 30
0.0
  0
VERTEX
  5
FC0
  8
DATA
  6
CONTINUOUS
 62
     7
 10
146.77886720944591
 20
-133.76233158335469
 30
0.0
  0
VERTEX
  5
FC1
  8
DATA
  6
CONTINUOUS
 62
     7
 10
145.24886720944579
 20
-133.76233158335469
 30
0.0
  0
SEQEND
  5
FC2
  8
DATA
  6
CONTINUOUS
 62
     7
  0
POLYLINE
  5
7CF
  8
DATA
  6
CONTINUOUS
 62
     7
 66
     1
 10
0.0
 20
0.0
 30
0.0
 70
     1
  0
VERTEX
  5
FC3
  8
DATA
  6
CONTINUOUS
 62
     7
 10
147.2488672094459
 20
-132.23233158335469
 30
0.0
  0
VERTEX
  5
FC4
  8
DATA
  6
CONTINUOUS
 62
     7
 10
148.77886720944591
 20
-132.23233158335469
 30
0.0
  0
VERTEX
  5
FC5
  8
DATA
  6
CONTINUOUS
 62
     7
 10
148.77886720944591
 20
-133.76233158335469
 30
0.0
  0
VERTEX
  5
FC6
  8
DATA
  6
CONTINUOUS
 62
     7
 10
147.2488672094459
 20
-133.76233158335469
 30
0.0
  0
SEQEND
  5
FC7
  8
DATA
  6
CONTINUOUS
 62
     7
  0
POLYLINE
  5
7D6
  8
DATA
  6
CONTINUOUS
 62
     7
 66
     1
 10
0.0
 20
0.0
 30
0.0
 70
     1
  0
VERTEX
  5
FC8
  8
DATA
  6
CONTINUOUS
 62
     7
 10
149.2488672094459
 20
-132.23233158335469
 30
0.0
  0
VERTEX
  5
FC9
  8
DATA
  6
CONTINUOUS
 62
     7
 10
150.77886720944591
 20
-132.23233158335469
 30
0.0
  0
VERTEX
  5
FCA
  8
DATA
  6
CONTINUOUS
 62
     7
 10
150.77886720944591
 20
-133.76233158335469
 30
0.0
  0
VERTEX
  5
FCB
  8
DATA
  6
CONTINUOUS
 62
     7
 10
149.2488672094459
 20
-133.76233158335469
 30
0.0
  0
SEQEND
  5
FCC
  8
DATA
  6
CONTINUOUS
 62
     7
  0
POLYLINE
  5
7DD
  8
DATA
  6
CONTINUOUS
 62
     7
 66
     1
 10
0.0
 20
0.0
 30
0.0
 70
     1
  0
VERTEX
  5
FCD
  8
DATA
  6
CONTINUOUS
 62
     7
 10
151.24886720944579
 20
-132.23233158335469
 30
0.0
  0
VERTEX
  5
FCE
  8
DATA
  6
CONTINUOUS
 62
     7
 10
152.77886720944571
 20
-132.23233158335469
 30
0.0
  0
VERTEX
  5
FCF
  8
DATA
  6
CONTINUOUS
 62
     7
 10
152.77886720944571
 20
-133.76233158335469
 30
0.0
  0
VERTEX
  5
FD0
  8
DATA
  6
CONTINUOUS
 62
     7
 10
151.24886720944579
 20
-133.76233158335469
 30
0.0
  0
SEQEND
  5
FD1
  8
DATA
  6
CONTINUOUS
 62
     7
  0
POLYLINE
  5
7E4
  8
DATA
  6
CONTINUOUS
 62
     7
 66
     1
 10
0.0
 20
0.0
 30
0.0
 70
     1
  0
VERTEX
  5
FD2
  8
DATA
  6
CONTINUOUS
 62
     7
 10
153.24886720944579
 20
-132.23233158335469
 30
0.0
  0
VERTEX
  5
FD3
  8
DATA
  6
CONTINUOUS
 62
     7
 10
154.77886720944591
 20
-132.23233158335469
 30
0.0
  0
VERTEX
  5
FD4
  8
DATA
  6
CONTINUOUS
 62
     7
 10
154.77886720944591
 20
-133.76233158335469
 30
0.0
  0
VERTEX
  5
FD5
  8
DATA
  6
CONTINUOUS
 62
     7
 10
153.24886720944579
 20
-133.76233158335469
 30
0.0
  0
SEQEND
  5
FD6
  8
DATA
  6
CONTINUOUS
 62
     7
  0
POLYLINE
  5
7EB
  8
DATA
  6
CONTINUOUS
 62
     7
 66
     1
 10
0.0
 20
0.0
 30
0.0
 70
     1
  0
VERTEX
  5
FD7
  8
DATA
  6
CONTINUOUS
 62
     7
 10
139.24886720944579
 20
-130.23233158335469
 30
0.0
  0
VERTEX
  5
FD8
  8
DATA
  6
CONTINUOUS
 62
     7
 10
140.77886720944579
 20
-130.23233158335469
 30
0.0
  0
VERTEX
  5
FD9
  8
DATA
  6
CONTINUOUS
 62
     7
 10
140.77886720944579
 20
-131.76233158335469
 30
0.0
  0
VERTEX
  5
FDA
  8
DATA
  6
CONTINUOUS
 62
     7
 10
139.24886720944579
 20
-131.76233158335469
 30
0.0
  0
SEQEND
  5
FDB
  8
DATA
  6
CONTINUOUS
 62
     7
  0
POLYLINE
  5
7F2
  8
DATA
  6
CONTINUOUS
 62
     7
 66
     1
 10
0.0
 20
0.0
 30
0.0
 70
     1
  0
VERTEX
  5
FDC
  8
DATA
  6
CONTINUOUS
 62
     7
 10
141.24886720944579
 20
-130.23233158335469
 30
0.0
  0
VERTEX
  5
FDD
  8
DATA
  6
CONTINUOUS
 62
     7
 10
142.77886720944579
 20
-130.23233158335469
 30
0.0
  0
VERTEX
  5
FDE
  8
DATA
  6
CONTINUOUS
 62
     7
 10
142.77886720944579
 20
-131.76233158335469
 30
0.0
  0
VERTEX
  5
FDF
  8
DATA
  6
CONTINUOUS
 62
     7
 10
141.24886720944579
 20
-131.76233158335469
 30
0.0
  0
SEQEND
  5
FE0
  8
DATA
  6
CONTINUOUS
 62
     7
  0
POLYLINE
  5
7F9
  8
DATA
  6
CONTINUOUS
 62
     7
 66
     1
 10
0.0
 20
0.0
 30
0.0
 70
     1
  0
VERTEX
  5
FE1
  8
DATA
  6
CONTINUOUS
 62
     7
 10
143.24886720944579
 20
-130.23233158335469
 30
0.0
  0
VERTEX
  5
FE2
  8
DATA
  6
CONTINUOUS
 62
     7
 10
144.77886720944579
 20
-130.23233158335469
 30
0.0
  0
VERTEX
  5
FE3
  8
DATA
  6
CONTINUOUS
 62
     7
 10
144.77886720944579
 20
-131.76233158335469
 30
0.0
  0
VERTEX
  5
FE4
  8
DATA
  6
CONTINUOUS
 62
     7
 10
143.24886720944579
 20
-131.76233158335469
 30
0.0
  0
SEQEND
  5
FE5
  8
DATA
  6
CONTINUOUS
 62
     7
  0
POLYLINE
  5
800
  8
DATA
  6
CONTINUOUS
 62
     7
 66
     1
 10
0.0
 20
0.0
 30
0.0
 70
     1
  0
VERTEX
  5
FE6
  8
DATA
  6
CONTINUOUS
 62
     7
 10
145.24886720944579
 20
-130.23233158335469
 30
0.0
  0
VERTEX
  5
FE7
  8
DATA
  6
CONTINUOUS
 62
     7
 10
146.77886720944591
 20
-130.23233158335469
 30
0.0
  0
VERTEX
  5
FE8
  8
DATA
  6
CONTINUOUS
 62
     7
 10
146.77886720944591
 20
-131.76233158335469
 30
0.0
  0
VERTEX
  5
FE9
  8
DATA
  6
CONTINUOUS
 62
     7
 10
145.24886720944579
 20
-131.76233158335469
 30
0.0
  0
SEQEND
  5
FEA
  8
DATA
  6
CONTINUOUS
 62
     7
  0
POLYLINE
  5
807
  8
DATA
  6
CONTINUOUS
 62
     7
 66
     1
 10
0.0
 20
0.0
 30
0.0
 70
     1
  0
VERTEX
  5
FEB
  8
DATA
  6
CONTINUOUS
 62
     7
 10
147.2488672094459
 20
-130.23233158335469
 30
0.0
  0
VERTEX
  5
FEC
  8
DATA
  6
CONTINUOUS
 62
     7
 10
148.77886720944591
 20
-130.23233158335469
 30
0.0
  0
VERTEX
  5
FED
  8
DATA
  6
CONTINUOUS
 62
     7
 10
148.77886720944591
 20
-131.76233158335469
 30
0.0
  0
VERTEX
  5
FEE
  8
DATA
  6
CONTINUOUS
 62
     7
 10
147.2488672094459
 20
-131.76233158335469
 30
0.0
  0
SEQEND
  5
FEF
  8
DATA
  6
CONTINUOUS
 62
     7
  0
POLYLINE
  5
80E
  8
DATA
  6
CONTINUOUS
 62
     7
 66
     1
 10
0.0
 20
0.0
 30
0.0
 70
     1
  0
VERTEX
  5
FF0
  8
DATA
  6
CONTINUOUS
 62
     7
 10
149.2488672094459
 20
-130.23233158335469
 30
0.0
  0
VERTEX
  5
FF1
  8
DATA
  6
CONTINUOUS
 62
     7
 10
150.77886720944591
 20
-130.23233158335469
 30
0.0
  0
VERTEX
  5
FF2
  8
DATA
  6
CONTINUOUS
 62
     7
 10
150.77886720944591
 20
-131.76233158335469
 30
0.0
  0
VERTEX
  5
FF3
  8
DATA
  6
CONTINUOUS
 62
     7
 10
149.2488672094459
 20
-131.76233158335469
 30
0.0
  0
SEQEND
  5
FF4
  8
DATA
  6
CONTINUOUS
 62
     7
  0
POLYLINE
  5
815
  8
DATA
  6
CONTINUOUS
 62
     7
 66
     1
 10
0.0
 20
0.0
 30
0.0
 70
     1
  0
VERTEX
  5
FF5
  8
DATA
  6
CONTINUOUS
 62
     7
 10
151.24886720944579
 20
-130.23233158335469
 30
0.0
  0
VERTEX
  5
FF6
  8
DATA
  6
CONTINUOUS
 62
     7
 10
152.77886720944571
 20
-130.23233158335469
 30
0.0
  0
VERTEX
  5
FF7
  8
DATA
  6
CONTINUOUS
 62
     7
 10
152.77886720944571
 20
-131.76233158335469
 30
0.0
  0
VERTEX
  5
FF8
  8
DATA
  6
CONTINUOUS
 62
     7
 10
151.24886720944579
 20
-131.76233158335469
 30
0.0
  0
SEQEND
  5
FF9
  8
DATA
  6
CONTINUOUS
 62
     7
  0
POLYLINE
  5
81C
  8
DATA
  6
CONTINUOUS
 62
     7
 66
     1
 10
0.0
 20
0.0
 30
0.0
 70
     1
  0
VERTEX
  5
FFA
  8
DATA
  6
CONTINUOUS
 62
     7
 10
153.24886720944579
 20
-130.23233158335469
 30
0.0
  0
VERTEX
  5
FFB
  8
DATA
  6
CONTINUOUS
 62
     7
 10
154.77886720944591
 20
-130.23233158335469
 30
0.0
  0
VERTEX
  5
FFC
  8
DATA
  6
CONTINUOUS
 62
     7
 10
154.77886720944591
 20
-131.76233158335469
 30
0.0
  0
VERTEX
  5
FFD
  8
DATA
  6
CONTINUOUS
 62
     7
 10
153.24886720944579
 20
-131.76233158335469
 30
0.0
  0
SEQEND
  5
FFE
  8
DATA
  6
CONTINUOUS
 62
     7
  0
POLYLINE
  5
823
  8
DATA
  6
CONTINUOUS
 62
     7
 66
     1
 10
0.0
 20
0.0
 30
0.0
 70
     1
  0
VERTEX
  5
FFF
  8
DATA
  6
CONTINUOUS
 62
     7
 10
139.24886720944579
 20
-134.23233158335469
 30
0.0
  0
VERTEX
  5
1000
  8
DATA
  6
CONTINUOUS
 62
     7
 10
140.77886720944579
 20
-134.23233158335469
 30
0.0
  0
VERTEX
  5
1001
  8
DATA
  6
CONTINUOUS
 62
     7
 10
140.77886720944579
 20
-135.76233158335469
 30
0.0
  0
VERTEX
  5
1002
  8
DATA
  6
CONTINUOUS
 62
     7
 10
139.24886720944579
 20
-135.76233158335469
 30
0.0
  0
SEQEND
  5
1003
  8
DATA
  6
CONTINUOUS
 62
     7
  0
POLYLINE
  5
82A
  8
DATA
  6
CONTINUOUS
 62
     7
 66
     1
 10
0.0
 20
0.0
 30
0.0
 70
     1
  0
VERTEX
  5
1004
  8
DATA
  6
CONTINUOUS
 62
     7
 10
141.24886720944579
 20
-134.23233158335469
 30
0.0
  0
VERTEX
  5
1005
  8
DATA
  6
CONTINUOUS
 62
     7
 10
142.77886720944579
 20
-134.23233158335469
 30
0.0
  0
VERTEX
  5
1006
  8
DATA
  6
CONTINUOUS
 62
     7
 10
142.77886720944579
 20
-135.76233158335469
 30
0.0
  0
VERTEX
  5
1007
  8
DATA
  6
CONTINUOUS
 62
     7
 10
141.24886720944579
 20
-135.76233158335469
 30
0.0
  0
SEQEND
  5
1008
  8
DATA
  6
CONTINUOUS
 62
     7
  0
POLYLINE
  5
831
  8
DATA
  6
CONTINUOUS
 62
     7
 66
     1
 10
0.0
 20
0.0
 30
0.0
 70
     1
  0
VERTEX
  5
1009
  8
DATA
  6
CONTINUOUS
 62
     7
 10
143.24886720944579
 20
-134.23233158335469
 30
0.0
  0
VERTEX
  5
100A
  8
DATA
  6
CONTINUOUS
 62
     7
 10
144.77886720944579
 20
-134.23233158335469
 30
0.0
  0
VERTEX
  5
100B
  8
DATA
  6
CONTINUOUS
 62
     7
 10
144.77886720944579
 20
-135.76233158335469
 30
0.0
  0
VERTEX
  5
100C
  8
DATA
  6
CONTINUOUS
 62
     7
 10
143.24886720944579
 20
-135.76233158335469
 30
0.0
  0
SEQEND
  5
100D
  8
DATA
  6
CONTINUOUS
 62
     7
  0
POLYLINE
  5
838
  8
DATA
  6
CONTINUOUS
 62
     7
 66
     1
 10
0.0
 20
0.0
 30
0.0
 70
     1
  0
VERTEX
  5
100E
  8
DATA
  6
CONTINUOUS
 62
     7
 10
145.24886720944579
 20
-134.23233158335469
 30
0.0
  0
VERTEX
  5
100F
  8
DATA
  6
CONTINUOUS
 62
     7
 10
146.77886720944591
 20
-134.23233158335469
 30
0.0
  0
VERTEX
  5
1010
  8
DATA
  6
CONTINUOUS
 62
     7
 10
146.77886720944591
 20
-135.76233158335469
 30
0.0
  0
VERTEX
  5
1011
  8
DATA
  6
CONTINUOUS
 62
     7
 10
145.24886720944579
 20
-135.76233158335469
 30
0.0
  0
SEQEND
  5
1012
  8
DATA
  6
CONTINUOUS
 62
     7
  0
POLYLINE
  5
83F
  8
DATA
  6
CONTINUOUS
 62
     7
 66
     1
 10
0.0
 20
0.0
 30
0.0
 70
     1
  0
VERTEX
  5
1013
  8
DATA
  6
CONTINUOUS
 62
     7
 10
147.2488672094459
 20
-134.23233158335469
 30
0.0
  0
VERTEX
  5
1014
  8
DATA
  6
CONTINUOUS
 62
     7
 10
148.77886720944591
 20
-134.23233158335469
 30
0.0
  0
VERTEX
  5
1015
  8
DATA
  6
CONTINUOUS
 62
     7
 10
148.77886720944591
 20
-135.76233158335469
 30
0.0
  0
VERTEX
  5
1016
  8
DATA
  6
CONTINUOUS
 62
     7
 10
147.2488672094459
 20
-135.76233158335469
 30
0.0
  0
SEQEND
  5
1017
  8
DATA
  6
CONTINUOUS
 62
     7
  0
POLYLINE
  5
846
  8
DATA
  6
CONTINUOUS
 62
     7
 66
     1
 10
0.0
 20
0.0
 30
0.0
 70
     1
  0
VERTEX
  5
1018
  8
DATA
  6
CONTINUOUS
 62
     7
 10
149.2488672094459
 20
-134.23233158335469
 30
0.0
  0
VERTEX
  5
1019
  8
DATA
  6
CONTINUOUS
 62
     7
 10
150.77886720944591
 20
-134.23233158335469
 30
0.0
  0
VERTEX
  5
101A
  8
DATA
  6
CONTINUOUS
 62
     7
 10
150.77886720944591
 20
-135.76233158335469
 30
0.0
  0
VERTEX
  5
101B
  8
DATA
  6
CONTINUOUS
 62
     7
 10
149.2488672094459
 20
-135.76233158335469
 30
0.0
  0
SEQEND
  5
101C
  8
DATA
  6
CONTINUOUS
 62
     7
  0
POLYLINE
  5
84D
  8
DATA
  6
CONTINUOUS
 62
     7
 66
     1
 10
0.0
 20
0.0
 30
0.0
 70
     1
  0
VERTEX
  5
101D
  8
DATA
  6
CONTINUOUS
 62
     7
 10
151.24886720944579
 20
-134.23233158335469
 30
0.0
  0
VERTEX
  5
101E
  8
DATA
  6
CONTINUOUS
 62
     7
 10
152.77886720944571
 20
-134.23233158335469
 30
0.0
  0
VERTEX
  5
101F
  8
DATA
  6
CONTINUOUS
 62
     7
 10
152.77886720944571
 20
-135.76233158335469
 30
0.0
  0
VERTEX
  5
1020
  8
DATA
  6
CONTINUOUS
 62
     7
 10
151.24886720944579
 20
-135.76233158335469
 30
0.0
  0
SEQEND
  5
1021
  8
DATA
  6
CONTINUOUS
 62
     7
  0
POLYLINE
  5
854
  8
DATA
  6
CONTINUOUS
 62
     7
 66
     1
 10
0.0
 20
0.0
 30
0.0
 70
     1
  0
VERTEX
  5
1022
  8
DATA
  6
CONTINUOUS
 62
     7
 10
153.24886720944579
 20
-134.23233158335469
 30
0.0
  0
VERTEX
  5
1023
  8
DATA
  6
CONTINUOUS
 62
     7
 10
154.77886720944591
 20
-134.23233158335469
 30
0.0
  0
VERTEX
  5
1024
  8
DATA
  6
CONTINUOUS
 62
     7
 10
154.77886720944591
 20
-135.76233158335469
 30
0.0
  0
VERTEX
  5
1025
  8
DATA
  6
CONTINUOUS
 62
     7
 10
153.24886720944579
 20
-135.76233158335469
 30
0.0
  0
SEQEND
  5
1026
  8
DATA
  6
CONTINUOUS
 62
     7
  0
POLYLINE
  5
85B
  8
DATA
  6
CONTINUOUS
 62
     7
 66
     1
 10
0.0
 20
0.0
 30
0.0
  0
VERTEX
  5
1027
  8
DATA
  6
CONTINUOUS
 62
     7
 10
158.7989333806253
 20
-132.5973315833547
 30
0.0
  0
VERTEX
  5
1028
  8
DATA
  6
CONTINUOUS
 62
     7
 10
160.89893338062529
 20
-132.5973315833547
 30
0.0
  0
VERTEX
  5
1029
  8
DATA
  6
CONTINUOUS
 62
     7
 10
160.89893338062529
 20
-133.39733158335471
 30
0.0
  0
VERTEX
  5
102A
  8
DATA
  6
CONTINUOUS
 62
     7
 10
158.7989333806253
 20
-133.39733158335471
 30
0.0
  0
SEQEND
  5
102B
  8
DATA
  6
CONTINUOUS
 62
     7
  0
POLYLINE
  5
862
  8
DATA
  6
CONTINUOUS
 62
     7
 66
     1
 10
0.0
 20
0.0
 30
0.0
  0
VERTEX
  5
102C
  8
DATA
  6
CONTINUOUS
 62
     7
 10
157.9989333806252
 20
-133.39733158335471
 30
0.0
  0
VERTEX
  5
102D
  8
DATA
  6
CONTINUOUS
 62
     7
 10
155.89893338062529
 20
-133.39733158335471
 30
0.0
  0
VERTEX
  5
102E
  8
DATA
  6
CONTINUOUS
 62
     7
 10
155.89893338062529
 20
-132.5973315833547
 30
0.0
  0
VERTEX
  5
102F
  8
DATA
  6
CONTINUOUS
 62
     7
 10
157.9989333806252
 20
-132.5973315833547
 30
0.0
  0
SEQEND
  5
1030
  8
DATA
  6
CONTINUOUS
 62
     7
  0
POLYLINE
  5
869
  8
DATA
  6
CONTINUOUS
 62
     7
 66
     1
 10
0.0
 20
0.0
 30
0.0
  0
VERTEX
  5
1031
  8
DATA
  6
CONTINUOUS
 62
     7
 10
158.7989333806253
 20
-133.39733158335471
 30
0.0
  0
VERTEX
  5
1032
  8
DATA
  6
CONTINUOUS
 62
     7
 10
158.7989333806253
 20
-135.49733158335471
 30
0.0
  0
VERTEX
  5
1033
  8
DATA
  6
CONTINUOUS
 62
     7
 10
157.9989333806252
 20
-135.49733158335471
 30
0.0
  0
VERTEX
  5
1034
  8
DATA
  6
CONTINUOUS
 62
     7
 10
157.9989333806252
 20
-133.39733158335471
 30
0.0
  0
SEQEND
  5
1035
  8
DATA
  6
CONTINUOUS
 62
     7
  0
POLYLINE
  5
870
  8
DATA
  6
CONTINUOUS
 62
     7
 66
     1
 10
0.0
 20
0.0
 30
0.0
  0
VERTEX
  5
1036
  8
DATA
  6
CONTINUOUS
 62
     7
 10
157.9989333806252
 20
-132.5973315833547
 30
0.0
  0
VERTEX
  5
1037
  8
DATA
  6
CONTINUOUS
 62
     7
 10
157.9989333806252
 20
-130.49733158335471
 30
0.0
  0
VERTEX
  5
1038
  8
DATA
  6
CONTINUOUS
 62
     7
 10
158.7989333806253
 20
-130.49733158335471
 30
0.0
  0
VERTEX
  5
1039
  8
DATA
  6
CONTINUOUS
 62
     7
 10
158.7989333806253
 20
-132.5973315833547
 30
0.0
  0
SEQEND
  5
103A
  8
DATA
  6
CONTINUOUS
 62
     7
  0
POLYLINE
  5
877
  8
DATA
  6
CONTINUOUS
 62
     7
 66
     1
 10
0.0
 20
0.0
 30
0.0
 70
     1
  0
VERTEX
  5
103B
  8
DATA
  6
CONTINUOUS
 62
     7
 10
156.53864895015349
 20
-131.23790377270481
 30
0.0
  0
VERTEX
  5
103C
  8
DATA
  6
CONTINUOUS
 62
     7
 10
157.53864895015349
 20
-131.23790377270481
 30
0.0
  0
VERTEX
  5
103D
  8
DATA
  6
CONTINUOUS
 62
     7
 10
157.53864895015349
 20
-132.23790377270481
 30
0.0
  0
VERTEX
  5
103E
  8
DATA
  6
CONTINUOUS
 62
     7
 10
156.53864895015349
 20
-132.23790377270481
 30
0.0
  0
SEQEND
  5
103F
  8
DATA
  6
CONTINUOUS
 62
     7
  0
POLYLINE
  5
87E
  8
DATA
  6
CONTINUOUS
 62
     7
 66
     1
 10
0.0
 20
0.0
 30
0.0
 70
     1
  0
VERTEX
  5
1040
  8
DATA
  6
CONTINUOUS
 62
     7
 10
159.25921781109699
 20
-131.23790377270481
 30
0.0
  0
VERTEX
  5
1041
  8
DATA
  6
CONTINUOUS
 62
     7
 10
160.25921781109699
 20
-131.23790377270481
 30
0.0
  0
VERTEX
  5
1042
  8
DATA
  6
CONTINUOUS
 62
     7
 10
160.25921781109699
 20
-132.23790377270481
 30
0.0
  0
VERTEX
  5
1043
  8
DATA
  6
CONTINUOUS
 62
     7
 10
159.25921781109699
 20
-132.23790377270481
 30
0.0
  0
SEQEND
  5
1044
  8
DATA
  6
CONTINUOUS
 62
     7
  0
POLYLINE
  5
885
  8
DATA
  6
CONTINUOUS
 62
     7
 66
     1
 10
0.0
 20
0.0
 30
0.0
 70
     1
  0
VERTEX
  5
1045
  8
DATA
  6
CONTINUOUS
 62
     7
 10
156.53864895015349
 20
-133.7567593940046
 30
0.0
  0
VERTEX
  5
1046
  8
DATA
  6
CONTINUOUS
 62
     7
 10
157.53864895015349
 20
-133.7567593940046
 30
0.0
  0
VERTEX
  5
1047
  8
DATA
  6
CONTINUOUS
 62
     7
 10
157.53864895015349
 20
-134.7567593940046
 30
0.0
  0
VERTEX
  5
1048
  8
DATA
  6
CONTINUOUS
 62
     7
 10
156.53864895015349
 20
-134.7567593940046
 30
0.0
  0
SEQEND
  5
1049
  8
DATA
  6
CONTINUOUS
 62
     7
  0
POLYLINE
  5
88C
  8
DATA
  6
CONTINUOUS
 62
     7
 66
     1
 10
0.0
 20
0.0
 30
0.0
 70
     1
  0
VERTEX
  5
104A
  8
DATA
  6
CONTINUOUS
 62
     7
 10
159.25921781109699
 20
-133.7567593940046
 30
0.0
  0
VERTEX
  5
104B
  8
DATA
  6
CONTINUOUS
 62
     7
 10
160.25921781109699
 20
-133.7567593940046
 30
0.0
  0
VERTEX
  5
104C
  8
DATA
  6
CONTINUOUS
 62
     7
 10
160.25921781109699
 20
-134.7567593940046
 30
0.0
  0
VERTEX
  5
104D
  8
DATA
  6
CONTINUOUS
 62
     7
 10
159.25921781109699
 20
-134.7567593940046
 30
0.0
  0
SEQEND
  5
104E
  8
DATA
  6
CONTINUOUS
 62
     7
  0
LINE
  5
893
  8
DATA
  6
CONTINUOUS
 62
     7
 10
138.30356156267811
 20
-130.1674398888409
 30
0.0
 11
138.8624787601303
 21
-136.0174398888409
 31
0.0
  0
LINE
  5
894
  8
DATA
  6
CONTINUOUS
 62
     7
 10
162.19430519857241
 20
-130.1674398888409
 30
0.0
 11
161.63538800111999
 21
-136.0174398888409
 31
0.0
  0
ARC
  5
895
  8
DATA
  6
CONTINUOUS
 62
     7
 10
139.29902849343341
 20
-130.0723315833547
 30
0.0
 40
1.0
 50
90.0
 51
185.45755348510761
  0
ARC
  5
896
  8
DATA
  6
CONTINUOUS
 62
     7
 10
161.198838267817
 20
-130.0723315833547
 30
0.0
 40
0.9999999999999754
 50
354.54244651489228
 51
90.000000000003226
  0
ARC
  5
897
  8
DATA
  6
CONTINUOUS
 62
     7
 10
139.85794569088571
 20
-135.92233158335469
 30
0.0
 40
0.9999999999999754
 50
185.45755348510761
 51
270.0
  0
ARC
  5
898
  8
DATA
  6
CONTINUOUS
 62
     7
 10
160.63992107036461
 20
-135.92233158335469
 30
0.0
 40
1.0
 50
270.0
 51
354.5424465148958
  0
TEXT
  5
899
  8
DATA
 62
     7
 10
148.27930817998171
 20
-147.6288734669007
 30
0.0
 40
2.9319140625000002
  1
8
 41
0.7
 11
148.27930817998171
 21
-144.6969594044007
 31
0.0
 73
     3
  0
CIRCLE
  5
89A
  8
DATA
  6
CONTINUOUS
 62
     7
 10
195.9999999999456
 20
-132.99733158335471
 30
0.0
 40
1.400000000000019
  0
TEXT
  5
89B
  8
DATA
 62
     7
 10
191.41689538444521
 20
-147.6288734669007
 30
0.0
 40
2.9319140625000002
  1
Power
 41
0.7
 11
191.41689538444521
 21
-144.6969594044007
 31
0.0
 73
     3
  0
TEXT
  5
89C
  8
DATA
 62
     7
 10
-13.877601462217079
 20
-147.6288734669007
 30
0.0
 40
2.9319140625000002
  1
DVI Out
 41
0.7
 11
-13.877601462217079
 21
-144.6969594044007
 31
0.0
 73
     3
  0
LINE
  5
89D
  8
DATA
  6
CONTINUOUS
 62
     7
 10
-163.03198129397171
 20
-146.25727346690061
 30
0.0
 11
-123.5319812939715
 21
-146.25727346690061
 31
0.0
  0
LINE
  5
89E
  8
DATA
  6
CONTINUOUS
 62
     7
 10
-118.0319812939717
 20
-146.25727346690061
 30
0.0
 11
-78.531981293971555
 21
-146.25727346690061
 31
0.0
  0
LINE
  5
89F
  8
DATA
  6
CONTINUOUS
 62
     7
 10
-73.031981293971697
 20
-146.25727346690061
 30
0.0
 11
-33.531981293971363
 21
-146.25727346690061
 31
0.0
  0
LINE
  5
8A0
  8
DATA
  6
CONTINUOUS
 62
     7
 10
16.96801870602884
 20
-146.25727346690061
 30
0.0
 11
56.468018706028793
 21
-146.25727346690061
 31
0.0
  0
LINE
  5
8A1
  8
DATA
  6
CONTINUOUS
 62
     7
 10
61.96801870602868
 20
-146.25727346690061
 30
0.0
 11
101.4680187060288
 21
-146.25727346690061
 31
0.0
  0
LINE
  5
8A2
  8
DATA
  6
CONTINUOUS
 62
     7
 10
106.9680187060287
 20
-146.25727346690061
 30
0.0
 11
146.46801870602869
 21
-146.25727346690061
 31
0.0
  0
LINE
  5
8A3
  8
DATA
  6
CONTINUOUS
 62
     7
 10
-27.795994168119918
 20
-146.25727346690061
 30
0.0
 11
-16.464012874203011
 21
-146.25727346690061
 31
0.0
  0
LINE
  5
8A4
  8
DATA
  6
CONTINUOUS
 62
     7
 10
12.795994168010781
 20
-146.25727346690061
 30
0.0
 11
1.464012874093938
 21
-146.25727346690061
 31
0.0
  0
TEXT
  5
8A5
  8
DATA
 62
     7
 10
90.479200571978126
 20
-122.2600645034578
 30
0.0
 40
10.85894097222222
  1
DVI
 41
0.7
 11
90.479200571978126
 21
-111.4011235312356
 31
0.0
 73
     3
  0
TEXT
  5
8A6
  8
DATA
 62
     7
 10
69.775780667233363
 20
-122.3046161740926
 30
0.0
 40
9.5015733506944464
  1
1:8
 41
0.7
 11
69.775780667233363
 21
-112.8030428233981
 31
0.0
 73
     3
  0
TEXT
  5
8A7
  8
DATA
 62
     7
 10
112.8833830092241
 20
-122.2514789973654
 30
0.0
 40
6.5153645833333327
  1
Distribution Amplifier
 41
0.7
 11
112.8833830092241
 21
-115.736114414032
 31
0.0
 73
     3
  0
LINE
  5
8A8
  8
DATA
  6
CONTINUOUS
 62
     7
 10
-225.000000000055
 20
-50.000000000180762
 30
0.0
 11
-225.000000000055
 21
86.999999999819224
 31
0.0
  0
LINE
  5
8A9
  8
DATA
  6
CONTINUOUS
 62
     7
 10
209.99999999994549
 20
-50.000000000180762
 30
0.0
 11
209.99999999994549
 21
86.999999999819224
 31
0.0
  0
LINE
  5
8AA
  8
DATA
  6
CONTINUOUS
 62
     7
 10
-225.000000000055
 20
-50.000000000180762
 30
0.0
 11
209.99999999994549
 21
-50.000000000180762
 31
0.0
  0
LINE
  5
8AB
  8
DATA
  6
CONTINUOUS
 62
     7
 10
-225.000000000055
 20
86.999999999819224
 30
0.0
 11
209.99999999994549
 21
86.999999999819224
 31
0.0
  0
LINE
  5
8AC
  8
DATA
  6
CONTINUOUS
 62
     7
 10
-225.000000000055
 20
-42.000000000180762
 30
0.0
 11
209.99999999994549
 21
-42.000000000180762
 31
0.0
  0
LINE
  5
8AD
  8
DATA
  6
CONTINUOUS
 62
     7
 10
288.2999999999451
 20
-106.00000000018071
 30
0.0
 11
424.49999999994509
 21
-106.00000000018071
 31
0.0
  0
LINE
  5
8AE
  8
DATA
  6
CONTINUOUS
 62
     7
 10
288.2999999999451
 20
-150.00000000018071
 30
0.0
 11
423.69999999994508
 21
-150.00000000018071
 31
0.0
  0
LINE
  5
8AF
  8
DATA
  6
CONTINUOUS
 62
     7
 10
287.49999999994509
 20
-149.20000000018069
 30
0.0
 11
287.49999999994509
 21
-106.8000000001807
 31
0.0
  0
LINE
  5
8B0
  8
DATA
  6
CONTINUOUS
 62
     7
 10
424.49999999994509
 20
-149.20000000018069
 30
0.0
 11
424.49999999994509
 21
-106.00000000018071
 31
0.0
  0
LINE
  5
8B1
  8
DATA
  6
CONTINUOUS
 62
     7
 10
314.95423879150422
 20
-154.00000000018071
 30
0.0
 11
315.95423879150422
 21
-150.00000000018071
 31
0.0
  0
LINE
  5
8B2
  8
DATA
  6
CONTINUOUS
 62
     7
 10
297.95423879150422
 20
-150.00000000018071
 30
0.0
 11
298.95423879150422
 21
-154.00000000018071
 31
0.0
  0
LINE
  5
8B3
  8
DATA
  6
CONTINUOUS
 62
     7
 10
314.95423879150422
 20
-154.00000000018071
 30
0.0
 11
298.95423879150422
 21
-154.00000000018071
 31
0.0
  0
LINE
  5
8B4
  8
DATA
  6
CONTINUOUS
 62
     7
 10
407.45423879150422
 20
-154.00000000018071
 30
0.0
 11
408.45423879150422
 21
-150.00000000018071
 31
0.0
  0
LINE
  5
8B5
  8
DATA
  6
CONTINUOUS
 62
     7
 10
390.45423879150428
 20
-150.00000000018071
 30
0.0
 11
391.45423879150422
 21
-154.00000000018071
 31
0.0
  0
LINE
  5
8B6
  8
DATA
  6
CONTINUOUS
 62
     7
 10
407.45423879150422
 20
-154.00000000018071
 30
0.0
 11
391.45423879150422
 21
-154.00000000018071
 31
0.0
  0
LINE
  5
8B7
  8
DATA
  6
CONTINUOUS
 62
     7
 10
-146.3805471925117
 20
-55.000000000180762
 30
0.0
 11
-146.3805471925117
 21
-50.000000000180762
 31
0.0
  0
LINE
  5
8B8
  8
DATA
  6
CONTINUOUS
 62
     7
 10
-151.05708437294771
 20
-55.000000000180762
 30
0.0
 11
-151.05708437294771
 21
-50.000000000180762
 31
0.0
  0
LINE
  5
8B9
  8
DATA
  6
CONTINUOUS
 62
     7
 10
-178.88054719251221
 20
-55.000000000180762
 30
0.0
 11
-178.88054719251221
 21
-50.000000000180762
 31
0.0
  0
LINE
  5
8BA
  8
DATA
  6
CONTINUOUS
 62
     7
 10
-183.5570843729484
 20
-55.000000000180762
 30
0.0
 11
-183.5570843729484
 21
-50.000000000180762
 31
0.0
  0
LINE
  5
8BB
  8
DATA
  6
CONTINUOUS
 62
     7
 10
-153.0234439647825
 20
-55.000000000180762
 30
0.0
 11
-153.0234439647825
 21
-50.000000000180762
 31
0.0
  0
LINE
  5
8BC
  8
DATA
  6
CONTINUOUS
 62
     7
 10
-176.9004440013257
 20
-55.000000000180762
 30
0.0
 11
-176.9004440013257
 21
-50.000000000180762
 31
0.0
  0
LINE
  5
8BD
  8
DATA
  6
CONTINUOUS
 62
     7
 10
-183.5570843729484
 20
-55.000000000180762
 30
0.0
 11
-178.88054719251221
 21
-55.000000000180762
 31
0.0
  0
LINE
  5
8BE
  8
DATA
  6
CONTINUOUS
 62
     7
 10
-176.9004440013257
 20
-55.000000000180762
 30
0.0
 11
-153.0234439647825
 21
-55.000000000180762
 31
0.0
  0
LINE
  5
8BF
  8
DATA
  6
CONTINUOUS
 62
     7
 10
-151.05708437294771
 20
-55.000000000180762
 30
0.0
 11
-146.3805471925117
 21
-55.000000000180762
 31
0.0
  0
LINE
  5
8C0
  8
DATA
  6
CONTINUOUS
 62
     7
 10
-101.3805471925117
 20
-55.000000000180762
 30
0.0
 11
-101.3805471925117
 21
-50.000000000180762
 31
0.0
  0
LINE
  5
8C1
  8
DATA
  6
CONTINUOUS
 62
     7
 10
-106.0570843729477
 20
-55.000000000180762
 30
0.0
 11
-106.0570843729477
 21
-50.000000000180762
 31
0.0
  0
LINE
  5
8C2
  8
DATA
  6
CONTINUOUS
 62
     7
 10
-133.88054719251221
 20
-55.000000000180762
 30
0.0
 11
-133.88054719251221
 21
-50.000000000180762
 31
0.0
  0
LINE
  5
8C3
  8
DATA
  6
CONTINUOUS
 62
     7
 10
-138.5570843729484
 20
-55.000000000180762
 30
0.0
 11
-138.5570843729484
 21
-50.000000000180762
 31
0.0
  0
LINE
  5
8C4
  8
DATA
  6
CONTINUOUS
 62
     7
 10
-108.0234439647825
 20
-55.000000000180762
 30
0.0
 11
-108.0234439647825
 21
-50.000000000180762
 31
0.0
  0
LINE
  5
8C5
  8
DATA
  6
CONTINUOUS
 62
     7
 10
-131.9004440013257
 20
-55.000000000180762
 30
0.0
 11
-131.9004440013257
 21
-50.000000000180762
 31
0.0
  0
LINE
  5
8C6
  8
DATA
  6
CONTINUOUS
 62
     7
 10
-138.5570843729484
 20
-55.000000000180762
 30
0.0
 11
-133.88054719251221
 21
-55.000000000180762
 31
0.0
  0
LINE
  5
8C7
  8
DATA
  6
CONTINUOUS
 62
     7
 10
-131.9004440013257
 20
-55.000000000180762
 30
0.0
 11
-108.0234439647825
 21
-55.000000000180762
 31
0.0
  0
LINE
  5
8C8
  8
DATA
  6
CONTINUOUS
 62
     7
 10
-106.0570843729477
 20
-55.000000000180762
 30
0.0
 11
-101.3805471925117
 21
-55.000000000180762
 31
0.0
  0
LINE
  5
8C9
  8
DATA
  6
CONTINUOUS
 62
     7
 10
-56.380547192511742
 20
-55.000000000180762
 30
0.0
 11
-56.380547192511742
 21
-50.000000000180762
 31
0.0
  0
LINE
  5
8CA
  8
DATA
  6
CONTINUOUS
 62
     7
 10
-61.057084372947699
 20
-55.000000000180762
 30
0.0
 11
-61.057084372947699
 21
-50.000000000180762
 31
0.0
  0
LINE
  5
8CB
  8
DATA
  6
CONTINUOUS
 62
     7
 10
-88.880547192512182
 20
-55.000000000180762
 30
0.0
 11
-88.880547192512182
 21
-50.000000000180762
 31
0.0
  0
LINE
  5
8CC
  8
DATA
  6
CONTINUOUS
 62
     7
 10
-93.557084372948381
 20
-55.000000000180762
 30
0.0
 11
-93.557084372948381
 21
-50.000000000180762
 31
0.0
  0
LINE
  5
8CD
  8
DATA
  6
CONTINUOUS
 62
     7
 10
-63.023443964782572
 20
-55.000000000180762
 30
0.0
 11
-63.023443964782572
 21
-50.000000000180762
 31
0.0
  0
LINE
  5
8CE
  8
DATA
  6
CONTINUOUS
 62
     7
 10
-86.900444001325738
 20
-55.000000000180762
 30
0.0
 11
-86.900444001325738
 21
-50.000000000180762
 31
0.0
  0
LINE
  5
8CF
  8
DATA
  6
CONTINUOUS
 62
     7
 10
-93.557084372948381
 20
-55.000000000180762
 30
0.0
 11
-88.880547192512182
 21
-55.000000000180762
 31
0.0
  0
LINE
  5
8D0
  8
DATA
  6
CONTINUOUS
 62
     7
 10
-86.900444001325738
 20
-55.000000000180762
 30
0.0
 11
-63.023443964782572
 21
-55.000000000180762
 31
0.0
  0
LINE
  5
8D1
  8
DATA
  6
CONTINUOUS
 62
     7
 10
-61.057084372947699
 20
-55.000000000180762
 30
0.0
 11
-56.380547192511742
 21
-55.000000000180762
 31
0.0
  0
LINE
  5
8D2
  8
DATA
  6
CONTINUOUS
 62
     7
 10
-11.38054719251137
 20
-55.000000000180762
 30
0.0
 11
-11.38054719251137
 21
-50.000000000180762
 31
0.0
  0
LINE
  5
8D3
  8
DATA
  6
CONTINUOUS
 62
     7
 10
-16.057084372947369
 20
-55.000000000180762
 30
0.0
 11
-16.057084372947369
 21
-50.000000000180762
 31
0.0
  0
LINE
  5
8D4
  8
DATA
  6
CONTINUOUS
 62
     7
 10
-43.880547192512068
 20
-55.000000000180762
 30
0.0
 11
-43.880547192512068
 21
-50.000000000180762
 31
0.0
  0
LINE
  5
8D5
  8
DATA
  6
CONTINUOUS
 62
     7
 10
-48.557084372948331
 20
-55.000000000180762
 30
0.0
 11
-48.557084372948331
 21
-50.000000000180762
 31
0.0
  0
LINE
  5
8D6
  8
DATA
  6
CONTINUOUS
 62
     7
 10
-18.02344396478226
 20
-55.000000000180762
 30
0.0
 11
-18.02344396478226
 21
-50.000000000180762
 31
0.0
  0
LINE
  5
8D7
  8
DATA
  6
CONTINUOUS
 62
     7
 10
-41.900444001325617
 20
-55.000000000180762
 30
0.0
 11
-41.900444001325617
 21
-50.000000000180762
 31
0.0
  0
LINE
  5
8D8
  8
DATA
  6
CONTINUOUS
 62
     7
 10
-48.557084372948331
 20
-55.000000000180762
 30
0.0
 11
-43.880547192512068
 21
-55.000000000180762
 31
0.0
  0
LINE
  5
8D9
  8
DATA
  6
CONTINUOUS
 62
     7
 10
-41.900444001325617
 20
-55.000000000180762
 30
0.0
 11
-18.02344396478226
 21
-55.000000000180762
 31
0.0
  0
LINE
  5
8DA
  8
DATA
  6
CONTINUOUS
 62
     7
 10
-16.057084372947369
 20
-55.000000000180762
 30
0.0
 11
-11.38054719251137
 21
-55.000000000180762
 31
0.0
  0
LINE
  5
8DB
  8
DATA
  6
CONTINUOUS
 62
     7
 10
33.61945280748867
 20
-55.000000000180762
 30
0.0
 11
33.61945280748867
 21
-50.000000000180762
 31
0.0
  0
LINE
  5
8DC
  8
DATA
  6
CONTINUOUS
 62
     7
 10
28.942915627052741
 20
-55.000000000180762
 30
0.0
 11
28.942915627052741
 21
-50.000000000180762
 31
0.0
  0
LINE
  5
8DD
  8
DATA
  6
CONTINUOUS
 62
     7
 10
1.1194528074882859
 20
-55.000000000180762
 30
0.0
 11
1.1194528074882859
 21
-50.000000000180762
 31
0.0
  0
LINE
  5
8DE
  8
DATA
  6
CONTINUOUS
 62
     7
 10
-3.5570843729479402
 20
-55.000000000180762
 30
0.0
 11
-3.5570843729479402
 21
-50.000000000180762
 31
0.0
  0
LINE
  5
8DF
  8
DATA
  6
CONTINUOUS
 62
     7
 10
26.976556035217872
 20
-55.000000000180762
 30
0.0
 11
26.976556035217872
 21
-50.000000000180762
 31
0.0
  0
LINE
  5
8E0
  8
DATA
  6
CONTINUOUS
 62
     7
 10
3.0995559986747589
 20
-55.000000000180762
 30
0.0
 11
3.0995559986747589
 21
-50.000000000180762
 31
0.0
  0
LINE
  5
8E1
  8
DATA
  6
CONTINUOUS
 62
     7
 10
-3.5570843729479402
 20
-55.000000000180762
 30
0.0
 11
1.1194528074882859
 21
-55.000000000180762
 31
0.0
  0
LINE
  5
8E2
  8
DATA
  6
CONTINUOUS
 62
     7
 10
3.0995559986747589
 20
-55.000000000180762
 30
0.0
 11
26.976556035217872
 21
-55.000000000180762
 31
0.0
  0
LINE
  5
8E3
  8
DATA
  6
CONTINUOUS
 62
     7
 10
28.942915627052741
 20
-55.000000000180762
 30
0.0
 11
33.61945280748867
 21
-55.000000000180762
 31
0.0
  0
LINE
  5
8E4
  8
DATA
  6
CONTINUOUS
 62
     7
 10
78.619452807488571
 20
-55.000000000180762
 30
0.0
 11
78.619452807488571
 21
-50.000000000180762
 31
0.0
  0
LINE
  5
8E5
  8
DATA
  6
CONTINUOUS
 62
     7
 10
73.942915627052614
 20
-55.000000000180762
 30
0.0
 11
73.942915627052614
 21
-50.000000000180762
 31
0.0
  0
LINE
  5
8E6
  8
DATA
  6
CONTINUOUS
 62
     7
 10
46.119452807488223
 20
-55.000000000180762
 30
0.0
 11
46.119452807488223
 21
-50.000000000180762
 31
0.0
  0
LINE
  5
8E7
  8
DATA
  6
CONTINUOUS
 62
     7
 10
41.442915627052038
 20
-55.000000000180762
 30
0.0
 11
41.442915627052038
 21
-50.000000000180762
 31
0.0
  0
LINE
  5
8E8
  8
DATA
  6
CONTINUOUS
 62
     7
 10
71.97655603521774
 20
-55.000000000180762
 30
0.0
 11
71.97655603521774
 21
-50.000000000180762
 31
0.0
  0
LINE
  5
8E9
  8
DATA
  6
CONTINUOUS
 62
     7
 10
48.09955599867466
 20
-55.000000000180762
 30
0.0
 11
48.09955599867466
 21
-50.000000000180762
 31
0.0
  0
LINE
  5
8EA
  8
DATA
  6
CONTINUOUS
 62
     7
 10
41.442915627052038
 20
-55.000000000180762
 30
0.0
 11
46.119452807488223
 21
-55.000000000180762
 31
0.0
  0
LINE
  5
8EB
  8
DATA
  6
CONTINUOUS
 62
     7
 10
48.09955599867466
 20
-55.000000000180762
 30
0.0
 11
71.97655603521774
 21
-55.000000000180762
 31
0.0
  0
LINE
  5
8EC
  8
DATA
  6
CONTINUOUS
 62
     7
 10
73.942915627052614
 20
-55.000000000180762
 30
0.0
 11
78.619452807488571
 21
-55.000000000180762
 31
0.0
  0
LINE
  5
8ED
  8
DATA
  6
CONTINUOUS
 62
     7
 10
123.6194528074886
 20
-55.000000000180762
 30
0.0
 11
123.6194528074886
 21
-50.000000000180762
 31
0.0
  0
LINE
  5
8EE
  8
DATA
  6
CONTINUOUS
 62
     7
 10
118.9429156270526
 20
-55.000000000180762
 30
0.0
 11
118.9429156270526
 21
-50.000000000180762
 31
0.0
  0
LINE
  5
8EF
  8
DATA
  6
CONTINUOUS
 62
     7
 10
91.119452807488173
 20
-55.000000000180762
 30
0.0
 11
91.119452807488173
 21
-50.000000000180762
 31
0.0
  0
LINE
  5
8F0
  8
DATA
  6
CONTINUOUS
 62
     7
 10
86.442915627051974
 20
-55.000000000180762
 30
0.0
 11
86.442915627051974
 21
-50.000000000180762
 31
0.0
  0
LINE
  5
8F1
  8
DATA
  6
CONTINUOUS
 62
     7
 10
116.9765560352177
 20
-55.000000000180762
 30
0.0
 11
116.9765560352177
 21
-50.000000000180762
 31
0.0
  0
LINE
  5
8F2
  8
DATA
  6
CONTINUOUS
 62
     7
 10
93.099555998674603
 20
-55.000000000180762
 30
0.0
 11
93.099555998674603
 21
-50.000000000180762
 31
0.0
  0
LINE
  5
8F3
  8
DATA
  6
CONTINUOUS
 62
     7
 10
86.442915627051974
 20
-55.000000000180762
 30
0.0
 11
91.119452807488173
 21
-55.000000000180762
 31
0.0
  0
LINE
  5
8F4
  8
DATA
  6
CONTINUOUS
 62
     7
 10
93.099555998674603
 20
-55.000000000180762
 30
0.0
 11
116.9765560352177
 21
-55.000000000180762
 31
0.0
  0
LINE
  5
8F5
  8
DATA
  6
CONTINUOUS
 62
     7
 10
118.9429156270526
 20
-55.000000000180762
 30
0.0
 11
123.6194528074886
 21
-55.000000000180762
 31
0.0
  0
LINE
  5
8F6
  8
DATA
  6
CONTINUOUS
 62
     7
 10
168.61945280748861
 20
-55.000000000180762
 30
0.0
 11
168.61945280748861
 21
-50.000000000180762
 31
0.0
  0
LINE
  5
8F7
  8
DATA
  6
CONTINUOUS
 62
     7
 10
163.94291562705271
 20
-55.000000000180762
 30
0.0
 11
163.94291562705271
 21
-50.000000000180762
 31
0.0
  0
LINE
  5
8F8
  8
DATA
  6
CONTINUOUS
 62
     7
 10
136.1194528074881
 20
-55.000000000180762
 30
0.0
 11
136.1194528074881
 21
-50.000000000180762
 31
0.0
  0
LINE
  5
8F9
  8
DATA
  6
CONTINUOUS
 62
     7
 10
131.44291562705189
 20
-55.000000000180762
 30
0.0
 11
131.44291562705189
 21
-50.000000000180762
 31
0.0
  0
LINE
  5
8FA
  8
DATA
  6
CONTINUOUS
 62
     7
 10
161.97655603521781
 20
-55.000000000180762
 30
0.0
 11
161.97655603521781
 21
-50.000000000180762
 31
0.0
  0
LINE
  5
8FB
  8
DATA
  6
CONTINUOUS
 62
     7
 10
138.09955599867459
 20
-55.000000000180762
 30
0.0
 11
138.09955599867459
 21
-50.000000000180762
 31
0.0
  0
LINE
  5
8FC
  8
DATA
  6
CONTINUOUS
 62
     7
 10
131.44291562705189
 20
-55.000000000180762
 30
0.0
 11
136.1194528074881
 21
-55.000000000180762
 31
0.0
  0
LINE
  5
8FD
  8
DATA
  6
CONTINUOUS
 62
     7
 10
138.09955599867459
 20
-55.000000000180762
 30
0.0
 11
161.97655603521781
 21
-55.000000000180762
 31
0.0
  0
LINE
  5
8FE
  8
DATA
  6
CONTINUOUS
 62
     7
 10
163.94291562705271
 20
-55.000000000180762
 30
0.0
 11
168.61945280748861
 21
-55.000000000180762
 31
0.0
  0
ARC
  5
8FF
  8
DATA
  6
CONTINUOUS
 62
     7
 10
195.9999999999456
 20
-49.874800000172293
 30
0.0
 40
1.3999999999999999
 50
185.1307340863238
 51
354.8692659136762
  0
LINE
  5
900
  8
DATA
  6
CONTINUOUS
 62
     7
 10
156.13649065385931
 20
91.999999999819224
 30
0.0
 11
156.13649065385931
 21
86.999999999819224
 31
0.0
  0
LINE
  5
901
  8
DATA
  6
CONTINUOUS
 62
     7
 10
160.8130278342953
 20
91.999999999819224
 30
0.0
 11
160.8130278342953
 21
86.999999999819224
 31
0.0
  0
LINE
  5
902
  8
DATA
  6
CONTINUOUS
 62
     7
 10
188.63649065385979
 20
91.999999999819224
 30
0.0
 11
188.63649065385979
 21
86.999999999819224
 31
0.0
  0
LINE
  5
903
  8
DATA
  6
CONTINUOUS
 62
     7
 10
193.31302783429609
 20
91.999999999819224
 30
0.0
 11
193.31302783429609
 21
86.999999999819224
 31
0.0
  0
LINE
  5
904
  8
DATA
  6
CONTINUOUS
 62
     7
 10
162.77938742613011
 20
91.999999999819224
 30
0.0
 11
162.77938742613011
 21
86.999999999819224
 31
0.0
  0
LINE
  5
905
  8
DATA
  6
CONTINUOUS
 62
     7
 10
186.65638746267331
 20
91.999999999819224
 30
0.0
 11
186.65638746267331
 21
86.999999999819224
 31
0.0
  0
LINE
  5
906
  8
DATA
  6
CONTINUOUS
 62
     7
 10
193.31302783429609
 20
91.999999999819224
 30
0.0
 11
188.63649065385979
 21
91.999999999819224
 31
0.0
  0
LINE
  5
907
  8
DATA
  6
CONTINUOUS
 62
     7
 10
186.65638746267331
 20
91.999999999819224
 30
0.0
 11
162.77938742613011
 21
91.999999999819224
 31
0.0
  0
LINE
  5
908
  8
DATA
  6
CONTINUOUS
 62
     7
 10
160.8130278342953
 20
91.999999999819224
 30
0.0
 11
156.13649065385931
 21
91.999999999819224
 31
0.0
  0
LINE
  5
909
  8
DATA
  6
CONTINUOUS
 62
     7
 10
-225.000000000055
 20
194.00000000004769
 30
0.0
 11
-225.000000000055
 21
150.00000000004761
 31
0.0
  0
LINE
  5
90A
  8
DATA
  6
CONTINUOUS
 62
     7
 10
209.99999999994549
 20
194.00000000004769
 30
0.0
 11
-225.000000000055
 21
194.00000000004769
 31
0.0
  0
LINE
  5
90B
  8
DATA
  6
CONTINUOUS
 62
     7
 10
209.99999999994549
 20
150.00000000004761
 30
0.0
 11
209.99999999994549
 21
194.00000000004769
 31
0.0
  0
LINE
  5
90C
  8
DATA
  6
CONTINUOUS
 62
     7
 10
-225.000000000055
 20
150.00000000004761
 30
0.0
 11
209.99999999994549
 21
150.00000000004761
 31
0.0
  0
LINE
  5
90D
  8
DATA
  6
CONTINUOUS
 62
     7
 10
-214.20538299221641
 20
198.00000000004769
 30
0.0
 11
-215.20538299221641
 21
194.00000000004769
 31
0.0
  0
LINE
  5
90E
  8
DATA
  6
CONTINUOUS
 62
     7
 10
-197.20538299221641
 20
194.00000000004769
 30
0.0
 11
-198.20538299221641
 21
198.00000000004769
 31
0.0
  0
LINE
  5
90F
  8
DATA
  6
CONTINUOUS
 62
     7
 10
-214.20538299221641
 20
198.00000000004769
 30
0.0
 11
-198.20538299221641
 21
198.00000000004769
 31
0.0
  0
LINE
  5
910
  8
DATA
  6
CONTINUOUS
 62
     7
 10
199.20538299210699
 20
198.00000000004769
 30
0.0
 11
200.20538299210699
 21
194.00000000004769
 31
0.0
  0
LINE
  5
911
  8
DATA
  6
CONTINUOUS
 62
     7
 10
182.20538299210679
 20
194.00000000004769
 30
0.0
 11
183.20538299210691
 21
198.00000000004769
 31
0.0
  0
LINE
  5
912
  8
DATA
  6
CONTINUOUS
 62
     7
 10
199.20538299210699
 20
198.00000000004769
 30
0.0
 11
183.20538299210691
 21
198.00000000004769
 31
0.0
  0
TEXT
  5
913
  8
DATA
 62
     7
 10
180.12987716931349
 20
189.3504137081967
 30
0.0
 40
2.9319140625000002
  1
DVI In
 50
180.0
 41
0.7
 11
180.12987716931349
 21
186.4184996456967
 31
0.0
 73
     3
  0
CIRCLE
  5
914
  8
DATA
  6
CONTINUOUS
 62
     7
 10
-193.50000000005491
 20
173.11170701296689
 30
0.0
 40
6.5
  0
CIRCLE
  5
915
  8
DATA
  6
CONTINUOUS
 62
     7
 10
-193.50000000005491
 20
173.11170701296689
 30
0.0
 40
5.0
  0
POLYLINE
  5
916
  8
DATA
  6
CONTINUOUS
 62
     7
 66
     1
 10
0.0
 20
0.0
 30
0.0
 70
   129
  0
VERTEX
  5
104F
  8
DATA
  6
CONTINUOUS
 62
     7
 10
-196.750000000055
 20
175.56170701296691
 30
0.0
 42
-0.4142135623731106
  0
VERTEX
  5
1050
  8
DATA
  6
CONTINUOUS
 62
     7
 10
-195.9500000000549
 20
176.36170701296689
 30
0.0
  0
VERTEX
  5
1051
  8
DATA
  6
CONTINUOUS
 62
     7
 10
-191.05000000005501
 20
176.36170701296689
 30
0.0
 42
-0.4142135623730743
  0
VERTEX
  5
1052
  8
DATA
  6
CONTINUOUS
 62
     7
 10
-190.25000000005491
 20
175.56170701296691
 30
0.0
  0
VERTEX
  5
1053
  8
DATA
  6
CONTINUOUS
 62
     7
 10
-190.25000000005491
 20
170.6617070129669
 30
0.0
 42
-0.4142135623731015
  0
VERTEX
  5
1054
  8
DATA
  6
CONTINUOUS
 62
     7
 10
-191.05000000005501
 20
169.86170701296689
 30
0.0
  0
VERTEX
  5
1055
  8
DATA
  6
CONTINUOUS
 62
     7
 10
-195.9500000000549
 20
169.86170701296689
 30
0.0
 42
-0.4142135623730951
  0
VERTEX
  5
1056
  8
DATA
  6
CONTINUOUS
 62
     7
 10
-196.750000000055
 20
170.6617070129669
 30
0.0
  0
SEQEND
  5
1057
  8
DATA
  6
CONTINUOUS
 62
     7
  0
CIRCLE
  5
920
  8
DATA
  6
CONTINUOUS
 62
     7
 10
-195.25000000005491
 20
174.86170701296689
 30
0.0
 40
0.8999999999999772
  0
CIRCLE
  5
921
  8
DATA
  6
CONTINUOUS
 62
     7
 10
-191.750000000055
 20
174.86170701296689
 30
0.0
 40
0.8999999999999772
  0
CIRCLE
  5
922
  8
DATA
  6
CONTINUOUS
 62
     7
 10
-195.25000000005491
 20
171.36170701296689
 30
0.0
 40
0.8999999999999772
  0
CIRCLE
  5
923
  8
DATA
  6
CONTINUOUS
 62
     7
 10
-191.750000000055
 20
171.36170701296689
 30
0.0
 40
0.8999999999999772
  0
TEXT
  5
924
  8
DATA
 62
     7
 10
-187.52835885910619
 20
189.3504137081967
 30
0.0
 40
2.9319140625000002
  1
24 VDC
 50
180.0
 41
0.7
 11
-187.52835885910619
 21
186.4184996456967
 31
0.0
 73
     3
  0
LINE
  5
925
  8
DATA
  6
CONTINUOUS
 62
     7
 10
282.50000000008669
 20
-136.99679214344431
 30
0.0
 11
282.50000000008669
 21
-129.1467921434425
 31
0.0
  0
LINE
  5
926
  8
DATA
  6
CONTINUOUS
 62
     7
 10
287.50000000008669
 20
-135.7717921434425
 30
0.0
 11
282.50000000008669
 21
-135.7717921434425
 31
0.0
  0
LINE
  5
927
  8
DATA
  6
CONTINUOUS
 62
     7
 10
287.50000000008669
 20
-130.37179214344249
 30
0.0
 11
282.50000000008669
 21
-130.37179214344249
 31
0.0
  0
LINE
  5
928
  8
DATA
  6
CONTINUOUS
 62
     7
 10
287.50000000008669
 20
-136.99679214344431
 30
0.0
 11
282.50000000008669
 21
-136.9967921434444
 31
0.0
  0
LINE
  5
929
  8
DATA
  6
CONTINUOUS
 62
     7
 10
287.50000000008669
 20
-129.1467921434425
 30
0.0
 11
282.50000000008669
 21
-129.1467921434425
 31
0.0
  0
LINE
  5
92A
  8
DATA
  6
CONTINUOUS
 62
     7
 10
429.49999999980349
 20
-137.4892471363205
 30
0.0
 11
429.49999999980349
 21
-129.63924713631869
 31
0.0
  0
LINE
  5
92B
  8
DATA
  6
CONTINUOUS
 62
     7
 10
424.49999999980338
 20
-136.26424713631869
 30
0.0
 11
429.49999999980349
 21
-136.26424713631869
 31
0.0
  0
LINE
  5
92C
  8
DATA
  6
CONTINUOUS
 62
     7
 10
424.49999999980338
 20
-130.86424713631871
 30
0.0
 11
429.49999999980349
 21
-130.86424713631871
 31
0.0
  0
LINE
  5
92D
  8
DATA
  6
CONTINUOUS
 62
     7
 10
424.49999999980338
 20
-137.4892471363205
 30
0.0
 11
429.49999999980349
 21
-137.4892471363207
 31
0.0
  0
LINE
  5
92E
  8
DATA
  6
CONTINUOUS
 62
     7
 10
424.49999999980338
 20
-129.63924713631869
 30
0.0
 11
429.49999999980349
 21
-129.63924713631869
 31
0.0
  0
LINE
  5
92F
  8
DATA
  6
CONTINUOUS
 62
     7
 10
423.49999999994498
 20
-148.20000000018069
 30
0.0
 11
423.49999999994498
 21
-107.00000000018071
 31
0.0
  0
LINE
  5
930
  8
DATA
  6
CONTINUOUS
 62
     7
 10
288.49999999994509
 20
-148.20000000018069
 30
0.0
 11
288.49999999994509
 21
-107.8000000001807
 31
0.0
  0
LINE
  5
931
  8
DATA
  6
CONTINUOUS
 62
     7
 10
289.2999999999451
 20
-107.00000000018071
 30
0.0
 11
295.49999999994509
 21
-107.00000000018071
 31
0.0
  0
LINE
  5
932
  8
DATA
  6
CONTINUOUS
 62
     7
 10
295.49999999994509
 20
-107.00000000018071
 30
0.0
 11
295.49999999994509
 21
-106.00000000018071
 31
0.0
  0
LINE
  5
933
  8
DATA
  6
CONTINUOUS
 62
     7
 10
289.2999999999451
 20
-149.00000000018071
 30
0.0
 11
294.49999999994509
 21
-149.00000000018071
 31
0.0
  0
LINE
  5
934
  8
DATA
  6
CONTINUOUS
 62
     7
 10
294.49999999994509
 20
-150.00000000018071
 30
0.0
 11
294.49999999994509
 21
-149.00000000018071
 31
0.0
  0
LINE
  5
935
  8
DATA
  6
CONTINUOUS
 62
     7
 10
412.49999999994509
 20
-149.00000000018071
 30
0.0
 11
412.49999999994509
 21
-150.00000000018071
 31
0.0
  0
LINE
  5
936
  8
DATA
  6
CONTINUOUS
 62
     7
 10
412.49999999994509
 20
-149.00000000018071
 30
0.0
 11
422.69999999994502
 21
-149.00000000018071
 31
0.0
  0
ARC
  5
937
  8
DATA
  6
CONTINUOUS
 62
     7
 10
289.2999999999451
 20
-107.8000000001807
 30
0.0
 40
0.7999999999999546
 50
90.0
 51
180.00000000000401
  0
ARC
  5
938
  8
DATA
  6
CONTINUOUS
 62
     7
 10
288.2999999999451
 20
-106.8000000001807
 30
0.0
 40
0.7999999999999546
 50
90.0
 51
180.00000000000401
  0
ARC
  5
939
  8
DATA
  6
CONTINUOUS
 62
     7
 10
289.2999999999451
 20
-148.20000000018069
 30
0.0
 40
0.8000000000000113
 50
180.0
 51
270.0
  0
ARC
  5
93A
  8
DATA
  6
CONTINUOUS
 62
     7
 10
288.2999999999451
 20
-149.20000000018069
 30
0.0
 40
0.8000000000000113
 50
180.0
 51
270.0
  0
ARC
  5
93B
  8
DATA
  6
CONTINUOUS
 62
     7
 10
422.69999999994502
 20
-148.20000000018081
 30
0.0
 40
0.7999999999999546
 50
270.0
 51
0.0000000000040927
  0
ARC
  5
93C
  8
DATA
  6
CONTINUOUS
 62
     7
 10
423.69999999994508
 20
-149.20000000018081
 30
0.0
 40
0.7999999999999546
 50
270.0
 51
0.0000000000040927
  0
CIRCLE
  5
93D
  8
DATA
  6
CONTINUOUS
 62
     7
 10
301.49999999994509
 20
-143.00000000018071
 30
0.0
 40
2.75
  0
LINE
  5
93E
  8
DATA
  6
CONTINUOUS
 62
     7
 10
299.83116807311728
 20
-143.00000000018071
 30
0.0
 11
303.16883192677301
 21
-143.00000000018071
 31
0.0
  0
LINE
  5
93F
  8
DATA
  6
CONTINUOUS
 62
     7
 10
301.49999999994509
 20
-144.6688319270086
 30
0.0
 11
301.49999999994509
 21
-141.33116807335281
 31
0.0
  0
CIRCLE
  5
940
  8
DATA
  6
CONTINUOUS
 62
     7
 10
301.49999999994509
 20
-113.00000000018071
 30
0.0
 40
2.75
  0
LINE
  5
941
  8
DATA
  6
CONTINUOUS
 62
     7
 10
299.83116807311728
 20
-113.00000000018071
 30
0.0
 11
303.16883192677301
 21
-113.00000000018071
 31
0.0
  0
LINE
  5
942
  8
DATA
  6
CONTINUOUS
 62
     7
 10
301.49999999994509
 20
-114.6688319270086
 30
0.0
 11
301.49999999994509
 21
-111.3311680733528
 31
0.0
  0
CIRCLE
  5
943
  8
DATA
  6
CONTINUOUS
 62
     7
 10
353.49999999994509
 20
-143.00000000018071
 30
0.0
 40
2.749999999999972
  0
LINE
  5
944
  8
DATA
  6
CONTINUOUS
 62
     7
 10
351.83116807311723
 20
-143.00000000018071
 30
0.0
 11
355.16883192677301
 21
-143.00000000018071
 31
0.0
  0
LINE
  5
945
  8
DATA
  6
CONTINUOUS
 62
     7
 10
353.49999999994509
 20
-144.6688319270086
 30
0.0
 11
353.49999999994509
 21
-141.33116807335281
 31
0.0
  0
CIRCLE
  5
946
  8
DATA
  6
CONTINUOUS
 62
     7
 10
405.49999999994498
 20
-143.00000000018071
 30
0.0
 40
2.75
  0
LINE
  5
947
  8
DATA
  6
CONTINUOUS
 62
     7
 10
403.83116807311723
 20
-143.00000000018071
 30
0.0
 11
407.16883192677278
 21
-143.00000000018071
 31
0.0
  0
LINE
  5
948
  8
DATA
  6
CONTINUOUS
 62
     7
 10
405.49999999994498
 20
-144.6688319270086
 30
0.0
 11
405.49999999994498
 21
-141.33116807335281
 31
0.0
  0
CIRCLE
  5
949
  8
DATA
  6
CONTINUOUS
 62
     7
 10
158.3165846896006
 20
177.82856065898679
 30
0.0
 40
1.175000000000068
  0
POLYLINE
  5
94A
  8
DATA
  6
CONTINUOUS
 62
     7
 66
     1
 10
0.0
 20
0.0
 30
0.0
 70
     1
  0
VERTEX
  5
1058
  8
DATA
  6
CONTINUOUS
 62
     7
 10
158.3165846896006
 20
175.1285606589868
 30
0.0
  0
VERTEX
  5
1059
  8
DATA
  6
CONTINUOUS
 62
     7
 10
155.97831609938271
 20
176.47856065898679
 30
0.0
  0
VERTEX
  5
105A
  8
DATA
  6
CONTINUOUS
 62
     7
 10
155.97831609938271
 20
179.17856065898681
 30
0.0
  0
VERTEX
  5
105B
  8
DATA
  6
CONTINUOUS
 62
     7
 10
158.3165846896006
 20
180.52856065898681
 30
0.0
  0
VERTEX
  5
105C
  8
DATA
  6
CONTINUOUS
 62
     7
 10
160.65485327981861
 20
179.17856065898681
 30
0.0
  0
VERTEX
  5
105D
  8
DATA
  6
CONTINUOUS
 62
     7
 10
160.65485327981861
 20
176.47856065898679
 30
0.0
  0
SEQEND
  5
105E
  8
DATA
  6
CONTINUOUS
 62
     7
  0
CIRCLE
  5
953
  8
DATA
  6
CONTINUOUS
 62
     7
 10
190.8165846896004
 20
177.82856065898679
 30
0.0
 40
1.175000000000068
  0
POLYLINE
  5
954
  8
DATA
  6
CONTINUOUS
 62
     7
 66
     1
 10
0.0
 20
0.0
 30
0.0
 70
     1
  0
VERTEX
  5
105F
  8
DATA
  6
CONTINUOUS
 62
     7
 10
190.8165846896004
 20
175.1285606589868
 30
0.0
  0
VERTEX
  5
1060
  8
DATA
  6
CONTINUOUS
 62
     7
 10
188.47831609938251
 20
176.47856065898679
 30
0.0
  0
VERTEX
  5
1061
  8
DATA
  6
CONTINUOUS
 62
     7
 10
188.47831609938251
 20
179.17856065898681
 30
0.0
  0
VERTEX
  5
1062
  8
DATA
  6
CONTINUOUS
 62
     7
 10
190.8165846896004
 20
180.52856065898681
 30
0.0
  0
VERTEX
  5
1063
  8
DATA
  6
CONTINUOUS
 62
     7
 10
193.1548532798185
 20
179.17856065898681
 30
0.0
  0
VERTEX
  5
1064
  8
DATA
  6
CONTINUOUS
 62
     7
 10
193.1548532798185
 20
176.47856065898679
 30
0.0
  0
SEQEND
  5
1065
  8
DATA
  6
CONTINUOUS
 62
     7
  0
LINE
  5
95D
  8
DATA
  6
CONTINUOUS
 62
     7
 10
185.51857967738681
 20
173.90356065898669
 30
0.0
 11
163.6187699030034
 21
173.90356065898669
 31
0.0
  0
LINE
  5
95E
  8
DATA
  6
CONTINUOUS
 62
     7
 10
164.1776871004557
 20
181.7535606589868
 30
0.0
 11
184.95966247993459
 21
181.7535606589868
 31
0.0
  0
POLYLINE
  5
95F
  8
DATA
  6
CONTINUOUS
 62
     7
 66
     1
 10
0.0
 20
0.0
 30
0.0
 70
     1
  0
VERTEX
  5
1066
  8
DATA
  6
CONTINUOUS
 62
     7
 10
184.03874096137449
 20
178.59356065898669
 30
0.0
  0
VERTEX
  5
1067
  8
DATA
  6
CONTINUOUS
 62
     7
 10
185.56874096137449
 20
178.59356065898669
 30
0.0
  0
VERTEX
  5
1068
  8
DATA
  6
CONTINUOUS
 62
     7
 10
185.56874096137449
 20
177.0635606589868
 30
0.0
  0
VERTEX
  5
1069
  8
DATA
  6
CONTINUOUS
 62
     7
 10
184.03874096137449
 20
177.0635606589868
 30
0.0
  0
SEQEND
  5
106A
  8
DATA
  6
CONTINUOUS
 62
     7
  0
POLYLINE
  5
966
  8
DATA
  6
CONTINUOUS
 62
     7
 66
     1
 10
0.0
 20
0.0
 30
0.0
 70
     1
  0
VERTEX
  5
106B
  8
DATA
  6
CONTINUOUS
 62
     7
 10
182.03874096137449
 20
178.59356065898669
 30
0.0
  0
VERTEX
  5
106C
  8
DATA
  6
CONTINUOUS
 62
     7
 10
183.56874096137449
 20
178.59356065898669
 30
0.0
  0
VERTEX
  5
106D
  8
DATA
  6
CONTINUOUS
 62
     7
 10
183.56874096137449
 20
177.0635606589868
 30
0.0
  0
VERTEX
  5
106E
  8
DATA
  6
CONTINUOUS
 62
     7
 10
182.03874096137449
 20
177.0635606589868
 30
0.0
  0
SEQEND
  5
106F
  8
DATA
  6
CONTINUOUS
 62
     7
  0
POLYLINE
  5
96D
  8
DATA
  6
CONTINUOUS
 62
     7
 66
     1
 10
0.0
 20
0.0
 30
0.0
 70
     1
  0
VERTEX
  5
1070
  8
DATA
  6
CONTINUOUS
 62
     7
 10
180.03874096137449
 20
178.59356065898669
 30
0.0
  0
VERTEX
  5
1071
  8
DATA
  6
CONTINUOUS
 62
     7
 10
181.56874096137449
 20
178.59356065898669
 30
0.0
  0
VERTEX
  5
1072
  8
DATA
  6
CONTINUOUS
 62
     7
 10
181.56874096137449
 20
177.0635606589868
 30
0.0
  0
VERTEX
  5
1073
  8
DATA
  6
CONTINUOUS
 62
     7
 10
180.03874096137449
 20
177.0635606589868
 30
0.0
  0
SEQEND
  5
1074
  8
DATA
  6
CONTINUOUS
 62
     7
  0
POLYLINE
  5
974
  8
DATA
  6
CONTINUOUS
 62
     7
 66
     1
 10
0.0
 20
0.0
 30
0.0
 70
     1
  0
VERTEX
  5
1075
  8
DATA
  6
CONTINUOUS
 62
     7
 10
178.03874096137449
 20
178.59356065898669
 30
0.0
  0
VERTEX
  5
1076
  8
DATA
  6
CONTINUOUS
 62
     7
 10
179.5687409613744
 20
178.59356065898669
 30
0.0
  0
VERTEX
  5
1077
  8
DATA
  6
CONTINUOUS
 62
     7
 10
179.5687409613744
 20
177.0635606589868
 30
0.0
  0
VERTEX
  5
1078
  8
DATA
  6
CONTINUOUS
 62
     7
 10
178.03874096137449
 20
177.0635606589868
 30
0.0
  0
SEQEND
  5
1079
  8
DATA
  6
CONTINUOUS
 62
     7
  0
POLYLINE
  5
97B
  8
DATA
  6
CONTINUOUS
 62
     7
 66
     1
 10
0.0
 20
0.0
 30
0.0
 70
     1
  0
VERTEX
  5
107A
  8
DATA
  6
CONTINUOUS
 62
     7
 10
176.03874096137449
 20
178.59356065898669
 30
0.0
  0
VERTEX
  5
107B
  8
DATA
  6
CONTINUOUS
 62
     7
 10
177.5687409613744
 20
178.59356065898669
 30
0.0
  0
VERTEX
  5
107C
  8
DATA
  6
CONTINUOUS
 62
     7
 10
177.5687409613744
 20
177.0635606589868
 30
0.0
  0
VERTEX
  5
107D
  8
DATA
  6
CONTINUOUS
 62
     7
 10
176.03874096137449
 20
177.0635606589868
 30
0.0
  0
SEQEND
  5
107E
  8
DATA
  6
CONTINUOUS
 62
     7
  0
POLYLINE
  5
982
  8
DATA
  6
CONTINUOUS
 62
     7
 66
     1
 10
0.0
 20
0.0
 30
0.0
 70
     1
  0
VERTEX
  5
107F
  8
DATA
  6
CONTINUOUS
 62
     7
 10
174.03874096137449
 20
178.59356065898669
 30
0.0
  0
VERTEX
  5
1080
  8
DATA
  6
CONTINUOUS
 62
     7
 10
175.5687409613744
 20
178.59356065898669
 30
0.0
  0
VERTEX
  5
1081
  8
DATA
  6
CONTINUOUS
 62
     7
 10
175.5687409613744
 20
177.0635606589868
 30
0.0
  0
VERTEX
  5
1082
  8
DATA
  6
CONTINUOUS
 62
     7
 10
174.03874096137449
 20
177.0635606589868
 30
0.0
  0
SEQEND
  5
1083
  8
DATA
  6
CONTINUOUS
 62
     7
  0
POLYLINE
  5
989
  8
DATA
  6
CONTINUOUS
 62
     7
 66
     1
 10
0.0
 20
0.0
 30
0.0
 70
     1
  0
VERTEX
  5
1084
  8
DATA
  6
CONTINUOUS
 62
     7
 10
172.03874096137449
 20
178.59356065898669
 30
0.0
  0
VERTEX
  5
1085
  8
DATA
  6
CONTINUOUS
 62
     7
 10
173.56874096137449
 20
178.59356065898669
 30
0.0
  0
VERTEX
  5
1086
  8
DATA
  6
CONTINUOUS
 62
     7
 10
173.56874096137449
 20
177.0635606589868
 30
0.0
  0
VERTEX
  5
1087
  8
DATA
  6
CONTINUOUS
 62
     7
 10
172.03874096137449
 20
177.0635606589868
 30
0.0
  0
SEQEND
  5
1088
  8
DATA
  6
CONTINUOUS
 62
     7
  0
POLYLINE
  5
990
  8
DATA
  6
CONTINUOUS
 62
     7
 66
     1
 10
0.0
 20
0.0
 30
0.0
 70
     1
  0
VERTEX
  5
1089
  8
DATA
  6
CONTINUOUS
 62
     7
 10
170.0387409613744
 20
178.59356065898669
 30
0.0
  0
VERTEX
  5
108A
  8
DATA
  6
CONTINUOUS
 62
     7
 10
171.56874096137449
 20
178.59356065898669
 30
0.0
  0
VERTEX
  5
108B
  8
DATA
  6
CONTINUOUS
 62
     7
 10
171.56874096137449
 20
177.0635606589868
 30
0.0
  0
VERTEX
  5
108C
  8
DATA
  6
CONTINUOUS
 62
     7
 10
170.0387409613744
 20
177.0635606589868
 30
0.0
  0
SEQEND
  5
108D
  8
DATA
  6
CONTINUOUS
 62
     7
  0
POLYLINE
  5
997
  8
DATA
  6
CONTINUOUS
 62
     7
 66
     1
 10
0.0
 20
0.0
 30
0.0
 70
     1
  0
VERTEX
  5
108E
  8
DATA
  6
CONTINUOUS
 62
     7
 10
184.03874096137449
 20
176.59356065898669
 30
0.0
  0
VERTEX
  5
108F
  8
DATA
  6
CONTINUOUS
 62
     7
 10
185.56874096137449
 20
176.59356065898669
 30
0.0
  0
VERTEX
  5
1090
  8
DATA
  6
CONTINUOUS
 62
     7
 10
185.56874096137449
 20
175.0635606589868
 30
0.0
  0
VERTEX
  5
1091
  8
DATA
  6
CONTINUOUS
 62
     7
 10
184.03874096137449
 20
175.0635606589868
 30
0.0
  0
SEQEND
  5
1092
  8
DATA
  6
CONTINUOUS
 62
     7
  0
POLYLINE
  5
99E
  8
DATA
  6
CONTINUOUS
 62
     7
 66
     1
 10
0.0
 20
0.0
 30
0.0
 70
     1
  0
VERTEX
  5
1093
  8
DATA
  6
CONTINUOUS
 62
     7
 10
182.03874096137449
 20
176.59356065898669
 30
0.0
  0
VERTEX
  5
1094
  8
DATA
  6
CONTINUOUS
 62
     7
 10
183.56874096137449
 20
176.59356065898669
 30
0.0
  0
VERTEX
  5
1095
  8
DATA
  6
CONTINUOUS
 62
     7
 10
183.56874096137449
 20
175.0635606589868
 30
0.0
  0
VERTEX
  5
1096
  8
DATA
  6
CONTINUOUS
 62
     7
 10
182.03874096137449
 20
175.0635606589868
 30
0.0
  0
SEQEND
  5
1097
  8
DATA
  6
CONTINUOUS
 62
     7
  0
POLYLINE
  5
9A5
  8
DATA
  6
CONTINUOUS
 62
     7
 66
     1
 10
0.0
 20
0.0
 30
0.0
 70
     1
  0
VERTEX
  5
1098
  8
DATA
  6
CONTINUOUS
 62
     7
 10
180.03874096137449
 20
176.59356065898669
 30
0.0
  0
VERTEX
  5
1099
  8
DATA
  6
CONTINUOUS
 62
     7
 10
181.56874096137449
 20
176.59356065898669
 30
0.0
  0
VERTEX
  5
109A
  8
DATA
  6
CONTINUOUS
 62
     7
 10
181.56874096137449
 20
175.0635606589868
 30
0.0
  0
VERTEX
  5
109B
  8
DATA
  6
CONTINUOUS
 62
     7
 10
180.03874096137449
 20
175.0635606589868
 30
0.0
  0
SEQEND
  5
109C
  8
DATA
  6
CONTINUOUS
 62
     7
  0
POLYLINE
  5
9AC
  8
DATA
  6
CONTINUOUS
 62
     7
 66
     1
 10
0.0
 20
0.0
 30
0.0
 70
     1
  0
VERTEX
  5
109D
  8
DATA
  6
CONTINUOUS
 62
     7
 10
178.03874096137449
 20
176.59356065898669
 30
0.0
  0
VERTEX
  5
109E
  8
DATA
  6
CONTINUOUS
 62
     7
 10
179.5687409613744
 20
176.59356065898669
 30
0.0
  0
VERTEX
  5
109F
  8
DATA
  6
CONTINUOUS
 62
     7
 10
179.5687409613744
 20
175.0635606589868
 30
0.0
  0
VERTEX
  5
10A0
  8
DATA
  6
CONTINUOUS
 62
     7
 10
178.03874096137449
 20
175.0635606589868
 30
0.0
  0
SEQEND
  5
10A1
  8
DATA
  6
CONTINUOUS
 62
     7
  0
POLYLINE
  5
9B3
  8
DATA
  6
CONTINUOUS
 62
     7
 66
     1
 10
0.0
 20
0.0
 30
0.0
 70
     1
  0
VERTEX
  5
10A2
  8
DATA
  6
CONTINUOUS
 62
     7
 10
176.03874096137449
 20
176.59356065898669
 30
0.0
  0
VERTEX
  5
10A3
  8
DATA
  6
CONTINUOUS
 62
     7
 10
177.5687409613744
 20
176.59356065898669
 30
0.0
  0
VERTEX
  5
10A4
  8
DATA
  6
CONTINUOUS
 62
     7
 10
177.5687409613744
 20
175.0635606589868
 30
0.0
  0
VERTEX
  5
10A5
  8
DATA
  6
CONTINUOUS
 62
     7
 10
176.03874096137449
 20
175.0635606589868
 30
0.0
  0
SEQEND
  5
10A6
  8
DATA
  6
CONTINUOUS
 62
     7
  0
POLYLINE
  5
9BA
  8
DATA
  6
CONTINUOUS
 62
     7
 66
     1
 10
0.0
 20
0.0
 30
0.0
 70
     1
  0
VERTEX
  5
10A7
  8
DATA
  6
CONTINUOUS
 62
     7
 10
174.03874096137449
 20
176.59356065898669
 30
0.0
  0
VERTEX
  5
10A8
  8
DATA
  6
CONTINUOUS
 62
     7
 10
175.5687409613744
 20
176.59356065898669
 30
0.0
  0
VERTEX
  5
10A9
  8
DATA
  6
CONTINUOUS
 62
     7
 10
175.5687409613744
 20
175.0635606589868
 30
0.0
  0
VERTEX
  5
10AA
  8
DATA
  6
CONTINUOUS
 62
     7
 10
174.03874096137449
 20
175.0635606589868
 30
0.0
  0
SEQEND
  5
10AB
  8
DATA
  6
CONTINUOUS
 62
     7
  0
POLYLINE
  5
9C1
  8
DATA
  6
CONTINUOUS
 62
     7
 66
     1
 10
0.0
 20
0.0
 30
0.0
 70
     1
  0
VERTEX
  5
10AC
  8
DATA
  6
CONTINUOUS
 62
     7
 10
172.03874096137449
 20
176.59356065898669
 30
0.0
  0
VERTEX
  5
10AD
  8
DATA
  6
CONTINUOUS
 62
     7
 10
173.56874096137449
 20
176.59356065898669
 30
0.0
  0
VERTEX
  5
10AE
  8
DATA
  6
CONTINUOUS
 62
     7
 10
173.56874096137449
 20
175.0635606589868
 30
0.0
  0
VERTEX
  5
10AF
  8
DATA
  6
CONTINUOUS
 62
     7
 10
172.03874096137449
 20
175.0635606589868
 30
0.0
  0
SEQEND
  5
10B0
  8
DATA
  6
CONTINUOUS
 62
     7
  0
POLYLINE
  5
9C8
  8
DATA
  6
CONTINUOUS
 62
     7
 66
     1
 10
0.0
 20
0.0
 30
0.0
 70
     1
  0
VERTEX
  5
10B1
  8
DATA
  6
CONTINUOUS
 62
     7
 10
170.0387409613744
 20
176.59356065898669
 30
0.0
  0
VERTEX
  5
10B2
  8
DATA
  6
CONTINUOUS
 62
     7
 10
171.56874096137449
 20
176.59356065898669
 30
0.0
  0
VERTEX
  5
10B3
  8
DATA
  6
CONTINUOUS
 62
     7
 10
171.56874096137449
 20
175.0635606589868
 30
0.0
  0
VERTEX
  5
10B4
  8
DATA
  6
CONTINUOUS
 62
     7
 10
170.0387409613744
 20
175.0635606589868
 30
0.0
  0
SEQEND
  5
10B5
  8
DATA
  6
CONTINUOUS
 62
     7
  0
POLYLINE
  5
9CF
  8
DATA
  6
CONTINUOUS
 62
     7
 66
     1
 10
0.0
 20
0.0
 30
0.0
 70
     1
  0
VERTEX
  5
10B6
  8
DATA
  6
CONTINUOUS
 62
     7
 10
184.03874096137449
 20
180.5935606589868
 30
0.0
  0
VERTEX
  5
10B7
  8
DATA
  6
CONTINUOUS
 62
     7
 10
185.56874096137449
 20
180.5935606589868
 30
0.0
  0
VERTEX
  5
10B8
  8
DATA
  6
CONTINUOUS
 62
     7
 10
185.56874096137449
 20
179.0635606589868
 30
0.0
  0
VERTEX
  5
10B9
  8
DATA
  6
CONTINUOUS
 62
     7
 10
184.03874096137449
 20
179.0635606589868
 30
0.0
  0
SEQEND
  5
10BA
  8
DATA
  6
CONTINUOUS
 62
     7
  0
POLYLINE
  5
9D6
  8
DATA
  6
CONTINUOUS
 62
     7
 66
     1
 10
0.0
 20
0.0
 30
0.0
 70
     1
  0
VERTEX
  5
10BB
  8
DATA
  6
CONTINUOUS
 62
     7
 10
182.03874096137449
 20
180.5935606589868
 30
0.0
  0
VERTEX
  5
10BC
  8
DATA
  6
CONTINUOUS
 62
     7
 10
183.56874096137449
 20
180.5935606589868
 30
0.0
  0
VERTEX
  5
10BD
  8
DATA
  6
CONTINUOUS
 62
     7
 10
183.56874096137449
 20
179.0635606589868
 30
0.0
  0
VERTEX
  5
10BE
  8
DATA
  6
CONTINUOUS
 62
     7
 10
182.03874096137449
 20
179.0635606589868
 30
0.0
  0
SEQEND
  5
10BF
  8
DATA
  6
CONTINUOUS
 62
     7
  0
POLYLINE
  5
9DD
  8
DATA
  6
CONTINUOUS
 62
     7
 66
     1
 10
0.0
 20
0.0
 30
0.0
 70
     1
  0
VERTEX
  5
10C0
  8
DATA
  6
CONTINUOUS
 62
     7
 10
180.03874096137449
 20
180.5935606589868
 30
0.0
  0
VERTEX
  5
10C1
  8
DATA
  6
CONTINUOUS
 62
     7
 10
181.56874096137449
 20
180.5935606589868
 30
0.0
  0
VERTEX
  5
10C2
  8
DATA
  6
CONTINUOUS
 62
     7
 10
181.56874096137449
 20
179.0635606589868
 30
0.0
  0
VERTEX
  5
10C3
  8
DATA
  6
CONTINUOUS
 62
     7
 10
180.03874096137449
 20
179.0635606589868
 30
0.0
  0
SEQEND
  5
10C4
  8
DATA
  6
CONTINUOUS
 62
     7
  0
POLYLINE
  5
9E4
  8
DATA
  6
CONTINUOUS
 62
     7
 66
     1
 10
0.0
 20
0.0
 30
0.0
 70
     1
  0
VERTEX
  5
10C5
  8
DATA
  6
CONTINUOUS
 62
     7
 10
178.03874096137449
 20
180.5935606589868
 30
0.0
  0
VERTEX
  5
10C6
  8
DATA
  6
CONTINUOUS
 62
     7
 10
179.5687409613744
 20
180.5935606589868
 30
0.0
  0
VERTEX
  5
10C7
  8
DATA
  6
CONTINUOUS
 62
     7
 10
179.5687409613744
 20
179.0635606589868
 30
0.0
  0
VERTEX
  5
10C8
  8
DATA
  6
CONTINUOUS
 62
     7
 10
178.03874096137449
 20
179.0635606589868
 30
0.0
  0
SEQEND
  5
10C9
  8
DATA
  6
CONTINUOUS
 62
     7
  0
POLYLINE
  5
9EB
  8
DATA
  6
CONTINUOUS
 62
     7
 66
     1
 10
0.0
 20
0.0
 30
0.0
 70
     1
  0
VERTEX
  5
10CA
  8
DATA
  6
CONTINUOUS
 62
     7
 10
176.03874096137449
 20
180.5935606589868
 30
0.0
  0
VERTEX
  5
10CB
  8
DATA
  6
CONTINUOUS
 62
     7
 10
177.5687409613744
 20
180.5935606589868
 30
0.0
  0
VERTEX
  5
10CC
  8
DATA
  6
CONTINUOUS
 62
     7
 10
177.5687409613744
 20
179.0635606589868
 30
0.0
  0
VERTEX
  5
10CD
  8
DATA
  6
CONTINUOUS
 62
     7
 10
176.03874096137449
 20
179.0635606589868
 30
0.0
  0
SEQEND
  5
10CE
  8
DATA
  6
CONTINUOUS
 62
     7
  0
POLYLINE
  5
9F2
  8
DATA
  6
CONTINUOUS
 62
     7
 66
     1
 10
0.0
 20
0.0
 30
0.0
 70
     1
  0
VERTEX
  5
10CF
  8
DATA
  6
CONTINUOUS
 62
     7
 10
174.03874096137449
 20
180.5935606589868
 30
0.0
  0
VERTEX
  5
10D0
  8
DATA
  6
CONTINUOUS
 62
     7
 10
175.5687409613744
 20
180.5935606589868
 30
0.0
  0
VERTEX
  5
10D1
  8
DATA
  6
CONTINUOUS
 62
     7
 10
175.5687409613744
 20
179.0635606589868
 30
0.0
  0
VERTEX
  5
10D2
  8
DATA
  6
CONTINUOUS
 62
     7
 10
174.03874096137449
 20
179.0635606589868
 30
0.0
  0
SEQEND
  5
10D3
  8
DATA
  6
CONTINUOUS
 62
     7
  0
POLYLINE
  5
9F9
  8
DATA
  6
CONTINUOUS
 62
     7
 66
     1
 10
0.0
 20
0.0
 30
0.0
 70
     1
  0
VERTEX
  5
10D4
  8
DATA
  6
CONTINUOUS
 62
     7
 10
172.03874096137449
 20
180.5935606589868
 30
0.0
  0
VERTEX
  5
10D5
  8
DATA
  6
CONTINUOUS
 62
     7
 10
173.56874096137449
 20
180.5935606589868
 30
0.0
  0
VERTEX
  5
10D6
  8
DATA
  6
CONTINUOUS
 62
     7
 10
173.56874096137449
 20
179.0635606589868
 30
0.0
  0
VERTEX
  5
10D7
  8
DATA
  6
CONTINUOUS
 62
     7
 10
172.03874096137449
 20
179.0635606589868
 30
0.0
  0
SEQEND
  5
10D8
  8
DATA
  6
CONTINUOUS
 62
     7
  0
POLYLINE
  5
A00
  8
DATA
  6
CONTINUOUS
 62
     7
 66
     1
 10
0.0
 20
0.0
 30
0.0
 70
     1
  0
VERTEX
  5
10D9
  8
DATA
  6
CONTINUOUS
 62
     7
 10
170.0387409613744
 20
180.5935606589868
 30
0.0
  0
VERTEX
  5
10DA
  8
DATA
  6
CONTINUOUS
 62
     7
 10
171.56874096137449
 20
180.5935606589868
 30
0.0
  0
VERTEX
  5
10DB
  8
DATA
  6
CONTINUOUS
 62
     7
 10
171.56874096137449
 20
179.0635606589868
 30
0.0
  0
VERTEX
  5
10DC
  8
DATA
  6
CONTINUOUS
 62
     7
 10
170.0387409613744
 20
179.0635606589868
 30
0.0
  0
SEQEND
  5
10DD
  8
DATA
  6
CONTINUOUS
 62
     7
  0
POLYLINE
  5
A07
  8
DATA
  6
CONTINUOUS
 62
     7
 66
     1
 10
0.0
 20
0.0
 30
0.0
  0
VERTEX
  5
10DE
  8
DATA
  6
CONTINUOUS
 62
     7
 10
166.01867479019501
 20
177.42856065898681
 30
0.0
  0
VERTEX
  5
10DF
  8
DATA
  6
CONTINUOUS
 62
     7
 10
163.91867479019501
 20
177.42856065898681
 30
0.0
  0
VERTEX
  5
10E0
  8
DATA
  6
CONTINUOUS
 62
     7
 10
163.91867479019501
 20
178.22856065898679
 30
0.0
  0
VERTEX
  5
10E1
  8
DATA
  6
CONTINUOUS
 62
     7
 10
166.01867479019501
 20
178.22856065898679
 30
0.0
  0
SEQEND
  5
10E2
  8
DATA
  6
CONTINUOUS
 62
     7
  0
POLYLINE
  5
A0E
  8
DATA
  6
CONTINUOUS
 62
     7
 66
     1
 10
0.0
 20
0.0
 30
0.0
  0
VERTEX
  5
10E3
  8
DATA
  6
CONTINUOUS
 62
     7
 10
166.81867479019499
 20
178.22856065898679
 30
0.0
  0
VERTEX
  5
10E4
  8
DATA
  6
CONTINUOUS
 62
     7
 10
168.91867479019501
 20
178.22856065898679
 30
0.0
  0
VERTEX
  5
10E5
  8
DATA
  6
CONTINUOUS
 62
     7
 10
168.91867479019501
 20
177.42856065898681
 30
0.0
  0
VERTEX
  5
10E6
  8
DATA
  6
CONTINUOUS
 62
     7
 10
166.81867479019499
 20
177.42856065898681
 30
0.0
  0
SEQEND
  5
10E7
  8
DATA
  6
CONTINUOUS
 62
     7
  0
POLYLINE
  5
A15
  8
DATA
  6
CONTINUOUS
 62
     7
 66
     1
 10
0.0
 20
0.0
 30
0.0
  0
VERTEX
  5
10E8
  8
DATA
  6
CONTINUOUS
 62
     7
 10
166.01867479019501
 20
178.22856065898679
 30
0.0
  0
VERTEX
  5
10E9
  8
DATA
  6
CONTINUOUS
 62
     7
 10
166.01867479019501
 20
180.32856065898679
 30
0.0
  0
VERTEX
  5
10EA
  8
DATA
  6
CONTINUOUS
 62
     7
 10
166.81867479019499
 20
180.32856065898679
 30
0.0
  0
VERTEX
  5
10EB
  8
DATA
  6
CONTINUOUS
 62
     7
 10
166.81867479019499
 20
178.22856065898679
 30
0.0
  0
SEQEND
  5
10EC
  8
DATA
  6
CONTINUOUS
 62
     7
  0
POLYLINE
  5
A1C
  8
DATA
  6
CONTINUOUS
 62
     7
 66
     1
 10
0.0
 20
0.0
 30
0.0
  0
VERTEX
  5
10ED
  8
DATA
  6
CONTINUOUS
 62
     7
 10
166.81867479019499
 20
177.42856065898681
 30
0.0
  0
VERTEX
  5
10EE
  8
DATA
  6
CONTINUOUS
 62
     7
 10
166.81867479019499
 20
175.32856065898679
 30
0.0
  0
VERTEX
  5
10EF
  8
DATA
  6
CONTINUOUS
 62
     7
 10
166.01867479019501
 20
175.32856065898679
 30
0.0
  0
VERTEX
  5
10F0
  8
DATA
  6
CONTINUOUS
 62
     7
 10
166.01867479019501
 20
177.42856065898681
 30
0.0
  0
SEQEND
  5
10F1
  8
DATA
  6
CONTINUOUS
 62
     7
  0
POLYLINE
  5
A23
  8
DATA
  6
CONTINUOUS
 62
     7
 66
     1
 10
0.0
 20
0.0
 30
0.0
 70
     1
  0
VERTEX
  5
10F2
  8
DATA
  6
CONTINUOUS
 62
     7
 10
167.27895922066671
 20
177.06913284833681
 30
0.0
  0
VERTEX
  5
10F3
  8
DATA
  6
CONTINUOUS
 62
     7
 10
168.27895922066671
 20
177.06913284833681
 30
0.0
  0
VERTEX
  5
10F4
  8
DATA
  6
CONTINUOUS
 62
     7
 10
168.27895922066671
 20
176.06913284833681
 30
0.0
  0
VERTEX
  5
10F5
  8
DATA
  6
CONTINUOUS
 62
     7
 10
167.27895922066671
 20
176.06913284833681
 30
0.0
  0
SEQEND
  5
10F6
  8
DATA
  6
CONTINUOUS
 62
     7
  0
POLYLINE
  5
A2A
  8
DATA
  6
CONTINUOUS
 62
     7
 66
     1
 10
0.0
 20
0.0
 30
0.0
 70
     1
  0
VERTEX
  5
10F7
  8
DATA
  6
CONTINUOUS
 62
     7
 10
164.55839035972329
 20
177.06913284833681
 30
0.0
  0
VERTEX
  5
10F8
  8
DATA
  6
CONTINUOUS
 62
     7
 10
165.55839035972329
 20
177.06913284833681
 30
0.0
  0
VERTEX
  5
10F9
  8
DATA
  6
CONTINUOUS
 62
     7
 10
165.55839035972329
 20
176.06913284833681
 30
0.0
  0
VERTEX
  5
10FA
  8
DATA
  6
CONTINUOUS
 62
     7
 10
164.55839035972329
 20
176.06913284833681
 30
0.0
  0
SEQEND
  5
10FB
  8
DATA
  6
CONTINUOUS
 62
     7
  0
POLYLINE
  5
A31
  8
DATA
  6
CONTINUOUS
 62
     7
 66
     1
 10
0.0
 20
0.0
 30
0.0
 70
     1
  0
VERTEX
  5
10FC
  8
DATA
  6
CONTINUOUS
 62
     7
 10
167.27895922066671
 20
179.58798846963671
 30
0.0
  0
VERTEX
  5
10FD
  8
DATA
  6
CONTINUOUS
 62
     7
 10
168.27895922066671
 20
179.58798846963671
 30
0.0
  0
VERTEX
  5
10FE
  8
DATA
  6
CONTINUOUS
 62
     7
 10
168.27895922066671
 20
178.58798846963671
 30
0.0
  0
VERTEX
  5
10FF
  8
DATA
  6
CONTINUOUS
 62
     7
 10
167.27895922066671
 20
178.58798846963671
 30
0.0
  0
SEQEND
  5
1100
  8
DATA
  6
CONTINUOUS
 62
     7
  0
POLYLINE
  5
A38
  8
DATA
  6
CONTINUOUS
 62
     7
 66
     1
 10
0.0
 20
0.0
 30
0.0
 70
     1
  0
VERTEX
  5
1101
  8
DATA
  6
CONTINUOUS
 62
     7
 10
164.55839035972329
 20
179.58798846963671
 30
0.0
  0
VERTEX
  5
1102
  8
DATA
  6
CONTINUOUS
 62
     7
 10
165.55839035972329
 20
179.58798846963671
 30
0.0
  0
VERTEX
  5
1103
  8
DATA
  6
CONTINUOUS
 62
     7
 10
165.55839035972329
 20
178.58798846963671
 30
0.0
  0
VERTEX
  5
1104
  8
DATA
  6
CONTINUOUS
 62
     7
 10
164.55839035972329
 20
178.58798846963671
 30
0.0
  0
SEQEND
  5
1105
  8
DATA
  6
CONTINUOUS
 62
     7
  0
LINE
  5
A3F
  8
DATA
  6
CONTINUOUS
 62
     7
 10
186.51404660814219
 20
174.99866896447301
 30
0.0
 11
185.95512941069001
 21
180.84866896447301
 31
0.0
  0
LINE
  5
A40
  8
DATA
  6
CONTINUOUS
 62
     7
 10
162.62330297224801
 20
174.99866896447301
 30
0.0
 11
163.18222016970029
 21
180.84866896447289
 31
0.0
  0
ARC
  5
A41
  8
DATA
  6
CONTINUOUS
 62
     7
 10
185.51857967738681
 20
174.90356065898681
 30
0.0
 40
1.0
 50
270.0
 51
5.4575534851076659
  0
ARC
  5
A42
  8
DATA
  6
CONTINUOUS
 62
     7
 10
163.61876990300331
 20
174.90356065898681
 30
0.0
 40
0.9999999999999332
 50
174.54244651489211
 51
270.0000000000033
  0
ARC
  5
A43
  8
DATA
  6
CONTINUOUS
 62
     7
 10
184.95966247993459
 20
180.7535606589868
 30
0.0
 40
0.9999999999999754
 50
5.4575534851077103
 51
90.0
  0
ARC
  5
A44
  8
DATA
  6
CONTINUOUS
 62
     7
 10
164.1776871004557
 20
180.7535606589868
 30
0.0
 40
1.0
 50
90.0
 51
174.5424465148956
  0
ENDSEC
  0
EOF
