  0
SECTION
  2
HEADER
  9
$ACADVER
  1
AC1009
  9
$INSBASE
 10
0.0
 20
0.0
 30
0.0
  9
$EXTMIN
 10
-170.0164782349211
 20
-265.74833863455001
 30
-0.0015258207003583
  9
$EXTMAX
 10
370.0164807494923
 20
537.09174839639525
 30
0.0000000349246037
  9
$LIMMIN
 10
0.0
 20
0.0
  9
$LIMMAX
 10
0.0
 20
0.0
  9
$ORTHOMODE
 70
     0
  9
$REGENMODE
 70
     1
  9
$FILLMODE
 70
     1
  9
$QTEXTMODE
 70
     0
  9
$MIRRTEXT
 70
     1
  9
$DRAGMODE
 70
     2
  9
$LTSCALE
 40
15.24
  9
$OSMODE
 70
   231
  9
$ATTMODE
 70
     1
  9
$TEXTSIZE
 40
0.0
  9
$TRACEWID
 40
1.0
  9
$TEXTSTYLE
  7
STANDARD
  9
$CLAYER
  8
DATA
  9
$CELTYPE
  6
BYLAYER
  9
$CECOLOR
 62
   256
  9
$DIMSCALE
 40
1.0
  9
$DIMASZ
 40
0.18
  9
$DIMEXO
 40
0.0625
  9
$DIMDLI
 40
0.38
  9
$DIMRND
 40
0.0
  9
$DIMDLE
 40
0.0
  9
$DIMEXE
 40
0.18
  9
$DIMTP
 40
0.0
  9
$DIMTM
 40
0.0
  9
$DIMTXT
 40
0.18
  9
$DIMCEN
 40
0.09
  9
$DIMTSZ
 40
0.0
  9
$DIMTOL
 70
     0
  9
$DIMLIM
 70
     0
  9
$DIMTIH
 70
     1
  9
$DIMTOH
 70
     1
  9
$DIMSE1
 70
     0
  9
$DIMSE2
 70
     0
  9
$DIMTAD
 70
     0
  9
$DIMZIN
 70
     0
  9
$DIMBLK
  1

  9
$DIMASO
 70
     1
  9
$DIMSHO
 70
     1
  9
$DIMPOST
  1

  9
$DIMAPOST
  1

  9
$DIMALT
 70
     0
  9
$DIMALTD
 70
     2
  9
$DIMALTF
 40
25.399999999999999
  9
$DIMLFAC
 40
1.0
  9
$DIMTOFL
 70
     0
  9
$DIMTVP
 40
0.0
  9
$DIMTIX
 70
     0
  9
$DIMSOXD
 70
     0
  9
$DIMSAH
 70
     0
  9
$DIMBLK1
  1

  9
$DIMBLK2
  1

  9
$DIMSTYLE
  2
STANDARD
  9
$DIMCLRD
 70
     0
  9
$DIMCLRE
 70
     0
  9
$DIMCLRT
 70
     0
  9
$DIMTFAC
 40
1.0
  9
$DIMGAP
 40
0.09
  9
$LUNITS
 70
     2
  9
$LUPREC
 70
     4
  9
$SKETCHINC
 40
0.1
  9
$FILLETRAD
 40
0.0
  9
$AUNITS
 70
     0
  9
$AUPREC
 70
     0
  9
$MENU
  1
acad
  9
$ELEVATION
 40
0.0
  9
$PELEVATION
 40
0.0
  9
$THICKNESS
 40
0.0
  9
$LIMCHECK
 70
     0
  9
$BLIPMODE
 70
     0
  9
$CHAMFERA
 40
0.0
  9
$CHAMFERB
 40
0.0
  9
$SKPOLY
 70
     0
  9
$TDCREATE
 40
2455477.420243056
  9
$TDUPDATE
 40
2455477.4282973842
  9
$TDINDWG
 40
0.0002973495
  9
$TDUSRTIMER
 40
0.0002973495
  9
$USRTIMER
 70
     1
  9
$ANGBASE
 50
0.0
  9
$ANGDIR
 70
     0
  9
$PDMODE
 70
     1
  9
$PDSIZE
 40
-2.0
  9
$PLINEWID
 40
0.0
  9
$COORDS
 70
     0
  9
$SPLFRAME
 70
     0
  9
$SPLINETYPE
 70
     6
  9
$SPLINESEGS
 70
     8
  9
$ATTDIA
 70
     0
  9
$ATTREQ
 70
     1
  9
$HANDLING
 70
     1
  9
$HANDSEED
  5
8BE
  9
$SURFTAB1
 70
     6
  9
$SURFTAB2
 70
     6
  9
$SURFTYPE
 70
     6
  9
$SURFU
 70
     6
  9
$SURFV
 70
     6
  9
$UCSNAME
  2

  9
$UCSORG
 10
0.0
 20
0.0
 30
0.0
  9
$UCSXDIR
 10
1.0
 20
0.0
 30
0.0
  9
$UCSYDIR
 10
0.0
 20
1.0
 30
0.0
  9
$PUCSNAME
  2

  9
$PUCSORG
 10
0.0
 20
0.0
 30
0.0
  9
$PUCSXDIR
 10
1.0
 20
0.0
 30
0.0
  9
$PUCSYDIR
 10
0.0
 20
1.0
 30
0.0
  9
$USERI1
 70
     0
  9
$USERI2
 70
     0
  9
$USERI3
 70
     0
  9
$USERI4
 70
     0
  9
$USERI5
 70
     0
  9
$USERR1
 40
0.0
  9
$USERR2
 40
0.0
  9
$USERR3
 40
0.0
  9
$USERR4
 40
0.0
  9
$USERR5
 40
0.0
  9
$WORLDVIEW
 70
     1
  9
$SHADEDGE
 70
     3
  9
$SHADEDIF
 70
    70
  9
$TILEMODE
 70
     1
  9
$MAXACTVP
 70
    64
  9
$PLIMCHECK
 70
     0
  9
$PEXTMIN
 10
1.0000000000000000E+020
 20
1.0000000000000000E+020
 30
1.0000000000000000E+020
  9
$PEXTMAX
 10
-1.0000000000000000E+020
 20
-1.0000000000000000E+020
 30
-1.0000000000000000E+020
  9
$PLIMMIN
 10
0.0
 20
0.0
  9
$PLIMMAX
 10
12.0
 20
9.0
  9
$UNITMODE
 70
     0
  9
$VISRETAIN
 70
     0
  9
$PLINEGEN
 70
     1
  9
$PSLTSCALE
 70
     0
  0
ENDSEC
  0
SECTION
  2
TABLES
  0
TABLE
  2
VPORT
 70
     1
  0
VPORT
  2
*ACTIVE
 70
     0
 10
0.0
 20
0.0
 11
1.0
 21
1.0
 12
100.0000012572856
 22
135.6717048809227
 13
0.0
 23
0.0
 14
1.0
 24
1.0
 15
0.0
 25
0.0
 16
0.0
 26
0.0
 36
1.0
 17
0.0
 27
0.0
 37
0.0
 40
808.75056619927125
 41
1.9619164619164611
 42
50.0
 43
0.0
 44
0.0
 50
0.0
 51
0.0
 71
     0
 72
  2000
 73
     1
 74
     1
 75
     0
 76
     0
 77
     0
 78
     0
  0
ENDTAB
  0
TABLE
  2
LTYPE
 70
    11
  0
LTYPE
  2
CONTINUOUS
 70
     0
  3
Solid line
 72
    65
 73
     0
 40
0.0
  0
ENDTAB
  0
TABLE
  2
LAYER
 70
     5
  0
LAYER
  2
0
 70
     0
 62
     7
  6
CONTINUOUS
  0
LAYER
  2
DATA
 70
     0
 62
     7
  6
CONTINUOUS
  0
LAYER
  2
HIBINO-BASE
 70
     0
 62
     7
  6
CONTINUOUS
  0
LAYER
  2
SPEC
 70
     0
 62
     7
  6
CONTINUOUS
  0
LAYER
  2
DIMNSIONS
 70
     0
 62
     7
  6
CONTINUOUS
  0
ENDTAB
  0
TABLE
  2
STYLE
 70
     3
  0
STYLE
  2
STANDARD
 70
     0
 40
0.0
 41
1.0
 50
0.0
 71
     0
 42
0.0
  3
txt
  4
BIGFONT.SHX
  0
ENDTAB
  0
TABLE
  2
VIEW
 70
     0
  0
ENDTAB
  0
TABLE
  2
UCS
 70
     0
  0
ENDTAB
  0
TABLE
  2
APPID
 70
     3
  0
APPID
  2
ACAD
 70
     0
  0
APPID
  2
ACADANNOTATIVE
 70
     0
  0
APPID
  2
ACAD_MLEADERVER
 70
     0
  0
ENDTAB
  0
TABLE
  2
DIMSTYLE
 70
     2
  0
DIMSTYLE
  2
STANDARD
 70
     0
  3

  4

  5

  6

  7

 40
1.0
 41
0.18
 42
0.0625
 43
0.38
 44
0.18
 45
0.0
 46
0.0
 47
0.0
 48
0.0
140
0.18
141
0.09
142
0.0
143
25.399999999999999
144
1.0
145
0.0
146
1.0
147
0.09
 71
     0
 72
     0
 73
     1
 74
     1
 75
     0
 76
     0
 77
     0
 78
     0
170
     0
171
     2
172
     0
173
     0
174
     0
175
     0
176
     0
177
     0
178
     0
  0
ENDTAB
  0
ENDSEC
  0
SECTION
  2
BLOCKS
  0
BLOCK
  8
0
  2
$MODEL_SPACE
 70
     0
 10
0.0
 20
0.0
 30
0.0
  3
$MODEL_SPACE
  1

  0
ENDBLK
  5
5F1
  8
0
  0
BLOCK
 67
     1
  8
0
  2
$PAPER_SPACE
 70
     0
 10
0.0
 20
0.0
 30
0.0
  3
$PAPER_SPACE
  1

  0
ENDBLK
  5
5ED
 67
     1
  8
0
  0
ENDSEC
  0
SECTION
  2
ENTITIES
  0
LINE
  5
2C
  8
HIBINO-BASE
  6
CONTINUOUS
 62
     7
 10
-169.99999999999989
 20
537.06729578973182
 30
0.0
 11
370.0
 21
537.06729578973182
 31
0.0
  0
LINE
  5
2D
  8
HIBINO-BASE
  6
CONTINUOUS
 62
     7
 10
370.0
 20
-242.93270421026821
 30
0.0
 11
-169.99999999999989
 21
-242.93270421026821
 31
0.0
  0
LINE
  5
2E
  8
HIBINO-BASE
  6
CONTINUOUS
 62
     7
 10
-169.99999999999989
 20
-242.93270421026821
 30
0.0
 11
-169.99999999999989
 21
537.06729578973182
 31
0.0
  0
LINE
  5
2F
  8
HIBINO-BASE
  6
CONTINUOUS
 62
     7
 10
370.0
 20
537.06729578973182
 30
0.0
 11
370.0
 21
-242.93270421026821
 31
0.0
  0
LINE
  5
30
  8
HIBINO-BASE
  6
CONTINUOUS
 62
     7
 10
100.0
 20
-175.4327042102681
 30
0.0
 11
370.0
 21
-175.4327042102681
 31
0.0
  0
LINE
  5
31
  8
HIBINO-BASE
  6
CONTINUOUS
 62
     7
 10
100.0
 20
-242.93270421026821
 30
0.0
 11
100.0
 21
-175.4327042102681
 31
0.0
  0
TEXT
  5
32
  8
HIBINO-BASE
 62
     7
 10
102.7
 20
-182.95878421026811
 30
0.0
 40
4.8865234374999993
  1
NOTE
 41
0.7
 11
102.7
 21
-178.0722607727682
 31
0.0
 73
     3
  0
LINE
  5
33
  8
HIBINO-BASE
  6
CONTINUOUS
 62
     7
 10
205.0
 20
-242.93270421026821
 30
0.0
 11
205.0
 21
-175.4327042102681
 31
0.0
  0
TEXT
  5
34
  8
HIBINO-BASE
 62
     7
 10
207.69999999999999
 20
-182.95878421026811
 30
0.0
 40
4.8865234374999993
  1
TITLE
 41
0.7
 11
207.69999999999999
 21
-178.0722607727682
 31
0.0
 73
     3
  0
LINE
  5
35
  8
HIBINO-BASE
  6
CONTINUOUS
 62
     7
 10
100.0
 20
-212.9327042102681
 30
0.0
 11
370.0
 21
-212.9327042102681
 31
0.0
  0
TEXT
  5
36
  8
HIBINO-BASE
 62
     7
 10
245.19999999999999
 20
-220.28982421026819
 30
0.0
 40
4.8865234374999993
  1
DRAWN
 41
0.7
 11
245.19999999999999
 21
-215.4033007727682
 31
0.0
 73
     3
  0
TEXT
  5
37
  8
HIBINO-BASE
 62
     7
 10
170.19999999999999
 20
-220.28982421026819
 30
0.0
 40
4.8865234374999993
  1
DATE
 41
0.7
 11
170.19999999999999
 21
-215.4033007727682
 31
0.0
 73
     3
  0
TEXT
  5
38
  8
HIBINO-BASE
 62
     7
 10
140.19999999999999
 20
-220.28982421026819
 30
0.0
 40
4.8865234374999993
  1
SCALE
 41
0.7
 11
140.19999999999999
 21
-215.4033007727682
 31
0.0
 73
     3
  0
TEXT
  5
39
  8
HIBINO-BASE
 62
     7
 10
207.69999999999999
 20
-220.28982421026819
 30
0.0
 40
4.8865234374999993
  1
DESIGN
 41
0.7
 11
207.69999999999999
 21
-215.4033007727682
 31
0.0
 73
     3
  0
TEXT
  5
3A
  8
HIBINO-BASE
 62
     7
 10
320.19999999999999
 20
-220.28982421026819
 30
0.0
 40
4.8865234374999993
  1
DRAWING NO.
 41
0.7
 11
320.19999999999999
 21
-215.4033007727682
 31
0.0
 73
     3
  0
TEXT
  5
3B
  8
HIBINO-BASE
 62
     7
 10
282.69999999999999
 20
-220.28982421026819
 30
0.0
 40
4.8865234374999993
  1
CHECK
 41
0.7
 11
282.69999999999999
 21
-215.4033007727682
 31
0.0
 73
     3
  0
LINE
  5
3C
  8
HIBINO-BASE
  6
CONTINUOUS
 62
     7
 10
143.12499999999989
 20
-239.18270421026821
 30
0.0
 11
154.375
 21
-227.9327042102681
 31
0.0
  0
TEXT
  5
3D
  8
HIBINO-BASE
 62
     7
 10
141.24999999999989
 20
-231.25953421026821
 30
0.0
 40
4.8865234374999993
  1
1
 41
0.7
 11
141.24999999999989
 21
-226.3730107727682
 31
0.0
 73
     3
  0
LINE
  5
3E
  8
HIBINO-BASE
  6
CONTINUOUS
 62
     7
 10
137.5
 20
-242.93270421026821
 30
0.0
 11
137.5
 21
-212.9327042102681
 31
0.0
  0
LINE
  5
3F
  8
HIBINO-BASE
  6
CONTINUOUS
 62
     7
 10
167.5
 20
-242.93270421026821
 30
0.0
 11
167.5
 21
-212.9327042102681
 31
0.0
  0
LINE
  5
40
  8
HIBINO-BASE
  6
CONTINUOUS
 62
     7
 10
242.5
 20
-212.9327042102681
 30
0.0
 11
242.5
 21
-242.93270421026821
 31
0.0
  0
LINE
  5
41
  8
HIBINO-BASE
  6
CONTINUOUS
 62
     7
 10
317.5
 20
-212.9327042102681
 30
0.0
 11
317.5
 21
-242.93270421026821
 31
0.0
  0
LINE
  5
42
  8
HIBINO-BASE
  6
CONTINUOUS
 62
     7
 10
279.99999999999989
 20
-242.93270421026821
 30
0.0
 11
279.99999999999989
 21
-212.9327042102681
 31
0.0
  0
TEXT
  5
43
  8
HIBINO-BASE
 62
     7
 10
170.06961999999999
 20
-234.3417642102682
 30
0.0
 40
4.8865234374999993
  1
'10.10.
 41
0.7
 11
170.06961999999999
 21
-229.45524077276821
 31
0.0
 73
     3
  0
TEXT
  5
44
  8
HIBINO-BASE
 62
     7
 10
152.5
 20
-236.88453421026821
 30
0.0
 40
4.8865234374999993
  1
3
 41
0.7
 11
152.5
 21
-231.9980107727682
 31
0.0
 73
     3
  0
TEXT
  5
45
  8
HIBINO-BASE
 62
     7
 10
247.01743003310389
 20
-234.3417642102682
 30
0.0
 40
4.8865234374999993
  1
T.Ootake
 41
0.7
 11
247.01743003310389
 21
-229.45524077276821
 31
0.0
 73
     3
  0
TEXT
  5
46
  8
HIBINO-BASE
 62
     7
 10
111.65000000000001
 20
-237.0047042102681
 30
0.0
 40
9.7730468749999986
  1
A4
 41
0.7
 11
111.65000000000001
 21
-227.2316573352681
 31
0.0
 73
     3
  0
TEXT
  5
47
  8
HIBINO-BASE
 62
     7
 10
102.875
 20
-220.79106921026809
 30
0.0
 40
4.8865234374999993
  1
PAPER SIZE
 41
0.7
 11
102.875
 21
-215.9045457727681
 31
0.0
 73
     3
  0
TEXT
  5
48
  8
HIBINO-BASE
 62
     7
 10
-161.7210942293294
 20
-262.20842491279689
 30
0.0
 40
10.58746744791666
  1
Hibino-Intersound Corporation
 41
0.7
 11
-161.7210942293294
 21
-251.62095746488029
 31
0.0
 73
     3
  0
TEXT
  5
49
  8
HIBINO-BASE
 62
     7
 10
160.54182904064169
 20
-261.15516015292872
 30
0.0
 40
10.58746744791666
  1
ヒビノインターサウンド株式会社
 41
0.7
 11
160.54182904064169
 21
-250.56769270501201
 31
0.0
 73
     3
  0
LINE
  5
4A
  8
SPEC
  6
CONTINUOUS
 62
     7
 10
-147.49999999999989
 20
507.0672957897317
 30
0.0
 11
295.0
 21
507.0672957897317
 31
0.0
  0
LINE
  5
4B
  8
SPEC
  6
CONTINUOUS
 62
     7
 10
-147.49999999999989
 20
495.8172957897317
 30
0.0
 11
295.0
 21
495.8172957897317
 31
0.0
  0
LINE
  5
4C
  8
SPEC
  6
CONTINUOUS
 62
     7
 10
-147.49999999999989
 20
473.3172957897317
 30
0.0
 11
295.0
 21
473.3172957897317
 31
0.0
  0
LINE
  5
4D
  8
SPEC
  6
CONTINUOUS
 62
     7
 10
-147.49999999999989
 20
484.5672957897317
 30
0.0
 11
295.0
 21
484.5672957897317
 31
0.0
  0
LINE
  5
4E
  8
SPEC
  6
CONTINUOUS
 62
     7
 10
-147.49999999999989
 20
507.0672957897317
 30
0.0
 11
-147.49999999999989
 21
349.56729578973182
 31
0.0
  0
TEXT
  5
4F
  8
SPEC
 62
     7
 10
-143.74999999999989
 20
511.24710578973179
 30
0.0
 40
7.3297851562499989
  1
仕様
 41
0.7
 11
-143.74999999999989
 21
518.57689094598175
 31
0.0
 73
     3
  0
LINE
  5
50
  8
SPEC
  6
CONTINUOUS
 62
     7
 10
-24.999999999999989
 20
507.0672957897317
 30
0.0
 11
-25.000000000000011
 21
349.56729578973182
 31
0.0
  0
LINE
  5
51
  8
SPEC
  6
CONTINUOUS
 62
     7
 10
295.0
 20
507.0672957897317
 30
0.0
 11
295.0
 21
349.56729578973182
 31
0.0
  0
LINE
  5
52
  8
SPEC
  6
CONTINUOUS
 62
     7
 10
-147.49999999999989
 20
462.0672957897317
 30
0.0
 11
295.0
 21
462.0672957897317
 31
0.0
  0
LINE
  5
53
  8
SPEC
  6
CONTINUOUS
 62
     7
 10
-147.49999999999989
 20
450.8172957897317
 30
0.0
 11
295.0
 21
450.8172957897317
 31
0.0
  0
LINE
  5
54
  8
SPEC
  6
CONTINUOUS
 62
     7
 10
-147.49999999999989
 20
439.5672957897317
 30
0.0
 11
295.0
 21
439.5672957897317
 31
0.0
  0
LINE
  5
55
  8
SPEC
  6
CONTINUOUS
 62
     7
 10
-147.49999999999989
 20
428.3172957897317
 30
0.0
 11
295.0
 21
428.3172957897317
 31
0.0
  0
LINE
  5
56
  8
SPEC
  6
CONTINUOUS
 62
     7
 10
-147.49999999999989
 20
417.0672957897317
 30
0.0
 11
295.0
 21
417.0672957897317
 31
0.0
  0
LINE
  5
57
  8
SPEC
  6
CONTINUOUS
 62
     7
 10
-147.49999999999989
 20
405.8172957897317
 30
0.0
 11
295.0
 21
405.8172957897317
 31
0.0
  0
LINE
  5
58
  8
SPEC
  6
CONTINUOUS
 62
     7
 10
-147.49999999999989
 20
394.5672957897317
 30
0.0
 11
295.0
 21
394.5672957897317
 31
0.0
  0
LINE
  5
59
  8
SPEC
  6
CONTINUOUS
 62
     7
 10
-147.49999999999989
 20
383.31729578973182
 30
0.0
 11
295.0
 21
383.31729578973182
 31
0.0
  0
LINE
  5
5A
  8
SPEC
  6
CONTINUOUS
 62
     7
 10
-147.49999999999989
 20
372.0672957897317
 30
0.0
 11
295.0
 21
372.0672957897317
 31
0.0
  0
LINE
  5
5B
  8
SPEC
  6
CONTINUOUS
 62
     7
 10
-147.49999999999989
 20
360.81729578973182
 30
0.0
 11
295.0
 21
360.81729578973182
 31
0.0
  0
TEXT
  5
5C
  8
SPEC
 62
     7
 10
-144.99127264104899
 20
375.32712466906298
 30
0.0
 40
5.7009440104166673
  1
寸法
 41
0.7
 11
-144.99127264104899
 21
381.0280686794797
 31
0.0
 73
     3
  0
TEXT
  5
5D
  8
SPEC
 62
     7
 10
-22.284764142141562
 20
374.79281772054588
 30
0.0
 40
5.7009440104166673
  1
214(W)\U+00D742(H)\U+00D7110(D)mm(突起部含まず）
 41
0.7
 11
-22.284764142141562
 21
380.49376173096249
 31
0.0
 73
     3
  0
TEXT
  5
5E
  8
SPEC
 62
     7
 10
-22.530536574420211
 20
363.78518140884449
 30
0.0
 40
5.7009440104166673
  1
約470g
 41
0.7
 11
-22.530536574420211
 21
369.48612541926121
 31
0.0
 73
     3
  0
TEXT
  5
5F
  8
SPEC
 62
     7
 10
-144.9573300511361
 20
363.64158605836218
 30
0.0
 40
5.7009440104166673
  1
重量
 41
0.7
 11
-144.9573300511361
 21
369.34253006877879
 31
0.0
 73
     3
  0
TEXT
  5
60
  8
SPEC
 62
     7
 10
-144.89826583196009
 20
397.59454149577613
 30
0.0
 40
5.7009440104166673
  1
電源
 41
0.7
 11
-144.89826583196009
 21
403.29548550619279
 31
0.0
 73
     3
  0
TEXT
  5
61
  8
SPEC
 62
     7
 10
-22.21913638410194
 20
397.20278402900612
 30
0.0
 40
5.7009440104166673
  1
5V DC
 41
0.7
 11
-22.21913638410194
 21
402.90372803942267
 31
0.0
 73
     3
  0
TEXT
  5
62
  8
SPEC
 62
     7
 10
-144.82511974499519
 20
386.22746656051771
 30
0.0
 40
5.7009440104166673
  1
消費電力
 41
0.7
 11
-144.82511974499519
 21
391.92841057093432
 31
0.0
 73
     3
  0
TEXT
  5
63
  8
SPEC
 62
     7
 10
-22.630219981346091
 20
386.16390300122202
 30
0.0
 40
5.7009440104166673
  1
10W(最大)
 41
0.7
 11
-22.630219981346091
 21
391.86484701163857
 31
0.0
 73
     3
  0
TEXT
  5
64
  8
SPEC
 62
     7
 10
-144.90833333333339
 20
498.80314922220612
 30
0.0
 40
5.7009440104166673
  1
形式
 41
0.7
 11
-144.90833333333339
 21
504.50409323262272
 31
0.0
 73
     3
  0
TEXT
  5
65
  8
SPEC
 62
     7
 10
-146.14915808036091
 20
487.57930675101812
 30
0.0
 40
5.7009440104166673
  1
ビデオアンプ帯域
 41
0.7
 11
-146.14915808036091
 21
493.28025076143467
 31
0.0
 73
     3
  0
TEXT
  5
66
  8
SPEC
 62
     7
 10
-22.62326036051876
 20
487.40061476328918
 30
0.0
 40
5.7009440104166673
  1
165MHz\U+00D72
 41
0.7
 11
-22.62326036051876
 21
493.10155877370579
 31
0.0
 73
     3
  0
TEXT
  5
67
  8
SPEC
 62
     7
 10
-145.140987973401
 20
476.40685829770729
 30
0.0
 40
5.7009440104166673
  1
デュアルリンク最大対応解像度
 41
0.7
 11
-145.140987973401
 21
482.10780230812401
 31
0.0
 73
     3
  0
TEXT
  5
68
  8
SPEC
 62
     7
 10
-22.240748659133668
 20
475.95433473889977
 30
0.0
 40
5.7009440104166673
  1
3840\U+00D72400
 41
0.7
 11
-22.240748659133668
 21
481.65527874931638
 31
0.0
 73
     3
  0
TEXT
  5
69
  8
SPEC
 62
     7
 10
-144.90833333333339
 20
465.20884534059007
 30
0.0
 40
5.7009440104166673
  1
入力DDC信号
 41
0.7
 11
-144.90833333333339
 21
470.90978935100679
 31
0.0
 73
     3
  0
TEXT
  5
6A
  8
SPEC
 62
     7
 10
-22.232921155512528
 20
464.75398607359722
 30
0.0
 40
5.7009440104166673
  1
5Vp-p(TTL)
 41
0.7
 11
-22.232921155512528
 21
470.45493008401382
 31
0.0
 73
     3
  0
TEXT
  5
6B
  8
SPEC
 62
     7
 10
-144.90833333333339
 20
453.85654369539071
 30
0.0
 40
5.7009440104166673
  1
入力ビデオ信号
 41
0.7
 11
-144.90833333333339
 21
459.55748770580738
 31
0.0
 73
     3
  0
TEXT
  5
6C
  8
SPEC
 62
     7
 10
-22.677499283404298
 20
453.65061476328913
 30
0.0
 40
5.7009440104166673
  1
1.2Vp-p
 41
0.7
 11
-22.677499283404298
 21
459.35155877370579
 31
0.0
 73
     3
  0
TEXT
  5
6D
  8
SPEC
 62
     7
 10
-144.75487845348511
 20
442.60735488462132
 30
0.0
 40
5.7009440104166673
  1
USB2.0入力端子
 41
0.7
 11
-144.75487845348511
 21
448.30829889503792
 31
0.0
 73
     3
  0
TEXT
  5
6E
  8
SPEC
 62
     7
 10
-22.230022286968211
 20
442.40061476328918
 30
0.0
 40
5.7009440104166673
  1
Bタ イプ
 41
0.7
 11
-22.230022286968211
 21
448.10155877370579
 31
0.0
 73
     3
  0
TEXT
  5
6F
  8
SPEC
 62
     7
 10
-144.79351506288259
 20
431.1026883092826
 30
0.0
 40
5.7009440104166673
  1
USB2.0出力端子
 41
0.7
 11
-144.79351506288259
 21
436.8036323196992
 31
0.0
 73
     3
  0
TEXT
  5
70
  8
SPEC
 62
     7
 10
-22.048404423218109
 20
431.00502667245581
 30
0.0
 40
5.7009440104166673
  1
Aタ イプ
 41
0.7
 11
-22.048404423218109
 21
436.70597068287248
 31
0.0
 73
     3
  0
TEXT
  5
71
  8
SPEC
 62
     7
 10
-22.230954167599592
 20
498.67645166629342
 30
0.0
 40
5.7009440104166647
  1
Dual Link DVIKVM切替機
 41
0.7
 11
-22.230954167599592
 21
504.37739567671002
 31
0.0
 73
     3
  0
TEXT
  5
72
  8
SPEC
 62
     7
 10
-144.75548444288381
 20
419.90436434988698
 30
0.0
 40
5.7009440104166673
  1
DVI入出力コネクタ ー
 41
0.7
 11
-144.75548444288381
 21
425.6053083603037
 31
0.0
 73
     3
  0
TEXT
  5
73
  8
SPEC
 62
     7
 10
-22.167648944943021
 20
419.75560159610592
 30
0.0
 40
5.7009440104166673
  1
DVI-I(29pin)female(digital only) 
 41
0.7
 11
-22.167648944943021
 21
425.45654560652252
 31
0.0
 73
     3
  0
TEXT
  5
74
  8
SPEC
 62
     7
 10
-145.0098301960582
 20
408.80821923427368
 30
0.0
 40
5.7009440104166673
  1
オーディオコネクター
 41
0.7
 11
-145.0098301960582
 21
414.50916324469028
 31
0.0
 73
     3
  0
TEXT
  5
75
  8
SPEC
 62
     7
 10
-21.97762261057655
 20
408.65061476328913
 30
0.0
 40
5.7009440104166673
  1
mini-stereo 3.5mm phono jack
 41
0.7
 11
-21.97762261057655
 21
414.35155877370579
 31
0.0
 73
     3
  0
LINE
  5
76
  8
SPEC
  6
CONTINUOUS
 62
     7
 10
-147.49999999999989
 20
349.56729578973182
 30
0.0
 11
295.0
 21
349.56729578973182
 31
0.0
  0
TEXT
  5
77
  8
SPEC
 62
     7
 10
-22.706017062396249
 20
352.8474411648566
 30
0.0
 40
5.7009440104166673
  1
1Uハーフラック
 41
0.7
 11
-22.706017062396249
 21
358.54838517527321
 31
0.0
 73
     3
  0
TEXT
  5
78
  8
SPEC
 62
     7
 10
-145.50738052309759
 20
353.04183841817007
 30
0.0
 40
5.7009440104166673
  1
ラック設置
 41
0.7
 11
-145.50738052309759
 21
358.74278242858679
 31
0.0
 73
     3
  0
TEXT
  5
79
  8
DIMNSIONS
 62
     7
 10
40.0
 20
-206.12423421026821
 30
0.0
 40
7.3297851562499989
  1
(単位：mm)
 41
0.7
 11
40.0
 21
-198.79444905401809
 31
0.0
 73
     3
  0
LINE
  5
7A
  8
DIMNSIONS
  6
CONTINUOUS
 62
     7
 10
-100.0
 20
-131.0
 30
0.0
 11
-100.0
 21
-156.0
 31
0.0
  0
LINE
  5
7B
  8
DIMNSIONS
  6
CONTINUOUS
 62
     7
 10
114.0
 20
-131.0
 30
0.0
 11
114.0
 21
-156.0
 31
0.0
  0
LINE
  5
7C
  8
DIMNSIONS
  6
CONTINUOUS
 62
     7
 10
-100.0
 20
-150.0
 30
0.0
 11
114.0
 21
-150.0
 31
0.0
  0
LINE
  5
7D
  8
DIMNSIONS
  6
CONTINUOUS
 62
     7
 10
-100.0
 20
-150.0
 30
0.0
 11
-92.498132324218759
 21
-147.98988061454921
 31
0.0
  0
LINE
  5
7E
  8
DIMNSIONS
  6
CONTINUOUS
 62
     7
 10
-100.0
 20
-150.0
 30
0.0
 11
-92.498132324218759
 21
-152.01011938545071
 31
0.0
  0
LINE
  5
7F
  8
DIMNSIONS
  6
CONTINUOUS
 62
     7
 10
114.0
 20
-150.0
 30
0.0
 11
106.4981323242187
 21
-152.01011938545071
 31
0.0
  0
LINE
  5
80
  8
DIMNSIONS
  6
CONTINUOUS
 62
     7
 10
114.0
 20
-150.0
 30
0.0
 11
106.4981323242187
 21
-147.98988061454921
 31
0.0
  0
TEXT
  5
81
  8
DIMNSIONS
 62
     7
 10
-0.9375000000000145
 20
-147.01833333333329
 30
0.0
 40
8.1442057291666661
  1
214
 41
0.7
 11
-0.9375000000000142
 21
-138.87412760416669
 31
0.0
 73
     3
  0
LINE
  5
82
  8
DIMNSIONS
  6
CONTINUOUS
 62
     7
 10
-106.0
 20
-125.0
 30
0.0
 11
-131.0
 21
-125.0
 31
0.0
  0
LINE
  5
83
  8
DIMNSIONS
  6
CONTINUOUS
 62
     7
 10
-106.0
 20
-83.0
 30
0.0
 11
-131.0
 21
-83.0
 31
0.0
  0
LINE
  5
84
  8
DIMNSIONS
  6
CONTINUOUS
 62
     7
 10
-125.0
 20
-125.0
 30
0.0
 11
-125.0
 21
-83.0
 31
0.0
  0
LINE
  5
85
  8
DIMNSIONS
  6
CONTINUOUS
 62
     7
 10
-125.0
 20
-125.0
 30
0.0
 11
-127.01011938545069
 21
-117.4981323242187
 31
0.0
  0
LINE
  5
86
  8
DIMNSIONS
  6
CONTINUOUS
 62
     7
 10
-125.0
 20
-125.0
 30
0.0
 11
-122.98988061454919
 21
-117.4981323242187
 31
0.0
  0
LINE
  5
87
  8
DIMNSIONS
  6
CONTINUOUS
 62
     7
 10
-125.0
 20
-83.0
 30
0.0
 11
-122.98988061454919
 21
-90.501867675781227
 31
0.0
  0
LINE
  5
88
  8
DIMNSIONS
  6
CONTINUOUS
 62
     7
 10
-125.0
 20
-83.0
 30
0.0
 11
-127.01011938545069
 21
-90.501867675781227
 31
0.0
  0
TEXT
  5
89
  8
DIMNSIONS
 62
     7
 10
-127.9816666666666
 20
-109.2916666666666
 30
0.0
 40
8.1442057291666661
  1
42
 50
90.0
 41
0.7
 11
-136.12587239583331
 21
-109.2916666666666
 31
0.0
 73
     3
  0
LINE
  5
8A
  8
DIMNSIONS
  6
CONTINUOUS
 62
     7
 10
-102.5
 20
-129.0
 30
0.0
 11
-131.0
 21
-129.0
 31
0.0
  0
LINE
  5
8B
  8
DIMNSIONS
  6
CONTINUOUS
 62
     7
 10
-106.0
 20
-125.0
 30
0.0
 11
-131.0
 21
-125.0
 31
0.0
  0
LINE
  5
8C
  8
DIMNSIONS
  6
CONTINUOUS
 62
     7
 10
-125.0
 20
-125.0
 30
0.0
 11
-125.0
 21
-129.0
 31
0.0
  0
LINE
  5
8D
  8
DIMNSIONS
  6
CONTINUOUS
 62
     7
 10
-125.0
 20
-129.0
 30
0.0
 11
-125.0
 21
-143.69166666666661
 31
0.0
  0
LINE
  5
8E
  8
DIMNSIONS
  6
CONTINUOUS
 62
     7
 10
-125.0
 20
-129.0
 30
0.0
 11
-122.98988061454919
 21
-136.5018676757812
 31
0.0
  0
LINE
  5
8F
  8
DIMNSIONS
  6
CONTINUOUS
 62
     7
 10
-125.0
 20
-129.0
 30
0.0
 11
-127.01011938545069
 21
-136.5018676757812
 31
0.0
  0
LINE
  5
90
  8
DIMNSIONS
  6
CONTINUOUS
 62
     7
 10
-125.0
 20
-125.0
 30
0.0
 11
-125.0
 21
-110.0
 31
0.0
  0
LINE
  5
91
  8
DIMNSIONS
  6
CONTINUOUS
 62
     7
 10
-125.0
 20
-125.0
 30
0.0
 11
-127.01011938545069
 21
-117.4981323242187
 31
0.0
  0
LINE
  5
92
  8
DIMNSIONS
  6
CONTINUOUS
 62
     7
 10
-125.0
 20
-125.0
 30
0.0
 11
-122.98988061454919
 21
-117.4981323242187
 31
0.0
  0
TEXT
  5
93
  8
DIMNSIONS
 62
     7
 10
-127.9816666666667
 20
-143.69166666666669
 30
0.0
 40
8.1442057291666661
  1
4
 50
90.0
 41
0.7
 11
-136.1258723958334
 21
-143.69166666666669
 31
0.0
 73
     3
  0
LINE
  5
94
  8
DIMNSIONS
  6
CONTINUOUS
 62
     7
 10
-106.0
 20
-50.0
 30
0.0
 11
-131.0
 21
-50.0
 31
0.0
  0
LINE
  5
95
  8
DIMNSIONS
  6
CONTINUOUS
 62
     7
 10
-106.0
 20
60.0
 30
0.0
 11
-131.0
 21
60.0
 31
0.0
  0
LINE
  5
96
  8
DIMNSIONS
  6
CONTINUOUS
 62
     7
 10
-125.0
 20
-50.0
 30
0.0
 11
-125.0
 21
60.0
 31
0.0
  0
LINE
  5
97
  8
DIMNSIONS
  6
CONTINUOUS
 62
     7
 10
-125.0
 20
-50.0
 30
0.0
 11
-127.01011938545069
 21
-42.498132324218737
 31
0.0
  0
LINE
  5
98
  8
DIMNSIONS
  6
CONTINUOUS
 62
     7
 10
-125.0
 20
-50.0
 30
0.0
 11
-122.98988061454919
 21
-42.498132324218737
 31
0.0
  0
LINE
  5
99
  8
DIMNSIONS
  6
CONTINUOUS
 62
     7
 10
-125.0
 20
60.0
 30
0.0
 11
-122.98988061454919
 21
52.498132324218737
 31
0.0
  0
LINE
  5
9A
  8
DIMNSIONS
  6
CONTINUOUS
 62
     7
 10
-125.0
 20
60.0
 30
0.0
 11
-127.01011938545069
 21
52.498132324218737
 31
0.0
  0
TEXT
  5
9B
  8
DIMNSIONS
 62
     7
 10
-127.9816666666666
 20
-2.9375
 30
0.0
 40
8.1442057291666661
  1
110
 50
90.0
 41
0.7
 11
-136.12587239583331
 21
-2.9375
 31
0.0
 73
     3
  0
LINE
  5
9C
  8
DIMNSIONS
  6
CONTINUOUS
 62
     7
 10
47.299999999999983
 20
-53.0
 30
0.0
 11
-131.0
 21
-53.0
 31
0.0
  0
LINE
  5
9D
  8
DIMNSIONS
  6
CONTINUOUS
 62
     7
 10
-106.0
 20
-50.0
 30
0.0
 11
-131.0
 21
-50.0
 31
0.0
  0
LINE
  5
9E
  8
DIMNSIONS
  6
CONTINUOUS
 62
     7
 10
-125.0
 20
-50.0
 30
0.0
 11
-125.0
 21
-53.0
 31
0.0
  0
LINE
  5
9F
  8
DIMNSIONS
  6
CONTINUOUS
 62
     7
 10
-125.0
 20
-53.0
 30
0.0
 11
-125.0
 21
-67.39166666666668
 31
0.0
  0
LINE
  5
A0
  8
DIMNSIONS
  6
CONTINUOUS
 62
     7
 10
-125.0
 20
-53.0
 30
0.0
 11
-122.98988061454919
 21
-60.501867675781263
 31
0.0
  0
LINE
  5
A1
  8
DIMNSIONS
  6
CONTINUOUS
 62
     7
 10
-125.0
 20
-53.0
 30
0.0
 11
-127.01011938545069
 21
-60.501867675781263
 31
0.0
  0
LINE
  5
A2
  8
DIMNSIONS
  6
CONTINUOUS
 62
     7
 10
-125.0
 20
-50.0
 30
0.0
 11
-125.0
 21
-35.0
 31
0.0
  0
LINE
  5
A3
  8
DIMNSIONS
  6
CONTINUOUS
 62
     7
 10
-125.0
 20
-50.0
 30
0.0
 11
-127.01011938545069
 21
-42.498132324218737
 31
0.0
  0
LINE
  5
A4
  8
DIMNSIONS
  6
CONTINUOUS
 62
     7
 10
-125.0
 20
-50.0
 30
0.0
 11
-122.98988061454919
 21
-42.498132324218737
 31
0.0
  0
TEXT
  5
A5
  8
DIMNSIONS
 62
     7
 10
-127.9816666666667
 20
-67.39166666666668
 30
0.0
 40
8.1442057291666661
  1
3
 50
90.0
 41
0.7
 11
-136.1258723958334
 21
-67.39166666666668
 31
0.0
 73
     3
  0
LINE
  5
A6
  8
DIMNSIONS
  6
CONTINUOUS
 62
     7
 10
-106.0
 20
60.0
 30
0.0
 11
-131.0
 21
60.0
 31
0.0
  0
LINE
  5
A7
  8
DIMNSIONS
  6
CONTINUOUS
 62
     7
 10
-44.838440942382462
 20
65.0
 30
0.0
 11
-131.0
 21
65.0
 31
0.0
  0
LINE
  5
A8
  8
DIMNSIONS
  6
CONTINUOUS
 62
     7
 10
-125.0
 20
65.0
 30
0.0
 11
-125.0
 21
60.0
 31
0.0
  0
LINE
  5
A9
  8
DIMNSIONS
  6
CONTINUOUS
 62
     7
 10
-125.0
 20
60.0
 30
0.0
 11
-125.0
 21
45.0
 31
0.0
  0
LINE
  5
AA
  8
DIMNSIONS
  6
CONTINUOUS
 62
     7
 10
-125.0
 20
60.0
 30
0.0
 11
-122.98988061454919
 21
52.498132324218737
 31
0.0
  0
LINE
  5
AB
  8
DIMNSIONS
  6
CONTINUOUS
 62
     7
 10
-125.0
 20
60.0
 30
0.0
 11
-127.01011938545069
 21
52.498132324218737
 31
0.0
  0
LINE
  5
AC
  8
DIMNSIONS
  6
CONTINUOUS
 62
     7
 10
-125.0
 20
65.0
 30
0.0
 11
-125.0
 21
79.891666666666666
 31
0.0
  0
LINE
  5
AD
  8
DIMNSIONS
  6
CONTINUOUS
 62
     7
 10
-125.0
 20
65.0
 30
0.0
 11
-127.01011938545069
 21
72.501867675781256
 31
0.0
  0
LINE
  5
AE
  8
DIMNSIONS
  6
CONTINUOUS
 62
     7
 10
-125.0
 20
65.0
 30
0.0
 11
-122.98988061454919
 21
72.501867675781256
 31
0.0
  0
TEXT
  5
AF
  8
DIMNSIONS
 62
     7
 10
-127.9816666666667
 20
74.59999999999998
 30
0.0
 40
8.1442057291666661
  1
5
 50
90.0
 41
0.7
 11
-136.1258723958334
 21
74.59999999999998
 31
0.0
 73
     3
  0
TEXT
  5
B0
  8
DATA
 62
     7
 10
250.0
 20
-210.288246439261
 30
0.0
 40
7.3297851562499989
  1
EXT-DVIKVM-241DL
 41
0.7
 11
250.0
 21
-202.95846128301099
 31
0.0
 73
     3
  0
TEXT
  5
B1
  8
DATA
 62
     7
 10
250.0
 20
-187.7900342102682
 30
0.0
 40
7.3297851562499989
  1
Gefen
 41
0.7
 11
250.0
 21
-180.46024905401811
 31
0.0
 73
     3
  0
TEXT
  5
B2
  8
DATA
 62
     7
 10
243.84616355254769
 20
-197.62233302707381
 30
0.0
 40
4.8865311328124994
  1
Dual Link DVIKVM 切替機
 41
0.7
 11
243.84616355254769
 21
-192.7358018942613
 31
0.0
 73
     3
  0
TEXT
  5
B3
  8
DATA
 62
     7
 10
-139.99999999999989
 20
-230.21870421026821
 30
0.0
 40
4.8865234374999993
  1
仕様および外観は予告なく変更されることがありますので、ご了承ください。
 41
0.7
 11
-139.99999999999989
 21
-225.3321807727682
 31
0.0
 73
     3
  0
LINE
  5
B4
  8
DATA
  6
CONTINUOUS
 62
     7
 10
-100.0
 20
-125.0
 30
0.0
 11
-100.0
 21
-83.0
 31
0.0
  0
LINE
  5
B5
  8
DATA
  6
CONTINUOUS
 62
     7
 10
114.0
 20
-125.0
 30
0.0
 11
-100.0
 21
-125.0
 31
0.0
  0
LINE
  5
B6
  8
DATA
  6
CONTINUOUS
 62
     7
 10
114.0
 20
-83.0
 30
0.0
 11
114.0
 21
-125.0
 31
0.0
  0
LINE
  5
B7
  8
DATA
  6
CONTINUOUS
 62
     7
 10
-100.0
 20
-83.0
 30
0.0
 11
114.0
 21
-83.0
 31
0.0
  0
LINE
  5
B8
  8
DATA
  6
CONTINUOUS
 62
     7
 10
-96.5
 20
-129.0
 30
0.0
 11
-98.0
 21
-125.0159695854845
 31
0.0
  0
LINE
  5
B9
  8
DATA
  6
CONTINUOUS
 62
     7
 10
-86.500000000000014
 20
-129.0
 30
0.0
 11
-85.000000000000014
 21
-125.0
 31
0.0
  0
LINE
  5
BA
  8
DATA
  6
CONTINUOUS
 62
     7
 10
-96.5
 20
-129.0
 30
0.0
 11
-86.500000000000014
 21
-129.0
 31
0.0
  0
LINE
  5
BB
  8
DATA
  6
CONTINUOUS
 62
     7
 10
110.5
 20
-129.0
 30
0.0
 11
112.0
 21
-125.0159695854845
 31
0.0
  0
LINE
  5
BC
  8
DATA
  6
CONTINUOUS
 62
     7
 10
100.5
 20
-129.0
 30
0.0
 11
98.999999999999986
 21
-125.0
 31
0.0
  0
LINE
  5
BD
  8
DATA
  6
CONTINUOUS
 62
     7
 10
110.5
 20
-129.0
 30
0.0
 11
100.5
 21
-129.0
 31
0.0
  0
CIRCLE
  5
BE
  8
DATA
  6
CONTINUOUS
 62
     7
 10
57.999999999999993
 20
-114.0
 30
0.0
 40
4.700000000000002
  0
CIRCLE
  5
BF
  8
DATA
  6
CONTINUOUS
 62
     7
 10
-72.000000000000014
 20
-113.0
 30
0.0
 40
1.5
  0
TEXT
  5
C0
  8
DATA
 62
     7
 10
-75.987957470472125
 20
-121.9496032152218
 30
0.0
 40
2.6387226562500001
  1
Power
 41
0.7
 11
-75.987957470472125
 21
-119.3108805589718
 31
0.0
 73
     3
  0
CIRCLE
  5
C1
  8
DATA
  6
CONTINUOUS
 62
     7
 10
17.999999999999979
 20
-113.0
 30
0.0
 40
1.5
  0
CIRCLE
  5
C2
  8
DATA
  6
CONTINUOUS
 62
     7
 10
37.5
 20
-113.0
 30
0.0
 40
1.5
  0
CIRCLE
  5
C3
  8
DATA
  6
CONTINUOUS
 62
     7
 10
-9.0000000000000142
 20
-113.0
 30
0.0
 40
2.5
  0
TEXT
  5
C4
  8
DATA
 62
     7
 10
-10.699978123773869
 20
-121.9496032152218
 30
0.0
 40
2.6387226562500001
  1
IR
 41
0.7
 11
-10.699978123773869
 21
-119.3108805589718
 31
0.0
 73
     3
  0
TEXT
  5
C5
  8
DATA
 62
     7
 10
17.009429010095861
 20
-121.9496032152218
 30
0.0
 40
2.6387226562500001
  1
1
 41
0.7
 11
17.009429010095861
 21
-119.3108805589718
 31
0.0
 73
     3
  0
TEXT
  5
C6
  8
DATA
 62
     7
 10
36.62479982021739
 20
-121.9496032152218
 30
0.0
 40
2.6387226562500001
  1
2
 41
0.7
 11
36.62479982021739
 21
-119.3108805589718
 31
0.0
 73
     3
  0
TEXT
  5
C7
  8
DATA
 62
     7
 10
52.886237398502601
 20
-123.40226382437299
 30
0.0
 40
2.6387226562500001
  1
Select
 41
0.7
 11
52.886237398502601
 21
-120.763541168123
 31
0.0
 73
     3
  0
TEXT
  5
C8
  8
DATA
 62
     7
 10
36.859386215333252
 20
-103.2235080206669
 30
0.0
 40
8.1442057291666661
  1
DVIKVMDL
 41
0.7
 11
36.859386215333252
 21
-95.079302291500227
 31
0.0
 73
     3
  0
TEXT
  5
C9
  8
DATA
 62
     7
 10
81.066762257133917
 20
-103.1776666666667
 30
0.0
 40
4.8865234374999993
  1
Switch
 41
0.7
 11
81.066762257133917
 21
-98.291143229166678
 31
0.0
 73
     3
  0
LINE
  5
CA
  8
DATA
  6
CONTINUOUS
 62
     7
 10
-100.0
 20
-50.0
 30
0.0
 11
-100.0
 21
60.0
 31
0.0
  0
LINE
  5
CB
  8
DATA
  6
CONTINUOUS
 62
     7
 10
114.0
 20
-50.0
 30
0.0
 11
114.0
 21
60.0
 31
0.0
  0
LINE
  5
CC
  8
DATA
  6
CONTINUOUS
 62
     7
 10
-100.0
 20
-50.0
 30
0.0
 11
114.0
 21
-50.0
 31
0.0
  0
LINE
  5
CD
  8
DATA
  6
CONTINUOUS
 62
     7
 10
-100.0
 20
60.0
 30
0.0
 11
114.0
 21
60.0
 31
0.0
  0
LINE
  5
CE
  8
DATA
  6
CONTINUOUS
 62
     7
 10
53.299999999999983
 20
-53.0
 30
0.0
 11
53.299999999999983
 21
-50.0
 31
0.0
  0
LINE
  5
CF
  8
DATA
  6
CONTINUOUS
 62
     7
 10
62.699999999999989
 20
-53.0
 30
0.0
 11
62.699999999999989
 21
-50.0
 31
0.0
  0
LINE
  5
D0
  8
DATA
  6
CONTINUOUS
 62
     7
 10
62.699999999999989
 20
-53.0
 30
0.0
 11
53.299999999999983
 21
-53.0
 31
0.0
  0
ARC
  5
D1
  8
DATA
  6
CONTINUOUS
 62
     7
 10
-72.000000000000014
 20
-49.957415488363701
 30
0.0
 40
1.499999999999986
 50
181.62682710613609
 51
358.37317289386391
  0
ARC
  5
D2
  8
DATA
  6
CONTINUOUS
 62
     7
 10
17.999999999999979
 20
-49.330169205451462
 30
0.0
 40
1.4999999999999989
 50
206.5227974061203
 51
333.47720259387972
  0
ARC
  5
D3
  8
DATA
  6
CONTINUOUS
 62
     7
 10
37.5
 20
-49.330169205451462
 30
0.0
 40
1.4999999999999929
 50
206.5227974061215
 51
333.47720259387842
  0
LINE
  5
D4
  8
DATA
  6
CONTINUOUS
 62
     7
 10
-100.0
 20
129.5
 30
0.0
 11
-100.0
 21
87.5
 31
0.0
  0
LINE
  5
D5
  8
DATA
  6
CONTINUOUS
 62
     7
 10
114.0
 20
129.5
 30
0.0
 11
-100.0
 21
129.5
 31
0.0
  0
LINE
  5
D6
  8
DATA
  6
CONTINUOUS
 62
     7
 10
114.0
 20
87.5
 30
0.0
 11
114.0
 21
129.5
 31
0.0
  0
LINE
  5
D7
  8
DATA
  6
CONTINUOUS
 62
     7
 10
-100.0
 20
87.5
 30
0.0
 11
114.0
 21
87.5
 31
0.0
  0
LINE
  5
D8
  8
DATA
  6
CONTINUOUS
 62
     7
 10
-96.5
 20
133.5
 30
0.0
 11
-98.0
 21
129.5159695854845
 31
0.0
  0
LINE
  5
D9
  8
DATA
  6
CONTINUOUS
 62
     7
 10
-86.500000000000014
 20
133.5
 30
0.0
 11
-85.000000000000014
 21
129.5
 31
0.0
  0
LINE
  5
DA
  8
DATA
  6
CONTINUOUS
 62
     7
 10
-96.5
 20
133.5
 30
0.0
 11
-86.500000000000014
 21
133.5
 31
0.0
  0
LINE
  5
DB
  8
DATA
  6
CONTINUOUS
 62
     7
 10
110.5
 20
133.5
 30
0.0
 11
112.0
 21
129.5159695854845
 31
0.0
  0
LINE
  5
DC
  8
DATA
  6
CONTINUOUS
 62
     7
 10
100.5
 20
133.5
 30
0.0
 11
98.999999999999986
 21
129.5
 31
0.0
  0
LINE
  5
DD
  8
DATA
  6
CONTINUOUS
 62
     7
 10
110.5
 20
133.5
 30
0.0
 11
100.5
 21
133.5
 31
0.0
  0
LINE
  5
DE
  8
DATA
  6
CONTINUOUS
 62
     7
 10
-100.0
 20
-41.400000000000013
 30
0.0
 11
114.0
 21
-41.400000000000013
 31
0.0
  0
LINE
  5
DF
  8
DATA
  6
CONTINUOUS
 62
     7
 10
187.5
 20
-124.2
 30
0.0
 11
187.5
 21
-83.800000000000026
 31
0.0
  0
LINE
  5
E0
  8
DATA
  6
CONTINUOUS
 62
     7
 10
297.5
 20
-124.2
 30
0.0
 11
297.5
 21
-83.800000000000026
 31
0.0
  0
LINE
  5
E1
  8
DATA
  6
CONTINUOUS
 62
     7
 10
188.30000000000001
 20
-83.0
 30
0.0
 11
296.69999999999999
 21
-83.0
 31
0.0
  0
LINE
  5
E2
  8
DATA
  6
CONTINUOUS
 62
     7
 10
188.30000000000001
 20
-125.0
 30
0.0
 11
296.69999999999999
 21
-125.0
 31
0.0
  0
CIRCLE
  5
E3
  8
DATA
  6
CONTINUOUS
 62
     7
 10
81.999827647835957
 20
116.4926345332476
 30
0.0
 40
1.1750000000001031
  0
POLYLINE
  5
E4
  8
DATA
  6
CONTINUOUS
 62
     7
 66
     1
 10
0.0
 20
0.0
 30
0.0
 70
     1
  0
VERTEX
  5
61D
  8
DATA
  6
CONTINUOUS
 62
     7
 10
81.999827647835957
 20
113.79263453324749
 30
0.0
  0
VERTEX
  5
61E
  8
DATA
  6
CONTINUOUS
 62
     7
 10
84.338096238053907
 20
115.1426345332476
 30
0.0
  0
VERTEX
  5
61F
  8
DATA
  6
CONTINUOUS
 62
     7
 10
84.338096238053907
 20
117.8426345332476
 30
0.0
  0
VERTEX
  5
620
  8
DATA
  6
CONTINUOUS
 62
     7
 10
81.999827647835957
 20
119.1926345332475
 30
0.0
  0
VERTEX
  5
621
  8
DATA
  6
CONTINUOUS
 62
     7
 10
79.661559057617794
 20
117.8426345332476
 30
0.0
  0
VERTEX
  5
622
  8
DATA
  6
CONTINUOUS
 62
     7
 10
79.661559057617794
 20
115.1426345332476
 30
0.0
  0
SEQEND
  5
623
  8
DATA
  6
CONTINUOUS
 62
     7
  0
CIRCLE
  5
ED
  8
DATA
  6
CONTINUOUS
 62
     7
 10
49.499827647835581
 20
116.4926345332476
 30
0.0
 40
1.175000000000068
  0
POLYLINE
  5
EE
  8
DATA
  6
CONTINUOUS
 62
     7
 66
     1
 10
0.0
 20
0.0
 30
0.0
 70
     1
  0
VERTEX
  5
624
  8
DATA
  6
CONTINUOUS
 62
     7
 10
49.499827647835581
 20
113.79263453324749
 30
0.0
  0
VERTEX
  5
625
  8
DATA
  6
CONTINUOUS
 62
     7
 10
51.838096238053502
 20
115.1426345332476
 30
0.0
  0
VERTEX
  5
626
  8
DATA
  6
CONTINUOUS
 62
     7
 10
51.838096238053502
 20
117.8426345332476
 30
0.0
  0
VERTEX
  5
627
  8
DATA
  6
CONTINUOUS
 62
     7
 10
49.499827647835581
 20
119.1926345332475
 30
0.0
  0
VERTEX
  5
628
  8
DATA
  6
CONTINUOUS
 62
     7
 10
47.161559057617538
 20
117.8426345332476
 30
0.0
  0
VERTEX
  5
629
  8
DATA
  6
CONTINUOUS
 62
     7
 10
47.161559057617538
 20
115.1426345332476
 30
0.0
  0
SEQEND
  5
62A
  8
DATA
  6
CONTINUOUS
 62
     7
  0
LINE
  5
F7
  8
DATA
  6
CONTINUOUS
 62
     7
 10
76.699732535027266
 20
112.5676345332476
 30
0.0
 11
54.79992276064376
 21
112.5676345332476
 31
0.0
  0
LINE
  5
F8
  8
DATA
  6
CONTINUOUS
 62
     7
 10
55.35883995809602
 20
120.41763453324759
 30
0.0
 11
76.140815337574949
 21
120.41763453324759
 31
0.0
  0
POLYLINE
  5
F9
  8
DATA
  6
CONTINUOUS
 62
     7
 66
     1
 10
0.0
 20
0.0
 30
0.0
 70
     1
  0
VERTEX
  5
62B
  8
DATA
  6
CONTINUOUS
 62
     7
 10
75.219893819014729
 20
117.2576345332476
 30
0.0
  0
VERTEX
  5
62C
  8
DATA
  6
CONTINUOUS
 62
     7
 10
76.749893819014773
 20
117.2576345332476
 30
0.0
  0
VERTEX
  5
62D
  8
DATA
  6
CONTINUOUS
 62
     7
 10
76.749893819014773
 20
115.7276345332476
 30
0.0
  0
VERTEX
  5
62E
  8
DATA
  6
CONTINUOUS
 62
     7
 10
75.219893819014729
 20
115.7276345332476
 30
0.0
  0
SEQEND
  5
62F
  8
DATA
  6
CONTINUOUS
 62
     7
  0
POLYLINE
  5
100
  8
DATA
  6
CONTINUOUS
 62
     7
 66
     1
 10
0.0
 20
0.0
 30
0.0
 70
     1
  0
VERTEX
  5
630
  8
DATA
  6
CONTINUOUS
 62
     7
 10
73.219893819014771
 20
117.2576345332476
 30
0.0
  0
VERTEX
  5
631
  8
DATA
  6
CONTINUOUS
 62
     7
 10
74.749893819014716
 20
117.2576345332476
 30
0.0
  0
VERTEX
  5
632
  8
DATA
  6
CONTINUOUS
 62
     7
 10
74.749893819014716
 20
115.7276345332476
 30
0.0
  0
VERTEX
  5
633
  8
DATA
  6
CONTINUOUS
 62
     7
 10
73.219893819014771
 20
115.7276345332476
 30
0.0
  0
SEQEND
  5
634
  8
DATA
  6
CONTINUOUS
 62
     7
  0
POLYLINE
  5
107
  8
DATA
  6
CONTINUOUS
 62
     7
 66
     1
 10
0.0
 20
0.0
 30
0.0
 70
     1
  0
VERTEX
  5
635
  8
DATA
  6
CONTINUOUS
 62
     7
 10
71.219893819014771
 20
117.2576345332476
 30
0.0
  0
VERTEX
  5
636
  8
DATA
  6
CONTINUOUS
 62
     7
 10
72.749893819014773
 20
117.2576345332476
 30
0.0
  0
VERTEX
  5
637
  8
DATA
  6
CONTINUOUS
 62
     7
 10
72.749893819014773
 20
115.7276345332476
 30
0.0
  0
VERTEX
  5
638
  8
DATA
  6
CONTINUOUS
 62
     7
 10
71.219893819014771
 20
115.7276345332476
 30
0.0
  0
SEQEND
  5
639
  8
DATA
  6
CONTINUOUS
 62
     7
  0
POLYLINE
  5
10E
  8
DATA
  6
CONTINUOUS
 62
     7
 66
     1
 10
0.0
 20
0.0
 30
0.0
 70
     1
  0
VERTEX
  5
63A
  8
DATA
  6
CONTINUOUS
 62
     7
 10
69.219893819014771
 20
117.2576345332476
 30
0.0
  0
VERTEX
  5
63B
  8
DATA
  6
CONTINUOUS
 62
     7
 10
70.749893819014773
 20
117.2576345332476
 30
0.0
  0
VERTEX
  5
63C
  8
DATA
  6
CONTINUOUS
 62
     7
 10
70.749893819014773
 20
115.7276345332476
 30
0.0
  0
VERTEX
  5
63D
  8
DATA
  6
CONTINUOUS
 62
     7
 10
69.219893819014771
 20
115.7276345332476
 30
0.0
  0
SEQEND
  5
63E
  8
DATA
  6
CONTINUOUS
 62
     7
  0
POLYLINE
  5
115
  8
DATA
  6
CONTINUOUS
 62
     7
 66
     1
 10
0.0
 20
0.0
 30
0.0
 70
     1
  0
VERTEX
  5
63F
  8
DATA
  6
CONTINUOUS
 62
     7
 10
67.219893819014771
 20
117.2576345332476
 30
0.0
  0
VERTEX
  5
640
  8
DATA
  6
CONTINUOUS
 62
     7
 10
68.749893819014773
 20
117.2576345332476
 30
0.0
  0
VERTEX
  5
641
  8
DATA
  6
CONTINUOUS
 62
     7
 10
68.749893819014773
 20
115.7276345332476
 30
0.0
  0
VERTEX
  5
642
  8
DATA
  6
CONTINUOUS
 62
     7
 10
67.219893819014771
 20
115.7276345332476
 30
0.0
  0
SEQEND
  5
643
  8
DATA
  6
CONTINUOUS
 62
     7
  0
POLYLINE
  5
11C
  8
DATA
  6
CONTINUOUS
 62
     7
 66
     1
 10
0.0
 20
0.0
 30
0.0
 70
     1
  0
VERTEX
  5
644
  8
DATA
  6
CONTINUOUS
 62
     7
 10
65.219893819014814
 20
117.2576345332476
 30
0.0
  0
VERTEX
  5
645
  8
DATA
  6
CONTINUOUS
 62
     7
 10
66.749893819014801
 20
117.2576345332476
 30
0.0
  0
VERTEX
  5
646
  8
DATA
  6
CONTINUOUS
 62
     7
 10
66.749893819014801
 20
115.7276345332476
 30
0.0
  0
VERTEX
  5
647
  8
DATA
  6
CONTINUOUS
 62
     7
 10
65.219893819014814
 20
115.7276345332476
 30
0.0
  0
SEQEND
  5
648
  8
DATA
  6
CONTINUOUS
 62
     7
  0
POLYLINE
  5
123
  8
DATA
  6
CONTINUOUS
 62
     7
 66
     1
 10
0.0
 20
0.0
 30
0.0
 70
     1
  0
VERTEX
  5
649
  8
DATA
  6
CONTINUOUS
 62
     7
 10
63.219893819014807
 20
117.2576345332476
 30
0.0
  0
VERTEX
  5
64A
  8
DATA
  6
CONTINUOUS
 62
     7
 10
64.749893819014815
 20
117.2576345332476
 30
0.0
  0
VERTEX
  5
64B
  8
DATA
  6
CONTINUOUS
 62
     7
 10
64.749893819014815
 20
115.7276345332476
 30
0.0
  0
VERTEX
  5
64C
  8
DATA
  6
CONTINUOUS
 62
     7
 10
63.219893819014807
 20
115.7276345332476
 30
0.0
  0
SEQEND
  5
64D
  8
DATA
  6
CONTINUOUS
 62
     7
  0
POLYLINE
  5
12A
  8
DATA
  6
CONTINUOUS
 62
     7
 66
     1
 10
0.0
 20
0.0
 30
0.0
 70
     1
  0
VERTEX
  5
64E
  8
DATA
  6
CONTINUOUS
 62
     7
 10
61.219893819014821
 20
117.2576345332476
 30
0.0
  0
VERTEX
  5
64F
  8
DATA
  6
CONTINUOUS
 62
     7
 10
62.749893819014808
 20
117.2576345332476
 30
0.0
  0
VERTEX
  5
650
  8
DATA
  6
CONTINUOUS
 62
     7
 10
62.749893819014808
 20
115.7276345332476
 30
0.0
  0
VERTEX
  5
651
  8
DATA
  6
CONTINUOUS
 62
     7
 10
61.219893819014821
 20
115.7276345332476
 30
0.0
  0
SEQEND
  5
652
  8
DATA
  6
CONTINUOUS
 62
     7
  0
POLYLINE
  5
131
  8
DATA
  6
CONTINUOUS
 62
     7
 66
     1
 10
0.0
 20
0.0
 30
0.0
 70
     1
  0
VERTEX
  5
653
  8
DATA
  6
CONTINUOUS
 62
     7
 10
75.219893819014729
 20
115.2576345332475
 30
0.0
  0
VERTEX
  5
654
  8
DATA
  6
CONTINUOUS
 62
     7
 10
76.749893819014773
 20
115.2576345332475
 30
0.0
  0
VERTEX
  5
655
  8
DATA
  6
CONTINUOUS
 62
     7
 10
76.749893819014773
 20
113.7276345332476
 30
0.0
  0
VERTEX
  5
656
  8
DATA
  6
CONTINUOUS
 62
     7
 10
75.219893819014729
 20
113.7276345332476
 30
0.0
  0
SEQEND
  5
657
  8
DATA
  6
CONTINUOUS
 62
     7
  0
POLYLINE
  5
138
  8
DATA
  6
CONTINUOUS
 62
     7
 66
     1
 10
0.0
 20
0.0
 30
0.0
 70
     1
  0
VERTEX
  5
658
  8
DATA
  6
CONTINUOUS
 62
     7
 10
73.219893819014771
 20
115.2576345332475
 30
0.0
  0
VERTEX
  5
659
  8
DATA
  6
CONTINUOUS
 62
     7
 10
74.749893819014716
 20
115.2576345332475
 30
0.0
  0
VERTEX
  5
65A
  8
DATA
  6
CONTINUOUS
 62
     7
 10
74.749893819014716
 20
113.7276345332476
 30
0.0
  0
VERTEX
  5
65B
  8
DATA
  6
CONTINUOUS
 62
     7
 10
73.219893819014771
 20
113.7276345332476
 30
0.0
  0
SEQEND
  5
65C
  8
DATA
  6
CONTINUOUS
 62
     7
  0
POLYLINE
  5
13F
  8
DATA
  6
CONTINUOUS
 62
     7
 66
     1
 10
0.0
 20
0.0
 30
0.0
 70
     1
  0
VERTEX
  5
65D
  8
DATA
  6
CONTINUOUS
 62
     7
 10
71.219893819014771
 20
115.2576345332475
 30
0.0
  0
VERTEX
  5
65E
  8
DATA
  6
CONTINUOUS
 62
     7
 10
72.749893819014773
 20
115.2576345332475
 30
0.0
  0
VERTEX
  5
65F
  8
DATA
  6
CONTINUOUS
 62
     7
 10
72.749893819014773
 20
113.7276345332476
 30
0.0
  0
VERTEX
  5
660
  8
DATA
  6
CONTINUOUS
 62
     7
 10
71.219893819014771
 20
113.7276345332476
 30
0.0
  0
SEQEND
  5
661
  8
DATA
  6
CONTINUOUS
 62
     7
  0
POLYLINE
  5
146
  8
DATA
  6
CONTINUOUS
 62
     7
 66
     1
 10
0.0
 20
0.0
 30
0.0
 70
     1
  0
VERTEX
  5
662
  8
DATA
  6
CONTINUOUS
 62
     7
 10
69.219893819014771
 20
115.2576345332475
 30
0.0
  0
VERTEX
  5
663
  8
DATA
  6
CONTINUOUS
 62
     7
 10
70.749893819014773
 20
115.2576345332475
 30
0.0
  0
VERTEX
  5
664
  8
DATA
  6
CONTINUOUS
 62
     7
 10
70.749893819014773
 20
113.7276345332476
 30
0.0
  0
VERTEX
  5
665
  8
DATA
  6
CONTINUOUS
 62
     7
 10
69.219893819014771
 20
113.7276345332476
 30
0.0
  0
SEQEND
  5
666
  8
DATA
  6
CONTINUOUS
 62
     7
  0
POLYLINE
  5
14D
  8
DATA
  6
CONTINUOUS
 62
     7
 66
     1
 10
0.0
 20
0.0
 30
0.0
 70
     1
  0
VERTEX
  5
667
  8
DATA
  6
CONTINUOUS
 62
     7
 10
67.219893819014771
 20
115.2576345332475
 30
0.0
  0
VERTEX
  5
668
  8
DATA
  6
CONTINUOUS
 62
     7
 10
68.749893819014773
 20
115.2576345332475
 30
0.0
  0
VERTEX
  5
669
  8
DATA
  6
CONTINUOUS
 62
     7
 10
68.749893819014773
 20
113.7276345332476
 30
0.0
  0
VERTEX
  5
66A
  8
DATA
  6
CONTINUOUS
 62
     7
 10
67.219893819014771
 20
113.7276345332476
 30
0.0
  0
SEQEND
  5
66B
  8
DATA
  6
CONTINUOUS
 62
     7
  0
POLYLINE
  5
154
  8
DATA
  6
CONTINUOUS
 62
     7
 66
     1
 10
0.0
 20
0.0
 30
0.0
 70
     1
  0
VERTEX
  5
66C
  8
DATA
  6
CONTINUOUS
 62
     7
 10
65.219893819014814
 20
115.2576345332475
 30
0.0
  0
VERTEX
  5
66D
  8
DATA
  6
CONTINUOUS
 62
     7
 10
66.749893819014801
 20
115.2576345332475
 30
0.0
  0
VERTEX
  5
66E
  8
DATA
  6
CONTINUOUS
 62
     7
 10
66.749893819014801
 20
113.7276345332476
 30
0.0
  0
VERTEX
  5
66F
  8
DATA
  6
CONTINUOUS
 62
     7
 10
65.219893819014814
 20
113.7276345332476
 30
0.0
  0
SEQEND
  5
670
  8
DATA
  6
CONTINUOUS
 62
     7
  0
POLYLINE
  5
15B
  8
DATA
  6
CONTINUOUS
 62
     7
 66
     1
 10
0.0
 20
0.0
 30
0.0
 70
     1
  0
VERTEX
  5
671
  8
DATA
  6
CONTINUOUS
 62
     7
 10
63.219893819014807
 20
115.2576345332475
 30
0.0
  0
VERTEX
  5
672
  8
DATA
  6
CONTINUOUS
 62
     7
 10
64.749893819014815
 20
115.2576345332475
 30
0.0
  0
VERTEX
  5
673
  8
DATA
  6
CONTINUOUS
 62
     7
 10
64.749893819014815
 20
113.7276345332476
 30
0.0
  0
VERTEX
  5
674
  8
DATA
  6
CONTINUOUS
 62
     7
 10
63.219893819014807
 20
113.7276345332476
 30
0.0
  0
SEQEND
  5
675
  8
DATA
  6
CONTINUOUS
 62
     7
  0
POLYLINE
  5
162
  8
DATA
  6
CONTINUOUS
 62
     7
 66
     1
 10
0.0
 20
0.0
 30
0.0
 70
     1
  0
VERTEX
  5
676
  8
DATA
  6
CONTINUOUS
 62
     7
 10
61.219893819014821
 20
115.2576345332475
 30
0.0
  0
VERTEX
  5
677
  8
DATA
  6
CONTINUOUS
 62
     7
 10
62.749893819014808
 20
115.2576345332475
 30
0.0
  0
VERTEX
  5
678
  8
DATA
  6
CONTINUOUS
 62
     7
 10
62.749893819014808
 20
113.7276345332476
 30
0.0
  0
VERTEX
  5
679
  8
DATA
  6
CONTINUOUS
 62
     7
 10
61.219893819014821
 20
113.7276345332476
 30
0.0
  0
SEQEND
  5
67A
  8
DATA
  6
CONTINUOUS
 62
     7
  0
POLYLINE
  5
169
  8
DATA
  6
CONTINUOUS
 62
     7
 66
     1
 10
0.0
 20
0.0
 30
0.0
 70
     1
  0
VERTEX
  5
67B
  8
DATA
  6
CONTINUOUS
 62
     7
 10
75.219893819014729
 20
119.2576345332476
 30
0.0
  0
VERTEX
  5
67C
  8
DATA
  6
CONTINUOUS
 62
     7
 10
76.749893819014773
 20
119.2576345332476
 30
0.0
  0
VERTEX
  5
67D
  8
DATA
  6
CONTINUOUS
 62
     7
 10
76.749893819014773
 20
117.7276345332476
 30
0.0
  0
VERTEX
  5
67E
  8
DATA
  6
CONTINUOUS
 62
     7
 10
75.219893819014729
 20
117.7276345332476
 30
0.0
  0
SEQEND
  5
67F
  8
DATA
  6
CONTINUOUS
 62
     7
  0
POLYLINE
  5
170
  8
DATA
  6
CONTINUOUS
 62
     7
 66
     1
 10
0.0
 20
0.0
 30
0.0
 70
     1
  0
VERTEX
  5
680
  8
DATA
  6
CONTINUOUS
 62
     7
 10
73.219893819014771
 20
119.2576345332476
 30
0.0
  0
VERTEX
  5
681
  8
DATA
  6
CONTINUOUS
 62
     7
 10
74.749893819014716
 20
119.2576345332476
 30
0.0
  0
VERTEX
  5
682
  8
DATA
  6
CONTINUOUS
 62
     7
 10
74.749893819014716
 20
117.7276345332476
 30
0.0
  0
VERTEX
  5
683
  8
DATA
  6
CONTINUOUS
 62
     7
 10
73.219893819014771
 20
117.7276345332476
 30
0.0
  0
SEQEND
  5
684
  8
DATA
  6
CONTINUOUS
 62
     7
  0
POLYLINE
  5
177
  8
DATA
  6
CONTINUOUS
 62
     7
 66
     1
 10
0.0
 20
0.0
 30
0.0
 70
     1
  0
VERTEX
  5
685
  8
DATA
  6
CONTINUOUS
 62
     7
 10
71.219893819014771
 20
119.2576345332476
 30
0.0
  0
VERTEX
  5
686
  8
DATA
  6
CONTINUOUS
 62
     7
 10
72.749893819014773
 20
119.2576345332476
 30
0.0
  0
VERTEX
  5
687
  8
DATA
  6
CONTINUOUS
 62
     7
 10
72.749893819014773
 20
117.7276345332476
 30
0.0
  0
VERTEX
  5
688
  8
DATA
  6
CONTINUOUS
 62
     7
 10
71.219893819014771
 20
117.7276345332476
 30
0.0
  0
SEQEND
  5
689
  8
DATA
  6
CONTINUOUS
 62
     7
  0
POLYLINE
  5
17E
  8
DATA
  6
CONTINUOUS
 62
     7
 66
     1
 10
0.0
 20
0.0
 30
0.0
 70
     1
  0
VERTEX
  5
68A
  8
DATA
  6
CONTINUOUS
 62
     7
 10
69.219893819014771
 20
119.2576345332476
 30
0.0
  0
VERTEX
  5
68B
  8
DATA
  6
CONTINUOUS
 62
     7
 10
70.749893819014773
 20
119.2576345332476
 30
0.0
  0
VERTEX
  5
68C
  8
DATA
  6
CONTINUOUS
 62
     7
 10
70.749893819014773
 20
117.7276345332476
 30
0.0
  0
VERTEX
  5
68D
  8
DATA
  6
CONTINUOUS
 62
     7
 10
69.219893819014771
 20
117.7276345332476
 30
0.0
  0
SEQEND
  5
68E
  8
DATA
  6
CONTINUOUS
 62
     7
  0
POLYLINE
  5
185
  8
DATA
  6
CONTINUOUS
 62
     7
 66
     1
 10
0.0
 20
0.0
 30
0.0
 70
     1
  0
VERTEX
  5
68F
  8
DATA
  6
CONTINUOUS
 62
     7
 10
67.219893819014771
 20
119.2576345332476
 30
0.0
  0
VERTEX
  5
690
  8
DATA
  6
CONTINUOUS
 62
     7
 10
68.749893819014773
 20
119.2576345332476
 30
0.0
  0
VERTEX
  5
691
  8
DATA
  6
CONTINUOUS
 62
     7
 10
68.749893819014773
 20
117.7276345332476
 30
0.0
  0
VERTEX
  5
692
  8
DATA
  6
CONTINUOUS
 62
     7
 10
67.219893819014771
 20
117.7276345332476
 30
0.0
  0
SEQEND
  5
693
  8
DATA
  6
CONTINUOUS
 62
     7
  0
POLYLINE
  5
18C
  8
DATA
  6
CONTINUOUS
 62
     7
 66
     1
 10
0.0
 20
0.0
 30
0.0
 70
     1
  0
VERTEX
  5
694
  8
DATA
  6
CONTINUOUS
 62
     7
 10
65.219893819014814
 20
119.2576345332476
 30
0.0
  0
VERTEX
  5
695
  8
DATA
  6
CONTINUOUS
 62
     7
 10
66.749893819014801
 20
119.2576345332476
 30
0.0
  0
VERTEX
  5
696
  8
DATA
  6
CONTINUOUS
 62
     7
 10
66.749893819014801
 20
117.7276345332476
 30
0.0
  0
VERTEX
  5
697
  8
DATA
  6
CONTINUOUS
 62
     7
 10
65.219893819014814
 20
117.7276345332476
 30
0.0
  0
SEQEND
  5
698
  8
DATA
  6
CONTINUOUS
 62
     7
  0
POLYLINE
  5
193
  8
DATA
  6
CONTINUOUS
 62
     7
 66
     1
 10
0.0
 20
0.0
 30
0.0
 70
     1
  0
VERTEX
  5
699
  8
DATA
  6
CONTINUOUS
 62
     7
 10
63.219893819014807
 20
119.2576345332476
 30
0.0
  0
VERTEX
  5
69A
  8
DATA
  6
CONTINUOUS
 62
     7
 10
64.749893819014815
 20
119.2576345332476
 30
0.0
  0
VERTEX
  5
69B
  8
DATA
  6
CONTINUOUS
 62
     7
 10
64.749893819014815
 20
117.7276345332476
 30
0.0
  0
VERTEX
  5
69C
  8
DATA
  6
CONTINUOUS
 62
     7
 10
63.219893819014807
 20
117.7276345332476
 30
0.0
  0
SEQEND
  5
69D
  8
DATA
  6
CONTINUOUS
 62
     7
  0
POLYLINE
  5
19A
  8
DATA
  6
CONTINUOUS
 62
     7
 66
     1
 10
0.0
 20
0.0
 30
0.0
 70
     1
  0
VERTEX
  5
69E
  8
DATA
  6
CONTINUOUS
 62
     7
 10
61.219893819014821
 20
119.2576345332476
 30
0.0
  0
VERTEX
  5
69F
  8
DATA
  6
CONTINUOUS
 62
     7
 10
62.749893819014808
 20
119.2576345332476
 30
0.0
  0
VERTEX
  5
6A0
  8
DATA
  6
CONTINUOUS
 62
     7
 10
62.749893819014808
 20
117.7276345332476
 30
0.0
  0
VERTEX
  5
6A1
  8
DATA
  6
CONTINUOUS
 62
     7
 10
61.219893819014821
 20
117.7276345332476
 30
0.0
  0
SEQEND
  5
6A2
  8
DATA
  6
CONTINUOUS
 62
     7
  0
POLYLINE
  5
1A1
  8
DATA
  6
CONTINUOUS
 62
     7
 66
     1
 10
0.0
 20
0.0
 30
0.0
  0
VERTEX
  5
6A3
  8
DATA
  6
CONTINUOUS
 62
     7
 10
57.199827647835427
 20
116.0926345332476
 30
0.0
  0
VERTEX
  5
6A4
  8
DATA
  6
CONTINUOUS
 62
     7
 10
55.099827647835433
 20
116.0926345332476
 30
0.0
  0
VERTEX
  5
6A5
  8
DATA
  6
CONTINUOUS
 62
     7
 10
55.099827647835433
 20
116.8926345332476
 30
0.0
  0
VERTEX
  5
6A6
  8
DATA
  6
CONTINUOUS
 62
     7
 10
57.199827647835427
 20
116.8926345332476
 30
0.0
  0
SEQEND
  5
6A7
  8
DATA
  6
CONTINUOUS
 62
     7
  0
POLYLINE
  5
1A8
  8
DATA
  6
CONTINUOUS
 62
     7
 66
     1
 10
0.0
 20
0.0
 30
0.0
  0
VERTEX
  5
6A8
  8
DATA
  6
CONTINUOUS
 62
     7
 10
57.999827647835438
 20
116.8926345332476
 30
0.0
  0
VERTEX
  5
6A9
  8
DATA
  6
CONTINUOUS
 62
     7
 10
60.099827647835433
 20
116.8926345332476
 30
0.0
  0
VERTEX
  5
6AA
  8
DATA
  6
CONTINUOUS
 62
     7
 10
60.099827647835433
 20
116.0926345332476
 30
0.0
  0
VERTEX
  5
6AB
  8
DATA
  6
CONTINUOUS
 62
     7
 10
57.999827647835438
 20
116.0926345332476
 30
0.0
  0
SEQEND
  5
6AC
  8
DATA
  6
CONTINUOUS
 62
     7
  0
POLYLINE
  5
1AF
  8
DATA
  6
CONTINUOUS
 62
     7
 66
     1
 10
0.0
 20
0.0
 30
0.0
  0
VERTEX
  5
6AD
  8
DATA
  6
CONTINUOUS
 62
     7
 10
57.199827647835427
 20
116.8926345332476
 30
0.0
  0
VERTEX
  5
6AE
  8
DATA
  6
CONTINUOUS
 62
     7
 10
57.199827647835427
 20
118.9926345332476
 30
0.0
  0
VERTEX
  5
6AF
  8
DATA
  6
CONTINUOUS
 62
     7
 10
57.999827647835438
 20
118.9926345332476
 30
0.0
  0
VERTEX
  5
6B0
  8
DATA
  6
CONTINUOUS
 62
     7
 10
57.999827647835438
 20
116.8926345332476
 30
0.0
  0
SEQEND
  5
6B1
  8
DATA
  6
CONTINUOUS
 62
     7
  0
POLYLINE
  5
1B6
  8
DATA
  6
CONTINUOUS
 62
     7
 66
     1
 10
0.0
 20
0.0
 30
0.0
  0
VERTEX
  5
6B2
  8
DATA
  6
CONTINUOUS
 62
     7
 10
57.999827647835438
 20
116.0926345332476
 30
0.0
  0
VERTEX
  5
6B3
  8
DATA
  6
CONTINUOUS
 62
     7
 10
57.999827647835438
 20
113.9926345332476
 30
0.0
  0
VERTEX
  5
6B4
  8
DATA
  6
CONTINUOUS
 62
     7
 10
57.199827647835427
 20
113.9926345332476
 30
0.0
  0
VERTEX
  5
6B5
  8
DATA
  6
CONTINUOUS
 62
     7
 10
57.199827647835427
 20
116.0926345332476
 30
0.0
  0
SEQEND
  5
6B6
  8
DATA
  6
CONTINUOUS
 62
     7
  0
POLYLINE
  5
1BD
  8
DATA
  6
CONTINUOUS
 62
     7
 66
     1
 10
0.0
 20
0.0
 30
0.0
 70
     1
  0
VERTEX
  5
6B7
  8
DATA
  6
CONTINUOUS
 62
     7
 10
58.460112078307162
 20
115.7332067225977
 30
0.0
  0
VERTEX
  5
6B8
  8
DATA
  6
CONTINUOUS
 62
     7
 10
59.460112078307148
 20
115.7332067225977
 30
0.0
  0
VERTEX
  5
6B9
  8
DATA
  6
CONTINUOUS
 62
     7
 10
59.460112078307148
 20
114.7332067225977
 30
0.0
  0
VERTEX
  5
6BA
  8
DATA
  6
CONTINUOUS
 62
     7
 10
58.460112078307162
 20
114.7332067225977
 30
0.0
  0
SEQEND
  5
6BB
  8
DATA
  6
CONTINUOUS
 62
     7
  0
POLYLINE
  5
1C4
  8
DATA
  6
CONTINUOUS
 62
     7
 66
     1
 10
0.0
 20
0.0
 30
0.0
 70
     1
  0
VERTEX
  5
6BC
  8
DATA
  6
CONTINUOUS
 62
     7
 10
55.73954321736371
 20
115.7332067225977
 30
0.0
  0
VERTEX
  5
6BD
  8
DATA
  6
CONTINUOUS
 62
     7
 10
56.73954321736371
 20
115.7332067225977
 30
0.0
  0
VERTEX
  5
6BE
  8
DATA
  6
CONTINUOUS
 62
     7
 10
56.73954321736371
 20
114.7332067225977
 30
0.0
  0
VERTEX
  5
6BF
  8
DATA
  6
CONTINUOUS
 62
     7
 10
55.73954321736371
 20
114.7332067225977
 30
0.0
  0
SEQEND
  5
6C0
  8
DATA
  6
CONTINUOUS
 62
     7
  0
POLYLINE
  5
1CB
  8
DATA
  6
CONTINUOUS
 62
     7
 66
     1
 10
0.0
 20
0.0
 30
0.0
 70
     1
  0
VERTEX
  5
6C1
  8
DATA
  6
CONTINUOUS
 62
     7
 10
58.460112078307162
 20
118.25206234389761
 30
0.0
  0
VERTEX
  5
6C2
  8
DATA
  6
CONTINUOUS
 62
     7
 10
59.460112078307148
 20
118.25206234389761
 30
0.0
  0
VERTEX
  5
6C3
  8
DATA
  6
CONTINUOUS
 62
     7
 10
59.460112078307148
 20
117.25206234389751
 30
0.0
  0
VERTEX
  5
6C4
  8
DATA
  6
CONTINUOUS
 62
     7
 10
58.460112078307162
 20
117.25206234389751
 30
0.0
  0
SEQEND
  5
6C5
  8
DATA
  6
CONTINUOUS
 62
     7
  0
POLYLINE
  5
1D2
  8
DATA
  6
CONTINUOUS
 62
     7
 66
     1
 10
0.0
 20
0.0
 30
0.0
 70
     1
  0
VERTEX
  5
6C6
  8
DATA
  6
CONTINUOUS
 62
     7
 10
55.73954321736371
 20
118.25206234389761
 30
0.0
  0
VERTEX
  5
6C7
  8
DATA
  6
CONTINUOUS
 62
     7
 10
56.73954321736371
 20
118.25206234389761
 30
0.0
  0
VERTEX
  5
6C8
  8
DATA
  6
CONTINUOUS
 62
     7
 10
56.73954321736371
 20
117.25206234389751
 30
0.0
  0
VERTEX
  5
6C9
  8
DATA
  6
CONTINUOUS
 62
     7
 10
55.73954321736371
 20
117.25206234389751
 30
0.0
  0
SEQEND
  5
6CA
  8
DATA
  6
CONTINUOUS
 62
     7
  0
LINE
  5
1D9
  8
DATA
  6
CONTINUOUS
 62
     7
 10
77.695199465782736
 20
113.66274283873381
 30
0.0
 11
77.136282268330405
 21
119.5127428387338
 31
0.0
  0
LINE
  5
1DA
  8
DATA
  6
CONTINUOUS
 62
     7
 10
53.804455829888383
 20
113.66274283873381
 30
0.0
 11
54.36337302734065
 21
119.5127428387338
 31
0.0
  0
ARC
  5
1DB
  8
DATA
  6
CONTINUOUS
 62
     7
 10
76.699732535027266
 20
113.5676345332475
 30
0.0
 40
0.9999999999999715
 50
270.0
 51
5.4575534851070966
  0
ARC
  5
1DC
  8
DATA
  6
CONTINUOUS
 62
     7
 10
54.799922760643732
 20
113.5676345332476
 30
0.0
 40
0.9999999999999729
 50
174.5424465148939
 51
270.00000000000159
  0
ARC
  5
1DD
  8
DATA
  6
CONTINUOUS
 62
     7
 10
76.140815337574935
 20
119.41763453324759
 30
0.0
 40
1.0000000000000879
 50
5.4575534851070913
 51
89.99999999999838
  0
ARC
  5
1DE
  8
DATA
  6
CONTINUOUS
 62
     7
 10
55.35883995809602
 20
119.41763453324759
 30
0.0
 40
1.00000000000001
 50
90.0
 51
174.54244651489569
  0
TEXT
  5
1DF
  8
DATA
 62
     7
 10
72.311142745990949
 20
125.317063288592
 30
0.0
 40
2.497556423611111
  1
DVI In 1 
 50
180.0
 41
0.7
 11
72.311142745990949
 21
122.81950686498089
 31
0.0
 73
     3
  0
CIRCLE
  5
1E0
  8
DATA
  6
CONTINUOUS
 62
     7
 10
38.999827647835971
 20
116.4926345332476
 30
0.0
 40
1.17500000000011
  0
POLYLINE
  5
1E1
  8
DATA
  6
CONTINUOUS
 62
     7
 66
     1
 10
0.0
 20
0.0
 30
0.0
 70
     1
  0
VERTEX
  5
6CB
  8
DATA
  6
CONTINUOUS
 62
     7
 10
38.999827647835971
 20
113.79263453324749
 30
0.0
  0
VERTEX
  5
6CC
  8
DATA
  6
CONTINUOUS
 62
     7
 10
41.3380962380539
 20
115.1426345332476
 30
0.0
  0
VERTEX
  5
6CD
  8
DATA
  6
CONTINUOUS
 62
     7
 10
41.3380962380539
 20
117.8426345332476
 30
0.0
  0
VERTEX
  5
6CE
  8
DATA
  6
CONTINUOUS
 62
     7
 10
38.999827647835971
 20
119.1926345332475
 30
0.0
  0
VERTEX
  5
6CF
  8
DATA
  6
CONTINUOUS
 62
     7
 10
36.661559057617772
 20
117.8426345332476
 30
0.0
  0
VERTEX
  5
6D0
  8
DATA
  6
CONTINUOUS
 62
     7
 10
36.661559057617772
 20
115.1426345332476
 30
0.0
  0
SEQEND
  5
6D1
  8
DATA
  6
CONTINUOUS
 62
     7
  0
CIRCLE
  5
1EA
  8
DATA
  6
CONTINUOUS
 62
     7
 10
6.4998276478355717
 20
116.4926345332476
 30
0.0
 40
1.175000000000068
  0
POLYLINE
  5
1EB
  8
DATA
  6
CONTINUOUS
 62
     7
 66
     1
 10
0.0
 20
0.0
 30
0.0
 70
     1
  0
VERTEX
  5
6D2
  8
DATA
  6
CONTINUOUS
 62
     7
 10
6.4998276478355717
 20
113.79263453324749
 30
0.0
  0
VERTEX
  5
6D3
  8
DATA
  6
CONTINUOUS
 62
     7
 10
8.8380962380534935
 20
115.1426345332476
 30
0.0
  0
VERTEX
  5
6D4
  8
DATA
  6
CONTINUOUS
 62
     7
 10
8.8380962380534935
 20
117.8426345332476
 30
0.0
  0
VERTEX
  5
6D5
  8
DATA
  6
CONTINUOUS
 62
     7
 10
6.4998276478355717
 20
119.1926345332475
 30
0.0
  0
VERTEX
  5
6D6
  8
DATA
  6
CONTINUOUS
 62
     7
 10
4.161559057617537
 20
117.8426345332476
 30
0.0
  0
VERTEX
  5
6D7
  8
DATA
  6
CONTINUOUS
 62
     7
 10
4.161559057617537
 20
115.1426345332476
 30
0.0
  0
SEQEND
  5
6D8
  8
DATA
  6
CONTINUOUS
 62
     7
  0
LINE
  5
1F4
  8
DATA
  6
CONTINUOUS
 62
     7
 10
33.699732535027273
 20
112.5676345332476
 30
0.0
 11
11.799922760643749
 21
112.5676345332476
 31
0.0
  0
LINE
  5
1F5
  8
DATA
  6
CONTINUOUS
 62
     7
 10
12.358839958096031
 20
120.41763453324759
 30
0.0
 11
33.140815337574971
 21
120.41763453324759
 31
0.0
  0
POLYLINE
  5
1F6
  8
DATA
  6
CONTINUOUS
 62
     7
 66
     1
 10
0.0
 20
0.0
 30
0.0
 70
     1
  0
VERTEX
  5
6D9
  8
DATA
  6
CONTINUOUS
 62
     7
 10
32.21989381901475
 20
117.2576345332476
 30
0.0
  0
VERTEX
  5
6DA
  8
DATA
  6
CONTINUOUS
 62
     7
 10
33.749893819014773
 20
117.2576345332476
 30
0.0
  0
VERTEX
  5
6DB
  8
DATA
  6
CONTINUOUS
 62
     7
 10
33.749893819014773
 20
115.7276345332476
 30
0.0
  0
VERTEX
  5
6DC
  8
DATA
  6
CONTINUOUS
 62
     7
 10
32.21989381901475
 20
115.7276345332476
 30
0.0
  0
SEQEND
  5
6DD
  8
DATA
  6
CONTINUOUS
 62
     7
  0
POLYLINE
  5
1FD
  8
DATA
  6
CONTINUOUS
 62
     7
 66
     1
 10
0.0
 20
0.0
 30
0.0
 70
     1
  0
VERTEX
  5
6DE
  8
DATA
  6
CONTINUOUS
 62
     7
 10
30.219893819014771
 20
117.2576345332476
 30
0.0
  0
VERTEX
  5
6DF
  8
DATA
  6
CONTINUOUS
 62
     7
 10
31.749893819014741
 20
117.2576345332476
 30
0.0
  0
VERTEX
  5
6E0
  8
DATA
  6
CONTINUOUS
 62
     7
 10
31.749893819014741
 20
115.7276345332476
 30
0.0
  0
VERTEX
  5
6E1
  8
DATA
  6
CONTINUOUS
 62
     7
 10
30.219893819014771
 20
115.7276345332476
 30
0.0
  0
SEQEND
  5
6E2
  8
DATA
  6
CONTINUOUS
 62
     7
  0
POLYLINE
  5
204
  8
DATA
  6
CONTINUOUS
 62
     7
 66
     1
 10
0.0
 20
0.0
 30
0.0
 70
     1
  0
VERTEX
  5
6E3
  8
DATA
  6
CONTINUOUS
 62
     7
 10
28.219893819014771
 20
117.2576345332476
 30
0.0
  0
VERTEX
  5
6E4
  8
DATA
  6
CONTINUOUS
 62
     7
 10
29.749893819014769
 20
117.2576345332476
 30
0.0
  0
VERTEX
  5
6E5
  8
DATA
  6
CONTINUOUS
 62
     7
 10
29.749893819014769
 20
115.7276345332476
 30
0.0
  0
VERTEX
  5
6E6
  8
DATA
  6
CONTINUOUS
 62
     7
 10
28.219893819014771
 20
115.7276345332476
 30
0.0
  0
SEQEND
  5
6E7
  8
DATA
  6
CONTINUOUS
 62
     7
  0
POLYLINE
  5
20B
  8
DATA
  6
CONTINUOUS
 62
     7
 66
     1
 10
0.0
 20
0.0
 30
0.0
 70
     1
  0
VERTEX
  5
6E8
  8
DATA
  6
CONTINUOUS
 62
     7
 10
26.219893819014771
 20
117.2576345332476
 30
0.0
  0
VERTEX
  5
6E9
  8
DATA
  6
CONTINUOUS
 62
     7
 10
27.749893819014769
 20
117.2576345332476
 30
0.0
  0
VERTEX
  5
6EA
  8
DATA
  6
CONTINUOUS
 62
     7
 10
27.749893819014769
 20
115.7276345332476
 30
0.0
  0
VERTEX
  5
6EB
  8
DATA
  6
CONTINUOUS
 62
     7
 10
26.219893819014771
 20
115.7276345332476
 30
0.0
  0
SEQEND
  5
6EC
  8
DATA
  6
CONTINUOUS
 62
     7
  0
POLYLINE
  5
212
  8
DATA
  6
CONTINUOUS
 62
     7
 66
     1
 10
0.0
 20
0.0
 30
0.0
 70
     1
  0
VERTEX
  5
6ED
  8
DATA
  6
CONTINUOUS
 62
     7
 10
24.219893819014779
 20
117.2576345332476
 30
0.0
  0
VERTEX
  5
6EE
  8
DATA
  6
CONTINUOUS
 62
     7
 10
25.749893819014769
 20
117.2576345332476
 30
0.0
  0
VERTEX
  5
6EF
  8
DATA
  6
CONTINUOUS
 62
     7
 10
25.749893819014769
 20
115.7276345332476
 30
0.0
  0
VERTEX
  5
6F0
  8
DATA
  6
CONTINUOUS
 62
     7
 10
24.219893819014779
 20
115.7276345332476
 30
0.0
  0
SEQEND
  5
6F1
  8
DATA
  6
CONTINUOUS
 62
     7
  0
POLYLINE
  5
219
  8
DATA
  6
CONTINUOUS
 62
     7
 66
     1
 10
0.0
 20
0.0
 30
0.0
 70
     1
  0
VERTEX
  5
6F2
  8
DATA
  6
CONTINUOUS
 62
     7
 10
22.219893819014811
 20
117.2576345332476
 30
0.0
  0
VERTEX
  5
6F3
  8
DATA
  6
CONTINUOUS
 62
     7
 10
23.74989381901479
 20
117.2576345332476
 30
0.0
  0
VERTEX
  5
6F4
  8
DATA
  6
CONTINUOUS
 62
     7
 10
23.74989381901479
 20
115.7276345332476
 30
0.0
  0
VERTEX
  5
6F5
  8
DATA
  6
CONTINUOUS
 62
     7
 10
22.219893819014811
 20
115.7276345332476
 30
0.0
  0
SEQEND
  5
6F6
  8
DATA
  6
CONTINUOUS
 62
     7
  0
POLYLINE
  5
220
  8
DATA
  6
CONTINUOUS
 62
     7
 66
     1
 10
0.0
 20
0.0
 30
0.0
 70
     1
  0
VERTEX
  5
6F7
  8
DATA
  6
CONTINUOUS
 62
     7
 10
20.219893819014811
 20
117.2576345332476
 30
0.0
  0
VERTEX
  5
6F8
  8
DATA
  6
CONTINUOUS
 62
     7
 10
21.749893819014812
 20
117.2576345332476
 30
0.0
  0
VERTEX
  5
6F9
  8
DATA
  6
CONTINUOUS
 62
     7
 10
21.749893819014812
 20
115.7276345332476
 30
0.0
  0
VERTEX
  5
6FA
  8
DATA
  6
CONTINUOUS
 62
     7
 10
20.219893819014811
 20
115.7276345332476
 30
0.0
  0
SEQEND
  5
6FB
  8
DATA
  6
CONTINUOUS
 62
     7
  0
POLYLINE
  5
227
  8
DATA
  6
CONTINUOUS
 62
     7
 66
     1
 10
0.0
 20
0.0
 30
0.0
 70
     1
  0
VERTEX
  5
6FC
  8
DATA
  6
CONTINUOUS
 62
     7
 10
18.219893819014811
 20
117.2576345332476
 30
0.0
  0
VERTEX
  5
6FD
  8
DATA
  6
CONTINUOUS
 62
     7
 10
19.749893819014812
 20
117.2576345332476
 30
0.0
  0
VERTEX
  5
6FE
  8
DATA
  6
CONTINUOUS
 62
     7
 10
19.749893819014812
 20
115.7276345332476
 30
0.0
  0
VERTEX
  5
6FF
  8
DATA
  6
CONTINUOUS
 62
     7
 10
18.219893819014811
 20
115.7276345332476
 30
0.0
  0
SEQEND
  5
700
  8
DATA
  6
CONTINUOUS
 62
     7
  0
POLYLINE
  5
22E
  8
DATA
  6
CONTINUOUS
 62
     7
 66
     1
 10
0.0
 20
0.0
 30
0.0
 70
     1
  0
VERTEX
  5
701
  8
DATA
  6
CONTINUOUS
 62
     7
 10
32.21989381901475
 20
115.2576345332475
 30
0.0
  0
VERTEX
  5
702
  8
DATA
  6
CONTINUOUS
 62
     7
 10
33.749893819014773
 20
115.2576345332475
 30
0.0
  0
VERTEX
  5
703
  8
DATA
  6
CONTINUOUS
 62
     7
 10
33.749893819014773
 20
113.7276345332476
 30
0.0
  0
VERTEX
  5
704
  8
DATA
  6
CONTINUOUS
 62
     7
 10
32.21989381901475
 20
113.7276345332476
 30
0.0
  0
SEQEND
  5
705
  8
DATA
  6
CONTINUOUS
 62
     7
  0
POLYLINE
  5
235
  8
DATA
  6
CONTINUOUS
 62
     7
 66
     1
 10
0.0
 20
0.0
 30
0.0
 70
     1
  0
VERTEX
  5
706
  8
DATA
  6
CONTINUOUS
 62
     7
 10
30.219893819014771
 20
115.2576345332475
 30
0.0
  0
VERTEX
  5
707
  8
DATA
  6
CONTINUOUS
 62
     7
 10
31.749893819014741
 20
115.2576345332475
 30
0.0
  0
VERTEX
  5
708
  8
DATA
  6
CONTINUOUS
 62
     7
 10
31.749893819014741
 20
113.7276345332476
 30
0.0
  0
VERTEX
  5
709
  8
DATA
  6
CONTINUOUS
 62
     7
 10
30.219893819014771
 20
113.7276345332476
 30
0.0
  0
SEQEND
  5
70A
  8
DATA
  6
CONTINUOUS
 62
     7
  0
POLYLINE
  5
23C
  8
DATA
  6
CONTINUOUS
 62
     7
 66
     1
 10
0.0
 20
0.0
 30
0.0
 70
     1
  0
VERTEX
  5
70B
  8
DATA
  6
CONTINUOUS
 62
     7
 10
28.219893819014771
 20
115.2576345332475
 30
0.0
  0
VERTEX
  5
70C
  8
DATA
  6
CONTINUOUS
 62
     7
 10
29.749893819014769
 20
115.2576345332475
 30
0.0
  0
VERTEX
  5
70D
  8
DATA
  6
CONTINUOUS
 62
     7
 10
29.749893819014769
 20
113.7276345332476
 30
0.0
  0
VERTEX
  5
70E
  8
DATA
  6
CONTINUOUS
 62
     7
 10
28.219893819014771
 20
113.7276345332476
 30
0.0
  0
SEQEND
  5
70F
  8
DATA
  6
CONTINUOUS
 62
     7
  0
POLYLINE
  5
243
  8
DATA
  6
CONTINUOUS
 62
     7
 66
     1
 10
0.0
 20
0.0
 30
0.0
 70
     1
  0
VERTEX
  5
710
  8
DATA
  6
CONTINUOUS
 62
     7
 10
26.219893819014771
 20
115.2576345332475
 30
0.0
  0
VERTEX
  5
711
  8
DATA
  6
CONTINUOUS
 62
     7
 10
27.749893819014769
 20
115.2576345332475
 30
0.0
  0
VERTEX
  5
712
  8
DATA
  6
CONTINUOUS
 62
     7
 10
27.749893819014769
 20
113.7276345332476
 30
0.0
  0
VERTEX
  5
713
  8
DATA
  6
CONTINUOUS
 62
     7
 10
26.219893819014771
 20
113.7276345332476
 30
0.0
  0
SEQEND
  5
714
  8
DATA
  6
CONTINUOUS
 62
     7
  0
POLYLINE
  5
24A
  8
DATA
  6
CONTINUOUS
 62
     7
 66
     1
 10
0.0
 20
0.0
 30
0.0
 70
     1
  0
VERTEX
  5
715
  8
DATA
  6
CONTINUOUS
 62
     7
 10
24.219893819014779
 20
115.2576345332475
 30
0.0
  0
VERTEX
  5
716
  8
DATA
  6
CONTINUOUS
 62
     7
 10
25.749893819014769
 20
115.2576345332475
 30
0.0
  0
VERTEX
  5
717
  8
DATA
  6
CONTINUOUS
 62
     7
 10
25.749893819014769
 20
113.7276345332476
 30
0.0
  0
VERTEX
  5
718
  8
DATA
  6
CONTINUOUS
 62
     7
 10
24.219893819014779
 20
113.7276345332476
 30
0.0
  0
SEQEND
  5
719
  8
DATA
  6
CONTINUOUS
 62
     7
  0
POLYLINE
  5
251
  8
DATA
  6
CONTINUOUS
 62
     7
 66
     1
 10
0.0
 20
0.0
 30
0.0
 70
     1
  0
VERTEX
  5
71A
  8
DATA
  6
CONTINUOUS
 62
     7
 10
22.219893819014811
 20
115.2576345332475
 30
0.0
  0
VERTEX
  5
71B
  8
DATA
  6
CONTINUOUS
 62
     7
 10
23.74989381901479
 20
115.2576345332475
 30
0.0
  0
VERTEX
  5
71C
  8
DATA
  6
CONTINUOUS
 62
     7
 10
23.74989381901479
 20
113.7276345332476
 30
0.0
  0
VERTEX
  5
71D
  8
DATA
  6
CONTINUOUS
 62
     7
 10
22.219893819014811
 20
113.7276345332476
 30
0.0
  0
SEQEND
  5
71E
  8
DATA
  6
CONTINUOUS
 62
     7
  0
POLYLINE
  5
258
  8
DATA
  6
CONTINUOUS
 62
     7
 66
     1
 10
0.0
 20
0.0
 30
0.0
 70
     1
  0
VERTEX
  5
71F
  8
DATA
  6
CONTINUOUS
 62
     7
 10
20.219893819014811
 20
115.2576345332475
 30
0.0
  0
VERTEX
  5
720
  8
DATA
  6
CONTINUOUS
 62
     7
 10
21.749893819014812
 20
115.2576345332475
 30
0.0
  0
VERTEX
  5
721
  8
DATA
  6
CONTINUOUS
 62
     7
 10
21.749893819014812
 20
113.7276345332476
 30
0.0
  0
VERTEX
  5
722
  8
DATA
  6
CONTINUOUS
 62
     7
 10
20.219893819014811
 20
113.7276345332476
 30
0.0
  0
SEQEND
  5
723
  8
DATA
  6
CONTINUOUS
 62
     7
  0
POLYLINE
  5
25F
  8
DATA
  6
CONTINUOUS
 62
     7
 66
     1
 10
0.0
 20
0.0
 30
0.0
 70
     1
  0
VERTEX
  5
724
  8
DATA
  6
CONTINUOUS
 62
     7
 10
18.219893819014811
 20
115.2576345332475
 30
0.0
  0
VERTEX
  5
725
  8
DATA
  6
CONTINUOUS
 62
     7
 10
19.749893819014812
 20
115.2576345332475
 30
0.0
  0
VERTEX
  5
726
  8
DATA
  6
CONTINUOUS
 62
     7
 10
19.749893819014812
 20
113.7276345332476
 30
0.0
  0
VERTEX
  5
727
  8
DATA
  6
CONTINUOUS
 62
     7
 10
18.219893819014811
 20
113.7276345332476
 30
0.0
  0
SEQEND
  5
728
  8
DATA
  6
CONTINUOUS
 62
     7
  0
POLYLINE
  5
266
  8
DATA
  6
CONTINUOUS
 62
     7
 66
     1
 10
0.0
 20
0.0
 30
0.0
 70
     1
  0
VERTEX
  5
729
  8
DATA
  6
CONTINUOUS
 62
     7
 10
32.21989381901475
 20
119.2576345332476
 30
0.0
  0
VERTEX
  5
72A
  8
DATA
  6
CONTINUOUS
 62
     7
 10
33.749893819014773
 20
119.2576345332476
 30
0.0
  0
VERTEX
  5
72B
  8
DATA
  6
CONTINUOUS
 62
     7
 10
33.749893819014773
 20
117.7276345332476
 30
0.0
  0
VERTEX
  5
72C
  8
DATA
  6
CONTINUOUS
 62
     7
 10
32.21989381901475
 20
117.7276345332476
 30
0.0
  0
SEQEND
  5
72D
  8
DATA
  6
CONTINUOUS
 62
     7
  0
POLYLINE
  5
26D
  8
DATA
  6
CONTINUOUS
 62
     7
 66
     1
 10
0.0
 20
0.0
 30
0.0
 70
     1
  0
VERTEX
  5
72E
  8
DATA
  6
CONTINUOUS
 62
     7
 10
30.219893819014771
 20
119.2576345332476
 30
0.0
  0
VERTEX
  5
72F
  8
DATA
  6
CONTINUOUS
 62
     7
 10
31.749893819014741
 20
119.2576345332476
 30
0.0
  0
VERTEX
  5
730
  8
DATA
  6
CONTINUOUS
 62
     7
 10
31.749893819014741
 20
117.7276345332476
 30
0.0
  0
VERTEX
  5
731
  8
DATA
  6
CONTINUOUS
 62
     7
 10
30.219893819014771
 20
117.7276345332476
 30
0.0
  0
SEQEND
  5
732
  8
DATA
  6
CONTINUOUS
 62
     7
  0
POLYLINE
  5
274
  8
DATA
  6
CONTINUOUS
 62
     7
 66
     1
 10
0.0
 20
0.0
 30
0.0
 70
     1
  0
VERTEX
  5
733
  8
DATA
  6
CONTINUOUS
 62
     7
 10
28.219893819014771
 20
119.2576345332476
 30
0.0
  0
VERTEX
  5
734
  8
DATA
  6
CONTINUOUS
 62
     7
 10
29.749893819014769
 20
119.2576345332476
 30
0.0
  0
VERTEX
  5
735
  8
DATA
  6
CONTINUOUS
 62
     7
 10
29.749893819014769
 20
117.7276345332476
 30
0.0
  0
VERTEX
  5
736
  8
DATA
  6
CONTINUOUS
 62
     7
 10
28.219893819014771
 20
117.7276345332476
 30
0.0
  0
SEQEND
  5
737
  8
DATA
  6
CONTINUOUS
 62
     7
  0
POLYLINE
  5
27B
  8
DATA
  6
CONTINUOUS
 62
     7
 66
     1
 10
0.0
 20
0.0
 30
0.0
 70
     1
  0
VERTEX
  5
738
  8
DATA
  6
CONTINUOUS
 62
     7
 10
26.219893819014771
 20
119.2576345332476
 30
0.0
  0
VERTEX
  5
739
  8
DATA
  6
CONTINUOUS
 62
     7
 10
27.749893819014769
 20
119.2576345332476
 30
0.0
  0
VERTEX
  5
73A
  8
DATA
  6
CONTINUOUS
 62
     7
 10
27.749893819014769
 20
117.7276345332476
 30
0.0
  0
VERTEX
  5
73B
  8
DATA
  6
CONTINUOUS
 62
     7
 10
26.219893819014771
 20
117.7276345332476
 30
0.0
  0
SEQEND
  5
73C
  8
DATA
  6
CONTINUOUS
 62
     7
  0
POLYLINE
  5
282
  8
DATA
  6
CONTINUOUS
 62
     7
 66
     1
 10
0.0
 20
0.0
 30
0.0
 70
     1
  0
VERTEX
  5
73D
  8
DATA
  6
CONTINUOUS
 62
     7
 10
24.219893819014779
 20
119.2576345332476
 30
0.0
  0
VERTEX
  5
73E
  8
DATA
  6
CONTINUOUS
 62
     7
 10
25.749893819014769
 20
119.2576345332476
 30
0.0
  0
VERTEX
  5
73F
  8
DATA
  6
CONTINUOUS
 62
     7
 10
25.749893819014769
 20
117.7276345332476
 30
0.0
  0
VERTEX
  5
740
  8
DATA
  6
CONTINUOUS
 62
     7
 10
24.219893819014779
 20
117.7276345332476
 30
0.0
  0
SEQEND
  5
741
  8
DATA
  6
CONTINUOUS
 62
     7
  0
POLYLINE
  5
289
  8
DATA
  6
CONTINUOUS
 62
     7
 66
     1
 10
0.0
 20
0.0
 30
0.0
 70
     1
  0
VERTEX
  5
742
  8
DATA
  6
CONTINUOUS
 62
     7
 10
22.219893819014811
 20
119.2576345332476
 30
0.0
  0
VERTEX
  5
743
  8
DATA
  6
CONTINUOUS
 62
     7
 10
23.74989381901479
 20
119.2576345332476
 30
0.0
  0
VERTEX
  5
744
  8
DATA
  6
CONTINUOUS
 62
     7
 10
23.74989381901479
 20
117.7276345332476
 30
0.0
  0
VERTEX
  5
745
  8
DATA
  6
CONTINUOUS
 62
     7
 10
22.219893819014811
 20
117.7276345332476
 30
0.0
  0
SEQEND
  5
746
  8
DATA
  6
CONTINUOUS
 62
     7
  0
POLYLINE
  5
290
  8
DATA
  6
CONTINUOUS
 62
     7
 66
     1
 10
0.0
 20
0.0
 30
0.0
 70
     1
  0
VERTEX
  5
747
  8
DATA
  6
CONTINUOUS
 62
     7
 10
20.219893819014811
 20
119.2576345332476
 30
0.0
  0
VERTEX
  5
748
  8
DATA
  6
CONTINUOUS
 62
     7
 10
21.749893819014812
 20
119.2576345332476
 30
0.0
  0
VERTEX
  5
749
  8
DATA
  6
CONTINUOUS
 62
     7
 10
21.749893819014812
 20
117.7276345332476
 30
0.0
  0
VERTEX
  5
74A
  8
DATA
  6
CONTINUOUS
 62
     7
 10
20.219893819014811
 20
117.7276345332476
 30
0.0
  0
SEQEND
  5
74B
  8
DATA
  6
CONTINUOUS
 62
     7
  0
POLYLINE
  5
297
  8
DATA
  6
CONTINUOUS
 62
     7
 66
     1
 10
0.0
 20
0.0
 30
0.0
 70
     1
  0
VERTEX
  5
74C
  8
DATA
  6
CONTINUOUS
 62
     7
 10
18.219893819014811
 20
119.2576345332476
 30
0.0
  0
VERTEX
  5
74D
  8
DATA
  6
CONTINUOUS
 62
     7
 10
19.749893819014812
 20
119.2576345332476
 30
0.0
  0
VERTEX
  5
74E
  8
DATA
  6
CONTINUOUS
 62
     7
 10
19.749893819014812
 20
117.7276345332476
 30
0.0
  0
VERTEX
  5
74F
  8
DATA
  6
CONTINUOUS
 62
     7
 10
18.219893819014811
 20
117.7276345332476
 30
0.0
  0
SEQEND
  5
750
  8
DATA
  6
CONTINUOUS
 62
     7
  0
POLYLINE
  5
29E
  8
DATA
  6
CONTINUOUS
 62
     7
 66
     1
 10
0.0
 20
0.0
 30
0.0
  0
VERTEX
  5
751
  8
DATA
  6
CONTINUOUS
 62
     7
 10
14.19982764783542
 20
116.0926345332476
 30
0.0
  0
VERTEX
  5
752
  8
DATA
  6
CONTINUOUS
 62
     7
 10
12.09982764783542
 20
116.0926345332476
 30
0.0
  0
VERTEX
  5
753
  8
DATA
  6
CONTINUOUS
 62
     7
 10
12.09982764783542
 20
116.8926345332476
 30
0.0
  0
VERTEX
  5
754
  8
DATA
  6
CONTINUOUS
 62
     7
 10
14.19982764783542
 20
116.8926345332476
 30
0.0
  0
SEQEND
  5
755
  8
DATA
  6
CONTINUOUS
 62
     7
  0
POLYLINE
  5
2A5
  8
DATA
  6
CONTINUOUS
 62
     7
 66
     1
 10
0.0
 20
0.0
 30
0.0
  0
VERTEX
  5
756
  8
DATA
  6
CONTINUOUS
 62
     7
 10
14.99982764783543
 20
116.8926345332476
 30
0.0
  0
VERTEX
  5
757
  8
DATA
  6
CONTINUOUS
 62
     7
 10
17.099827647835419
 20
116.8926345332476
 30
0.0
  0
VERTEX
  5
758
  8
DATA
  6
CONTINUOUS
 62
     7
 10
17.099827647835419
 20
116.0926345332476
 30
0.0
  0
VERTEX
  5
759
  8
DATA
  6
CONTINUOUS
 62
     7
 10
14.99982764783543
 20
116.0926345332476
 30
0.0
  0
SEQEND
  5
75A
  8
DATA
  6
CONTINUOUS
 62
     7
  0
POLYLINE
  5
2AC
  8
DATA
  6
CONTINUOUS
 62
     7
 66
     1
 10
0.0
 20
0.0
 30
0.0
  0
VERTEX
  5
75B
  8
DATA
  6
CONTINUOUS
 62
     7
 10
14.19982764783542
 20
116.8926345332476
 30
0.0
  0
VERTEX
  5
75C
  8
DATA
  6
CONTINUOUS
 62
     7
 10
14.19982764783542
 20
118.9926345332476
 30
0.0
  0
VERTEX
  5
75D
  8
DATA
  6
CONTINUOUS
 62
     7
 10
14.99982764783543
 20
118.9926345332476
 30
0.0
  0
VERTEX
  5
75E
  8
DATA
  6
CONTINUOUS
 62
     7
 10
14.99982764783543
 20
116.8926345332476
 30
0.0
  0
SEQEND
  5
75F
  8
DATA
  6
CONTINUOUS
 62
     7
  0
POLYLINE
  5
2B3
  8
DATA
  6
CONTINUOUS
 62
     7
 66
     1
 10
0.0
 20
0.0
 30
0.0
  0
VERTEX
  5
760
  8
DATA
  6
CONTINUOUS
 62
     7
 10
14.99982764783543
 20
116.0926345332476
 30
0.0
  0
VERTEX
  5
761
  8
DATA
  6
CONTINUOUS
 62
     7
 10
14.99982764783543
 20
113.9926345332476
 30
0.0
  0
VERTEX
  5
762
  8
DATA
  6
CONTINUOUS
 62
     7
 10
14.19982764783542
 20
113.9926345332476
 30
0.0
  0
VERTEX
  5
763
  8
DATA
  6
CONTINUOUS
 62
     7
 10
14.19982764783542
 20
116.0926345332476
 30
0.0
  0
SEQEND
  5
764
  8
DATA
  6
CONTINUOUS
 62
     7
  0
POLYLINE
  5
2BA
  8
DATA
  6
CONTINUOUS
 62
     7
 66
     1
 10
0.0
 20
0.0
 30
0.0
 70
     1
  0
VERTEX
  5
765
  8
DATA
  6
CONTINUOUS
 62
     7
 10
15.46011207830715
 20
115.7332067225977
 30
0.0
  0
VERTEX
  5
766
  8
DATA
  6
CONTINUOUS
 62
     7
 10
16.460112078307152
 20
115.7332067225977
 30
0.0
  0
VERTEX
  5
767
  8
DATA
  6
CONTINUOUS
 62
     7
 10
16.460112078307152
 20
114.7332067225977
 30
0.0
  0
VERTEX
  5
768
  8
DATA
  6
CONTINUOUS
 62
     7
 10
15.46011207830715
 20
114.7332067225977
 30
0.0
  0
SEQEND
  5
769
  8
DATA
  6
CONTINUOUS
 62
     7
  0
POLYLINE
  5
2C1
  8
DATA
  6
CONTINUOUS
 62
     7
 66
     1
 10
0.0
 20
0.0
 30
0.0
 70
     1
  0
VERTEX
  5
76A
  8
DATA
  6
CONTINUOUS
 62
     7
 10
12.7395432173637
 20
115.7332067225977
 30
0.0
  0
VERTEX
  5
76B
  8
DATA
  6
CONTINUOUS
 62
     7
 10
13.7395432173637
 20
115.7332067225977
 30
0.0
  0
VERTEX
  5
76C
  8
DATA
  6
CONTINUOUS
 62
     7
 10
13.7395432173637
 20
114.7332067225977
 30
0.0
  0
VERTEX
  5
76D
  8
DATA
  6
CONTINUOUS
 62
     7
 10
12.7395432173637
 20
114.7332067225977
 30
0.0
  0
SEQEND
  5
76E
  8
DATA
  6
CONTINUOUS
 62
     7
  0
POLYLINE
  5
2C8
  8
DATA
  6
CONTINUOUS
 62
     7
 66
     1
 10
0.0
 20
0.0
 30
0.0
 70
     1
  0
VERTEX
  5
76F
  8
DATA
  6
CONTINUOUS
 62
     7
 10
15.46011207830715
 20
118.25206234389761
 30
0.0
  0
VERTEX
  5
770
  8
DATA
  6
CONTINUOUS
 62
     7
 10
16.460112078307152
 20
118.25206234389761
 30
0.0
  0
VERTEX
  5
771
  8
DATA
  6
CONTINUOUS
 62
     7
 10
16.460112078307152
 20
117.25206234389751
 30
0.0
  0
VERTEX
  5
772
  8
DATA
  6
CONTINUOUS
 62
     7
 10
15.46011207830715
 20
117.25206234389751
 30
0.0
  0
SEQEND
  5
773
  8
DATA
  6
CONTINUOUS
 62
     7
  0
POLYLINE
  5
2CF
  8
DATA
  6
CONTINUOUS
 62
     7
 66
     1
 10
0.0
 20
0.0
 30
0.0
 70
     1
  0
VERTEX
  5
774
  8
DATA
  6
CONTINUOUS
 62
     7
 10
12.7395432173637
 20
118.25206234389761
 30
0.0
  0
VERTEX
  5
775
  8
DATA
  6
CONTINUOUS
 62
     7
 10
13.7395432173637
 20
118.25206234389761
 30
0.0
  0
VERTEX
  5
776
  8
DATA
  6
CONTINUOUS
 62
     7
 10
13.7395432173637
 20
117.25206234389751
 30
0.0
  0
VERTEX
  5
777
  8
DATA
  6
CONTINUOUS
 62
     7
 10
12.7395432173637
 20
117.25206234389751
 30
0.0
  0
SEQEND
  5
778
  8
DATA
  6
CONTINUOUS
 62
     7
  0
LINE
  5
2D6
  8
DATA
  6
CONTINUOUS
 62
     7
 10
34.695199465782743
 20
113.66274283873381
 30
0.0
 11
34.136282268330397
 21
119.5127428387338
 31
0.0
  0
LINE
  5
2D7
  8
DATA
  6
CONTINUOUS
 62
     7
 10
10.80445582988836
 20
113.66274283873381
 30
0.0
 11
11.363373027340639
 21
119.5127428387338
 31
0.0
  0
ARC
  5
2D8
  8
DATA
  6
CONTINUOUS
 62
     7
 10
33.699732535027273
 20
113.5676345332475
 30
0.0
 40
0.9999999999999715
 50
270.0
 51
5.4575534851070966
  0
ARC
  5
2D9
  8
DATA
  6
CONTINUOUS
 62
     7
 10
11.799922760643719
 20
113.5676345332476
 30
0.0
 40
0.9999999999999729
 50
174.5424465148939
 51
270.00000000000159
  0
ARC
  5
2DA
  8
DATA
  6
CONTINUOUS
 62
     7
 10
33.140815337574928
 20
119.41763453324759
 30
0.0
 40
1.0000000000000879
 50
5.4575534851070913
 51
89.99999999999838
  0
ARC
  5
2DB
  8
DATA
  6
CONTINUOUS
 62
     7
 10
12.358839958096031
 20
119.41763453324759
 30
0.0
 40
1.00000000000001
 50
90.0
 51
174.54244651489569
  0
TEXT
  5
2DC
  8
DATA
 62
     7
 10
28.592988171449679
 20
125.317063288592
 30
0.0
 40
2.497556423611111
  1
DVI Out 
 50
180.0
 41
0.7
 11
28.592988171449679
 21
122.81950686498089
 31
0.0
 73
     3
  0
CIRCLE
  5
2DD
  8
DATA
  6
CONTINUOUS
 62
     7
 10
-4.0001723521640278
 20
116.4926345332476
 30
0.0
 40
1.17500000000011
  0
POLYLINE
  5
2DE
  8
DATA
  6
CONTINUOUS
 62
     7
 66
     1
 10
0.0
 20
0.0
 30
0.0
 70
     1
  0
VERTEX
  5
779
  8
DATA
  6
CONTINUOUS
 62
     7
 10
-4.0001723521640278
 20
113.79263453324749
 30
0.0
  0
VERTEX
  5
77A
  8
DATA
  6
CONTINUOUS
 62
     7
 10
-1.6619037619460919
 20
115.1426345332476
 30
0.0
  0
VERTEX
  5
77B
  8
DATA
  6
CONTINUOUS
 62
     7
 10
-1.6619037619460919
 20
117.8426345332476
 30
0.0
  0
VERTEX
  5
77C
  8
DATA
  6
CONTINUOUS
 62
     7
 10
-4.0001723521640278
 20
119.1926345332475
 30
0.0
  0
VERTEX
  5
77D
  8
DATA
  6
CONTINUOUS
 62
     7
 10
-6.3384409423822197
 20
117.8426345332476
 30
0.0
  0
VERTEX
  5
77E
  8
DATA
  6
CONTINUOUS
 62
     7
 10
-6.3384409423822197
 20
115.1426345332476
 30
0.0
  0
SEQEND
  5
77F
  8
DATA
  6
CONTINUOUS
 62
     7
  0
CIRCLE
  5
2E7
  8
DATA
  6
CONTINUOUS
 62
     7
 10
-36.500172352164419
 20
116.4926345332476
 30
0.0
 40
1.175000000000068
  0
POLYLINE
  5
2E8
  8
DATA
  6
CONTINUOUS
 62
     7
 66
     1
 10
0.0
 20
0.0
 30
0.0
 70
     1
  0
VERTEX
  5
780
  8
DATA
  6
CONTINUOUS
 62
     7
 10
-36.500172352164419
 20
113.79263453324749
 30
0.0
  0
VERTEX
  5
781
  8
DATA
  6
CONTINUOUS
 62
     7
 10
-34.161903761946512
 20
115.1426345332476
 30
0.0
  0
VERTEX
  5
782
  8
DATA
  6
CONTINUOUS
 62
     7
 10
-34.161903761946512
 20
117.8426345332476
 30
0.0
  0
VERTEX
  5
783
  8
DATA
  6
CONTINUOUS
 62
     7
 10
-36.500172352164419
 20
119.1926345332475
 30
0.0
  0
VERTEX
  5
784
  8
DATA
  6
CONTINUOUS
 62
     7
 10
-38.838440942382469
 20
117.8426345332476
 30
0.0
  0
VERTEX
  5
785
  8
DATA
  6
CONTINUOUS
 62
     7
 10
-38.838440942382469
 20
115.1426345332476
 30
0.0
  0
SEQEND
  5
786
  8
DATA
  6
CONTINUOUS
 62
     7
  0
LINE
  5
2F1
  8
DATA
  6
CONTINUOUS
 62
     7
 10
-9.3002674649727322
 20
112.5676345332476
 30
0.0
 11
-31.200077239356251
 21
112.5676345332476
 31
0.0
  0
LINE
  5
2F2
  8
DATA
  6
CONTINUOUS
 62
     7
 10
-30.641160041903969
 20
120.41763453324759
 30
0.0
 11
-9.8591846624250365
 21
120.41763453324759
 31
0.0
  0
POLYLINE
  5
2F3
  8
DATA
  6
CONTINUOUS
 62
     7
 66
     1
 10
0.0
 20
0.0
 30
0.0
 70
     1
  0
VERTEX
  5
787
  8
DATA
  6
CONTINUOUS
 62
     7
 10
-10.78010618098525
 20
117.2576345332476
 30
0.0
  0
VERTEX
  5
788
  8
DATA
  6
CONTINUOUS
 62
     7
 10
-9.2501061809852292
 20
117.2576345332476
 30
0.0
  0
VERTEX
  5
789
  8
DATA
  6
CONTINUOUS
 62
     7
 10
-9.2501061809852292
 20
115.7276345332476
 30
0.0
  0
VERTEX
  5
78A
  8
DATA
  6
CONTINUOUS
 62
     7
 10
-10.78010618098525
 20
115.7276345332476
 30
0.0
  0
SEQEND
  5
78B
  8
DATA
  6
CONTINUOUS
 62
     7
  0
POLYLINE
  5
2FA
  8
DATA
  6
CONTINUOUS
 62
     7
 66
     1
 10
0.0
 20
0.0
 30
0.0
 70
     1
  0
VERTEX
  5
78C
  8
DATA
  6
CONTINUOUS
 62
     7
 10
-12.78010618098522
 20
117.2576345332476
 30
0.0
  0
VERTEX
  5
78D
  8
DATA
  6
CONTINUOUS
 62
     7
 10
-11.250106180985251
 20
117.2576345332476
 30
0.0
  0
VERTEX
  5
78E
  8
DATA
  6
CONTINUOUS
 62
     7
 10
-11.250106180985251
 20
115.7276345332476
 30
0.0
  0
VERTEX
  5
78F
  8
DATA
  6
CONTINUOUS
 62
     7
 10
-12.78010618098522
 20
115.7276345332476
 30
0.0
  0
SEQEND
  5
790
  8
DATA
  6
CONTINUOUS
 62
     7
  0
POLYLINE
  5
301
  8
DATA
  6
CONTINUOUS
 62
     7
 66
     1
 10
0.0
 20
0.0
 30
0.0
 70
     1
  0
VERTEX
  5
791
  8
DATA
  6
CONTINUOUS
 62
     7
 10
-14.78010618098523
 20
117.2576345332476
 30
0.0
  0
VERTEX
  5
792
  8
DATA
  6
CONTINUOUS
 62
     7
 10
-13.250106180985229
 20
117.2576345332476
 30
0.0
  0
VERTEX
  5
793
  8
DATA
  6
CONTINUOUS
 62
     7
 10
-13.250106180985229
 20
115.7276345332476
 30
0.0
  0
VERTEX
  5
794
  8
DATA
  6
CONTINUOUS
 62
     7
 10
-14.78010618098523
 20
115.7276345332476
 30
0.0
  0
SEQEND
  5
795
  8
DATA
  6
CONTINUOUS
 62
     7
  0
POLYLINE
  5
308
  8
DATA
  6
CONTINUOUS
 62
     7
 66
     1
 10
0.0
 20
0.0
 30
0.0
 70
     1
  0
VERTEX
  5
796
  8
DATA
  6
CONTINUOUS
 62
     7
 10
-16.780106180985221
 20
117.2576345332476
 30
0.0
  0
VERTEX
  5
797
  8
DATA
  6
CONTINUOUS
 62
     7
 10
-15.250106180985229
 20
117.2576345332476
 30
0.0
  0
VERTEX
  5
798
  8
DATA
  6
CONTINUOUS
 62
     7
 10
-15.250106180985229
 20
115.7276345332476
 30
0.0
  0
VERTEX
  5
799
  8
DATA
  6
CONTINUOUS
 62
     7
 10
-16.780106180985221
 20
115.7276345332476
 30
0.0
  0
SEQEND
  5
79A
  8
DATA
  6
CONTINUOUS
 62
     7
  0
POLYLINE
  5
30F
  8
DATA
  6
CONTINUOUS
 62
     7
 66
     1
 10
0.0
 20
0.0
 30
0.0
 70
     1
  0
VERTEX
  5
79B
  8
DATA
  6
CONTINUOUS
 62
     7
 10
-18.780106180985211
 20
117.2576345332476
 30
0.0
  0
VERTEX
  5
79C
  8
DATA
  6
CONTINUOUS
 62
     7
 10
-17.25010618098522
 20
117.2576345332476
 30
0.0
  0
VERTEX
  5
79D
  8
DATA
  6
CONTINUOUS
 62
     7
 10
-17.25010618098522
 20
115.7276345332476
 30
0.0
  0
VERTEX
  5
79E
  8
DATA
  6
CONTINUOUS
 62
     7
 10
-18.780106180985211
 20
115.7276345332476
 30
0.0
  0
SEQEND
  5
79F
  8
DATA
  6
CONTINUOUS
 62
     7
  0
POLYLINE
  5
316
  8
DATA
  6
CONTINUOUS
 62
     7
 66
     1
 10
0.0
 20
0.0
 30
0.0
 70
     1
  0
VERTEX
  5
7A0
  8
DATA
  6
CONTINUOUS
 62
     7
 10
-20.780106180985179
 20
117.2576345332476
 30
0.0
  0
VERTEX
  5
7A1
  8
DATA
  6
CONTINUOUS
 62
     7
 10
-19.25010618098521
 20
117.2576345332476
 30
0.0
  0
VERTEX
  5
7A2
  8
DATA
  6
CONTINUOUS
 62
     7
 10
-19.25010618098521
 20
115.7276345332476
 30
0.0
  0
VERTEX
  5
7A3
  8
DATA
  6
CONTINUOUS
 62
     7
 10
-20.780106180985179
 20
115.7276345332476
 30
0.0
  0
SEQEND
  5
7A4
  8
DATA
  6
CONTINUOUS
 62
     7
  0
POLYLINE
  5
31D
  8
DATA
  6
CONTINUOUS
 62
     7
 66
     1
 10
0.0
 20
0.0
 30
0.0
 70
     1
  0
VERTEX
  5
7A5
  8
DATA
  6
CONTINUOUS
 62
     7
 10
-22.780106180985179
 20
117.2576345332476
 30
0.0
  0
VERTEX
  5
7A6
  8
DATA
  6
CONTINUOUS
 62
     7
 10
-21.250106180985188
 20
117.2576345332476
 30
0.0
  0
VERTEX
  5
7A7
  8
DATA
  6
CONTINUOUS
 62
     7
 10
-21.250106180985188
 20
115.7276345332476
 30
0.0
  0
VERTEX
  5
7A8
  8
DATA
  6
CONTINUOUS
 62
     7
 10
-22.780106180985179
 20
115.7276345332476
 30
0.0
  0
SEQEND
  5
7A9
  8
DATA
  6
CONTINUOUS
 62
     7
  0
POLYLINE
  5
324
  8
DATA
  6
CONTINUOUS
 62
     7
 66
     1
 10
0.0
 20
0.0
 30
0.0
 70
     1
  0
VERTEX
  5
7AA
  8
DATA
  6
CONTINUOUS
 62
     7
 10
-24.780106180985179
 20
117.2576345332476
 30
0.0
  0
VERTEX
  5
7AB
  8
DATA
  6
CONTINUOUS
 62
     7
 10
-23.250106180985181
 20
117.2576345332476
 30
0.0
  0
VERTEX
  5
7AC
  8
DATA
  6
CONTINUOUS
 62
     7
 10
-23.250106180985181
 20
115.7276345332476
 30
0.0
  0
VERTEX
  5
7AD
  8
DATA
  6
CONTINUOUS
 62
     7
 10
-24.780106180985179
 20
115.7276345332476
 30
0.0
  0
SEQEND
  5
7AE
  8
DATA
  6
CONTINUOUS
 62
     7
  0
POLYLINE
  5
32B
  8
DATA
  6
CONTINUOUS
 62
     7
 66
     1
 10
0.0
 20
0.0
 30
0.0
 70
     1
  0
VERTEX
  5
7AF
  8
DATA
  6
CONTINUOUS
 62
     7
 10
-10.78010618098525
 20
115.2576345332475
 30
0.0
  0
VERTEX
  5
7B0
  8
DATA
  6
CONTINUOUS
 62
     7
 10
-9.2501061809852292
 20
115.2576345332475
 30
0.0
  0
VERTEX
  5
7B1
  8
DATA
  6
CONTINUOUS
 62
     7
 10
-9.2501061809852292
 20
113.7276345332476
 30
0.0
  0
VERTEX
  5
7B2
  8
DATA
  6
CONTINUOUS
 62
     7
 10
-10.78010618098525
 20
113.7276345332476
 30
0.0
  0
SEQEND
  5
7B3
  8
DATA
  6
CONTINUOUS
 62
     7
  0
POLYLINE
  5
332
  8
DATA
  6
CONTINUOUS
 62
     7
 66
     1
 10
0.0
 20
0.0
 30
0.0
 70
     1
  0
VERTEX
  5
7B4
  8
DATA
  6
CONTINUOUS
 62
     7
 10
-12.78010618098522
 20
115.2576345332475
 30
0.0
  0
VERTEX
  5
7B5
  8
DATA
  6
CONTINUOUS
 62
     7
 10
-11.250106180985251
 20
115.2576345332475
 30
0.0
  0
VERTEX
  5
7B6
  8
DATA
  6
CONTINUOUS
 62
     7
 10
-11.250106180985251
 20
113.7276345332476
 30
0.0
  0
VERTEX
  5
7B7
  8
DATA
  6
CONTINUOUS
 62
     7
 10
-12.78010618098522
 20
113.7276345332476
 30
0.0
  0
SEQEND
  5
7B8
  8
DATA
  6
CONTINUOUS
 62
     7
  0
POLYLINE
  5
339
  8
DATA
  6
CONTINUOUS
 62
     7
 66
     1
 10
0.0
 20
0.0
 30
0.0
 70
     1
  0
VERTEX
  5
7B9
  8
DATA
  6
CONTINUOUS
 62
     7
 10
-14.78010618098523
 20
115.2576345332475
 30
0.0
  0
VERTEX
  5
7BA
  8
DATA
  6
CONTINUOUS
 62
     7
 10
-13.250106180985229
 20
115.2576345332475
 30
0.0
  0
VERTEX
  5
7BB
  8
DATA
  6
CONTINUOUS
 62
     7
 10
-13.250106180985229
 20
113.7276345332476
 30
0.0
  0
VERTEX
  5
7BC
  8
DATA
  6
CONTINUOUS
 62
     7
 10
-14.78010618098523
 20
113.7276345332476
 30
0.0
  0
SEQEND
  5
7BD
  8
DATA
  6
CONTINUOUS
 62
     7
  0
POLYLINE
  5
340
  8
DATA
  6
CONTINUOUS
 62
     7
 66
     1
 10
0.0
 20
0.0
 30
0.0
 70
     1
  0
VERTEX
  5
7BE
  8
DATA
  6
CONTINUOUS
 62
     7
 10
-16.780106180985221
 20
115.2576345332475
 30
0.0
  0
VERTEX
  5
7BF
  8
DATA
  6
CONTINUOUS
 62
     7
 10
-15.250106180985229
 20
115.2576345332475
 30
0.0
  0
VERTEX
  5
7C0
  8
DATA
  6
CONTINUOUS
 62
     7
 10
-15.250106180985229
 20
113.7276345332476
 30
0.0
  0
VERTEX
  5
7C1
  8
DATA
  6
CONTINUOUS
 62
     7
 10
-16.780106180985221
 20
113.7276345332476
 30
0.0
  0
SEQEND
  5
7C2
  8
DATA
  6
CONTINUOUS
 62
     7
  0
POLYLINE
  5
347
  8
DATA
  6
CONTINUOUS
 62
     7
 66
     1
 10
0.0
 20
0.0
 30
0.0
 70
     1
  0
VERTEX
  5
7C3
  8
DATA
  6
CONTINUOUS
 62
     7
 10
-18.780106180985211
 20
115.2576345332475
 30
0.0
  0
VERTEX
  5
7C4
  8
DATA
  6
CONTINUOUS
 62
     7
 10
-17.25010618098522
 20
115.2576345332475
 30
0.0
  0
VERTEX
  5
7C5
  8
DATA
  6
CONTINUOUS
 62
     7
 10
-17.25010618098522
 20
113.7276345332476
 30
0.0
  0
VERTEX
  5
7C6
  8
DATA
  6
CONTINUOUS
 62
     7
 10
-18.780106180985211
 20
113.7276345332476
 30
0.0
  0
SEQEND
  5
7C7
  8
DATA
  6
CONTINUOUS
 62
     7
  0
POLYLINE
  5
34E
  8
DATA
  6
CONTINUOUS
 62
     7
 66
     1
 10
0.0
 20
0.0
 30
0.0
 70
     1
  0
VERTEX
  5
7C8
  8
DATA
  6
CONTINUOUS
 62
     7
 10
-20.780106180985179
 20
115.2576345332475
 30
0.0
  0
VERTEX
  5
7C9
  8
DATA
  6
CONTINUOUS
 62
     7
 10
-19.25010618098521
 20
115.2576345332475
 30
0.0
  0
VERTEX
  5
7CA
  8
DATA
  6
CONTINUOUS
 62
     7
 10
-19.25010618098521
 20
113.7276345332476
 30
0.0
  0
VERTEX
  5
7CB
  8
DATA
  6
CONTINUOUS
 62
     7
 10
-20.780106180985179
 20
113.7276345332476
 30
0.0
  0
SEQEND
  5
7CC
  8
DATA
  6
CONTINUOUS
 62
     7
  0
POLYLINE
  5
355
  8
DATA
  6
CONTINUOUS
 62
     7
 66
     1
 10
0.0
 20
0.0
 30
0.0
 70
     1
  0
VERTEX
  5
7CD
  8
DATA
  6
CONTINUOUS
 62
     7
 10
-22.780106180985179
 20
115.2576345332475
 30
0.0
  0
VERTEX
  5
7CE
  8
DATA
  6
CONTINUOUS
 62
     7
 10
-21.250106180985188
 20
115.2576345332475
 30
0.0
  0
VERTEX
  5
7CF
  8
DATA
  6
CONTINUOUS
 62
     7
 10
-21.250106180985188
 20
113.7276345332476
 30
0.0
  0
VERTEX
  5
7D0
  8
DATA
  6
CONTINUOUS
 62
     7
 10
-22.780106180985179
 20
113.7276345332476
 30
0.0
  0
SEQEND
  5
7D1
  8
DATA
  6
CONTINUOUS
 62
     7
  0
POLYLINE
  5
35C
  8
DATA
  6
CONTINUOUS
 62
     7
 66
     1
 10
0.0
 20
0.0
 30
0.0
 70
     1
  0
VERTEX
  5
7D2
  8
DATA
  6
CONTINUOUS
 62
     7
 10
-24.780106180985179
 20
115.2576345332475
 30
0.0
  0
VERTEX
  5
7D3
  8
DATA
  6
CONTINUOUS
 62
     7
 10
-23.250106180985181
 20
115.2576345332475
 30
0.0
  0
VERTEX
  5
7D4
  8
DATA
  6
CONTINUOUS
 62
     7
 10
-23.250106180985181
 20
113.7276345332476
 30
0.0
  0
VERTEX
  5
7D5
  8
DATA
  6
CONTINUOUS
 62
     7
 10
-24.780106180985179
 20
113.7276345332476
 30
0.0
  0
SEQEND
  5
7D6
  8
DATA
  6
CONTINUOUS
 62
     7
  0
POLYLINE
  5
363
  8
DATA
  6
CONTINUOUS
 62
     7
 66
     1
 10
0.0
 20
0.0
 30
0.0
 70
     1
  0
VERTEX
  5
7D7
  8
DATA
  6
CONTINUOUS
 62
     7
 10
-10.78010618098525
 20
119.2576345332476
 30
0.0
  0
VERTEX
  5
7D8
  8
DATA
  6
CONTINUOUS
 62
     7
 10
-9.2501061809852292
 20
119.2576345332476
 30
0.0
  0
VERTEX
  5
7D9
  8
DATA
  6
CONTINUOUS
 62
     7
 10
-9.2501061809852292
 20
117.7276345332476
 30
0.0
  0
VERTEX
  5
7DA
  8
DATA
  6
CONTINUOUS
 62
     7
 10
-10.78010618098525
 20
117.7276345332476
 30
0.0
  0
SEQEND
  5
7DB
  8
DATA
  6
CONTINUOUS
 62
     7
  0
POLYLINE
  5
36A
  8
DATA
  6
CONTINUOUS
 62
     7
 66
     1
 10
0.0
 20
0.0
 30
0.0
 70
     1
  0
VERTEX
  5
7DC
  8
DATA
  6
CONTINUOUS
 62
     7
 10
-12.78010618098522
 20
119.2576345332476
 30
0.0
  0
VERTEX
  5
7DD
  8
DATA
  6
CONTINUOUS
 62
     7
 10
-11.250106180985251
 20
119.2576345332476
 30
0.0
  0
VERTEX
  5
7DE
  8
DATA
  6
CONTINUOUS
 62
     7
 10
-11.250106180985251
 20
117.7276345332476
 30
0.0
  0
VERTEX
  5
7DF
  8
DATA
  6
CONTINUOUS
 62
     7
 10
-12.78010618098522
 20
117.7276345332476
 30
0.0
  0
SEQEND
  5
7E0
  8
DATA
  6
CONTINUOUS
 62
     7
  0
POLYLINE
  5
371
  8
DATA
  6
CONTINUOUS
 62
     7
 66
     1
 10
0.0
 20
0.0
 30
0.0
 70
     1
  0
VERTEX
  5
7E1
  8
DATA
  6
CONTINUOUS
 62
     7
 10
-14.78010618098523
 20
119.2576345332476
 30
0.0
  0
VERTEX
  5
7E2
  8
DATA
  6
CONTINUOUS
 62
     7
 10
-13.250106180985229
 20
119.2576345332476
 30
0.0
  0
VERTEX
  5
7E3
  8
DATA
  6
CONTINUOUS
 62
     7
 10
-13.250106180985229
 20
117.7276345332476
 30
0.0
  0
VERTEX
  5
7E4
  8
DATA
  6
CONTINUOUS
 62
     7
 10
-14.78010618098523
 20
117.7276345332476
 30
0.0
  0
SEQEND
  5
7E5
  8
DATA
  6
CONTINUOUS
 62
     7
  0
POLYLINE
  5
378
  8
DATA
  6
CONTINUOUS
 62
     7
 66
     1
 10
0.0
 20
0.0
 30
0.0
 70
     1
  0
VERTEX
  5
7E6
  8
DATA
  6
CONTINUOUS
 62
     7
 10
-16.780106180985221
 20
119.2576345332476
 30
0.0
  0
VERTEX
  5
7E7
  8
DATA
  6
CONTINUOUS
 62
     7
 10
-15.250106180985229
 20
119.2576345332476
 30
0.0
  0
VERTEX
  5
7E8
  8
DATA
  6
CONTINUOUS
 62
     7
 10
-15.250106180985229
 20
117.7276345332476
 30
0.0
  0
VERTEX
  5
7E9
  8
DATA
  6
CONTINUOUS
 62
     7
 10
-16.780106180985221
 20
117.7276345332476
 30
0.0
  0
SEQEND
  5
7EA
  8
DATA
  6
CONTINUOUS
 62
     7
  0
POLYLINE
  5
37F
  8
DATA
  6
CONTINUOUS
 62
     7
 66
     1
 10
0.0
 20
0.0
 30
0.0
 70
     1
  0
VERTEX
  5
7EB
  8
DATA
  6
CONTINUOUS
 62
     7
 10
-18.780106180985211
 20
119.2576345332476
 30
0.0
  0
VERTEX
  5
7EC
  8
DATA
  6
CONTINUOUS
 62
     7
 10
-17.25010618098522
 20
119.2576345332476
 30
0.0
  0
VERTEX
  5
7ED
  8
DATA
  6
CONTINUOUS
 62
     7
 10
-17.25010618098522
 20
117.7276345332476
 30
0.0
  0
VERTEX
  5
7EE
  8
DATA
  6
CONTINUOUS
 62
     7
 10
-18.780106180985211
 20
117.7276345332476
 30
0.0
  0
SEQEND
  5
7EF
  8
DATA
  6
CONTINUOUS
 62
     7
  0
POLYLINE
  5
386
  8
DATA
  6
CONTINUOUS
 62
     7
 66
     1
 10
0.0
 20
0.0
 30
0.0
 70
     1
  0
VERTEX
  5
7F0
  8
DATA
  6
CONTINUOUS
 62
     7
 10
-20.780106180985179
 20
119.2576345332476
 30
0.0
  0
VERTEX
  5
7F1
  8
DATA
  6
CONTINUOUS
 62
     7
 10
-19.25010618098521
 20
119.2576345332476
 30
0.0
  0
VERTEX
  5
7F2
  8
DATA
  6
CONTINUOUS
 62
     7
 10
-19.25010618098521
 20
117.7276345332476
 30
0.0
  0
VERTEX
  5
7F3
  8
DATA
  6
CONTINUOUS
 62
     7
 10
-20.780106180985179
 20
117.7276345332476
 30
0.0
  0
SEQEND
  5
7F4
  8
DATA
  6
CONTINUOUS
 62
     7
  0
POLYLINE
  5
38D
  8
DATA
  6
CONTINUOUS
 62
     7
 66
     1
 10
0.0
 20
0.0
 30
0.0
 70
     1
  0
VERTEX
  5
7F5
  8
DATA
  6
CONTINUOUS
 62
     7
 10
-22.780106180985179
 20
119.2576345332476
 30
0.0
  0
VERTEX
  5
7F6
  8
DATA
  6
CONTINUOUS
 62
     7
 10
-21.250106180985188
 20
119.2576345332476
 30
0.0
  0
VERTEX
  5
7F7
  8
DATA
  6
CONTINUOUS
 62
     7
 10
-21.250106180985188
 20
117.7276345332476
 30
0.0
  0
VERTEX
  5
7F8
  8
DATA
  6
CONTINUOUS
 62
     7
 10
-22.780106180985179
 20
117.7276345332476
 30
0.0
  0
SEQEND
  5
7F9
  8
DATA
  6
CONTINUOUS
 62
     7
  0
POLYLINE
  5
394
  8
DATA
  6
CONTINUOUS
 62
     7
 66
     1
 10
0.0
 20
0.0
 30
0.0
 70
     1
  0
VERTEX
  5
7FA
  8
DATA
  6
CONTINUOUS
 62
     7
 10
-24.780106180985179
 20
119.2576345332476
 30
0.0
  0
VERTEX
  5
7FB
  8
DATA
  6
CONTINUOUS
 62
     7
 10
-23.250106180985181
 20
119.2576345332476
 30
0.0
  0
VERTEX
  5
7FC
  8
DATA
  6
CONTINUOUS
 62
     7
 10
-23.250106180985181
 20
117.7276345332476
 30
0.0
  0
VERTEX
  5
7FD
  8
DATA
  6
CONTINUOUS
 62
     7
 10
-24.780106180985179
 20
117.7276345332476
 30
0.0
  0
SEQEND
  5
7FE
  8
DATA
  6
CONTINUOUS
 62
     7
  0
POLYLINE
  5
39B
  8
DATA
  6
CONTINUOUS
 62
     7
 66
     1
 10
0.0
 20
0.0
 30
0.0
  0
VERTEX
  5
7FF
  8
DATA
  6
CONTINUOUS
 62
     7
 10
-28.80017235216458
 20
116.0926345332476
 30
0.0
  0
VERTEX
  5
800
  8
DATA
  6
CONTINUOUS
 62
     7
 10
-30.900172352164571
 20
116.0926345332476
 30
0.0
  0
VERTEX
  5
801
  8
DATA
  6
CONTINUOUS
 62
     7
 10
-30.900172352164571
 20
116.8926345332476
 30
0.0
  0
VERTEX
  5
802
  8
DATA
  6
CONTINUOUS
 62
     7
 10
-28.80017235216458
 20
116.8926345332476
 30
0.0
  0
SEQEND
  5
803
  8
DATA
  6
CONTINUOUS
 62
     7
  0
POLYLINE
  5
3A2
  8
DATA
  6
CONTINUOUS
 62
     7
 66
     1
 10
0.0
 20
0.0
 30
0.0
  0
VERTEX
  5
804
  8
DATA
  6
CONTINUOUS
 62
     7
 10
-28.000172352164569
 20
116.8926345332476
 30
0.0
  0
VERTEX
  5
805
  8
DATA
  6
CONTINUOUS
 62
     7
 10
-25.900172352164571
 20
116.8926345332476
 30
0.0
  0
VERTEX
  5
806
  8
DATA
  6
CONTINUOUS
 62
     7
 10
-25.900172352164571
 20
116.0926345332476
 30
0.0
  0
VERTEX
  5
807
  8
DATA
  6
CONTINUOUS
 62
     7
 10
-28.000172352164569
 20
116.0926345332476
 30
0.0
  0
SEQEND
  5
808
  8
DATA
  6
CONTINUOUS
 62
     7
  0
POLYLINE
  5
3A9
  8
DATA
  6
CONTINUOUS
 62
     7
 66
     1
 10
0.0
 20
0.0
 30
0.0
  0
VERTEX
  5
809
  8
DATA
  6
CONTINUOUS
 62
     7
 10
-28.80017235216458
 20
116.8926345332476
 30
0.0
  0
VERTEX
  5
80A
  8
DATA
  6
CONTINUOUS
 62
     7
 10
-28.80017235216458
 20
118.9926345332476
 30
0.0
  0
VERTEX
  5
80B
  8
DATA
  6
CONTINUOUS
 62
     7
 10
-28.000172352164569
 20
118.9926345332476
 30
0.0
  0
VERTEX
  5
80C
  8
DATA
  6
CONTINUOUS
 62
     7
 10
-28.000172352164569
 20
116.8926345332476
 30
0.0
  0
SEQEND
  5
80D
  8
DATA
  6
CONTINUOUS
 62
     7
  0
POLYLINE
  5
3B0
  8
DATA
  6
CONTINUOUS
 62
     7
 66
     1
 10
0.0
 20
0.0
 30
0.0
  0
VERTEX
  5
80E
  8
DATA
  6
CONTINUOUS
 62
     7
 10
-28.000172352164569
 20
116.0926345332476
 30
0.0
  0
VERTEX
  5
80F
  8
DATA
  6
CONTINUOUS
 62
     7
 10
-28.000172352164569
 20
113.9926345332476
 30
0.0
  0
VERTEX
  5
810
  8
DATA
  6
CONTINUOUS
 62
     7
 10
-28.80017235216458
 20
113.9926345332476
 30
0.0
  0
VERTEX
  5
811
  8
DATA
  6
CONTINUOUS
 62
     7
 10
-28.80017235216458
 20
116.0926345332476
 30
0.0
  0
SEQEND
  5
812
  8
DATA
  6
CONTINUOUS
 62
     7
  0
POLYLINE
  5
3B7
  8
DATA
  6
CONTINUOUS
 62
     7
 66
     1
 10
0.0
 20
0.0
 30
0.0
 70
     1
  0
VERTEX
  5
813
  8
DATA
  6
CONTINUOUS
 62
     7
 10
-27.539887921692848
 20
115.7332067225977
 30
0.0
  0
VERTEX
  5
814
  8
DATA
  6
CONTINUOUS
 62
     7
 10
-26.539887921692848
 20
115.7332067225977
 30
0.0
  0
VERTEX
  5
815
  8
DATA
  6
CONTINUOUS
 62
     7
 10
-26.539887921692848
 20
114.7332067225977
 30
0.0
  0
VERTEX
  5
816
  8
DATA
  6
CONTINUOUS
 62
     7
 10
-27.539887921692848
 20
114.7332067225977
 30
0.0
  0
SEQEND
  5
817
  8
DATA
  6
CONTINUOUS
 62
     7
  0
POLYLINE
  5
3BE
  8
DATA
  6
CONTINUOUS
 62
     7
 66
     1
 10
0.0
 20
0.0
 30
0.0
 70
     1
  0
VERTEX
  5
818
  8
DATA
  6
CONTINUOUS
 62
     7
 10
-30.2604567826363
 20
115.7332067225977
 30
0.0
  0
VERTEX
  5
819
  8
DATA
  6
CONTINUOUS
 62
     7
 10
-29.2604567826363
 20
115.7332067225977
 30
0.0
  0
VERTEX
  5
81A
  8
DATA
  6
CONTINUOUS
 62
     7
 10
-29.2604567826363
 20
114.7332067225977
 30
0.0
  0
VERTEX
  5
81B
  8
DATA
  6
CONTINUOUS
 62
     7
 10
-30.2604567826363
 20
114.7332067225977
 30
0.0
  0
SEQEND
  5
81C
  8
DATA
  6
CONTINUOUS
 62
     7
  0
POLYLINE
  5
3C5
  8
DATA
  6
CONTINUOUS
 62
     7
 66
     1
 10
0.0
 20
0.0
 30
0.0
 70
     1
  0
VERTEX
  5
81D
  8
DATA
  6
CONTINUOUS
 62
     7
 10
-27.539887921692848
 20
118.25206234389761
 30
0.0
  0
VERTEX
  5
81E
  8
DATA
  6
CONTINUOUS
 62
     7
 10
-26.539887921692848
 20
118.25206234389761
 30
0.0
  0
VERTEX
  5
81F
  8
DATA
  6
CONTINUOUS
 62
     7
 10
-26.539887921692848
 20
117.25206234389751
 30
0.0
  0
VERTEX
  5
820
  8
DATA
  6
CONTINUOUS
 62
     7
 10
-27.539887921692848
 20
117.25206234389751
 30
0.0
  0
SEQEND
  5
821
  8
DATA
  6
CONTINUOUS
 62
     7
  0
POLYLINE
  5
3CC
  8
DATA
  6
CONTINUOUS
 62
     7
 66
     1
 10
0.0
 20
0.0
 30
0.0
 70
     1
  0
VERTEX
  5
822
  8
DATA
  6
CONTINUOUS
 62
     7
 10
-30.2604567826363
 20
118.25206234389761
 30
0.0
  0
VERTEX
  5
823
  8
DATA
  6
CONTINUOUS
 62
     7
 10
-29.2604567826363
 20
118.25206234389761
 30
0.0
  0
VERTEX
  5
824
  8
DATA
  6
CONTINUOUS
 62
     7
 10
-29.2604567826363
 20
117.25206234389751
 30
0.0
  0
VERTEX
  5
825
  8
DATA
  6
CONTINUOUS
 62
     7
 10
-30.2604567826363
 20
117.25206234389751
 30
0.0
  0
SEQEND
  5
826
  8
DATA
  6
CONTINUOUS
 62
     7
  0
LINE
  5
3D3
  8
DATA
  6
CONTINUOUS
 62
     7
 10
-8.3048005342172644
 20
113.66274283873381
 30
0.0
 11
-8.8637177316695954
 21
119.5127428387338
 31
0.0
  0
LINE
  5
3D4
  8
DATA
  6
CONTINUOUS
 62
     7
 10
-32.195544170111617
 20
113.66274283873381
 30
0.0
 11
-31.636626972659361
 21
119.5127428387338
 31
0.0
  0
ARC
  5
3D5
  8
DATA
  6
CONTINUOUS
 62
     7
 10
-9.3002674649727322
 20
113.5676345332475
 30
0.0
 40
0.9999999999999715
 50
270.0
 51
5.4575534851070966
  0
ARC
  5
3D6
  8
DATA
  6
CONTINUOUS
 62
     7
 10
-31.200077239356279
 20
113.5676345332476
 30
0.0
 40
0.9999999999999729
 50
174.5424465148939
 51
270.00000000000159
  0
ARC
  5
3D7
  8
DATA
  6
CONTINUOUS
 62
     7
 10
-9.8591846624250632
 20
119.41763453324759
 30
0.0
 40
1.0000000000000879
 50
5.4575534851070913
 51
89.99999999999838
  0
ARC
  5
3D8
  8
DATA
  6
CONTINUOUS
 62
     7
 10
-30.641160041903969
 20
119.41763453324759
 30
0.0
 40
1.00000000000001
 50
90.0
 51
174.54244651489569
  0
TEXT
  5
3D9
  8
DATA
 62
     7
 10
-13.688857254009021
 20
125.317063288592
 30
0.0
 40
2.497556423611111
  1
DVI In 2
 50
180.0
 41
0.7
 11
-13.688857254009021
 21
122.81950686498089
 31
0.0
 73
     3
  0
LINE
  5
3DA
  8
DATA
  6
CONTINUOUS
 62
     7
 10
-79.991085415651483
 20
120.4451184639185
 30
0.0
 11
-79.991085415651483
 21
108.4451184639185
 31
0.0
  0
LINE
  5
3DB
  8
DATA
  6
CONTINUOUS
 62
     7
 10
-91.991085415651213
 20
120.4451184639185
 30
0.0
 11
-79.991085415651483
 21
120.4451184639185
 31
0.0
  0
LINE
  5
3DC
  8
DATA
  6
CONTINUOUS
 62
     7
 10
-91.991085415651213
 20
108.4451184639185
 30
0.0
 11
-91.991085415651213
 21
120.4451184639185
 31
0.0
  0
LINE
  5
3DD
  8
DATA
  6
CONTINUOUS
 62
     7
 10
-79.991085415651483
 20
108.4451184639185
 30
0.0
 11
-91.991085415651213
 21
108.4451184639185
 31
0.0
  0
LINE
  5
3DE
  8
DATA
  6
CONTINUOUS
 62
     7
 10
-90.241085415651227
 20
118.6951184639185
 30
0.0
 11
-81.741085415651341
 21
118.6951184639185
 31
0.0
  0
LINE
  5
3DF
  8
DATA
  6
CONTINUOUS
 62
     7
 10
-81.741085415651341
 20
118.6951184639185
 30
0.0
 11
-81.741085415651341
 21
111.8451184639185
 31
0.0
  0
LINE
  5
3E0
  8
DATA
  6
CONTINUOUS
 62
     7
 10
-90.241085415651227
 20
111.8451184639185
 30
0.0
 11
-90.241085415651227
 21
118.6951184639185
 31
0.0
  0
LINE
  5
3E1
  8
DATA
  6
CONTINUOUS
 62
     7
 10
-83.741085415651213
 20
109.8451184639185
 30
0.0
 11
-88.241085415651213
 21
109.8451184639185
 31
0.0
  0
LINE
  5
3E2
  8
DATA
  6
CONTINUOUS
 62
     7
 10
-81.741085415651341
 20
111.8451184639185
 30
0.0
 11
-83.741085415651213
 21
109.8451184639185
 31
0.0
  0
LINE
  5
3E3
  8
DATA
  6
CONTINUOUS
 62
     7
 10
-90.241085415651227
 20
111.8451184639185
 30
0.0
 11
-88.241085415651213
 21
109.8451184639185
 31
0.0
  0
POLYLINE
  5
3E4
  8
DATA
  6
CONTINUOUS
 62
     7
 66
     1
 10
0.0
 20
0.0
 30
0.0
 70
     1
  0
VERTEX
  5
827
  8
DATA
  6
CONTINUOUS
 62
     7
 10
-88.991085415651213
 20
116.7534705317175
 30
0.0
  0
VERTEX
  5
828
  8
DATA
  6
CONTINUOUS
 62
     7
 10
-82.991085415651256
 20
116.7534705317175
 30
0.0
  0
VERTEX
  5
829
  8
DATA
  6
CONTINUOUS
 62
     7
 10
-82.991085415651256
 20
112.9534705317175
 30
0.0
  0
VERTEX
  5
82A
  8
DATA
  6
CONTINUOUS
 62
     7
 10
-88.991085415651213
 20
112.9534705317175
 30
0.0
  0
SEQEND
  5
82B
  8
DATA
  6
CONTINUOUS
 62
     7
  0
LINE
  5
3EB
  8
DATA
  6
CONTINUOUS
 62
     7
 10
-62.0033874742047
 20
120.42
 30
0.0
 11
-56.903387474204692
 21
120.42
 31
0.0
  0
LINE
  5
3EC
  8
DATA
  6
CONTINUOUS
 62
     7
 10
-56.903387474204692
 20
107.9200000000001
 30
0.0
 11
-62.0033874742047
 21
107.9200000000001
 31
0.0
  0
LINE
  5
3ED
  8
DATA
  6
CONTINUOUS
 62
     7
 10
-56.903387474204692
 20
120.42
 30
0.0
 11
-56.903387474204692
 21
107.9200000000001
 31
0.0
  0
LINE
  5
3EE
  8
DATA
  6
CONTINUOUS
 62
     7
 10
-62.0033874742047
 20
120.42
 30
0.0
 11
-62.0033874742047
 21
107.9200000000001
 31
0.0
  0
LINE
  5
3EF
  8
DATA
  6
CONTINUOUS
 62
     7
 10
-59.603387474204723
 20
119.92
 30
0.0
 11
-59.603387474204723
 21
108.4200000000001
 31
0.0
  0
LINE
  5
3F0
  8
DATA
  6
CONTINUOUS
 62
     7
 10
-58.303387474204712
 20
119.92
 30
0.0
 11
-58.303387474204712
 21
108.4200000000001
 31
0.0
  0
LINE
  5
3F1
  8
DATA
  6
CONTINUOUS
 62
     7
 10
-59.603387474104672
 20
114.75785569064421
 30
0.0
 11
-59.67838747410471
 21
114.75785569064421
 31
0.0
  0
LINE
  5
3F2
  8
DATA
  6
CONTINUOUS
 62
     7
 10
-59.603387474104672
 20
116.00785569064431
 30
0.0
 11
-59.67838747410471
 21
116.00785569064431
 31
0.0
  0
LINE
  5
3F3
  8
DATA
  6
CONTINUOUS
 62
     7
 10
-59.67838747410471
 20
116.00785569064431
 30
0.0
 11
-59.67838747410471
 21
114.75785569064421
 31
0.0
  0
LINE
  5
3F4
  8
DATA
  6
CONTINUOUS
 62
     7
 10
-59.603387474104672
 20
113.5821443093557
 30
0.0
 11
-59.67838747410471
 21
113.5821443093557
 31
0.0
  0
LINE
  5
3F5
  8
DATA
  6
CONTINUOUS
 62
     7
 10
-59.603387474104672
 20
112.3321443093557
 30
0.0
 11
-59.67838747410471
 21
112.3321443093557
 31
0.0
  0
LINE
  5
3F6
  8
DATA
  6
CONTINUOUS
 62
     7
 10
-59.67838747410471
 20
112.3321443093557
 30
0.0
 11
-59.67838747410471
 21
113.5821443093557
 31
0.0
  0
LINE
  5
3F7
  8
DATA
  6
CONTINUOUS
 62
     7
 10
-59.603387474104672
 20
117.17785569064429
 30
0.0
 11
-59.67838747410471
 21
117.17785569064429
 31
0.0
  0
LINE
  5
3F8
  8
DATA
  6
CONTINUOUS
 62
     7
 10
-59.603387474104672
 20
118.42785569064429
 30
0.0
 11
-59.67838747410471
 21
118.42785569064429
 31
0.0
  0
LINE
  5
3F9
  8
DATA
  6
CONTINUOUS
 62
     7
 10
-59.67838747410471
 20
118.42785569064429
 30
0.0
 11
-59.67838747410471
 21
117.17785569064429
 31
0.0
  0
LINE
  5
3FA
  8
DATA
  6
CONTINUOUS
 62
     7
 10
-59.603387474104672
 20
111.1621443093557
 30
0.0
 11
-59.67838747410471
 21
111.1621443093557
 31
0.0
  0
LINE
  5
3FB
  8
DATA
  6
CONTINUOUS
 62
     7
 10
-59.603387474104672
 20
109.9121443093557
 30
0.0
 11
-59.67838747410471
 21
109.9121443093557
 31
0.0
  0
LINE
  5
3FC
  8
DATA
  6
CONTINUOUS
 62
     7
 10
-59.67838747410471
 20
109.9121443093557
 30
0.0
 11
-59.67838747410471
 21
111.1621443093557
 31
0.0
  0
LINE
  5
3FD
  8
DATA
  6
CONTINUOUS
 62
     7
 10
-59.603387474204723
 20
119.92
 30
0.0
 11
-58.303387474204712
 21
119.92
 31
0.0
  0
LINE
  5
3FE
  8
DATA
  6
CONTINUOUS
 62
     7
 10
-59.603387474204723
 20
108.4200000000001
 30
0.0
 11
-58.303387474204712
 21
108.4200000000001
 31
0.0
  0
LINE
  5
3FF
  8
DATA
  6
CONTINUOUS
 62
     7
 10
-65.491085415651455
 20
120.4451184639185
 30
0.0
 11
-65.491085415651455
 21
108.4451184639185
 31
0.0
  0
LINE
  5
400
  8
DATA
  6
CONTINUOUS
 62
     7
 10
-77.491085415651213
 20
120.4451184639185
 30
0.0
 11
-65.491085415651455
 21
120.4451184639185
 31
0.0
  0
LINE
  5
401
  8
DATA
  6
CONTINUOUS
 62
     7
 10
-77.491085415651213
 20
108.4451184639185
 30
0.0
 11
-77.491085415651213
 21
120.4451184639185
 31
0.0
  0
LINE
  5
402
  8
DATA
  6
CONTINUOUS
 62
     7
 10
-65.491085415651455
 20
108.4451184639185
 30
0.0
 11
-77.491085415651213
 21
108.4451184639185
 31
0.0
  0
LINE
  5
403
  8
DATA
  6
CONTINUOUS
 62
     7
 10
-75.741085415651213
 20
118.6951184639185
 30
0.0
 11
-67.241085415651341
 21
118.6951184639185
 31
0.0
  0
LINE
  5
404
  8
DATA
  6
CONTINUOUS
 62
     7
 10
-67.241085415651341
 20
118.6951184639185
 30
0.0
 11
-67.241085415651341
 21
111.8451184639185
 31
0.0
  0
LINE
  5
405
  8
DATA
  6
CONTINUOUS
 62
     7
 10
-75.741085415651213
 20
111.8451184639185
 30
0.0
 11
-75.741085415651213
 21
118.6951184639185
 31
0.0
  0
LINE
  5
406
  8
DATA
  6
CONTINUOUS
 62
     7
 10
-69.241085415651213
 20
109.8451184639185
 30
0.0
 11
-73.741085415651213
 21
109.8451184639185
 31
0.0
  0
LINE
  5
407
  8
DATA
  6
CONTINUOUS
 62
     7
 10
-67.241085415651341
 20
111.8451184639185
 30
0.0
 11
-69.241085415651213
 21
109.8451184639185
 31
0.0
  0
LINE
  5
408
  8
DATA
  6
CONTINUOUS
 62
     7
 10
-75.741085415651213
 20
111.8451184639185
 30
0.0
 11
-73.741085415651213
 21
109.8451184639185
 31
0.0
  0
POLYLINE
  5
409
  8
DATA
  6
CONTINUOUS
 62
     7
 66
     1
 10
0.0
 20
0.0
 30
0.0
 70
     1
  0
VERTEX
  5
82C
  8
DATA
  6
CONTINUOUS
 62
     7
 10
-74.491085415651213
 20
116.7534705317175
 30
0.0
  0
VERTEX
  5
82D
  8
DATA
  6
CONTINUOUS
 62
     7
 10
-68.491085415651256
 20
116.7534705317175
 30
0.0
  0
VERTEX
  5
82E
  8
DATA
  6
CONTINUOUS
 62
     7
 10
-68.491085415651256
 20
112.9534705317175
 30
0.0
  0
VERTEX
  5
82F
  8
DATA
  6
CONTINUOUS
 62
     7
 10
-74.491085415651213
 20
112.9534705317175
 30
0.0
  0
SEQEND
  5
830
  8
DATA
  6
CONTINUOUS
 62
     7
  0
LINE
  5
410
  8
DATA
  6
CONTINUOUS
 62
     7
 10
-52.0033874742047
 20
120.42
 30
0.0
 11
-46.903387474204678
 21
120.42
 31
0.0
  0
LINE
  5
411
  8
DATA
  6
CONTINUOUS
 62
     7
 10
-46.903387474204678
 20
107.9200000000001
 30
0.0
 11
-52.0033874742047
 21
107.9200000000001
 31
0.0
  0
LINE
  5
412
  8
DATA
  6
CONTINUOUS
 62
     7
 10
-46.903387474204678
 20
120.42
 30
0.0
 11
-46.903387474204678
 21
107.9200000000001
 31
0.0
  0
LINE
  5
413
  8
DATA
  6
CONTINUOUS
 62
     7
 10
-52.0033874742047
 20
120.42
 30
0.0
 11
-52.0033874742047
 21
107.9200000000001
 31
0.0
  0
LINE
  5
414
  8
DATA
  6
CONTINUOUS
 62
     7
 10
-49.603387474204723
 20
119.92
 30
0.0
 11
-49.603387474204723
 21
108.4200000000001
 31
0.0
  0
LINE
  5
415
  8
DATA
  6
CONTINUOUS
 62
     7
 10
-48.303387474204712
 20
119.92
 30
0.0
 11
-48.303387474204712
 21
108.4200000000001
 31
0.0
  0
LINE
  5
416
  8
DATA
  6
CONTINUOUS
 62
     7
 10
-49.603387474104672
 20
114.75785569064421
 30
0.0
 11
-49.67838747410471
 21
114.75785569064421
 31
0.0
  0
LINE
  5
417
  8
DATA
  6
CONTINUOUS
 62
     7
 10
-49.603387474104672
 20
116.00785569064431
 30
0.0
 11
-49.67838747410471
 21
116.00785569064431
 31
0.0
  0
LINE
  5
418
  8
DATA
  6
CONTINUOUS
 62
     7
 10
-49.67838747410471
 20
116.00785569064431
 30
0.0
 11
-49.67838747410471
 21
114.75785569064421
 31
0.0
  0
LINE
  5
419
  8
DATA
  6
CONTINUOUS
 62
     7
 10
-49.603387474104672
 20
113.5821443093557
 30
0.0
 11
-49.67838747410471
 21
113.5821443093557
 31
0.0
  0
LINE
  5
41A
  8
DATA
  6
CONTINUOUS
 62
     7
 10
-49.603387474104672
 20
112.3321443093557
 30
0.0
 11
-49.67838747410471
 21
112.3321443093557
 31
0.0
  0
LINE
  5
41B
  8
DATA
  6
CONTINUOUS
 62
     7
 10
-49.67838747410471
 20
112.3321443093557
 30
0.0
 11
-49.67838747410471
 21
113.5821443093557
 31
0.0
  0
LINE
  5
41C
  8
DATA
  6
CONTINUOUS
 62
     7
 10
-49.603387474104672
 20
117.17785569064429
 30
0.0
 11
-49.67838747410471
 21
117.17785569064429
 31
0.0
  0
LINE
  5
41D
  8
DATA
  6
CONTINUOUS
 62
     7
 10
-49.603387474104672
 20
118.42785569064429
 30
0.0
 11
-49.67838747410471
 21
118.42785569064429
 31
0.0
  0
LINE
  5
41E
  8
DATA
  6
CONTINUOUS
 62
     7
 10
-49.67838747410471
 20
118.42785569064429
 30
0.0
 11
-49.67838747410471
 21
117.17785569064429
 31
0.0
  0
LINE
  5
41F
  8
DATA
  6
CONTINUOUS
 62
     7
 10
-49.603387474104672
 20
111.1621443093557
 30
0.0
 11
-49.67838747410471
 21
111.1621443093557
 31
0.0
  0
LINE
  5
420
  8
DATA
  6
CONTINUOUS
 62
     7
 10
-49.603387474104672
 20
109.9121443093557
 30
0.0
 11
-49.67838747410471
 21
109.9121443093557
 31
0.0
  0
LINE
  5
421
  8
DATA
  6
CONTINUOUS
 62
     7
 10
-49.67838747410471
 20
109.9121443093557
 30
0.0
 11
-49.67838747410471
 21
111.1621443093557
 31
0.0
  0
LINE
  5
422
  8
DATA
  6
CONTINUOUS
 62
     7
 10
-49.603387474204723
 20
119.92
 30
0.0
 11
-48.303387474204712
 21
119.92
 31
0.0
  0
LINE
  5
423
  8
DATA
  6
CONTINUOUS
 62
     7
 10
-49.603387474204723
 20
108.4200000000001
 30
0.0
 11
-48.303387474204712
 21
108.4200000000001
 31
0.0
  0
TEXT
  5
424
  8
DATA
 62
     7
 10
-48.791370873880872
 20
125.317063288592
 30
0.0
 40
2.497556423611111
  1
USB Out
 50
180.0
 41
0.7
 11
-48.791370873880872
 21
122.81950686498089
 31
0.0
 73
     3
  0
TEXT
  5
425
  8
DATA
 62
     7
 10
-67.094079382660098
 20
125.317063288592
 30
0.0
 40
2.497556423611111
  1
In 1
 50
180.0
 41
0.7
 11
-67.094079382660098
 21
122.81950686498089
 31
0.0
 73
     3
  0
TEXT
  5
426
  8
DATA
 62
     7
 10
-82.751717686729307
 20
125.317063288592
 30
0.0
 40
2.497556423611111
  1
In 2
 50
180.0
 41
0.7
 11
-82.751717686729307
 21
122.81950686498089
 31
0.0
 73
     3
  0
CIRCLE
  5
427
  8
DATA
  6
CONTINUOUS
 62
     7
 10
98.999999999999986
 20
116.4926345332476
 30
0.0
 40
3.3500000000000001
  0
CIRCLE
  5
428
  8
DATA
  6
CONTINUOUS
 62
     7
 10
98.999999999999986
 20
116.4926345332476
 30
0.0
 40
0.75
  0
TEXT
  5
429
  8
DATA
 62
     7
 10
104.0046620315358
 20
125.317063288592
 30
0.0
 40
2.497556423611111
  1
+5 Vdc
 50
180.0
 41
0.7
 11
104.0046620315358
 21
122.81950686498089
 31
0.0
 73
     3
  0
CIRCLE
  5
42A
  8
DATA
  6
CONTINUOUS
 62
     7
 10
61.999999999999993
 20
98.500000000000014
 30
0.0
 40
3.0
  0
CIRCLE
  5
42B
  8
DATA
  6
CONTINUOUS
 62
     7
 10
61.999999999999993
 20
98.500000000000014
 30
0.0
 40
1.6499999999999979
  0
CIRCLE
  5
42C
  8
DATA
  6
CONTINUOUS
 62
     7
 10
21.999999999999989
 20
98.500000000000014
 30
0.0
 40
3.0
  0
CIRCLE
  5
42D
  8
DATA
  6
CONTINUOUS
 62
     7
 10
21.999999999999989
 20
98.500000000000014
 30
0.0
 40
1.650000000000005
  0
CIRCLE
  5
42E
  8
DATA
  6
CONTINUOUS
 62
     7
 10
-18.000000000000021
 20
98.500000000000014
 30
0.0
 40
3.0
  0
CIRCLE
  5
42F
  8
DATA
  6
CONTINUOUS
 62
     7
 10
-18.000000000000021
 20
98.500000000000014
 30
0.0
 40
1.650000000000005
  0
CIRCLE
  5
430
  8
DATA
  6
CONTINUOUS
 62
     7
 10
-48.719128167103449
 20
98.500000000000014
 30
0.0
 40
3.0
  0
CIRCLE
  5
431
  8
DATA
  6
CONTINUOUS
 62
     7
 10
-48.719128167103449
 20
98.500000000000014
 30
0.0
 40
1.650000000000005
  0
TEXT
  5
432
  8
DATA
 62
     7
 10
66.112576810990149
 20
105.1788912244532
 30
0.0
 40
1.9980451388888889
  1
Audio 1 
 50
180.0
 41
0.7
 11
66.112576810990149
 21
103.1808460855644
 31
0.0
 73
     3
  0
TEXT
  5
433
  8
DATA
 62
     7
 10
-13.887423189009819
 20
105.1788912244532
 30
0.0
 40
1.9980451388888889
  1
Audio Out 
 50
180.0
 41
0.7
 11
-13.887423189009819
 21
103.1808460855644
 31
0.0
 73
     3
  0
TEXT
  5
434
  8
DATA
 62
     7
 10
26.112576810990181
 20
105.1788912244532
 30
0.0
 40
1.9980451388888889
  1
Audio 2
 50
180.0
 41
0.7
 11
26.112576810990181
 21
103.1808460855644
 31
0.0
 73
     3
  0
TEXT
  5
435
  8
DATA
 62
     7
 10
-45.031995284231122
 20
105.1788912244532
 30
0.0
 40
1.9980451388888889
  1
Remote
 50
180.0
 41
0.7
 11
-45.031995284231122
 21
103.1808460855644
 31
0.0
 73
     3
  0
CIRCLE
  5
436
  8
DATA
  6
CONTINUOUS
 62
     7
 10
46.999999999999993
 20
95.278277253372693
 30
0.0
 40
3.5499999999999958
  0
LINE
  5
437
  8
DATA
  6
CONTINUOUS
 62
     7
 10
45.097061807209847
 20
95.278277253372693
 30
0.0
 11
48.902938192790138
 21
95.278277253372693
 31
0.0
  0
LINE
  5
438
  8
DATA
  6
CONTINUOUS
 62
     7
 10
46.999999999999993
 20
93.375339060582533
 30
0.0
 11
46.999999999999993
 21
97.181215446162796
 31
0.0
  0
LINE
  5
439
  8
DATA
  6
CONTINUOUS
 62
     7
 10
47.161559057617538
 20
65.0
 30
0.0
 11
47.161559057617538
 21
62.0
 31
0.0
  0
LINE
  5
43A
  8
DATA
  6
CONTINUOUS
 62
     7
 10
51.838096238053502
 20
65.0
 30
0.0
 11
51.838096238053502
 21
60.0
 31
0.0
  0
LINE
  5
43B
  8
DATA
  6
CONTINUOUS
 62
     7
 10
79.661559057617794
 20
65.0
 30
0.0
 11
79.661559057617794
 21
60.0
 31
0.0
  0
LINE
  5
43C
  8
DATA
  6
CONTINUOUS
 62
     7
 10
84.338096238053907
 20
65.0
 30
0.0
 11
84.338096238053907
 21
60.0
 31
0.0
  0
LINE
  5
43D
  8
DATA
  6
CONTINUOUS
 62
     7
 10
53.804455829888383
 20
65.0
 30
0.0
 11
53.804455829888383
 21
60.0
 31
0.0
  0
LINE
  5
43E
  8
DATA
  6
CONTINUOUS
 62
     7
 10
77.681455866431264
 20
65.0
 30
0.0
 11
77.681455866431264
 21
60.0
 31
0.0
  0
LINE
  5
43F
  8
DATA
  6
CONTINUOUS
 62
     7
 10
84.338096238053907
 20
65.0
 30
0.0
 11
79.661559057617794
 21
65.0
 31
0.0
  0
LINE
  5
440
  8
DATA
  6
CONTINUOUS
 62
     7
 10
77.681455866431264
 20
65.0
 30
0.0
 11
53.804455829888383
 21
65.0
 31
0.0
  0
LINE
  5
441
  8
DATA
  6
CONTINUOUS
 62
     7
 10
51.838096238053502
 20
65.0
 30
0.0
 11
47.161559057617538
 21
65.0
 31
0.0
  0
LINE
  5
442
  8
DATA
  6
CONTINUOUS
 62
     7
 10
4.161559057617537
 20
65.0
 30
0.0
 11
4.161559057617537
 21
60.0
 31
0.0
  0
LINE
  5
443
  8
DATA
  6
CONTINUOUS
 62
     7
 10
8.8380962380534935
 20
65.0
 30
0.0
 11
8.8380962380534935
 21
60.0
 31
0.0
  0
LINE
  5
444
  8
DATA
  6
CONTINUOUS
 62
     7
 10
36.661559057617772
 20
65.0
 30
0.0
 11
36.661559057617772
 21
60.0
 31
0.0
  0
LINE
  5
445
  8
DATA
  6
CONTINUOUS
 62
     7
 10
41.3380962380539
 20
65.0
 30
0.0
 11
41.3380962380539
 21
60.0
 31
0.0
  0
LINE
  5
446
  8
DATA
  6
CONTINUOUS
 62
     7
 10
10.80445582988836
 20
65.0
 30
0.0
 11
10.80445582988836
 21
60.0
 31
0.0
  0
LINE
  5
447
  8
DATA
  6
CONTINUOUS
 62
     7
 10
34.681455866431271
 20
65.0
 30
0.0
 11
34.681455866431271
 21
60.0
 31
0.0
  0
LINE
  5
448
  8
DATA
  6
CONTINUOUS
 62
     7
 10
41.3380962380539
 20
65.0
 30
0.0
 11
36.661559057617772
 21
65.0
 31
0.0
  0
LINE
  5
449
  8
DATA
  6
CONTINUOUS
 62
     7
 10
34.681455866431271
 20
65.0
 30
0.0
 11
10.80445582988836
 21
65.0
 31
0.0
  0
LINE
  5
44A
  8
DATA
  6
CONTINUOUS
 62
     7
 10
8.8380962380534935
 20
65.0
 30
0.0
 11
4.161559057617537
 21
65.0
 31
0.0
  0
LINE
  5
44B
  8
DATA
  6
CONTINUOUS
 62
     7
 10
-38.838440942382469
 20
65.0
 30
0.0
 11
-38.838440942382469
 21
60.0
 31
0.0
  0
LINE
  5
44C
  8
DATA
  6
CONTINUOUS
 62
     7
 10
-34.161903761946512
 20
65.0
 30
0.0
 11
-34.161903761946512
 21
62.0
 31
0.0
  0
LINE
  5
44D
  8
DATA
  6
CONTINUOUS
 62
     7
 10
-6.3384409423822197
 20
65.0
 30
0.0
 11
-6.3384409423822197
 21
60.0
 31
0.0
  0
LINE
  5
44E
  8
DATA
  6
CONTINUOUS
 62
     7
 10
-1.6619037619460919
 20
65.0
 30
0.0
 11
-1.6619037619460919
 21
60.0
 31
0.0
  0
LINE
  5
44F
  8
DATA
  6
CONTINUOUS
 62
     7
 10
-32.195544170111617
 20
65.0
 30
0.0
 11
-32.195544170111617
 21
62.0
 31
0.0
  0
LINE
  5
450
  8
DATA
  6
CONTINUOUS
 62
     7
 10
-8.3185441335687358
 20
65.0
 30
0.0
 11
-8.3185441335687358
 21
60.0
 31
0.0
  0
LINE
  5
451
  8
DATA
  6
CONTINUOUS
 62
     7
 10
-1.6619037619460919
 20
65.0
 30
0.0
 11
-6.3384409423822197
 21
65.0
 31
0.0
  0
LINE
  5
452
  8
DATA
  6
CONTINUOUS
 62
     7
 10
-8.3185441335687358
 20
65.0
 30
0.0
 11
-32.195544170111617
 21
65.0
 31
0.0
  0
LINE
  5
453
  8
DATA
  6
CONTINUOUS
 62
     7
 10
-34.161903761946512
 20
65.0
 30
0.0
 11
-38.838440942382469
 21
65.0
 31
0.0
  0
CIRCLE
  5
454
  8
DATA
  6
CONTINUOUS
 62
     7
 10
-33.000000000000007
 20
95.278277253372693
 30
0.0
 40
3.5500000000000109
  0
LINE
  5
455
  8
DATA
  6
CONTINUOUS
 62
     7
 10
-34.90293819279016
 20
95.278277253372693
 30
0.0
 11
-31.097061807209879
 21
95.278277253372693
 31
0.0
  0
LINE
  5
456
  8
DATA
  6
CONTINUOUS
 62
     7
 10
-33.000000000000007
 20
93.375339060582533
 30
0.0
 11
-33.000000000000007
 21
97.181215446162796
 31
0.0
  0
LINE
  5
457
  8
DATA
  6
CONTINUOUS
 62
     7
 10
-51.719128167103463
 20
60.5
 30
0.0
 11
-45.719128167103449
 21
60.5
 31
0.0
  0
LINE
  5
458
  8
DATA
  6
CONTINUOUS
 62
     7
 10
-21.000000000000011
 20
60.5
 30
0.0
 11
-15.000000000000011
 21
60.5
 31
0.0
  0
LINE
  5
459
  8
DATA
  6
CONTINUOUS
 62
     7
 10
18.999999999999979
 20
60.5
 30
0.0
 11
24.999999999999989
 21
60.5
 31
0.0
  0
LINE
  5
45A
  8
DATA
  6
CONTINUOUS
 62
     7
 10
58.999999999999993
 20
60.5
 30
0.0
 11
64.999999999999986
 21
60.5
 31
0.0
  0
LINE
  5
45B
  8
DATA
  6
CONTINUOUS
 62
     7
 10
-51.719128167103463
 20
60.5
 30
0.0
 11
-51.719128167103463
 21
60.0
 31
0.0
  0
LINE
  5
45C
  8
DATA
  6
CONTINUOUS
 62
     7
 10
-45.719128167103449
 20
60.5
 30
0.0
 11
-45.719128167103449
 21
60.0
 31
0.0
  0
LINE
  5
45D
  8
DATA
  6
CONTINUOUS
 62
     7
 10
-21.000000000000011
 20
60.5
 30
0.0
 11
-21.000000000000011
 21
60.0
 31
0.0
  0
LINE
  5
45E
  8
DATA
  6
CONTINUOUS
 62
     7
 10
-15.000000000000011
 20
60.5
 30
0.0
 11
-15.000000000000011
 21
60.0
 31
0.0
  0
LINE
  5
45F
  8
DATA
  6
CONTINUOUS
 62
     7
 10
18.999999999999979
 20
60.5
 30
0.0
 11
18.999999999999979
 21
60.0
 31
0.0
  0
LINE
  5
460
  8
DATA
  6
CONTINUOUS
 62
     7
 10
24.999999999999989
 20
60.5
 30
0.0
 11
24.999999999999989
 21
60.0
 31
0.0
  0
LINE
  5
461
  8
DATA
  6
CONTINUOUS
 62
     7
 10
58.999999999999993
 20
60.5
 30
0.0
 11
58.999999999999993
 21
60.0
 31
0.0
  0
LINE
  5
462
  8
DATA
  6
CONTINUOUS
 62
     7
 10
64.999999999999986
 20
60.5
 30
0.0
 11
64.999999999999986
 21
60.0
 31
0.0
  0
LINE
  5
463
  8
DATA
  6
CONTINUOUS
 62
     7
 10
-35.050000000000033
 20
62.0
 30
0.0
 11
-30.95000000000001
 21
62.0
 31
0.0
  0
LINE
  5
464
  8
DATA
  6
CONTINUOUS
 62
     7
 10
44.949999999999989
 20
62.0
 30
0.0
 11
49.049999999999983
 21
62.0
 31
0.0
  0
LINE
  5
465
  8
DATA
  6
CONTINUOUS
 62
     7
 10
-36.550000000000033
 20
60.5
 30
0.0
 11
-36.550000000000033
 21
60.0
 31
0.0
  0
LINE
  5
466
  8
DATA
  6
CONTINUOUS
 62
     7
 10
-29.45000000000001
 20
60.5
 30
0.0
 11
-29.45000000000001
 21
60.0
 31
0.0
  0
LINE
  5
467
  8
DATA
  6
CONTINUOUS
 62
     7
 10
43.449999999999982
 20
60.5
 30
0.0
 11
43.449999999999982
 21
60.0
 31
0.0
  0
LINE
  5
468
  8
DATA
  6
CONTINUOUS
 62
     7
 10
50.549999999999983
 20
60.5
 30
0.0
 11
50.549999999999983
 21
60.0
 31
0.0
  0
ARC
  5
469
  8
DATA
  6
CONTINUOUS
 62
     7
 10
-35.050000000000033
 20
60.5
 30
0.0
 40
1.5
 50
90.0
 51
180.0
  0
ARC
  5
46A
  8
DATA
  6
CONTINUOUS
 62
     7
 10
-30.95000000000001
 20
60.5
 30
0.0
 40
1.5
 50
0.0
 51
90.0
  0
ARC
  5
46B
  8
DATA
  6
CONTINUOUS
 62
     7
 10
44.949999999999989
 20
60.5
 30
0.0
 40
1.5
 50
90.0
 51
180.0
  0
ARC
  5
46C
  8
DATA
  6
CONTINUOUS
 62
     7
 10
49.049999999999983
 20
60.5
 30
0.0
 40
1.5
 50
0.0
 51
90.0
  0
LINE
  5
46D
  8
DATA
  6
CONTINUOUS
 62
     7
 10
-100.0
 20
285.00000000023078
 30
0.0
 11
-100.0
 21
175.0000000002311
 31
0.0
  0
LINE
  5
46E
  8
DATA
  6
CONTINUOUS
 62
     7
 10
114.0
 20
285.00000000023078
 30
0.0
 11
114.0
 21
175.0000000002311
 31
0.0
  0
LINE
  5
46F
  8
DATA
  6
CONTINUOUS
 62
     7
 10
-100.0
 20
285.00000000023078
 30
0.0
 11
114.0
 21
285.00000000023078
 31
0.0
  0
LINE
  5
470
  8
DATA
  6
CONTINUOUS
 62
     7
 10
-100.0
 20
175.0000000002311
 30
0.0
 11
114.0
 21
175.0000000002311
 31
0.0
  0
LINE
  5
471
  8
DATA
  6
CONTINUOUS
 62
     7
 10
53.299999999999983
 20
288.00000000023078
 30
0.0
 11
53.299999999999983
 21
285.00000000023078
 31
0.0
  0
LINE
  5
472
  8
DATA
  6
CONTINUOUS
 62
     7
 10
62.699999999999989
 20
288.00000000023078
 30
0.0
 11
62.699999999999989
 21
285.00000000023078
 31
0.0
  0
LINE
  5
473
  8
DATA
  6
CONTINUOUS
 62
     7
 10
62.699999999999989
 20
288.00000000023078
 30
0.0
 11
53.299999999999983
 21
288.00000000023078
 31
0.0
  0
ARC
  5
474
  8
DATA
  6
CONTINUOUS
 62
     7
 10
-72.000000000000014
 20
284.95741548859451
 30
0.0
 40
1.499999999999986
 50
1.6268271061361641
 51
178.3731728938638
  0
ARC
  5
475
  8
DATA
  6
CONTINUOUS
 62
     7
 10
17.999999999999979
 20
284.3301692056823
 30
0.0
 40
1.4999999999999989
 50
26.52279740612023
 51
153.47720259387981
  0
ARC
  5
476
  8
DATA
  6
CONTINUOUS
 62
     7
 10
37.5
 20
284.3301692056823
 30
0.0
 40
1.4999999999999929
 50
26.522797406121558
 51
153.47720259387839
  0
LINE
  5
477
  8
DATA
  6
CONTINUOUS
 62
     7
 10
47.161559057617538
 20
170.0000000002311
 30
0.0
 11
47.161559057617538
 21
175.0000000002311
 31
0.0
  0
LINE
  5
478
  8
DATA
  6
CONTINUOUS
 62
     7
 10
51.838096238053502
 20
170.0000000002311
 30
0.0
 11
51.838096238053502
 21
175.0000000002311
 31
0.0
  0
LINE
  5
479
  8
DATA
  6
CONTINUOUS
 62
     7
 10
79.661559057617794
 20
170.0000000002311
 30
0.0
 11
79.661559057617794
 21
175.0000000002311
 31
0.0
  0
LINE
  5
47A
  8
DATA
  6
CONTINUOUS
 62
     7
 10
84.338096238053907
 20
170.0000000002311
 30
0.0
 11
84.338096238053907
 21
175.0000000002311
 31
0.0
  0
LINE
  5
47B
  8
DATA
  6
CONTINUOUS
 62
     7
 10
53.804455829888383
 20
170.0000000002311
 30
0.0
 11
53.804455829888383
 21
175.0000000002311
 31
0.0
  0
LINE
  5
47C
  8
DATA
  6
CONTINUOUS
 62
     7
 10
77.681455866431264
 20
170.0000000002311
 30
0.0
 11
77.681455866431264
 21
175.0000000002311
 31
0.0
  0
LINE
  5
47D
  8
DATA
  6
CONTINUOUS
 62
     7
 10
84.338096238053907
 20
170.0000000002311
 30
0.0
 11
79.661559057617794
 21
170.0000000002311
 31
0.0
  0
LINE
  5
47E
  8
DATA
  6
CONTINUOUS
 62
     7
 10
77.681455866431264
 20
170.0000000002311
 30
0.0
 11
53.804455829888383
 21
170.0000000002311
 31
0.0
  0
LINE
  5
47F
  8
DATA
  6
CONTINUOUS
 62
     7
 10
51.838096238053502
 20
170.0000000002311
 30
0.0
 11
47.161559057617538
 21
170.0000000002311
 31
0.0
  0
LINE
  5
480
  8
DATA
  6
CONTINUOUS
 62
     7
 10
4.161559057617537
 20
170.0000000002311
 30
0.0
 11
4.161559057617537
 21
175.0000000002311
 31
0.0
  0
LINE
  5
481
  8
DATA
  6
CONTINUOUS
 62
     7
 10
8.8380962380534935
 20
170.0000000002311
 30
0.0
 11
8.8380962380534935
 21
175.0000000002311
 31
0.0
  0
LINE
  5
482
  8
DATA
  6
CONTINUOUS
 62
     7
 10
36.661559057617772
 20
170.0000000002311
 30
0.0
 11
36.661559057617772
 21
175.0000000002311
 31
0.0
  0
LINE
  5
483
  8
DATA
  6
CONTINUOUS
 62
     7
 10
41.3380962380539
 20
170.0000000002311
 30
0.0
 11
41.3380962380539
 21
175.0000000002311
 31
0.0
  0
LINE
  5
484
  8
DATA
  6
CONTINUOUS
 62
     7
 10
10.80445582988836
 20
170.0000000002311
 30
0.0
 11
10.80445582988836
 21
175.0000000002311
 31
0.0
  0
LINE
  5
485
  8
DATA
  6
CONTINUOUS
 62
     7
 10
34.681455866431271
 20
170.0000000002311
 30
0.0
 11
34.681455866431271
 21
175.0000000002311
 31
0.0
  0
LINE
  5
486
  8
DATA
  6
CONTINUOUS
 62
     7
 10
41.3380962380539
 20
170.0000000002311
 30
0.0
 11
36.661559057617772
 21
170.0000000002311
 31
0.0
  0
LINE
  5
487
  8
DATA
  6
CONTINUOUS
 62
     7
 10
34.681455866431271
 20
170.0000000002311
 30
0.0
 11
10.80445582988836
 21
170.0000000002311
 31
0.0
  0
LINE
  5
488
  8
DATA
  6
CONTINUOUS
 62
     7
 10
8.8380962380534935
 20
170.0000000002311
 30
0.0
 11
4.161559057617537
 21
170.0000000002311
 31
0.0
  0
LINE
  5
489
  8
DATA
  6
CONTINUOUS
 62
     7
 10
-38.838440942382469
 20
170.0000000002311
 30
0.0
 11
-38.838440942382469
 21
175.0000000002311
 31
0.0
  0
LINE
  5
48A
  8
DATA
  6
CONTINUOUS
 62
     7
 10
-34.161903761946512
 20
170.0000000002311
 30
0.0
 11
-34.161903761946512
 21
175.0
 31
0.0
  0
LINE
  5
48B
  8
DATA
  6
CONTINUOUS
 62
     7
 10
-6.3384409423822197
 20
170.0000000002311
 30
0.0
 11
-6.3384409423822197
 21
175.0000000002311
 31
0.0
  0
LINE
  5
48C
  8
DATA
  6
CONTINUOUS
 62
     7
 10
-1.6619037619460919
 20
170.0000000002311
 30
0.0
 11
-1.6619037619460919
 21
175.0000000002311
 31
0.0
  0
LINE
  5
48D
  8
DATA
  6
CONTINUOUS
 62
     7
 10
-32.195544170111617
 20
170.0000000002311
 30
0.0
 11
-32.195544170111617
 21
175.0
 31
0.0
  0
LINE
  5
48E
  8
DATA
  6
CONTINUOUS
 62
     7
 10
-8.3185441335687358
 20
170.0000000002311
 30
0.0
 11
-8.3185441335687358
 21
175.0000000002311
 31
0.0
  0
LINE
  5
48F
  8
DATA
  6
CONTINUOUS
 62
     7
 10
-1.6619037619460919
 20
170.0000000002311
 30
0.0
 11
-6.3384409423822197
 21
170.0000000002311
 31
0.0
  0
LINE
  5
490
  8
DATA
  6
CONTINUOUS
 62
     7
 10
-8.3185441335687358
 20
170.0000000002311
 30
0.0
 11
-32.195544170111617
 21
170.0000000002311
 31
0.0
  0
LINE
  5
491
  8
DATA
  6
CONTINUOUS
 62
     7
 10
-34.161903761946512
 20
170.0000000002311
 30
0.0
 11
-38.838440942382469
 21
170.0000000002311
 31
0.0
  0
LINE
  5
492
  8
DATA
  6
CONTINUOUS
 62
     7
 10
-51.719128167103463
 20
174.5000000002311
 30
0.0
 11
-45.719128167103449
 21
174.5000000002311
 31
0.0
  0
LINE
  5
493
  8
DATA
  6
CONTINUOUS
 62
     7
 10
-51.719128167103463
 20
174.5000000002311
 30
0.0
 11
-51.719128167103463
 21
175.0000000002311
 31
0.0
  0
LINE
  5
494
  8
DATA
  6
CONTINUOUS
 62
     7
 10
-45.719128167103449
 20
174.5000000002311
 30
0.0
 11
-45.719128167103449
 21
175.0000000002311
 31
0.0
  0
LINE
  5
495
  8
DATA
  6
CONTINUOUS
 62
     7
 10
-100.0
 20
183.60000000023109
 30
0.0
 11
114.0
 21
183.60000000023109
 31
0.0
  0
CIRCLE
  5
496
  8
DATA
  6
CONTINUOUS
 62
     7
 10
-83.000000000000014
 20
179.5
 30
0.0
 40
2.4000000000000048
  0
LINE
  5
497
  8
DATA
  6
CONTINUOUS
 62
     7
 10
-83.000000000000014
 20
178.1720943808638
 30
0.0
 11
-83.000000000000014
 21
180.82790561913609
 31
0.0
  0
LINE
  5
498
  8
DATA
  6
CONTINUOUS
 62
     7
 10
-81.675849434619806
 20
179.59979285311869
 30
0.0
 11
-84.324150565380265
 21
179.59979285311869
 31
0.0
  0
CIRCLE
  5
499
  8
DATA
  6
CONTINUOUS
 62
     7
 10
96.999999999999986
 20
179.5
 30
0.0
 40
2.4000000000000048
  0
LINE
  5
49A
  8
DATA
  6
CONTINUOUS
 62
     7
 10
96.999999999999986
 20
178.1720943808638
 30
0.0
 11
96.999999999999986
 21
180.82790561913609
 31
0.0
  0
LINE
  5
49B
  8
DATA
  6
CONTINUOUS
 62
     7
 10
95.675849434619764
 20
179.59979285311869
 30
0.0
 11
98.324150565380251
 21
179.59979285311869
 31
0.0
  0
CIRCLE
  5
49C
  8
DATA
  6
CONTINUOUS
 62
     7
 10
6.9999999999999849
 20
179.5
 30
0.0
 40
2.4000000000000048
  0
LINE
  5
49D
  8
DATA
  6
CONTINUOUS
 62
     7
 10
6.9999999999999849
 20
178.1720943808638
 30
0.0
 11
6.9999999999999849
 21
180.82790561913609
 31
0.0
  0
LINE
  5
49E
  8
DATA
  6
CONTINUOUS
 62
     7
 10
8.3241505653802061
 20
179.59979285311869
 30
0.0
 11
5.6758494346197352
 21
179.59979285311869
 31
0.0
  0
LINE
  5
49F
  8
DATA
  6
CONTINUOUS
 62
     7
 10
-100.0
 20
277.50000000023078
 30
0.0
 11
-98.400000000000034
 21
277.50000000023078
 31
0.0
  0
LINE
  5
4A0
  8
DATA
  6
CONTINUOUS
 62
     7
 10
112.40000000000001
 20
277.50000000023078
 30
0.0
 11
114.0
 21
277.50000000023078
 31
0.0
  0
LINE
  5
4A1
  8
DATA
  6
CONTINUOUS
 62
     7
 10
-98.400000000000034
 20
183.60000000023109
 30
0.0
 11
-98.400000000000034
 21
277.50000000023078
 31
0.0
  0
LINE
  5
4A2
  8
DATA
  6
CONTINUOUS
 62
     7
 10
112.40000000000001
 20
183.60000000023109
 30
0.0
 11
112.40000000000001
 21
277.50000000023078
 31
0.0
  0
CIRCLE
  5
4A3
  8
DATA
  6
CONTINUOUS
 62
     7
 10
-91.0
 20
275.00000000023078
 30
0.0
 40
6.5
  0
CIRCLE
  5
4A4
  8
DATA
  6
CONTINUOUS
 62
     7
 10
-91.0
 20
275.00000000023078
 30
0.0
 40
5.0
  0
CIRCLE
  5
4A5
  8
DATA
  6
CONTINUOUS
 62
     7
 10
105.0
 20
275.00000000023078
 30
0.0
 40
6.5
  0
CIRCLE
  5
4A6
  8
DATA
  6
CONTINUOUS
 62
     7
 10
105.0
 20
275.00000000023078
 30
0.0
 40
5.0
  0
CIRCLE
  5
4A7
  8
DATA
  6
CONTINUOUS
 62
     7
 10
-91.0
 20
193.50863369913159
 30
0.0
 40
6.5
  0
CIRCLE
  5
4A8
  8
DATA
  6
CONTINUOUS
 62
     7
 10
-91.0
 20
193.50863369913159
 30
0.0
 40
5.0
  0
CIRCLE
  5
4A9
  8
DATA
  6
CONTINUOUS
 62
     7
 10
105.0
 20
193.50863369913159
 30
0.0
 40
6.5
  0
CIRCLE
  5
4AA
  8
DATA
  6
CONTINUOUS
 62
     7
 10
105.0
 20
193.50863369913159
 30
0.0
 40
5.0
  0
CIRCLE
  5
4AB
  8
DATA
  6
CONTINUOUS
 62
     7
 10
-29.000000000000011
 20
230.0000000002309
 30
0.0
 40
1.400000000000005
  0
CIRCLE
  5
4AC
  8
DATA
  6
CONTINUOUS
 62
     7
 10
40.999999999999993
 20
230.0000000002309
 30
0.0
 40
1.3999999999999979
  0
LINE
  5
4AD
  8
DATA
  6
CONTINUOUS
 62
     7
 10
78.999999999999986
 20
249.0000000002309
 30
0.0
 11
78.999999999999986
 21
228.0000000002309
 31
0.0
  0
LINE
  5
4AE
  8
DATA
  6
CONTINUOUS
 62
     7
 10
72.700000000000003
 20
249.0000000002309
 30
0.0
 11
72.700000000000003
 21
228.0000000002309
 31
0.0
  0
LINE
  5
4AF
  8
DATA
  6
CONTINUOUS
 62
     7
 10
72.700000000000003
 20
249.0000000002309
 30
0.0
 11
78.999999999999986
 21
249.0000000002309
 31
0.0
  0
LINE
  5
4B0
  8
DATA
  6
CONTINUOUS
 62
     7
 10
72.700000000000003
 20
228.0000000002309
 30
0.0
 11
78.999999999999986
 21
228.0000000002309
 31
0.0
  0
POLYLINE
  5
4B1
  8
DATA
  6
CONTINUOUS
 62
     7
 66
     1
 10
0.0
 20
0.0
 30
0.0
 70
     1
  0
VERTEX
  5
831
  8
DATA
  6
CONTINUOUS
 62
     7
 10
74.977697436131706
 20
247.75564833363649
 30
0.0
  0
VERTEX
  5
832
  8
DATA
  6
CONTINUOUS
 62
     7
 10
76.977697436131706
 20
247.75564833363649
 30
0.0
  0
VERTEX
  5
833
  8
DATA
  6
CONTINUOUS
 62
     7
 10
76.977697436131706
 20
246.85564833363659
 30
0.0
  0
VERTEX
  5
834
  8
DATA
  6
CONTINUOUS
 62
     7
 10
74.977697436131706
 20
246.85564833363659
 30
0.0
  0
SEQEND
  5
835
  8
DATA
  6
CONTINUOUS
 62
     7
  0
POLYLINE
  5
4B8
  8
DATA
  6
CONTINUOUS
 62
     7
 66
     1
 10
0.0
 20
0.0
 30
0.0
 70
     1
  0
VERTEX
  5
836
  8
DATA
  6
CONTINUOUS
 62
     7
 10
74.977697436131706
 20
245.25564833363649
 30
0.0
  0
VERTEX
  5
837
  8
DATA
  6
CONTINUOUS
 62
     7
 10
76.977697436131706
 20
245.25564833363649
 30
0.0
  0
VERTEX
  5
838
  8
DATA
  6
CONTINUOUS
 62
     7
 10
76.977697436131706
 20
244.35564833363651
 30
0.0
  0
VERTEX
  5
839
  8
DATA
  6
CONTINUOUS
 62
     7
 10
74.977697436131706
 20
244.35564833363651
 30
0.0
  0
SEQEND
  5
83A
  8
DATA
  6
CONTINUOUS
 62
     7
  0
POLYLINE
  5
4BF
  8
DATA
  6
CONTINUOUS
 62
     7
 66
     1
 10
0.0
 20
0.0
 30
0.0
 70
     1
  0
VERTEX
  5
83B
  8
DATA
  6
CONTINUOUS
 62
     7
 10
74.977697436131706
 20
242.75564833363649
 30
0.0
  0
VERTEX
  5
83C
  8
DATA
  6
CONTINUOUS
 62
     7
 10
76.977697436131706
 20
242.75564833363649
 30
0.0
  0
VERTEX
  5
83D
  8
DATA
  6
CONTINUOUS
 62
     7
 10
76.977697436131706
 20
241.85564833363651
 30
0.0
  0
VERTEX
  5
83E
  8
DATA
  6
CONTINUOUS
 62
     7
 10
74.977697436131706
 20
241.85564833363651
 30
0.0
  0
SEQEND
  5
83F
  8
DATA
  6
CONTINUOUS
 62
     7
  0
POLYLINE
  5
4C6
  8
DATA
  6
CONTINUOUS
 62
     7
 66
     1
 10
0.0
 20
0.0
 30
0.0
 70
     1
  0
VERTEX
  5
840
  8
DATA
  6
CONTINUOUS
 62
     7
 10
74.977697436131706
 20
240.25564833363649
 30
0.0
  0
VERTEX
  5
841
  8
DATA
  6
CONTINUOUS
 62
     7
 10
76.977697436131706
 20
240.25564833363649
 30
0.0
  0
VERTEX
  5
842
  8
DATA
  6
CONTINUOUS
 62
     7
 10
76.977697436131706
 20
239.35564833363651
 30
0.0
  0
VERTEX
  5
843
  8
DATA
  6
CONTINUOUS
 62
     7
 10
74.977697436131706
 20
239.35564833363651
 30
0.0
  0
SEQEND
  5
844
  8
DATA
  6
CONTINUOUS
 62
     7
  0
POLYLINE
  5
4CD
  8
DATA
  6
CONTINUOUS
 62
     7
 66
     1
 10
0.0
 20
0.0
 30
0.0
 70
     1
  0
VERTEX
  5
845
  8
DATA
  6
CONTINUOUS
 62
     7
 10
74.977697436131706
 20
237.75564833363649
 30
0.0
  0
VERTEX
  5
846
  8
DATA
  6
CONTINUOUS
 62
     7
 10
76.977697436131706
 20
237.75564833363649
 30
0.0
  0
VERTEX
  5
847
  8
DATA
  6
CONTINUOUS
 62
     7
 10
76.977697436131706
 20
236.85564833363651
 30
0.0
  0
VERTEX
  5
848
  8
DATA
  6
CONTINUOUS
 62
     7
 10
74.977697436131706
 20
236.85564833363651
 30
0.0
  0
SEQEND
  5
849
  8
DATA
  6
CONTINUOUS
 62
     7
  0
POLYLINE
  5
4D4
  8
DATA
  6
CONTINUOUS
 62
     7
 66
     1
 10
0.0
 20
0.0
 30
0.0
 70
     1
  0
VERTEX
  5
84A
  8
DATA
  6
CONTINUOUS
 62
     7
 10
74.977697436131706
 20
235.25564833363649
 30
0.0
  0
VERTEX
  5
84B
  8
DATA
  6
CONTINUOUS
 62
     7
 10
76.977697436131706
 20
235.25564833363649
 30
0.0
  0
VERTEX
  5
84C
  8
DATA
  6
CONTINUOUS
 62
     7
 10
76.977697436131706
 20
234.35564833363659
 30
0.0
  0
VERTEX
  5
84D
  8
DATA
  6
CONTINUOUS
 62
     7
 10
74.977697436131706
 20
234.35564833363659
 30
0.0
  0
SEQEND
  5
84E
  8
DATA
  6
CONTINUOUS
 62
     7
  0
POLYLINE
  5
4DB
  8
DATA
  6
CONTINUOUS
 62
     7
 66
     1
 10
0.0
 20
0.0
 30
0.0
 70
     1
  0
VERTEX
  5
84F
  8
DATA
  6
CONTINUOUS
 62
     7
 10
74.977697436131706
 20
232.75564833363649
 30
0.0
  0
VERTEX
  5
850
  8
DATA
  6
CONTINUOUS
 62
     7
 10
76.977697436131706
 20
232.75564833363649
 30
0.0
  0
VERTEX
  5
851
  8
DATA
  6
CONTINUOUS
 62
     7
 10
76.977697436131706
 20
231.85564833363651
 30
0.0
  0
VERTEX
  5
852
  8
DATA
  6
CONTINUOUS
 62
     7
 10
74.977697436131706
 20
231.85564833363651
 30
0.0
  0
SEQEND
  5
853
  8
DATA
  6
CONTINUOUS
 62
     7
  0
POLYLINE
  5
4E2
  8
DATA
  6
CONTINUOUS
 62
     7
 66
     1
 10
0.0
 20
0.0
 30
0.0
 70
     1
  0
VERTEX
  5
854
  8
DATA
  6
CONTINUOUS
 62
     7
 10
74.977697436131706
 20
230.25564833363649
 30
0.0
  0
VERTEX
  5
855
  8
DATA
  6
CONTINUOUS
 62
     7
 10
76.977697436131706
 20
230.25564833363649
 30
0.0
  0
VERTEX
  5
856
  8
DATA
  6
CONTINUOUS
 62
     7
 10
76.977697436131706
 20
229.35564833363651
 30
0.0
  0
VERTEX
  5
857
  8
DATA
  6
CONTINUOUS
 62
     7
 10
74.977697436131706
 20
229.35564833363651
 30
0.0
  0
SEQEND
  5
858
  8
DATA
  6
CONTINUOUS
 62
     7
  0
LINE
  5
4E9
  8
DATA
  6
CONTINUOUS
 62
     7
 10
75.977697436131706
 20
229.35564833363651
 30
0.0
 11
75.977697436131706
 21
230.25564833363649
 31
0.0
  0
LINE
  5
4EA
  8
DATA
  6
CONTINUOUS
 62
     7
 10
75.977697436131706
 20
231.85564833363651
 30
0.0
 11
75.977697436131706
 21
232.75564833363649
 31
0.0
  0
LINE
  5
4EB
  8
DATA
  6
CONTINUOUS
 62
     7
 10
75.977697436131706
 20
234.35564833363659
 30
0.0
 11
75.977697436131706
 21
235.25564833363649
 31
0.0
  0
LINE
  5
4EC
  8
DATA
  6
CONTINUOUS
 62
     7
 10
75.977697436131706
 20
236.85564833363651
 30
0.0
 11
75.977697436131706
 21
237.75564833363649
 31
0.0
  0
LINE
  5
4ED
  8
DATA
  6
CONTINUOUS
 62
     7
 10
75.977697436131706
 20
239.35564833363651
 30
0.0
 11
75.977697436131706
 21
240.25564833363649
 31
0.0
  0
LINE
  5
4EE
  8
DATA
  6
CONTINUOUS
 62
     7
 10
75.977697436131706
 20
241.85564833363651
 30
0.0
 11
75.977697436131706
 21
242.75564833363649
 31
0.0
  0
LINE
  5
4EF
  8
DATA
  6
CONTINUOUS
 62
     7
 10
75.977697436131706
 20
244.35564833363651
 30
0.0
 11
75.977697436131706
 21
245.25564833363649
 31
0.0
  0
LINE
  5
4F0
  8
DATA
  6
CONTINUOUS
 62
     7
 10
75.977697436131706
 20
246.85564833363659
 30
0.0
 11
75.977697436131706
 21
247.75564833363649
 31
0.0
  0
TEXT
  5
4F1
  8
DATA
 62
     7
 10
77.602370751551149
 20
248.01811791925189
 30
0.0
 40
0.8144205729166667
  1
ON
 50
270.0
 41
0.7
 11
78.416791324467809
 21
248.01811791925189
 31
0.0
 73
     3
  0
TEXT
  5
4F2
  8
DATA
 62
     7
 10
73.404019393460402
 20
247.56132337628119
 30
0.0
 40
0.8144205729166667
  1
1
 50
270.0
 41
0.7
 11
74.218439966377062
 21
247.56132337628119
 31
0.0
 73
     3
  0
TEXT
  5
4F3
  8
DATA
 62
     7
 10
73.404019393460402
 20
245.06132337628119
 30
0.0
 40
0.8144205729166667
  1
2
 50
270.0
 41
0.7
 11
74.218439966377062
 21
245.06132337628119
 31
0.0
 73
     3
  0
TEXT
  5
4F4
  8
DATA
 62
     7
 10
73.404019393460402
 20
242.56132337628119
 30
0.0
 40
0.8144205729166667
  1
3
 50
270.0
 41
0.7
 11
74.218439966377062
 21
242.56132337628119
 31
0.0
 73
     3
  0
TEXT
  5
4F5
  8
DATA
 62
     7
 10
73.404019393460402
 20
240.06132337628119
 30
0.0
 40
0.8144205729166667
  1
4
 50
270.0
 41
0.7
 11
74.218439966377062
 21
240.06132337628119
 31
0.0
 73
     3
  0
TEXT
  5
4F6
  8
DATA
 62
     7
 10
73.404019393460402
 20
237.56132337628119
 30
0.0
 40
0.8144205729166667
  1
5
 50
270.0
 41
0.7
 11
74.218439966377062
 21
237.56132337628119
 31
0.0
 73
     3
  0
TEXT
  5
4F7
  8
DATA
 62
     7
 10
73.404019393460402
 20
235.06132337628119
 30
0.0
 40
0.8144205729166667
  1
6
 50
270.0
 41
0.7
 11
74.218439966377062
 21
235.06132337628119
 31
0.0
 73
     3
  0
TEXT
  5
4F8
  8
DATA
 62
     7
 10
73.404019393460402
 20
232.56132337628119
 30
0.0
 40
0.8144205729166667
  1
7
 50
270.0
 41
0.7
 11
74.218439966377062
 21
232.56132337628119
 31
0.0
 73
     3
  0
TEXT
  5
4F9
  8
DATA
 62
     7
 10
73.404019393460402
 20
230.06132337628119
 30
0.0
 40
0.8144205729166667
  1
8
 50
270.0
 41
0.7
 11
74.218439966377062
 21
230.06132337628119
 31
0.0
 73
     3
  0
LINE
  5
4FA
  8
DATA
  6
CONTINUOUS
 62
     7
 10
75.49030055403891
 20
247.75564833363649
 30
0.0
 11
75.49030055403891
 21
246.85564833363659
 31
0.0
  0
LINE
  5
4FB
  8
DATA
  6
CONTINUOUS
 62
     7
 10
75.49030055403891
 20
245.25564833363649
 30
0.0
 11
75.49030055403891
 21
244.35564833363651
 31
0.0
  0
LINE
  5
4FC
  8
DATA
  6
CONTINUOUS
 62
     7
 10
75.49030055403891
 20
242.75564833363649
 30
0.0
 11
75.49030055403891
 21
241.85564833363651
 31
0.0
  0
LINE
  5
4FD
  8
DATA
  6
CONTINUOUS
 62
     7
 10
75.49030055403891
 20
240.25564833363649
 30
0.0
 11
75.49030055403891
 21
239.35564833363651
 31
0.0
  0
LINE
  5
4FE
  8
DATA
  6
CONTINUOUS
 62
     7
 10
75.49030055403891
 20
237.75564833363649
 30
0.0
 11
75.49030055403891
 21
236.85564833363651
 31
0.0
  0
LINE
  5
4FF
  8
DATA
  6
CONTINUOUS
 62
     7
 10
75.49030055403891
 20
235.25564833363649
 30
0.0
 11
75.49030055403891
 21
234.35564833363659
 31
0.0
  0
LINE
  5
500
  8
DATA
  6
CONTINUOUS
 62
     7
 10
75.49030055403891
 20
232.75564833363649
 30
0.0
 11
75.49030055403891
 21
231.85564833363651
 31
0.0
  0
LINE
  5
501
  8
DATA
  6
CONTINUOUS
 62
     7
 10
75.49030055403891
 20
230.25564833363649
 30
0.0
 11
75.49030055403891
 21
229.35564833363651
 31
0.0
  0
LINE
  5
502
  8
DATA
  6
CONTINUOUS
 62
     7
 10
243.68378400893161
 20
275.30785157665929
 30
0.0
 11
243.68378400893161
 21
138.8078515766592
 31
0.0
  0
LINE
  5
503
  8
DATA
  6
CONTINUOUS
 62
     7
 10
202.73378400893159
 20
275.30785157665929
 30
0.0
 11
202.73378400893159
 21
138.8078515766592
 31
0.0
  0
LINE
  5
504
  8
DATA
  6
CONTINUOUS
 62
     7
 10
202.73378400893159
 20
275.30785157665929
 30
0.0
 11
243.68378400893161
 21
275.30785157665929
 31
0.0
  0
LINE
  5
505
  8
DATA
  6
CONTINUOUS
 62
     7
 10
202.73378400893159
 20
138.8078515766592
 30
0.0
 11
243.68378400893161
 21
138.8078515766592
 31
0.0
  0
POLYLINE
  5
506
  8
DATA
  6
CONTINUOUS
 62
     7
 66
     1
 10
0.0
 20
0.0
 30
0.0
 70
     1
  0
VERTEX
  5
859
  8
DATA
  6
CONTINUOUS
 62
     7
 10
217.5388173437876
 20
267.21956574379669
 30
0.0
  0
VERTEX
  5
85A
  8
DATA
  6
CONTINUOUS
 62
     7
 10
230.5388173437876
 20
267.21956574379669
 30
0.0
  0
VERTEX
  5
85B
  8
DATA
  6
CONTINUOUS
 62
     7
 10
230.5388173437876
 20
261.36956574379673
 30
0.0
  0
VERTEX
  5
85C
  8
DATA
  6
CONTINUOUS
 62
     7
 10
217.5388173437876
 20
261.36956574379673
 30
0.0
  0
SEQEND
  5
85D
  8
DATA
  6
CONTINUOUS
 62
     7
  0
POLYLINE
  5
50D
  8
DATA
  6
CONTINUOUS
 62
     7
 66
     1
 10
0.0
 20
0.0
 30
0.0
 70
     1
  0
VERTEX
  5
85E
  8
DATA
  6
CONTINUOUS
 62
     7
 10
217.5388173437876
 20
250.96956574379669
 30
0.0
  0
VERTEX
  5
85F
  8
DATA
  6
CONTINUOUS
 62
     7
 10
230.5388173437876
 20
250.96956574379669
 30
0.0
  0
VERTEX
  5
860
  8
DATA
  6
CONTINUOUS
 62
     7
 10
230.5388173437876
 20
245.1195657437967
 30
0.0
  0
VERTEX
  5
861
  8
DATA
  6
CONTINUOUS
 62
     7
 10
217.5388173437876
 20
245.1195657437967
 30
0.0
  0
SEQEND
  5
862
  8
DATA
  6
CONTINUOUS
 62
     7
  0
POLYLINE
  5
514
  8
DATA
  6
CONTINUOUS
 62
     7
 66
     1
 10
0.0
 20
0.0
 30
0.0
 70
     1
  0
VERTEX
  5
863
  8
DATA
  6
CONTINUOUS
 62
     7
 10
217.5388173437876
 20
234.71956574379669
 30
0.0
  0
VERTEX
  5
864
  8
DATA
  6
CONTINUOUS
 62
     7
 10
230.5388173437876
 20
234.71956574379669
 30
0.0
  0
VERTEX
  5
865
  8
DATA
  6
CONTINUOUS
 62
     7
 10
230.5388173437876
 20
228.8695657437967
 30
0.0
  0
VERTEX
  5
866
  8
DATA
  6
CONTINUOUS
 62
     7
 10
217.5388173437876
 20
228.8695657437967
 30
0.0
  0
SEQEND
  5
867
  8
DATA
  6
CONTINUOUS
 62
     7
  0
POLYLINE
  5
51B
  8
DATA
  6
CONTINUOUS
 62
     7
 66
     1
 10
0.0
 20
0.0
 30
0.0
 70
     1
  0
VERTEX
  5
868
  8
DATA
  6
CONTINUOUS
 62
     7
 10
217.5388173437876
 20
218.46956574379669
 30
0.0
  0
VERTEX
  5
869
  8
DATA
  6
CONTINUOUS
 62
     7
 10
230.5388173437876
 20
218.46956574379669
 30
0.0
  0
VERTEX
  5
86A
  8
DATA
  6
CONTINUOUS
 62
     7
 10
230.5388173437876
 20
212.6195657437967
 30
0.0
  0
VERTEX
  5
86B
  8
DATA
  6
CONTINUOUS
 62
     7
 10
217.5388173437876
 20
212.6195657437967
 30
0.0
  0
SEQEND
  5
86C
  8
DATA
  6
CONTINUOUS
 62
     7
  0
POLYLINE
  5
522
  8
DATA
  6
CONTINUOUS
 62
     7
 66
     1
 10
0.0
 20
0.0
 30
0.0
 70
     1
  0
VERTEX
  5
86D
  8
DATA
  6
CONTINUOUS
 62
     7
 10
217.5388173437876
 20
202.21956574379669
 30
0.0
  0
VERTEX
  5
86E
  8
DATA
  6
CONTINUOUS
 62
     7
 10
230.5388173437876
 20
202.21956574379669
 30
0.0
  0
VERTEX
  5
86F
  8
DATA
  6
CONTINUOUS
 62
     7
 10
230.5388173437876
 20
196.3695657437965
 30
0.0
  0
VERTEX
  5
870
  8
DATA
  6
CONTINUOUS
 62
     7
 10
217.5388173437876
 20
196.3695657437965
 30
0.0
  0
SEQEND
  5
871
  8
DATA
  6
CONTINUOUS
 62
     7
  0
POLYLINE
  5
529
  8
DATA
  6
CONTINUOUS
 62
     7
 66
     1
 10
0.0
 20
0.0
 30
0.0
 70
     1
  0
VERTEX
  5
872
  8
DATA
  6
CONTINUOUS
 62
     7
 10
217.5388173437876
 20
185.96956574379641
 30
0.0
  0
VERTEX
  5
873
  8
DATA
  6
CONTINUOUS
 62
     7
 10
230.5388173437876
 20
185.96956574379641
 30
0.0
  0
VERTEX
  5
874
  8
DATA
  6
CONTINUOUS
 62
     7
 10
230.5388173437876
 20
180.11956574379639
 30
0.0
  0
VERTEX
  5
875
  8
DATA
  6
CONTINUOUS
 62
     7
 10
217.5388173437876
 20
180.11956574379639
 30
0.0
  0
SEQEND
  5
876
  8
DATA
  6
CONTINUOUS
 62
     7
  0
POLYLINE
  5
530
  8
DATA
  6
CONTINUOUS
 62
     7
 66
     1
 10
0.0
 20
0.0
 30
0.0
 70
     1
  0
VERTEX
  5
877
  8
DATA
  6
CONTINUOUS
 62
     7
 10
217.5388173437876
 20
169.71956574379649
 30
0.0
  0
VERTEX
  5
878
  8
DATA
  6
CONTINUOUS
 62
     7
 10
230.5388173437876
 20
169.71956574379649
 30
0.0
  0
VERTEX
  5
879
  8
DATA
  6
CONTINUOUS
 62
     7
 10
230.5388173437876
 20
163.86956574379639
 30
0.0
  0
VERTEX
  5
87A
  8
DATA
  6
CONTINUOUS
 62
     7
 10
217.5388173437876
 20
163.86956574379639
 30
0.0
  0
SEQEND
  5
87B
  8
DATA
  6
CONTINUOUS
 62
     7
  0
POLYLINE
  5
537
  8
DATA
  6
CONTINUOUS
 62
     7
 66
     1
 10
0.0
 20
0.0
 30
0.0
 70
     1
  0
VERTEX
  5
87C
  8
DATA
  6
CONTINUOUS
 62
     7
 10
217.5388173437876
 20
153.46956574379641
 30
0.0
  0
VERTEX
  5
87D
  8
DATA
  6
CONTINUOUS
 62
     7
 10
230.5388173437876
 20
153.46956574379641
 30
0.0
  0
VERTEX
  5
87E
  8
DATA
  6
CONTINUOUS
 62
     7
 10
230.5388173437876
 20
147.61956574379639
 30
0.0
  0
VERTEX
  5
87F
  8
DATA
  6
CONTINUOUS
 62
     7
 10
217.5388173437876
 20
147.61956574379639
 30
0.0
  0
SEQEND
  5
880
  8
DATA
  6
CONTINUOUS
 62
     7
  0
LINE
  5
53E
  8
DATA
  6
CONTINUOUS
 62
     7
 10
224.0388173437876
 20
147.61956574379639
 30
0.0
 11
224.0388173437876
 21
153.46956574379641
 31
0.0
  0
LINE
  5
53F
  8
DATA
  6
CONTINUOUS
 62
     7
 10
224.0388173437876
 20
163.86956574379639
 30
0.0
 11
224.0388173437876
 21
169.71956574379649
 31
0.0
  0
LINE
  5
540
  8
DATA
  6
CONTINUOUS
 62
     7
 10
224.0388173437876
 20
180.11956574379639
 30
0.0
 11
224.0388173437876
 21
185.96956574379641
 31
0.0
  0
LINE
  5
541
  8
DATA
  6
CONTINUOUS
 62
     7
 10
224.0388173437876
 20
196.3695657437965
 30
0.0
 11
224.0388173437876
 21
202.21956574379669
 31
0.0
  0
LINE
  5
542
  8
DATA
  6
CONTINUOUS
 62
     7
 10
224.0388173437876
 20
212.6195657437967
 30
0.0
 11
224.0388173437876
 21
218.46956574379669
 31
0.0
  0
LINE
  5
543
  8
DATA
  6
CONTINUOUS
 62
     7
 10
224.0388173437876
 20
228.8695657437967
 30
0.0
 11
224.0388173437876
 21
234.71956574379669
 31
0.0
  0
LINE
  5
544
  8
DATA
  6
CONTINUOUS
 62
     7
 10
224.0388173437876
 20
245.1195657437967
 30
0.0
 11
224.0388173437876
 21
250.96956574379669
 31
0.0
  0
LINE
  5
545
  8
DATA
  6
CONTINUOUS
 62
     7
 10
224.0388173437876
 20
261.36956574379673
 30
0.0
 11
224.0388173437876
 21
267.21956574379669
 31
0.0
  0
TEXT
  5
546
  8
DATA
 62
     7
 10
234.59919389401409
 20
268.92561805029652
 30
0.0
 40
5.2937337239583346
  1
ON
 50
270.0
 41
0.7
 11
239.8929276179725
 21
268.92561805029652
 31
0.0
 73
     3
  0
TEXT
  5
547
  8
DATA
 62
     7
 10
207.30991006642421
 20
265.956453520987
 30
0.0
 40
5.2937337239583346
  1
1
 50
270.0
 41
0.7
 11
212.60364379038259
 21
265.956453520987
 31
0.0
 73
     3
  0
TEXT
  5
548
  8
DATA
 62
     7
 10
207.30991006642421
 20
249.706453520987
 30
0.0
 40
5.2937337239583346
  1
2
 50
270.0
 41
0.7
 11
212.60364379038259
 21
249.706453520987
 31
0.0
 73
     3
  0
TEXT
  5
549
  8
DATA
 62
     7
 10
207.30991006642421
 20
233.456453520987
 30
0.0
 40
5.2937337239583346
  1
3
 50
270.0
 41
0.7
 11
212.60364379038259
 21
233.456453520987
 31
0.0
 73
     3
  0
TEXT
  5
54A
  8
DATA
 62
     7
 10
207.30991006642421
 20
217.206453520987
 30
0.0
 40
5.2937337239583346
  1
4
 50
270.0
 41
0.7
 11
212.60364379038259
 21
217.206453520987
 31
0.0
 73
     3
  0
TEXT
  5
54B
  8
DATA
 62
     7
 10
207.30991006642421
 20
200.956453520987
 30
0.0
 40
5.2937337239583346
  1
5
 50
270.0
 41
0.7
 11
212.60364379038259
 21
200.956453520987
 31
0.0
 73
     3
  0
TEXT
  5
54C
  8
DATA
 62
     7
 10
207.30991006642421
 20
184.7064535209868
 30
0.0
 40
5.2937337239583346
  1
6
 50
270.0
 41
0.7
 11
212.60364379038259
 21
184.7064535209868
 31
0.0
 73
     3
  0
TEXT
  5
54D
  8
DATA
 62
     7
 10
207.30991006642421
 20
168.4564535209868
 30
0.0
 40
5.2937337239583346
  1
7
 50
270.0
 41
0.7
 11
212.60364379038259
 21
168.4564535209868
 31
0.0
 73
     3
  0
TEXT
  5
54E
  8
DATA
 62
     7
 10
207.30991006642421
 20
152.2064535209868
 30
0.0
 40
5.2937337239583346
  1
8
 50
270.0
 41
0.7
 11
212.60364379038259
 21
152.2064535209868
 31
0.0
 73
     3
  0
LINE
  5
54F
  8
DATA
  6
CONTINUOUS
 62
     7
 10
220.87073761018451
 20
267.21956574379669
 30
0.0
 11
220.87073761018451
 21
261.36956574379673
 31
0.0
  0
LINE
  5
550
  8
DATA
  6
CONTINUOUS
 62
     7
 10
220.87073761018451
 20
250.96956574379669
 30
0.0
 11
220.87073761018451
 21
245.1195657437967
 31
0.0
  0
LINE
  5
551
  8
DATA
  6
CONTINUOUS
 62
     7
 10
220.87073761018451
 20
234.71956574379669
 30
0.0
 11
220.87073761018451
 21
228.8695657437967
 31
0.0
  0
LINE
  5
552
  8
DATA
  6
CONTINUOUS
 62
     7
 10
220.87073761018451
 20
218.46956574379669
 30
0.0
 11
220.87073761018451
 21
212.6195657437967
 31
0.0
  0
LINE
  5
553
  8
DATA
  6
CONTINUOUS
 62
     7
 10
220.87073761018451
 20
202.21956574379669
 30
0.0
 11
220.87073761018451
 21
196.3695657437965
 31
0.0
  0
LINE
  5
554
  8
DATA
  6
CONTINUOUS
 62
     7
 10
220.87073761018451
 20
185.96956574379641
 30
0.0
 11
220.87073761018451
 21
180.11956574379639
 31
0.0
  0
LINE
  5
555
  8
DATA
  6
CONTINUOUS
 62
     7
 10
220.87073761018451
 20
169.71956574379649
 30
0.0
 11
220.87073761018451
 21
163.86956574379639
 31
0.0
  0
LINE
  5
556
  8
DATA
  6
CONTINUOUS
 62
     7
 10
220.87073761018451
 20
153.46956574379641
 30
0.0
 11
220.87073761018451
 21
147.61956574379639
 31
0.0
  0
LINE
  5
557
  8
DATA
  6
CONTINUOUS
 62
     7
 10
189.0
 20
-122.7
 30
0.0
 11
189.0
 21
-85.300000000000026
 31
0.0
  0
LINE
  5
558
  8
DATA
  6
CONTINUOUS
 62
     7
 10
296.0
 20
-122.7
 30
0.0
 11
296.0
 21
-84.500000000000014
 31
0.0
  0
LINE
  5
559
  8
DATA
  6
CONTINUOUS
 62
     7
 10
196.0
 20
-84.500000000000014
 30
0.0
 11
196.0
 21
-83.0
 31
0.0
  0
LINE
  5
55A
  8
DATA
  6
CONTINUOUS
 62
     7
 10
289.0
 20
-125.0
 30
0.0
 11
289.0
 21
-123.5
 31
0.0
  0
LINE
  5
55B
  8
DATA
  6
CONTINUOUS
 62
     7
 10
189.80000000000001
 20
-123.5
 30
0.0
 11
194.80000000000001
 21
-123.5
 31
0.0
  0
LINE
  5
55C
  8
DATA
  6
CONTINUOUS
 62
     7
 10
289.0
 20
-123.5
 30
0.0
 11
295.19999999999999
 21
-123.5
 31
0.0
  0
LINE
  5
55D
  8
DATA
  6
CONTINUOUS
 62
     7
 10
189.80000000000001
 20
-84.500000000000014
 30
0.0
 11
196.0
 21
-84.500000000000014
 31
0.0
  0
LINE
  5
55E
  8
DATA
  6
CONTINUOUS
 62
     7
 10
194.80000000000001
 20
-123.5
 30
0.0
 11
194.80000000000001
 21
-125.0
 31
0.0
  0
CIRCLE
  5
55F
  8
DATA
  6
CONTINUOUS
 62
     7
 10
202.5
 20
-116.0
 30
0.0
 40
2.5
  0
LINE
  5
560
  8
DATA
  6
CONTINUOUS
 62
     7
 10
202.5
 20
-117.5297058540778
 30
0.0
 11
202.5
 21
-114.4702941459222
 31
0.0
  0
LINE
  5
561
  8
DATA
  6
CONTINUOUS
 62
     7
 10
200.9702941459222
 20
-116.0
 30
0.0
 11
204.0297058540778
 21
-116.0
 31
0.0
  0
CIRCLE
  5
562
  8
DATA
  6
CONTINUOUS
 62
     7
 10
274.5
 20
-116.0
 30
0.0
 40
2.5
  0
LINE
  5
563
  8
DATA
  6
CONTINUOUS
 62
     7
 10
274.5
 20
-117.5297058540778
 30
0.0
 11
274.5
 21
-114.4702941459222
 31
0.0
  0
LINE
  5
564
  8
DATA
  6
CONTINUOUS
 62
     7
 10
272.9702941459222
 20
-116.0
 30
0.0
 11
276.0297058540778
 21
-116.0
 31
0.0
  0
LINE
  5
565
  8
DATA
  6
CONTINUOUS
 62
     7
 10
281.01567346119219
 20
-129.0
 30
0.0
 11
282.51567346119231
 21
-125.0159695854845
 31
0.0
  0
LINE
  5
566
  8
DATA
  6
CONTINUOUS
 62
     7
 10
271.01567346119219
 20
-129.0
 30
0.0
 11
269.51567346119231
 21
-125.0
 31
0.0
  0
LINE
  5
567
  8
DATA
  6
CONTINUOUS
 62
     7
 10
281.01567346119219
 20
-129.0
 30
0.0
 11
271.01567346119219
 21
-129.0
 31
0.0
  0
LINE
  5
568
  8
DATA
  6
CONTINUOUS
 62
     7
 10
203.23926785415961
 20
-129.0
 30
0.0
 11
204.73926785415961
 21
-125.0159695854845
 31
0.0
  0
LINE
  5
569
  8
DATA
  6
CONTINUOUS
 62
     7
 10
193.23926785415961
 20
-129.0
 30
0.0
 11
191.73926785415949
 21
-125.0
 31
0.0
  0
LINE
  5
56A
  8
DATA
  6
CONTINUOUS
 62
     7
 10
203.23926785415961
 20
-129.0
 30
0.0
 11
193.23926785415961
 21
-129.0
 31
0.0
  0
ARC
  5
56B
  8
DATA
  6
CONTINUOUS
 62
     7
 10
188.30000000000001
 20
-83.800000000000026
 30
0.0
 40
0.8000000000000113
 50
90.0
 51
180.0
  0
ARC
  5
56C
  8
DATA
  6
CONTINUOUS
 62
     7
 10
189.80000000000001
 20
-85.300000000000026
 30
0.0
 40
0.8000000000000113
 50
90.0
 51
180.0
  0
ARC
  5
56D
  8
DATA
  6
CONTINUOUS
 62
     7
 10
188.30000000000001
 20
-124.2
 30
0.0
 40
0.799999999999983
 50
180.0
 51
270.00000000000102
  0
ARC
  5
56E
  8
DATA
  6
CONTINUOUS
 62
     7
 10
189.80000000000001
 20
-122.7
 30
0.0
 40
0.799999999999983
 50
180.0
 51
270.00000000000102
  0
ARC
  5
56F
  8
DATA
  6
CONTINUOUS
 62
     7
 10
296.69999999999999
 20
-83.800000000000026
 30
0.0
 40
0.8000000000000113
 50
0.0
 51
90.0
  0
ARC
  5
570
  8
DATA
  6
CONTINUOUS
 62
     7
 10
296.69999999999999
 20
-124.2
 30
0.0
 40
0.7999999999999546
 50
270.0
 51
0.0000000000040927
  0
ARC
  5
571
  8
DATA
  6
CONTINUOUS
 62
     7
 10
295.19999999999999
 20
-122.7
 30
0.0
 40
0.7999999999999546
 50
270.0
 51
0.0000000000040927
  0
LINE
  5
572
  8
DATA
  6
CONTINUOUS
 62
     7
 10
184.5
 20
-109.3
 30
0.0
 11
187.5
 21
-109.3
 31
0.0
  0
LINE
  5
573
  8
DATA
  6
CONTINUOUS
 62
     7
 10
184.5
 20
-118.7
 30
0.0
 11
187.5
 21
-118.7
 31
0.0
  0
LINE
  5
574
  8
DATA
  6
CONTINUOUS
 62
     7
 10
184.5
 20
-118.7
 30
0.0
 11
184.5
 21
-109.3
 31
0.0
  0
LINE
  5
575
  8
DATA
  6
CONTINUOUS
 62
     7
 10
302.5
 20
-108.2138647372733
 30
0.0
 11
302.5
 21
-116.0638647372751
 31
0.0
  0
LINE
  5
576
  8
DATA
  6
CONTINUOUS
 62
     7
 10
297.5
 20
-109.4388647372751
 30
0.0
 11
302.5
 21
-109.4388647372751
 31
0.0
  0
LINE
  5
577
  8
DATA
  6
CONTINUOUS
 62
     7
 10
297.5
 20
-114.8388647372751
 30
0.0
 11
302.5
 21
-114.8388647372751
 31
0.0
  0
LINE
  5
578
  8
DATA
  6
CONTINUOUS
 62
     7
 10
297.5
 20
-108.2138647372733
 30
0.0
 11
302.5
 21
-108.2138647372732
 31
0.0
  0
LINE
  5
579
  8
DATA
  6
CONTINUOUS
 62
     7
 10
297.5
 20
-116.0638647372751
 30
0.0
 11
302.5
 21
-116.0638647372751
 31
0.0
  0
LINE
  5
57A
  8
DATA
  6
CONTINUOUS
 62
     7
 10
298.0
 20
-97.0
 30
0.0
 11
298.0
 21
-91.0
 31
0.0
  0
LINE
  5
57B
  8
DATA
  6
CONTINUOUS
 62
     7
 10
298.0
 20
-97.0
 30
0.0
 11
297.5
 21
-97.0
 31
0.0
  0
LINE
  5
57C
  8
DATA
  6
CONTINUOUS
 62
     7
 10
297.5
 20
-91.0
 30
0.0
 11
298.0
 21
-91.0
 31
0.0
  0
LINE
  5
57D
  8
DATA
  6
CONTINUOUS
 62
     7
 10
299.5000000001001
 20
-88.791566852502555
 30
0.0
 11
299.5000000001001
 21
-92.891566852502535
 31
0.0
  0
LINE
  5
57E
  8
DATA
  6
CONTINUOUS
 62
     7
 10
298.00000000009999
 20
-87.291566852502555
 30
0.0
 11
297.5000000001001
 21
-87.291566852502555
 31
0.0
  0
ARC
  5
57F
  8
DATA
  6
CONTINUOUS
 62
     7
 10
298.00000000009999
 20
-88.791566852502555
 30
0.0
 40
1.5
 50
0.0
 51
90.0
  0
ARC
  5
580
  8
DATA
  6
CONTINUOUS
 62
     7
 10
298.00000000009999
 20
-92.891566852502535
 30
0.0
 40
1.5
 50
270.0
 51
0.0
  0
TEXT
  5
581
  8
DATA
 62
     7
 10
166.1668339281608
 20
115.5409037422005
 30
0.0
 40
8.1442057291666661
  1
ディップスイッチ拡大図
 41
0.7
 11
166.1668339281608
 21
123.6851094713672
 31
0.0
 73
     3
  0
LINE
  5
582
  8
DATA
  6
CONTINUOUS
 62
     7
 10
162.5
 20
112.5
 30
0.0
 11
287.5
 21
112.5
 31
0.0
  0
ENDSEC
  0
EOF
