  0
SECTION
  2
HEADER
  9
$ACADVER
  1
AC1009
  9
$INSBASE
 10
0.0
 20
0.0
 30
0.0
  9
$EXTMIN
 10
-80.010985489947416
 20
-132.47246071722381
 30
-0.0015258207003583
  9
$EXTMAX
 10
280.01098716632811
 20
403.54814713507778
 30
0.0000000349246037
  9
$LIMMIN
 10
0.0
 20
0.0
  9
$LIMMAX
 10
0.0
 20
0.0
  9
$ORTHOMODE
 70
     0
  9
$REGENMODE
 70
     1
  9
$FILLMODE
 70
     1
  9
$QTEXTMODE
 70
     0
  9
$MIRRTEXT
 70
     1
  9
$DRAGMODE
 70
     2
  9
$LTSCALE
 40
10.16
  9
$OSMODE
 70
   231
  9
$ATTMODE
 70
     1
  9
$TEXTSIZE
 40
0.0
  9
$TRACEWID
 40
1.0
  9
$TEXTSTYLE
  7
STANDARD
  9
$CLAYER
  8
DATA
  9
$CELTYPE
  6
BYLAYER
  9
$CECOLOR
 62
   256
  9
$DIMSCALE
 40
1.0
  9
$DIMASZ
 40
0.18
  9
$DIMEXO
 40
0.0625
  9
$DIMDLI
 40
0.38
  9
$DIMRND
 40
0.0
  9
$DIMDLE
 40
0.0
  9
$DIMEXE
 40
0.18
  9
$DIMTP
 40
0.0
  9
$DIMTM
 40
0.0
  9
$DIMTXT
 40
0.18
  9
$DIMCEN
 40
0.09
  9
$DIMTSZ
 40
0.0
  9
$DIMTOL
 70
     0
  9
$DIMLIM
 70
     0
  9
$DIMTIH
 70
     1
  9
$DIMTOH
 70
     1
  9
$DIMSE1
 70
     0
  9
$DIMSE2
 70
     0
  9
$DIMTAD
 70
     0
  9
$DIMZIN
 70
     0
  9
$DIMBLK
  1

  9
$DIMASO
 70
     1
  9
$DIMSHO
 70
     1
  9
$DIMPOST
  1

  9
$DIMAPOST
  1

  9
$DIMALT
 70
     0
  9
$DIMALTD
 70
     2
  9
$DIMALTF
 40
25.399999999999999
  9
$DIMLFAC
 40
1.0
  9
$DIMTOFL
 70
     0
  9
$DIMTVP
 40
0.0
  9
$DIMTIX
 70
     0
  9
$DIMSOXD
 70
     0
  9
$DIMSAH
 70
     0
  9
$DIMBLK1
  1

  9
$DIMBLK2
  1

  9
$DIMSTYLE
  2
STANDARD
  9
$DIMCLRD
 70
     0
  9
$DIMCLRE
 70
     0
  9
$DIMCLRT
 70
     0
  9
$DIMTFAC
 40
1.0
  9
$DIMGAP
 40
0.09
  9
$LUNITS
 70
     2
  9
$LUPREC
 70
     4
  9
$SKETCHINC
 40
0.1
  9
$FILLETRAD
 40
0.0
  9
$AUNITS
 70
     0
  9
$AUPREC
 70
     0
  9
$MENU
  1
acad
  9
$ELEVATION
 40
0.0
  9
$PELEVATION
 40
0.0
  9
$THICKNESS
 40
0.0
  9
$LIMCHECK
 70
     0
  9
$BLIPMODE
 70
     0
  9
$CHAMFERA
 40
0.0
  9
$CHAMFERB
 40
0.0
  9
$SKPOLY
 70
     0
  9
$TDCREATE
 40
2455188.7728703702
  9
$TDUPDATE
 40
2455188.7746961932
  9
$TDINDWG
 40
0.0004071296
  9
$TDUSRTIMER
 40
0.0004045949
  9
$USRTIMER
 70
     1
  9
$ANGBASE
 50
0.0
  9
$ANGDIR
 70
     0
  9
$PDMODE
 70
     1
  9
$PDSIZE
 40
-2.0
  9
$PLINEWID
 40
0.0
  9
$COORDS
 70
     0
  9
$SPLFRAME
 70
     0
  9
$SPLINETYPE
 70
     6
  9
$SPLINESEGS
 70
     8
  9
$ATTDIA
 70
     0
  9
$ATTREQ
 70
     1
  9
$HANDLING
 70
     1
  9
$HANDSEED
  5
246
  9
$SURFTAB1
 70
     6
  9
$SURFTAB2
 70
     6
  9
$SURFTYPE
 70
     6
  9
$SURFU
 70
     6
  9
$SURFV
 70
     6
  9
$UCSNAME
  2

  9
$UCSORG
 10
0.0
 20
0.0
 30
0.0
  9
$UCSXDIR
 10
1.0
 20
0.0
 30
0.0
  9
$UCSYDIR
 10
0.0
 20
1.0
 30
0.0
  9
$PUCSNAME
  2

  9
$PUCSORG
 10
0.0
 20
0.0
 30
0.0
  9
$PUCSXDIR
 10
1.0
 20
0.0
 30
0.0
  9
$PUCSYDIR
 10
0.0
 20
1.0
 30
0.0
  9
$USERI1
 70
     0
  9
$USERI2
 70
     0
  9
$USERI3
 70
     0
  9
$USERI4
 70
     0
  9
$USERI5
 70
     0
  9
$USERR1
 40
0.0
  9
$USERR2
 40
0.0
  9
$USERR3
 40
0.0
  9
$USERR4
 40
0.0
  9
$USERR5
 40
0.0
  9
$WORLDVIEW
 70
     1
  9
$SHADEDGE
 70
     3
  9
$SHADEDIF
 70
    70
  9
$TILEMODE
 70
     1
  9
$MAXACTVP
 70
    64
  9
$PLIMCHECK
 70
     0
  9
$PEXTMIN
 10
1.0000000000000000E+020
 20
1.0000000000000000E+020
 30
1.0000000000000000E+020
  9
$PEXTMAX
 10
-1.0000000000000000E+020
 20
-1.0000000000000000E+020
 30
-1.0000000000000000E+020
  9
$PLIMMIN
 10
0.0
 20
0.0
  9
$PLIMMAX
 10
12.0
 20
9.0
  9
$UNITMODE
 70
     0
  9
$VISRETAIN
 70
     0
  9
$PLINEGEN
 70
     1
  9
$PSLTSCALE
 70
     0
  0
ENDSEC
  0
SECTION
  2
TABLES
  0
TABLE
  2
VPORT
 70
     1
  0
VPORT
  2
*ACTIVE
 70
     0
 10
0.0
 20
0.0
 11
1.0
 21
1.0
 12
100.0000008381904
 22
135.537843208927
 13
0.0
 23
0.0
 14
1.0
 24
1.0
 15
0.0
 25
0.0
 16
0.0
 26
0.0
 36
1.0
 17
0.0
 27
0.0
 37
0.0
 40
540.01579250710154
 41
1.9863184079601981
 42
50.0
 43
0.0
 44
0.0
 50
0.0
 51
0.0
 71
     0
 72
  2000
 73
     1
 74
     1
 75
     0
 76
     0
 77
     0
 78
     0
  0
ENDTAB
  0
TABLE
  2
LTYPE
 70
    11
  0
LTYPE
  2
CONTINUOUS
 70
     0
  3
Solid line
 72
    65
 73
     0
 40
0.0
  0
ENDTAB
  0
TABLE
  2
LAYER
 70
     5
  0
LAYER
  2
0
 70
     0
 62
     7
  6
CONTINUOUS
  0
LAYER
  2
DATA
 70
     0
 62
     7
  6
CONTINUOUS
  0
LAYER
  2
HIBINO-BASE
 70
     0
 62
     7
  6
CONTINUOUS
  0
LAYER
  2
SPEC
 70
     0
 62
     7
  6
CONTINUOUS
  0
LAYER
  2
DIMNSIONS
 70
     0
 62
     7
  6
CONTINUOUS
  0
ENDTAB
  0
TABLE
  2
STYLE
 70
     3
  0
STYLE
  2
STANDARD
 70
     0
 40
0.0
 41
1.0
 50
0.0
 71
     0
 42
0.0
  3
txt
  4
BIGFONT.SHX
  0
ENDTAB
  0
TABLE
  2
VIEW
 70
     0
  0
ENDTAB
  0
TABLE
  2
UCS
 70
     0
  0
ENDTAB
  0
TABLE
  2
APPID
 70
     3
  0
APPID
  2
ACAD
 70
     0
  0
APPID
  2
ACADANNOTATIVE
 70
     0
  0
APPID
  2
ACAD_MLEADERVER
 70
     0
  0
ENDTAB
  0
TABLE
  2
DIMSTYLE
 70
     2
  0
DIMSTYLE
  2
STANDARD
 70
     0
  3

  4

  5

  6

  7

 40
1.0
 41
0.18
 42
0.0625
 43
0.38
 44
0.18
 45
0.0
 46
0.0
 47
0.0
 48
0.0
140
0.18
141
0.09
142
0.0
143
25.399999999999999
144
1.0
145
0.0
146
1.0
147
0.09
 71
     0
 72
     0
 73
     1
 74
     1
 75
     0
 76
     0
 77
     0
 78
     0
170
     0
171
     2
172
     0
173
     0
174
     0
175
     0
176
     0
177
     0
178
     0
  0
ENDTAB
  0
ENDSEC
  0
SECTION
  2
BLOCKS
  0
BLOCK
  8
0
  2
$MODEL_SPACE
 70
     0
 10
0.0
 20
0.0
 30
0.0
  3
$MODEL_SPACE
  1

  0
ENDBLK
  5
1E7
  8
0
  0
BLOCK
 67
     1
  8
0
  2
$PAPER_SPACE
 70
     0
 10
0.0
 20
0.0
 30
0.0
  3
$PAPER_SPACE
  1

  0
ENDBLK
  5
1E3
 67
     1
  8
0
  0
ENDSEC
  0
SECTION
  2
ENTITIES
  0
LINE
  5
2C
  8
HIBINO-BASE
  6
CONTINUOUS
 62
     7
 10
-79.999999999999986
 20
403.53181499999999
 30
0.0
 11
279.99999999999989
 21
403.53181499999999
 31
0.0
  0
LINE
  5
2D
  8
HIBINO-BASE
  6
CONTINUOUS
 62
     7
 10
279.99999999999989
 20
-116.46818500000001
 30
0.0
 11
-79.999999999999986
 21
-116.46818500000001
 31
0.0
  0
LINE
  5
2E
  8
HIBINO-BASE
  6
CONTINUOUS
 62
     7
 10
-79.999999999999986
 20
-116.46818500000001
 30
0.0
 11
-79.999999999999986
 21
403.53181499999999
 31
0.0
  0
LINE
  5
2F
  8
HIBINO-BASE
  6
CONTINUOUS
 62
     7
 10
279.99999999999989
 20
403.53181499999999
 30
0.0
 11
279.99999999999989
 21
-116.46818500000001
 31
0.0
  0
LINE
  5
30
  8
HIBINO-BASE
  6
CONTINUOUS
 62
     7
 10
100.0
 20
-71.468184999999977
 30
0.0
 11
279.99999999999989
 21
-71.468184999999977
 31
0.0
  0
LINE
  5
31
  8
HIBINO-BASE
  6
CONTINUOUS
 62
     7
 10
100.0
 20
-116.46818500000001
 30
0.0
 11
100.0
 21
-71.468184999999977
 31
0.0
  0
TEXT
  5
32
  8
HIBINO-BASE
 62
     7
 10
101.8
 20
-76.485571666666644
 30
0.0
 40
3.2576822916666659
  1
NOTE
 41
0.7
 11
101.8
 21
-73.227889374999975
 31
0.0
 73
     3
  0
LINE
  5
33
  8
HIBINO-BASE
  6
CONTINUOUS
 62
     7
 10
170.0
 20
-116.46818500000001
 30
0.0
 11
170.0
 21
-71.468184999999977
 31
0.0
  0
TEXT
  5
34
  8
HIBINO-BASE
 62
     7
 10
171.7999999999999
 20
-76.485571666666644
 30
0.0
 40
3.2576822916666659
  1
TITLE
 41
0.7
 11
171.7999999999999
 21
-73.227889374999975
 31
0.0
 73
     3
  0
LINE
  5
35
  8
HIBINO-BASE
  6
CONTINUOUS
 62
     7
 10
100.0
 20
-96.468184999999963
 30
0.0
 11
279.99999999999989
 21
-96.468184999999963
 31
0.0
  0
TEXT
  5
36
  8
HIBINO-BASE
 62
     7
 10
196.80000000000001
 20
-101.3729316666666
 30
0.0
 40
3.2576822916666659
  1
DRAWN
 41
0.7
 11
196.80000000000001
 21
-98.115249375000005
 31
0.0
 73
     3
  0
TEXT
  5
37
  8
HIBINO-BASE
 62
     7
 10
146.7999999999999
 20
-101.3729316666666
 30
0.0
 40
3.2576822916666659
  1
DATE
 41
0.7
 11
146.7999999999999
 21
-98.115249375000005
 31
0.0
 73
     3
  0
TEXT
  5
38
  8
HIBINO-BASE
 62
     7
 10
126.8
 20
-101.3729316666666
 30
0.0
 40
3.2576822916666659
  1
SCALE
 41
0.7
 11
126.8
 21
-98.115249375000005
 31
0.0
 73
     3
  0
TEXT
  5
39
  8
HIBINO-BASE
 62
     7
 10
171.7999999999999
 20
-101.3729316666666
 30
0.0
 40
3.2576822916666659
  1
DESIGN
 41
0.7
 11
171.7999999999999
 21
-98.115249375000005
 31
0.0
 73
     3
  0
TEXT
  5
3A
  8
HIBINO-BASE
 62
     7
 10
246.7999999999999
 20
-101.3729316666666
 30
0.0
 40
3.2576822916666659
  1
DRAWING NO.
 41
0.7
 11
246.7999999999999
 21
-98.115249375000005
 31
0.0
 73
     3
  0
TEXT
  5
3B
  8
HIBINO-BASE
 62
     7
 10
221.7999999999999
 20
-101.3729316666666
 30
0.0
 40
3.2576822916666659
  1
CHECK
 41
0.7
 11
221.7999999999999
 21
-98.115249375000005
 31
0.0
 73
     3
  0
LINE
  5
3C
  8
HIBINO-BASE
  6
CONTINUOUS
 62
     7
 10
128.74999999999989
 20
-113.96818500000001
 30
0.0
 11
136.25
 21
-106.46818499999991
 31
0.0
  0
TEXT
  5
3D
  8
HIBINO-BASE
 62
     7
 10
127.5
 20
-108.68607166666661
 30
0.0
 40
3.2576822916666659
  1
1
 41
0.7
 11
127.5
 21
-105.42838937499999
 31
0.0
 73
     3
  0
LINE
  5
3E
  8
HIBINO-BASE
  6
CONTINUOUS
 62
     7
 10
125.0
 20
-116.46818500000001
 30
0.0
 11
125.0
 21
-96.468184999999963
 31
0.0
  0
LINE
  5
3F
  8
HIBINO-BASE
  6
CONTINUOUS
 62
     7
 10
145.0
 20
-116.46818500000001
 30
0.0
 11
145.0
 21
-96.468184999999963
 31
0.0
  0
LINE
  5
40
  8
HIBINO-BASE
  6
CONTINUOUS
 62
     7
 10
195.0
 20
-96.468184999999963
 30
0.0
 11
195.0
 21
-116.46818500000001
 31
0.0
  0
LINE
  5
41
  8
HIBINO-BASE
  6
CONTINUOUS
 62
     7
 10
245.0
 20
-96.468184999999963
 30
0.0
 11
245.0
 21
-116.46818500000001
 31
0.0
  0
LINE
  5
42
  8
HIBINO-BASE
  6
CONTINUOUS
 62
     7
 10
220.0
 20
-116.46818500000001
 30
0.0
 11
220.0
 21
-96.468184999999963
 31
0.0
  0
TEXT
  5
43
  8
HIBINO-BASE
 62
     7
 10
146.71307999999999
 20
-110.7408916666666
 30
0.0
 40
3.2576822916666659
  1
'09.12.
 41
0.7
 11
146.71307999999999
 21
-107.483209375
 31
0.0
 73
     3
  0
TEXT
  5
44
  8
HIBINO-BASE
 62
     7
 10
135.0
 20
-112.43607166666661
 30
0.0
 40
3.2576822916666659
  1
2
 41
0.7
 11
135.0
 21
-109.17838937499999
 31
0.0
 73
     3
  0
TEXT
  5
45
  8
HIBINO-BASE
 62
     7
 10
107.76666666666659
 20
-112.51618499999999
 30
0.0
 40
6.5153645833333318
  1
A4
 41
0.7
 11
107.76666666666659
 21
-106.0008204166666
 31
0.0
 73
     3
  0
TEXT
  5
46
  8
HIBINO-BASE
 62
     7
 10
101.9166666666666
 20
-101.707095
 30
0.0
 40
3.2576822916666659
  1
PAPER SIZE
 41
0.7
 11
101.9166666666666
 21
-98.449412708333327
 31
0.0
 73
     3
  0
TEXT
  5
47
  8
HIBINO-BASE
 62
     7
 10
-79.04417471927276
 20
-130.0852923936755
 30
0.0
 40
7.0583116319444441
  1
Hibino-Intersound Corporation
 41
0.7
 11
-79.04417471927276
 21
-123.026980761731
 31
0.0
 73
     3
  0
TEXT
  5
48
  8
HIBINO-BASE
 62
     7
 10
141.9566349462132
 20
-130.31464828359589
 30
0.0
 40
7.0583116319444441
  1
ヒビノインターサウンド株式会社
 41
0.7
 11
141.9566349462132
 21
-123.25633665165149
 31
0.0
 73
     3
  0
LINE
  5
49
  8
SPEC
  6
CONTINUOUS
 62
     7
 10
-64.999999999999986
 20
383.53181499999999
 30
0.0
 11
230.0
 21
383.53181499999999
 31
0.0
  0
LINE
  5
4A
  8
SPEC
  6
CONTINUOUS
 62
     7
 10
-64.999999999999986
 20
376.03181499999999
 30
0.0
 11
230.0
 21
376.03181499999999
 31
0.0
  0
LINE
  5
4B
  8
SPEC
  6
CONTINUOUS
 62
     7
 10
-64.999999999999986
 20
346.03181499999988
 30
0.0
 11
230.0
 21
346.03181499999988
 31
0.0
  0
LINE
  5
4C
  8
SPEC
  6
CONTINUOUS
 62
     7
 10
-64.999999999999986
 20
353.53181499999988
 30
0.0
 11
230.0
 21
353.53181499999988
 31
0.0
  0
LINE
  5
4D
  8
SPEC
  6
CONTINUOUS
 62
     7
 10
-64.999999999999986
 20
361.03181499999999
 30
0.0
 11
230.0
 21
361.03181499999999
 31
0.0
  0
LINE
  5
4E
  8
SPEC
  6
CONTINUOUS
 62
     7
 10
-64.999999999999986
 20
338.53181499999988
 30
0.0
 11
230.0
 21
338.53181499999988
 31
0.0
  0
LINE
  5
4F
  8
SPEC
  6
CONTINUOUS
 62
     7
 10
-64.999999999999986
 20
368.53181499999999
 30
0.0
 11
230.0
 21
368.53181499999999
 31
0.0
  0
LINE
  5
50
  8
SPEC
  6
CONTINUOUS
 62
     7
 10
-64.999999999999986
 20
383.53181499999999
 30
0.0
 11
-64.999999999999986
 21
338.53181499999988
 31
0.0
  0
TEXT
  5
51
  8
SPEC
 62
     7
 10
-62.5
 20
386.318355
 30
0.0
 40
4.8865234375000002
  1
仕様
 41
0.7
 11
-62.5
 21
391.20487843749999
 31
0.0
 73
     3
  0
LINE
  5
52
  8
SPEC
  6
CONTINUOUS
 62
     7
 10
0.0
 20
383.53181499999999
 30
0.0
 11
0.0
 21
338.53181499999988
 31
0.0
  0
LINE
  5
53
  8
SPEC
  6
CONTINUOUS
 62
     7
 10
230.0
 20
383.53181499999999
 30
0.0
 11
230.0
 21
338.53181499999988
 31
0.0
  0
TEXT
  5
54
  8
SPEC
 62
     7
 10
-63.318476555827957
 20
377.9038495895698
 30
0.0
 40
3.8006224999999989
  1
形式
 41
0.7
 11
-63.318476555827957
 21
381.70447208956978
 31
0.0
 73
     3
  0
TEXT
  5
55
  8
SPEC
 62
     7
 10
-63.421705535992103
 20
340.42545038189172
 30
0.0
 40
3.8006224999999989
  1
ケーブル径
 41
0.7
 11
-63.421705535992103
 21
344.22607288189158
 31
0.0
 73
     3
  0
TEXT
  5
56
  8
SPEC
 62
     7
 10
-63.200000000000003
 20
355.37391423204753
 30
0.0
 40
3.8006224999999989
  1
HDMI入出力端子
 41
0.7
 11
-63.200000000000003
 21
359.1745367320475
 31
0.0
 73
     3
  0
TEXT
  5
57
  8
SPEC
 62
     7
 10
-63.377744524891149
 20
347.87835460825733
 30
0.0
 40
3.8006224999999989
  1
ケーブル長
 41
0.7
 11
-63.377744524891149
 21
351.6789771082573
 31
0.0
 73
     3
  0
TEXT
  5
58
  8
SPEC
 62
     7
 10
-63.318476555827957
 20
370.4038495895698
 30
0.0
 40
3.8006224999999989
  1
対応ビデオアンプ帯域
 41
0.7
 11
-63.318476555827957
 21
374.20447208956978
 31
0.0
 73
     3
  0
TEXT
  5
59
  8
SPEC
 62
     7
 10
-63.200000000000003
 20
362.9038495895698
 30
0.0
 40
3.8006224999999989
  1
最大対応解像度
 41
0.7
 11
-63.200000000000003
 21
366.70447208956978
 31
0.0
 73
     3
  0
TEXT
  5
5A
  8
SPEC
 62
     7
 10
1.2865241641795671
 20
340.3266960627451
 30
0.0
 40
3.8006224999999989
  1
\U+03A67.5
 41
0.7
 11
1.2865241641795671
 21
344.12731856274507
 31
0.0
 73
     3
  0
TEXT
  5
5B
  8
SPEC
 62
     7
 10
1.887531375905467
 20
355.37025232771651
 30
0.0
 40
3.8006224999999989
  1
Type A、19pinオス
 41
0.7
 11
1.887531375905467
 21
359.17087482771637
 31
0.0
 73
     3
  0
TEXT
  5
5C
  8
SPEC
 62
     7
 10
1.914105741293425
 20
347.9978546746853
 30
0.0
 40
3.8006224999999989
  1
0.9m、1.8m、3.0m、4.5m
 41
0.7
 11
1.914105741293425
 21
351.79847717468522
 31
0.0
 73
     3
  0
TEXT
  5
5D
  8
SPEC
 62
     7
 10
1.682921491429439
 20
363.0174329799969
 30
0.0
 40
3.8006224999999989
  1
1080p/1920\U+00D71200
 41
0.7
 11
1.682921491429439
 21
366.81805547999687
 31
0.0
 73
     3
  0
TEXT
  5
5E
  8
SPEC
 62
     7
 10
1.799999999999996
 20
370.81012925142329
 30
0.0
 40
3.8006224999999989
  1
340MHz(HDMI1.3b Category 2)
 41
0.7
 11
1.7999999999999969
 21
374.61075175142332
 31
0.0
 73
     3
  0
TEXT
  5
5F
  8
SPEC
 62
     7
 10
1.896411771796763
 20
377.9559486175126
 30
0.0
 40
3.8006293402777769
  1
CAB-HDMI-LCK-RPシリーズ
 41
0.7
 11
1.896411771796763
 21
381.7565779577904
 31
0.0
 73
     3
  0
TEXT
  5
60
  8
DIMNSIONS
 62
     7
 10
60.0
 20
-91.929204999999968
 30
0.0
 40
4.8865234375000002
  1
(単位：mm)
 41
0.7
 11
60.0
 21
-87.042681562499979
 31
0.0
 73
     3
  0
LINE
  5
61
  8
DIMNSIONS
  6
CONTINUOUS
 62
     7
 10
206.25
 20
236.25
 30
0.0
 11
206.25
 21
1.25
 31
0.0
  0
ARC
  5
62
  8
DIMNSIONS
  6
CONTINUOUS
 62
     7
 10
186.25
 20
236.25
 30
0.0
 40
20.0
 50
0.0
 51
90.0
  0
LINE
  5
63
  8
DIMNSIONS
  6
CONTINUOUS
 62
     7
 10
-46.750000000000021
 20
31.050000000000011
 30
0.0
 11
-60.250000000000021
 21
31.050000000000011
 31
0.0
  0
LINE
  5
64
  8
DIMNSIONS
  6
CONTINUOUS
 62
     7
 10
-46.750000000000021
 20
52.449999999999989
 30
0.0
 11
-60.250000000000021
 21
52.449999999999989
 31
0.0
  0
LINE
  5
65
  8
DIMNSIONS
  6
CONTINUOUS
 62
     7
 10
-56.250000000000021
 20
31.050000000000011
 30
0.0
 11
-56.250000000000021
 21
12.08888888888888
 31
0.0
  0
LINE
  5
66
  8
DIMNSIONS
  6
CONTINUOUS
 62
     7
 10
-56.250000000000021
 20
31.050000000000011
 30
0.0
 11
-56.250000000000021
 21
52.449999999999989
 31
0.0
  0
LINE
  5
67
  8
DIMNSIONS
  6
CONTINUOUS
 62
     7
 10
-56.250000000000021
 20
31.050000000000011
 30
0.0
 11
-57.590079590300498
 21
36.051245117187513
 31
0.0
  0
LINE
  5
68
  8
DIMNSIONS
  6
CONTINUOUS
 62
     7
 10
-56.250000000000021
 20
31.050000000000011
 30
0.0
 11
-54.909920409699531
 21
36.051245117187513
 31
0.0
  0
LINE
  5
69
  8
DIMNSIONS
  6
CONTINUOUS
 62
     7
 10
-56.250000000000021
 20
52.449999999999989
 30
0.0
 11
-54.909920409699531
 21
47.448754882812501
 31
0.0
  0
LINE
  5
6A
  8
DIMNSIONS
  6
CONTINUOUS
 62
     7
 10
-56.250000000000021
 20
52.449999999999989
 30
0.0
 11
-57.590079590300498
 21
47.448754882812501
 31
0.0
  0
TEXT
  5
6B
  8
DIMNSIONS
 62
     7
 10
-58.237777777777772
 20
12.088888888888899
 30
0.0
 40
5.4294704861111107
  1
21.4
 50
90.0
 41
0.7
 11
-63.667248263888887
 21
12.088888888888899
 31
0.0
 73
     3
  0
LINE
  5
6C
  8
DIMNSIONS
  6
CONTINUOUS
 62
     7
 10
-12.5
 20
30.75
 30
0.0
 11
-12.5
 21
2.25
 31
0.0
  0
LINE
  5
6D
  8
DIMNSIONS
  6
CONTINUOUS
 62
     7
 10
36.5
 20
27.050000000000011
 30
0.0
 11
36.5
 21
2.25
 31
0.0
  0
LINE
  5
6E
  8
DIMNSIONS
  6
CONTINUOUS
 62
     7
 10
-12.5
 20
6.25
 30
0.0
 11
36.5
 21
6.25
 31
0.0
  0
LINE
  5
6F
  8
DIMNSIONS
  6
CONTINUOUS
 62
     7
 10
-12.5
 20
6.25
 30
0.0
 11
-7.4987548828125048
 21
7.5900795903004887
 31
0.0
  0
LINE
  5
70
  8
DIMNSIONS
  6
CONTINUOUS
 62
     7
 10
-12.5
 20
6.25
 30
0.0
 11
-7.4987548828125048
 21
4.9099204096995086
 31
0.0
  0
LINE
  5
71
  8
DIMNSIONS
  6
CONTINUOUS
 62
     7
 10
36.5
 20
6.25
 30
0.0
 11
31.498754882812509
 21
4.9099204096995086
 31
0.0
  0
LINE
  5
72
  8
DIMNSIONS
  6
CONTINUOUS
 62
     7
 10
36.5
 20
6.25
 30
0.0
 11
31.498754882812509
 21
7.5900795903004887
 31
0.0
  0
TEXT
  5
73
  8
DIMNSIONS
 62
     7
 10
8.4722222222222268
 20
8.2377777777777812
 30
0.0
 40
5.4294704861111107
  1
49
 41
0.7
 11
8.4722222222222268
 21
13.66724826388889
 31
0.0
 73
     3
  0
LINE
  5
74
  8
DIMNSIONS
  6
CONTINUOUS
 62
     7
 10
-12.5
 20
30.75
 30
0.0
 11
-12.5
 21
14.75
 31
0.0
  0
LINE
  5
75
  8
DIMNSIONS
  6
CONTINUOUS
 62
     7
 10
-3.5
 20
27.25
 30
0.0
 11
-3.5
 21
14.75
 31
0.0
  0
LINE
  5
76
  8
DIMNSIONS
  6
CONTINUOUS
 62
     7
 10
-3.5
 20
18.75
 30
0.0
 11
-12.5
 21
18.75
 31
0.0
  0
LINE
  5
77
  8
DIMNSIONS
  6
CONTINUOUS
 62
     7
 10
-12.5
 20
18.75
 30
0.0
 11
-22.5
 21
18.75
 31
0.0
  0
LINE
  5
78
  8
DIMNSIONS
  6
CONTINUOUS
 62
     7
 10
-12.5
 20
18.75
 30
0.0
 11
-17.501245117187491
 21
17.409920409699499
 31
0.0
  0
LINE
  5
79
  8
DIMNSIONS
  6
CONTINUOUS
 62
     7
 10
-12.5
 20
18.75
 30
0.0
 11
-17.501245117187491
 21
20.090079590300491
 31
0.0
  0
LINE
  5
7A
  8
DIMNSIONS
  6
CONTINUOUS
 62
     7
 10
-3.5
 20
18.75
 30
0.0
 11
6.5
 21
18.75
 31
0.0
  0
LINE
  5
7B
  8
DIMNSIONS
  6
CONTINUOUS
 62
     7
 10
-3.5
 20
18.75
 30
0.0
 11
1.5012451171874941
 21
20.090079590300491
 31
0.0
  0
LINE
  5
7C
  8
DIMNSIONS
  6
CONTINUOUS
 62
     7
 10
-3.5
 20
18.75
 30
0.0
 11
1.5012451171874941
 21
17.409920409699499
 31
0.0
  0
TEXT
  5
7D
  8
DIMNSIONS
 62
     7
 10
-9.7638888888888822
 20
20.737777777777769
 30
0.0
 40
5.4294704861111107
  1
9
 41
0.7
 11
-9.7638888888888822
 21
26.16724826388889
 31
0.0
 73
     3
  0
LINE
  5
7E
  8
DIMNSIONS
  6
CONTINUOUS
 62
     7
 10
-3.5
 20
27.25
 30
0.0
 11
-3.5
 21
-10.25
 31
0.0
  0
LINE
  5
7F
  8
DIMNSIONS
  6
CONTINUOUS
 62
     7
 10
50.399999999999999
 20
34.800000000000011
 30
0.0
 11
50.399999999999999
 21
-10.25
 31
0.0
  0
LINE
  5
80
  8
DIMNSIONS
  6
CONTINUOUS
 62
     7
 10
-3.5
 20
-6.25
 30
0.0
 11
50.399999999999999
 21
-6.25
 31
0.0
  0
LINE
  5
81
  8
DIMNSIONS
  6
CONTINUOUS
 62
     7
 10
-3.5
 20
-6.25
 30
0.0
 11
1.5012451171874941
 21
-4.9099204096995086
 31
0.0
  0
LINE
  5
82
  8
DIMNSIONS
  6
CONTINUOUS
 62
     7
 10
-3.5
 20
-6.25
 30
0.0
 11
1.5012451171874941
 21
-7.5900795903004887
 31
0.0
  0
LINE
  5
83
  8
DIMNSIONS
  6
CONTINUOUS
 62
     7
 10
50.399999999999999
 20
-6.25
 30
0.0
 11
45.39875488281249
 21
-7.5900795903004887
 31
0.0
  0
LINE
  5
84
  8
DIMNSIONS
  6
CONTINUOUS
 62
     7
 10
50.399999999999999
 20
-6.25
 30
0.0
 11
45.39875488281249
 21
-4.9099204096995086
 31
0.0
  0
TEXT
  5
85
  8
DIMNSIONS
 62
     7
 10
19.922222222222231
 20
-4.2622222222222463
 30
0.0
 40
5.4294704861111107
  1
54
 41
0.7
 11
19.922222222222231
 21
1.167248263888865
 31
0.0
 73
     3
  0
LINE
  5
86
  8
DIMNSIONS
  6
CONTINUOUS
 62
     7
 10
-3.5
 20
27.25
 30
0.0
 11
-3.5
 21
-22.75
 31
0.0
  0
LINE
  5
87
  8
DIMNSIONS
  6
CONTINUOUS
 62
     7
 10
-3.5
 20
-18.75
 30
0.0
 11
186.25
 21
-18.75
 31
0.0
  0
LINE
  5
88
  8
DIMNSIONS
  6
CONTINUOUS
 62
     7
 10
-3.5
 20
-18.75
 30
0.0
 11
1.5012451171874941
 21
-17.409920409699499
 31
0.0
  0
LINE
  5
89
  8
DIMNSIONS
  6
CONTINUOUS
 62
     7
 10
-3.5
 20
-18.75
 30
0.0
 11
1.5012451171874941
 21
-20.090079590300491
 31
0.0
  0
TEXT
  5
8A
  8
DIMNSIONS
 62
     7
 10
97.444444444444457
 20
-16.479833241294951
 30
0.0
 40
5.4294704861111107
  1
L=各長さ
 41
0.7
 11
97.444444444444457
 21
-11.050362755183841
 31
0.0
 73
     3
  0
LINE
  5
8B
  8
DIMNSIONS
  6
CONTINUOUS
 62
     7
 10
-3.5
 20
250.0
 30
0.0
 11
-3.5
 21
260.25
 31
0.0
  0
LINE
  5
8C
  8
DIMNSIONS
  6
CONTINUOUS
 62
     7
 10
-3.5
 20
256.25
 30
0.0
 11
186.25
 21
256.25
 31
0.0
  0
LINE
  5
8D
  8
DIMNSIONS
  6
CONTINUOUS
 62
     7
 10
-3.5
 20
256.25
 30
0.0
 11
1.5012451171874941
 21
257.59007959030049
 31
0.0
  0
LINE
  5
8E
  8
DIMNSIONS
  6
CONTINUOUS
 62
     7
 10
-3.5
 20
256.25
 30
0.0
 11
1.5012451171874941
 21
254.90992040969951
 31
0.0
  0
ARC
  5
8F
  8
DIMNSIONS
  6
CONTINUOUS
 62
     7
 10
186.25
 20
1.25
 30
0.0
 40
20.0
 50
270.0
 51
0.0
  0
LINE
  5
90
  8
DIMNSIONS
  6
CONTINUOUS
 62
     7
 10
72.75
 20
38.0
 30
0.0
 11
79.0
 21
38.0
 31
0.0
  0
LINE
  5
91
  8
DIMNSIONS
  6
CONTINUOUS
 62
     7
 10
72.75
 20
45.499999999999993
 30
0.0
 11
79.0
 21
45.499999999999993
 31
0.0
  0
LINE
  5
92
  8
DIMNSIONS
  6
CONTINUOUS
 62
     7
 10
75.0
 20
45.499999999999993
 30
0.0
 11
75.0
 21
38.0
 31
0.0
  0
LINE
  5
93
  8
DIMNSIONS
  6
CONTINUOUS
 62
     7
 10
75.0
 20
38.0
 30
0.0
 11
75.0
 21
28.0
 31
0.0
  0
LINE
  5
94
  8
DIMNSIONS
  6
CONTINUOUS
 62
     7
 10
75.0
 20
38.0
 30
0.0
 11
76.340079590300505
 21
32.998754882812513
 31
0.0
  0
LINE
  5
95
  8
DIMNSIONS
  6
CONTINUOUS
 62
     7
 10
75.0
 20
38.0
 30
0.0
 11
73.659920409699509
 21
32.998754882812513
 31
0.0
  0
LINE
  5
96
  8
DIMNSIONS
  6
CONTINUOUS
 62
     7
 10
75.0
 20
45.499999999999993
 30
0.0
 11
75.0
 21
73.888888888888872
 31
0.0
  0
LINE
  5
97
  8
DIMNSIONS
  6
CONTINUOUS
 62
     7
 10
75.0
 20
45.499999999999993
 30
0.0
 11
73.659920409699509
 21
50.501245117187487
 31
0.0
  0
LINE
  5
98
  8
DIMNSIONS
  6
CONTINUOUS
 62
     7
 10
75.0
 20
45.499999999999993
 30
0.0
 11
76.340079590300505
 21
50.501245117187487
 31
0.0
  0
TEXT
  5
99
  8
DIMNSIONS
 62
     7
 10
73.012222222222221
 20
56.25
 30
0.0
 40
5.4294704861111107
  1
\U+03A67.5
 50
90.0
 41
0.7
 11
67.582751736111106
 21
56.25
 31
0.0
 73
     3
  0
LINE
  5
9A
  8
DIMNSIONS
  6
CONTINUOUS
 62
     7
 10
-43.750000000000021
 20
28.25
 30
0.0
 11
-43.750000000000021
 21
2.25
 31
0.0
  0
LINE
  5
9B
  8
DIMNSIONS
  6
CONTINUOUS
 62
     7
 10
-23.772628006671528
 20
35.20000000000001
 30
0.0
 11
-23.772628006671528
 21
2.25
 31
0.0
  0
LINE
  5
9C
  8
DIMNSIONS
  6
CONTINUOUS
 62
     7
 10
-43.750000000000021
 20
6.25
 30
0.0
 11
-23.772628006671528
 21
6.25
 31
0.0
  0
LINE
  5
9D
  8
DIMNSIONS
  6
CONTINUOUS
 62
     7
 10
-43.750000000000021
 20
6.25
 30
0.0
 11
-38.748754882812527
 21
7.5900795903004887
 31
0.0
  0
LINE
  5
9E
  8
DIMNSIONS
  6
CONTINUOUS
 62
     7
 10
-43.750000000000021
 20
6.25
 30
0.0
 11
-38.748754882812527
 21
4.9099204096995086
 31
0.0
  0
LINE
  5
9F
  8
DIMNSIONS
  6
CONTINUOUS
 62
     7
 10
-23.772628006671528
 20
6.25
 30
0.0
 11
-28.773873123859051
 21
4.9099204096995086
 31
0.0
  0
LINE
  5
A0
  8
DIMNSIONS
  6
CONTINUOUS
 62
     7
 10
-23.772628006671528
 20
6.25
 30
0.0
 11
-28.773873123859051
 21
7.5900795903004887
 31
0.0
  0
TEXT
  5
A1
  8
DIMNSIONS
 62
     7
 10
-37.289091781113569
 20
8.2377777777777812
 30
0.0
 40
5.4294704861111107
  1
20
 41
0.7
 11
-37.289091781113569
 21
13.66724826388889
 31
0.0
 73
     3
  0
LINE
  5
A2
  8
DIMNSIONS
  6
CONTINUOUS
 62
     7
 10
-22.050000000000011
 20
46.0
 30
0.0
 11
-14.75
 21
46.0
 31
0.0
  0
LINE
  5
A3
  8
DIMNSIONS
  6
CONTINUOUS
 62
     7
 10
-29.829999999999998
 20
52.25
 30
0.0
 11
-14.75
 21
52.25
 31
0.0
  0
LINE
  5
A4
  8
DIMNSIONS
  6
CONTINUOUS
 62
     7
 10
-18.75
 20
52.25
 30
0.0
 11
-18.75
 21
46.0
 31
0.0
  0
LINE
  5
A5
  8
DIMNSIONS
  6
CONTINUOUS
 62
     7
 10
-18.75
 20
46.0
 30
0.0
 11
-18.75
 21
36.0
 31
0.0
  0
LINE
  5
A6
  8
DIMNSIONS
  6
CONTINUOUS
 62
     7
 10
-18.75
 20
46.0
 30
0.0
 11
-17.409920409699499
 21
40.998754882812513
 31
0.0
  0
LINE
  5
A7
  8
DIMNSIONS
  6
CONTINUOUS
 62
     7
 10
-18.75
 20
46.0
 30
0.0
 11
-20.090079590300491
 21
40.998754882812513
 31
0.0
  0
LINE
  5
A8
  8
DIMNSIONS
  6
CONTINUOUS
 62
     7
 10
-18.75
 20
52.25
 30
0.0
 11
-18.75
 21
64.12777777777778
 31
0.0
  0
LINE
  5
A9
  8
DIMNSIONS
  6
CONTINUOUS
 62
     7
 10
-18.75
 20
52.25
 30
0.0
 11
-20.090079590300491
 21
57.251245117187487
 31
0.0
  0
LINE
  5
AA
  8
DIMNSIONS
  6
CONTINUOUS
 62
     7
 10
-18.75
 20
52.25
 30
0.0
 11
-17.409920409699499
 21
57.251245117187487
 31
0.0
  0
TEXT
  5
AB
  8
DIMNSIONS
 62
     7
 10
-20.737777777777769
 20
60.600000000000009
 30
0.0
 40
5.4294704861111107
  1
6
 50
90.0
 41
0.7
 11
-26.167248263888879
 21
60.600000000000009
 31
0.0
 73
     3
  0
LINE
  5
AC
  8
DIMNSIONS
  6
CONTINUOUS
 62
     7
 10
-32.750000000000007
 20
28.050000000000011
 30
0.0
 11
-32.750000000000007
 21
14.75
 31
0.0
  0
LINE
  5
AD
  8
DIMNSIONS
  6
CONTINUOUS
 62
     7
 10
-23.750000000000011
 20
35.5
 30
0.0
 11
-23.750000000000011
 21
14.75
 31
0.0
  0
LINE
  5
AE
  8
DIMNSIONS
  6
CONTINUOUS
 62
     7
 10
-23.750000000000011
 20
18.75
 30
0.0
 11
-32.750000000000007
 21
18.75
 31
0.0
  0
LINE
  5
AF
  8
DIMNSIONS
  6
CONTINUOUS
 62
     7
 10
-32.750000000000007
 20
18.75
 30
0.0
 11
-42.750000000000007
 21
18.75
 31
0.0
  0
LINE
  5
B0
  8
DIMNSIONS
  6
CONTINUOUS
 62
     7
 10
-32.750000000000007
 20
18.75
 30
0.0
 11
-37.751245117187509
 21
17.409920409699499
 31
0.0
  0
LINE
  5
B1
  8
DIMNSIONS
  6
CONTINUOUS
 62
     7
 10
-32.750000000000007
 20
18.75
 30
0.0
 11
-37.751245117187509
 21
20.090079590300491
 31
0.0
  0
LINE
  5
B2
  8
DIMNSIONS
  6
CONTINUOUS
 62
     7
 10
-23.750000000000011
 20
18.75
 30
0.0
 11
-13.750000000000011
 21
18.75
 31
0.0
  0
LINE
  5
B3
  8
DIMNSIONS
  6
CONTINUOUS
 62
     7
 10
-23.750000000000011
 20
18.75
 30
0.0
 11
-18.74875488281252
 21
20.090079590300491
 31
0.0
  0
LINE
  5
B4
  8
DIMNSIONS
  6
CONTINUOUS
 62
     7
 10
-23.750000000000011
 20
18.75
 30
0.0
 11
-18.74875488281252
 21
17.409920409699499
 31
0.0
  0
TEXT
  5
B5
  8
DIMNSIONS
 62
     7
 10
-30.0138888888889
 20
20.737777777777769
 30
0.0
 40
5.4294704861111107
  1
9
 41
0.7
 11
-30.0138888888889
 21
26.16724826388889
 31
0.0
 73
     3
  0
LINE
  5
B6
  8
DIMNSIONS
  6
CONTINUOUS
 62
     7
 10
-47.099503126949728
 20
33.164934835567507
 30
0.0
 11
-73.247270466145949
 21
46.021382639508019
 31
0.0
  0
LINE
  5
B7
  8
DIMNSIONS
  6
CONTINUOUS
 62
     7
 10
-36.89833521038075
 20
53.91232706538419
 30
0.0
 11
-63.046102549577007
 21
66.768774869324702
 31
0.0
  0
LINE
  5
B8
  8
DIMNSIONS
  6
CONTINUOUS
 62
     7
 10
-69.657701546874435
 20
44.256447803940517
 30
0.0
 11
-59.456533630305472
 21
65.0038400337572
 31
0.0
  0
LINE
  5
B9
  8
DIMNSIONS
  6
CONTINUOUS
 62
     7
 10
-69.657701546874435
 20
44.256447803940517
 30
0.0
 11
-68.581203434691929
 21
49.320973235311101
 31
0.0
  0
LINE
  5
BA
  8
DIMNSIONS
  6
CONTINUOUS
 62
     7
 10
-69.657701546874435
 20
44.256447803940517
 30
0.0
 11
-66.193164118913117
 21
48.104206429528517
 31
0.0
  0
LINE
  5
BB
  8
DIMNSIONS
  6
CONTINUOUS
 62
     7
 10
-59.456533630305472
 20
65.0038400337572
 30
0.0
 11
-60.444479630371113
 21
59.921298471557627
 31
0.0
  0
LINE
  5
BC
  8
DIMNSIONS
  6
CONTINUOUS
 62
     7
 10
-59.456533630305472
 20
65.0038400337572
 30
0.0
 11
-62.853390745029323
 21
61.096202925134961
 31
0.0
  0
TEXT
  5
BD
  8
DIMNSIONS
 62
     7
 10
-69.454082867042857
 20
49.175617747586628
 30
0.0
 40
5.4294704861111107
  1
22.5
 50
63.817376860729979
 41
0.7
 11
-74.326447493304514
 21
51.571283147492409
 31
0.0
 73
     3
  0
LINE
  5
BE
  8
DATA
  6
CONTINUOUS
 62
     7
 10
-43.750000000000021
 20
51.449999999999989
 30
0.0
 11
-43.750000000000021
 21
32.050000000000011
 31
0.0
  0
LINE
  5
BF
  8
DATA
  6
CONTINUOUS
 62
     7
 10
-42.750000000000007
 20
31.25
 30
0.0
 11
-33.750000000000007
 21
31.25
 31
0.0
  0
LINE
  5
C0
  8
DATA
  6
CONTINUOUS
 62
     7
 10
-42.750000000000007
 20
52.25
 30
0.0
 11
-33.750000000000007
 21
52.25
 31
0.0
  0
LINE
  5
C1
  8
DATA
  6
CONTINUOUS
 62
     7
 10
-23.750000000000011
 20
44.0
 30
0.0
 11
-23.750000000000011
 21
39.5
 31
0.0
  0
LINE
  5
C2
  8
DATA
  6
CONTINUOUS
 62
     7
 10
-40.750000000000007
 20
46.25
 30
0.0
 11
-40.750000000000007
 21
37.25
 31
0.0
  0
LINE
  5
C3
  8
DATA
  6
CONTINUOUS
 62
     7
 10
-36.250000000000021
 20
48.75
 30
0.0
 11
-36.250000000000021
 21
34.75
 31
0.0
  0
LINE
  5
C4
  8
DATA
  6
CONTINUOUS
 62
     7
 10
-39.150000000000027
 20
48.75
 30
0.0
 11
-39.150000000000027
 21
47.75
 31
0.0
  0
LINE
  5
C5
  8
DATA
  6
CONTINUOUS
 62
     7
 10
-39.150000000000027
 20
35.75
 30
0.0
 11
-39.150000000000027
 21
34.75
 31
0.0
  0
LINE
  5
C6
  8
DATA
  6
CONTINUOUS
 62
     7
 10
-36.250000000000021
 20
48.75
 30
0.0
 11
-39.150000000000027
 21
48.75
 31
0.0
  0
LINE
  5
C7
  8
DATA
  6
CONTINUOUS
 62
     7
 10
-36.250000000000021
 20
34.75
 30
0.0
 11
-39.150000000000027
 21
34.75
 31
0.0
  0
LINE
  5
C8
  8
DATA
  6
CONTINUOUS
 62
     7
 10
-40.750000000000007
 20
46.25
 30
0.0
 11
-39.150000000000027
 21
47.75
 31
0.0
  0
LINE
  5
C9
  8
DATA
  6
CONTINUOUS
 62
     7
 10
-40.750000000000007
 20
37.25
 30
0.0
 11
-39.150000000000027
 21
35.75
 31
0.0
  0
LINE
  5
CA
  8
DATA
  6
CONTINUOUS
 62
     7
 10
-25.750000000000011
 20
37.5
 30
0.0
 11
-32.750000000000007
 21
37.5
 31
0.0
  0
LINE
  5
CB
  8
DATA
  6
CONTINUOUS
 62
     7
 10
-32.750000000000007
 20
46.0
 30
0.0
 11
-25.750000000000011
 21
46.0
 31
0.0
  0
LINE
  5
CC
  8
DATA
  6
CONTINUOUS
 62
     7
 10
-32.750000000000007
 20
46.0
 30
0.0
 11
-32.750000000000007
 21
51.449999999999989
 31
0.0
  0
LINE
  5
CD
  8
DATA
  6
CONTINUOUS
 62
     7
 10
-32.750000000000007
 20
32.050000000000011
 30
0.0
 11
-32.750000000000007
 21
37.5
 31
0.0
  0
CIRCLE
  5
CE
  8
DATA
  6
CONTINUOUS
 62
     7
 10
-28.050000000000029
 20
41.749999999999993
 30
0.0
 40
2.9000000000000048
  0
CIRCLE
  5
CF
  8
DATA
  6
CONTINUOUS
 62
     7
 10
-28.050000000000029
 20
41.749999999999993
 30
0.0
 40
1.0
  0
ARC
  5
D0
  8
DATA
  6
CONTINUOUS
 62
     7
 10
-42.750000000000007
 20
51.25
 30
0.0
 40
1.0
 50
90.0
 51
180.0
  0
ARC
  5
D1
  8
DATA
  6
CONTINUOUS
 62
     7
 10
-42.750000000000007
 20
32.25
 30
0.0
 40
1.0
 50
180.0
 51
270.0
  0
ARC
  5
D2
  8
DATA
  6
CONTINUOUS
 62
     7
 10
-33.750000000000007
 20
51.25
 30
0.0
 40
1.0
 50
0.0
 51
90.0
  0
ARC
  5
D3
  8
DATA
  6
CONTINUOUS
 62
     7
 10
-33.750000000000007
 20
32.25
 30
0.0
 40
1.0
 50
270.0
 51
0.0
  0
ARC
  5
D4
  8
DATA
  6
CONTINUOUS
 62
     7
 10
-25.750000000000011
 20
44.0
 30
0.0
 40
2.0
 50
0.0
 51
90.0
  0
ARC
  5
D5
  8
DATA
  6
CONTINUOUS
 62
     7
 10
-25.750000000000011
 20
39.5
 30
0.0
 40
2.0
 50
270.0
 51
0.0
  0
LINE
  5
D6
  8
DATA
  6
CONTINUOUS
 62
     7
 10
-37.810000000000016
 20
48.610000000000021
 30
0.0
 11
-37.810000000000016
 21
34.889999999999993
 31
0.0
  0
LINE
  5
D7
  8
DATA
  6
CONTINUOUS
 62
     7
 10
-39.010000000000012
 20
47.630000000000003
 30
0.0
 11
-39.010000000000012
 21
35.870000000000012
 31
0.0
  0
LINE
  5
D8
  8
DATA
  6
CONTINUOUS
 62
     7
 10
-37.810000000000016
 20
48.610000000000021
 30
0.0
 11
-38.410000000000011
 21
48.610000000000021
 31
0.0
  0
LINE
  5
D9
  8
DATA
  6
CONTINUOUS
 62
     7
 10
-39.010000000000012
 20
47.630000000000003
 30
0.0
 11
-38.410000000000011
 21
48.610000000000021
 31
0.0
  0
LINE
  5
DA
  8
DATA
  6
CONTINUOUS
 62
     7
 10
-37.810000000000016
 20
34.889999999999993
 30
0.0
 11
-38.410000000000011
 21
34.889999999999993
 31
0.0
  0
LINE
  5
DB
  8
DATA
  6
CONTINUOUS
 62
     7
 10
-39.010000000000012
 20
35.870000000000012
 30
0.0
 11
-38.410000000000011
 21
34.889999999999993
 31
0.0
  0
LINE
  5
DC
  8
DATA
  6
CONTINUOUS
 62
     7
 10
-42.750000000000007
 20
52.449999999999989
 30
0.0
 11
-33.750000000000007
 21
52.449999999999989
 31
0.0
  0
LINE
  5
DD
  8
DATA
  6
CONTINUOUS
 62
     7
 10
-33.750000000000007
 20
31.050000000000011
 30
0.0
 11
-42.750000000000007
 21
31.050000000000011
 31
0.0
  0
ARC
  5
DE
  8
DATA
  6
CONTINUOUS
 62
     7
 10
-42.750000000000007
 20
51.449999999999989
 30
0.0
 40
1.0
 50
90.0
 51
180.0
  0
ARC
  5
DF
  8
DATA
  6
CONTINUOUS
 62
     7
 10
-33.750000000000007
 20
51.449999999999989
 30
0.0
 40
1.0
 50
0.0
 51
90.0
  0
ARC
  5
E0
  8
DATA
  6
CONTINUOUS
 62
     7
 10
-42.750000000000007
 20
32.050000000000011
 30
0.0
 40
1.0
 50
180.0
 51
270.0
  0
ARC
  5
E1
  8
DATA
  6
CONTINUOUS
 62
     7
 10
-33.750000000000007
 20
32.050000000000011
 30
0.0
 40
1.0
 50
270.0
 51
0.0
  0
LINE
  5
E2
  8
DATA
  6
CONTINUOUS
 62
     7
 10
-12.5
 20
34.75
 30
0.0
 11
-12.5
 21
48.75
 31
0.0
  0
LINE
  5
E3
  8
DATA
  6
CONTINUOUS
 62
     7
 10
12.283730756853551
 20
52.449999999999989
 30
0.0
 11
17.472775667357642
 21
52.449999999999989
 31
0.0
  0
LINE
  5
E4
  8
DATA
  6
CONTINUOUS
 62
     7
 10
-3.5
 20
31.25
 30
0.0
 11
-3.5
 21
52.25
 31
0.0
  0
LINE
  5
E5
  8
DATA
  6
CONTINUOUS
 62
     7
 10
-12.5
 20
48.75
 30
0.0
 11
-3.5
 21
48.75
 31
0.0
  0
LINE
  5
E6
  8
DATA
  6
CONTINUOUS
 62
     7
 10
-3.5
 20
34.75
 30
0.0
 11
-12.5
 21
34.75
 31
0.0
  0
LINE
  5
E7
  8
DATA
  6
CONTINUOUS
 62
     7
 10
19.493901344228039
 20
31.309518684326211
 30
0.0
 11
36.5
 21
35.75
 31
0.0
  0
LINE
  5
E8
  8
DATA
  6
CONTINUOUS
 62
     7
 10
36.5
 20
47.75
 30
0.0
 11
19.493901344228021
 21
52.1904813156738
 31
0.0
  0
ARC
  5
E9
  8
DATA
  6
CONTINUOUS
 62
     7
 10
3.3778873239436682
 20
107.23056338028481
 30
0.0
 40
55.409093871442991
 50
262.86952816440328
 51
278.07391967230529
  0
ARC
  5
EA
  8
DATA
  6
CONTINUOUS
 62
     7
 10
17.472775667357649
 20
44.449999999999989
 30
0.0
 40
7.9999999999999982
 50
75.36616902843393
 51
90.000000000000114
  0
ARC
  5
EB
  8
DATA
  6
CONTINUOUS
 62
     7
 10
12.283730756853551
 20
44.450000000003442
 30
0.0
 40
7.9999999999965299
 50
90.0
 51
98.073919672308733
  0
LINE
  5
EC
  8
DATA
  6
CONTINUOUS
 62
     7
 10
12.283730756853551
 20
31.050000000000011
 30
0.0
 11
17.472775667357642
 21
31.050000000000011
 31
0.0
  0
ARC
  5
ED
  8
DATA
  6
CONTINUOUS
 62
     7
 10
3.3778873239436682
 20
-23.730563380284821
 30
0.0
 40
55.409093871442998
 50
81.926080327694748
 51
97.130471835596708
  0
ARC
  5
EE
  8
DATA
  6
CONTINUOUS
 62
     7
 10
17.472775667357649
 20
39.050000000000011
 30
0.0
 40
8.0
 50
269.99999999999989
 51
284.633830971566
  0
ARC
  5
EF
  8
DATA
  6
CONTINUOUS
 62
     7
 10
12.283730756853551
 20
39.049999999996551
 30
0.0
 40
7.9999999999965157
 50
261.9260803276913
 51
270.0
  0
LINE
  5
F0
  8
DATA
  6
CONTINUOUS
 62
     7
 10
-3.5
 20
46.0
 30
0.0
 11
3.5
 21
46.0
 31
0.0
  0
LINE
  5
F1
  8
DATA
  6
CONTINUOUS
 62
     7
 10
-3.5
 20
37.5
 30
0.0
 11
3.5
 21
37.5
 31
0.0
  0
LINE
  5
F2
  8
DATA
  6
CONTINUOUS
 62
     7
 10
3.5
 20
37.5
 30
0.0
 11
3.5
 21
46.0
 31
0.0
  0
LINE
  5
F3
  8
DATA
  6
CONTINUOUS
 62
     7
 10
23.800000000000001
 20
38.550000000000011
 30
0.0
 11
3.5000000000000142
 21
38.550000000000011
 31
0.0
  0
LINE
  5
F4
  8
DATA
  6
CONTINUOUS
 62
     7
 10
3.5000000000000142
 20
44.949999999999989
 30
0.0
 11
23.800000000000001
 21
44.949999999999989
 31
0.0
  0
LINE
  5
F5
  8
DATA
  6
CONTINUOUS
 62
     7
 10
23.800000000000001
 20
38.550000000000011
 30
0.0
 11
23.800000000000001
 21
44.949999999999989
 31
0.0
  0
LINE
  5
F6
  8
DATA
  6
CONTINUOUS
 62
     7
 10
28.800000000000001
 20
37.949999999999989
 30
0.0
 11
28.800000000000001
 21
45.550000000000011
 31
0.0
  0
LINE
  5
F7
  8
DATA
  6
CONTINUOUS
 62
     7
 10
23.800000000000001
 20
43.75
 30
0.0
 11
28.800000000000001
 21
43.75
 31
0.0
  0
LINE
  5
F8
  8
DATA
  6
CONTINUOUS
 62
     7
 10
28.800000000000001
 20
39.75
 30
0.0
 11
23.800000000000001
 21
39.75
 31
0.0
  0
LINE
  5
F9
  8
DATA
  6
CONTINUOUS
 62
     7
 10
50.399999999999999
 20
38.800000000000011
 30
0.0
 11
50.399999999999999
 21
40.799999999999997
 31
0.0
  0
LINE
  5
FA
  8
DATA
  6
CONTINUOUS
 62
     7
 10
50.399999999999999
 20
42.699999999999982
 30
0.0
 11
50.399999999999999
 21
44.699999999999982
 31
0.0
  0
LINE
  5
FB
  8
DATA
  6
CONTINUOUS
 62
     7
 10
28.800000000000001
 20
45.550000000000011
 30
0.0
 11
50.399999999999999
 21
44.699999999999982
 31
0.0
  0
LINE
  5
FC
  8
DATA
  6
CONTINUOUS
 62
     7
 10
50.399999999999999
 20
38.800000000000011
 30
0.0
 11
28.800000000000001
 21
37.949999999999989
 31
0.0
  0
LINE
  5
FD
  8
DATA
  6
CONTINUOUS
 62
     7
 10
47.899999999999999
 20
40.799999999999997
 30
0.0
 11
47.899999999999999
 21
42.699999999999982
 31
0.0
  0
LINE
  5
FE
  8
DATA
  6
CONTINUOUS
 62
     7
 10
47.899999999999999
 20
42.699999999999982
 30
0.0
 11
50.399999999999999
 21
42.699999999999982
 31
0.0
  0
LINE
  5
FF
  8
DATA
  6
CONTINUOUS
 62
     7
 10
50.399999999999999
 20
40.799999999999997
 30
0.0
 11
47.899999999999999
 21
40.799999999999997
 31
0.0
  0
LINE
  5
100
  8
DATA
  6
CONTINUOUS
 62
     7
 10
28.800000000000001
 20
45.050000000000011
 30
0.0
 11
41.505882352940453
 21
45.050000000000011
 31
0.0
  0
LINE
  5
101
  8
DATA
  6
CONTINUOUS
 62
     7
 10
28.800000000000001
 20
44.250000000000021
 30
0.0
 11
50.399999999999999
 21
44.250000000000021
 31
0.0
  0
LINE
  5
102
  8
DATA
  6
CONTINUOUS
 62
     7
 10
28.800000000000001
 20
43.450000000000053
 30
0.0
 11
50.399999999999999
 21
43.450000000000053
 31
0.0
  0
LINE
  5
103
  8
DATA
  6
CONTINUOUS
 62
     7
 10
28.800000000000001
 20
42.650000000000027
 30
0.0
 11
47.899999999999999
 21
42.650000000000027
 31
0.0
  0
LINE
  5
104
  8
DATA
  6
CONTINUOUS
 62
     7
 10
28.800000000000001
 20
41.850000000000009
 30
0.0
 11
47.899999999999999
 21
41.850000000000009
 31
0.0
  0
LINE
  5
105
  8
DATA
  6
CONTINUOUS
 62
     7
 10
28.800000000000001
 20
41.050000000000011
 30
0.0
 11
47.899999999999999
 21
41.050000000000011
 31
0.0
  0
LINE
  5
106
  8
DATA
  6
CONTINUOUS
 62
     7
 10
28.800000000000001
 20
40.250000000000021
 30
0.0
 11
50.399999999999999
 21
40.250000000000021
 31
0.0
  0
LINE
  5
107
  8
DATA
  6
CONTINUOUS
 62
     7
 10
28.800000000000001
 20
39.450000000000053
 30
0.0
 11
50.399999999999999
 21
39.450000000000053
 31
0.0
  0
LINE
  5
108
  8
DATA
  6
CONTINUOUS
 62
     7
 10
28.800000000000001
 20
38.650000000000041
 30
0.0
 11
46.5882352941181
 21
38.650000000000041
 31
0.0
  0
LINE
  5
109
  8
DATA
  6
CONTINUOUS
 62
     7
 10
168.75
 20
38.0
 30
0.0
 11
36.499999999999993
 21
38.0
 31
0.0
  0
LINE
  5
10A
  8
DATA
  6
CONTINUOUS
 62
     7
 10
36.5
 20
45.499999999999993
 30
0.0
 11
161.25
 21
45.499999999999993
 31
0.0
  0
TEXT
  5
10B
  8
DATA
 62
     7
 10
193.7602991444264
 20
-85.368738135909112
 30
0.0
 40
3.2576822916666659
  1
HDMIケーブル
 41
0.7
 11
193.7602991444264
 21
-82.111055844242429
 31
0.0
 73
     3
  0
TEXT
  5
10C
  8
DATA
 62
     7
 10
-60.0
 20
-107.99218500000001
 30
0.0
 40
3.2576822916666659
  1
仕様および外観は予告なく変更されることがありますので、ご了承ください。
 41
0.7
 11
-60.0
 21
-104.7345027083333
 31
0.0
 73
     3
  0
TEXT
  5
10D
  8
DATA
 62
     7
 10
198.4331660823587
 20
-111.6729964941525
 30
0.0
 40
3.2576822916666659
  1
T.Ootake
 41
0.7
 11
198.4331660823587
 21
-108.4153142024858
 31
0.0
 73
     3
  0
TEXT
  5
10E
  8
DATA
 62
     7
 10
188.83783214851471
 20
-93.550862495037109
 30
0.0
 40
4.8865234375000002
  1
CAB-HDMI-LCK-RPシリーズ
 41
0.7
 11
188.83783214851471
 21
-88.66433905753712
 31
0.0
 73
     3
  0
LINE
  5
10F
  8
DATA
  6
CONTINUOUS
 62
     7
 10
-43.750000000000021
 20
245.19999999999999
 30
0.0
 11
-43.750000000000021
 21
225.80000000000001
 31
0.0
  0
LINE
  5
110
  8
DATA
  6
CONTINUOUS
 62
     7
 10
-42.750000000000007
 20
225.0
 30
0.0
 11
-33.750000000000007
 21
225.0
 31
0.0
  0
LINE
  5
111
  8
DATA
  6
CONTINUOUS
 62
     7
 10
-42.750000000000007
 20
246.0
 30
0.0
 11
-33.750000000000007
 21
246.0
 31
0.0
  0
LINE
  5
112
  8
DATA
  6
CONTINUOUS
 62
     7
 10
-23.750000000000011
 20
237.75
 30
0.0
 11
-23.750000000000011
 21
233.25
 31
0.0
  0
LINE
  5
113
  8
DATA
  6
CONTINUOUS
 62
     7
 10
-40.750000000000007
 20
240.0
 30
0.0
 11
-40.750000000000007
 21
231.0
 31
0.0
  0
LINE
  5
114
  8
DATA
  6
CONTINUOUS
 62
     7
 10
-36.250000000000021
 20
242.5
 30
0.0
 11
-36.250000000000021
 21
228.5
 31
0.0
  0
LINE
  5
115
  8
DATA
  6
CONTINUOUS
 62
     7
 10
-39.150000000000027
 20
242.5
 30
0.0
 11
-39.150000000000027
 21
241.5
 31
0.0
  0
LINE
  5
116
  8
DATA
  6
CONTINUOUS
 62
     7
 10
-39.150000000000027
 20
229.5
 30
0.0
 11
-39.150000000000027
 21
228.5
 31
0.0
  0
LINE
  5
117
  8
DATA
  6
CONTINUOUS
 62
     7
 10
-36.250000000000021
 20
242.5
 30
0.0
 11
-39.150000000000027
 21
242.5
 31
0.0
  0
LINE
  5
118
  8
DATA
  6
CONTINUOUS
 62
     7
 10
-36.250000000000021
 20
228.5
 30
0.0
 11
-39.150000000000027
 21
228.5
 31
0.0
  0
LINE
  5
119
  8
DATA
  6
CONTINUOUS
 62
     7
 10
-40.750000000000007
 20
240.0
 30
0.0
 11
-39.150000000000027
 21
241.5
 31
0.0
  0
LINE
  5
11A
  8
DATA
  6
CONTINUOUS
 62
     7
 10
-40.750000000000007
 20
231.0
 30
0.0
 11
-39.150000000000027
 21
229.5
 31
0.0
  0
LINE
  5
11B
  8
DATA
  6
CONTINUOUS
 62
     7
 10
-25.750000000000011
 20
231.25
 30
0.0
 11
-32.750000000000007
 21
231.25
 31
0.0
  0
LINE
  5
11C
  8
DATA
  6
CONTINUOUS
 62
     7
 10
-32.750000000000007
 20
239.75
 30
0.0
 11
-25.750000000000011
 21
239.75
 31
0.0
  0
LINE
  5
11D
  8
DATA
  6
CONTINUOUS
 62
     7
 10
-32.750000000000007
 20
239.75
 30
0.0
 11
-32.750000000000007
 21
245.19999999999999
 31
0.0
  0
LINE
  5
11E
  8
DATA
  6
CONTINUOUS
 62
     7
 10
-32.750000000000007
 20
225.80000000000001
 30
0.0
 11
-32.750000000000007
 21
231.25
 31
0.0
  0
CIRCLE
  5
11F
  8
DATA
  6
CONTINUOUS
 62
     7
 10
-28.050000000000029
 20
235.5
 30
0.0
 40
2.9000000000000048
  0
CIRCLE
  5
120
  8
DATA
  6
CONTINUOUS
 62
     7
 10
-28.050000000000029
 20
235.5
 30
0.0
 40
1.0
  0
ARC
  5
121
  8
DATA
  6
CONTINUOUS
 62
     7
 10
-42.750000000000007
 20
245.0
 30
0.0
 40
1.0
 50
90.0
 51
180.0
  0
ARC
  5
122
  8
DATA
  6
CONTINUOUS
 62
     7
 10
-42.750000000000007
 20
226.0
 30
0.0
 40
1.0
 50
180.0
 51
270.0
  0
ARC
  5
123
  8
DATA
  6
CONTINUOUS
 62
     7
 10
-33.750000000000007
 20
245.0
 30
0.0
 40
1.0
 50
0.0
 51
90.0
  0
ARC
  5
124
  8
DATA
  6
CONTINUOUS
 62
     7
 10
-33.750000000000007
 20
226.0
 30
0.0
 40
1.0
 50
270.0
 51
0.0
  0
ARC
  5
125
  8
DATA
  6
CONTINUOUS
 62
     7
 10
-25.750000000000011
 20
237.75
 30
0.0
 40
2.0
 50
0.0
 51
90.0
  0
ARC
  5
126
  8
DATA
  6
CONTINUOUS
 62
     7
 10
-25.750000000000011
 20
233.25
 30
0.0
 40
2.0
 50
270.0
 51
0.0
  0
LINE
  5
127
  8
DATA
  6
CONTINUOUS
 62
     7
 10
-37.810000000000016
 20
242.36000000000001
 30
0.0
 11
-37.810000000000016
 21
228.63999999999999
 31
0.0
  0
LINE
  5
128
  8
DATA
  6
CONTINUOUS
 62
     7
 10
-39.010000000000012
 20
241.38
 30
0.0
 11
-39.010000000000012
 21
229.62
 31
0.0
  0
LINE
  5
129
  8
DATA
  6
CONTINUOUS
 62
     7
 10
-37.810000000000016
 20
242.36000000000001
 30
0.0
 11
-38.410000000000011
 21
242.36000000000001
 31
0.0
  0
LINE
  5
12A
  8
DATA
  6
CONTINUOUS
 62
     7
 10
-39.010000000000012
 20
241.38
 30
0.0
 11
-38.410000000000011
 21
242.36000000000001
 31
0.0
  0
LINE
  5
12B
  8
DATA
  6
CONTINUOUS
 62
     7
 10
-37.810000000000016
 20
228.63999999999999
 30
0.0
 11
-38.410000000000011
 21
228.63999999999999
 31
0.0
  0
LINE
  5
12C
  8
DATA
  6
CONTINUOUS
 62
     7
 10
-39.010000000000012
 20
229.62
 30
0.0
 11
-38.410000000000011
 21
228.63999999999999
 31
0.0
  0
LINE
  5
12D
  8
DATA
  6
CONTINUOUS
 62
     7
 10
-42.750000000000007
 20
246.19999999999999
 30
0.0
 11
-33.750000000000007
 21
246.19999999999999
 31
0.0
  0
LINE
  5
12E
  8
DATA
  6
CONTINUOUS
 62
     7
 10
-33.750000000000007
 20
224.80000000000001
 30
0.0
 11
-42.750000000000007
 21
224.80000000000001
 31
0.0
  0
ARC
  5
12F
  8
DATA
  6
CONTINUOUS
 62
     7
 10
-42.750000000000007
 20
245.19999999999999
 30
0.0
 40
1.0
 50
90.0
 51
180.0
  0
ARC
  5
130
  8
DATA
  6
CONTINUOUS
 62
     7
 10
-33.750000000000007
 20
245.19999999999999
 30
0.0
 40
1.0
 50
0.0
 51
90.0
  0
ARC
  5
131
  8
DATA
  6
CONTINUOUS
 62
     7
 10
-42.750000000000007
 20
225.80000000000001
 30
0.0
 40
1.0
 50
180.0
 51
270.0
  0
ARC
  5
132
  8
DATA
  6
CONTINUOUS
 62
     7
 10
-33.750000000000007
 20
225.80000000000001
 30
0.0
 40
1.0
 50
270.0
 51
0.0
  0
LINE
  5
133
  8
DATA
  6
CONTINUOUS
 62
     7
 10
-12.5
 20
228.5
 30
0.0
 11
-12.5
 21
242.5
 31
0.0
  0
LINE
  5
134
  8
DATA
  6
CONTINUOUS
 62
     7
 10
12.283730756853551
 20
246.19999999999999
 30
0.0
 11
17.472775667357642
 21
246.19999999999999
 31
0.0
  0
LINE
  5
135
  8
DATA
  6
CONTINUOUS
 62
     7
 10
-3.5
 20
225.0
 30
0.0
 11
-3.5
 21
246.0
 31
0.0
  0
LINE
  5
136
  8
DATA
  6
CONTINUOUS
 62
     7
 10
-12.5
 20
242.5
 30
0.0
 11
-3.5
 21
242.5
 31
0.0
  0
LINE
  5
137
  8
DATA
  6
CONTINUOUS
 62
     7
 10
-3.5
 20
228.5
 30
0.0
 11
-12.5
 21
228.5
 31
0.0
  0
LINE
  5
138
  8
DATA
  6
CONTINUOUS
 62
     7
 10
19.493901344228039
 20
225.05951868432621
 30
0.0
 11
36.5
 21
229.5
 31
0.0
  0
LINE
  5
139
  8
DATA
  6
CONTINUOUS
 62
     7
 10
36.5
 20
241.5
 30
0.0
 11
19.493901344228021
 21
245.94048131567379
 31
0.0
  0
ARC
  5
13A
  8
DATA
  6
CONTINUOUS
 62
     7
 10
3.3778873239436682
 20
300.98056338028482
 30
0.0
 40
55.409093871442991
 50
262.86952816440328
 51
278.07391967230529
  0
ARC
  5
13B
  8
DATA
  6
CONTINUOUS
 62
     7
 10
17.472775667357649
 20
238.19999999999999
 30
0.0
 40
7.9999999999999982
 50
75.36616902843393
 51
90.000000000000114
  0
ARC
  5
13C
  8
DATA
  6
CONTINUOUS
 62
     7
 10
12.283730756853551
 20
238.2000000000034
 30
0.0
 40
7.9999999999965299
 50
90.0
 51
98.073919672308733
  0
LINE
  5
13D
  8
DATA
  6
CONTINUOUS
 62
     7
 10
12.283730756853551
 20
224.80000000000001
 30
0.0
 11
17.472775667357642
 21
224.80000000000001
 31
0.0
  0
ARC
  5
13E
  8
DATA
  6
CONTINUOUS
 62
     7
 10
3.3778873239436682
 20
170.01943661971521
 30
0.0
 40
55.409093871442991
 50
81.926080327694748
 51
97.130471835596708
  0
ARC
  5
13F
  8
DATA
  6
CONTINUOUS
 62
     7
 10
17.472775667357649
 20
232.80000000000001
 30
0.0
 40
8.0
 50
269.99999999999989
 51
284.633830971566
  0
ARC
  5
140
  8
DATA
  6
CONTINUOUS
 62
     7
 10
12.283730756853551
 20
232.79999999999649
 30
0.0
 40
7.9999999999965299
 50
261.9260803276913
 51
270.0
  0
LINE
  5
141
  8
DATA
  6
CONTINUOUS
 62
     7
 10
-3.5
 20
239.75
 30
0.0
 11
3.5
 21
239.75
 31
0.0
  0
LINE
  5
142
  8
DATA
  6
CONTINUOUS
 62
     7
 10
-3.5
 20
231.25
 30
0.0
 11
3.5
 21
231.25
 31
0.0
  0
LINE
  5
143
  8
DATA
  6
CONTINUOUS
 62
     7
 10
3.5
 20
231.25
 30
0.0
 11
3.5
 21
239.75
 31
0.0
  0
LINE
  5
144
  8
DATA
  6
CONTINUOUS
 62
     7
 10
23.800000000000001
 20
232.30000000000001
 30
0.0
 11
3.5000000000000142
 21
232.30000000000001
 31
0.0
  0
LINE
  5
145
  8
DATA
  6
CONTINUOUS
 62
     7
 10
3.5000000000000142
 20
238.69999999999999
 30
0.0
 11
23.800000000000001
 21
238.69999999999999
 31
0.0
  0
LINE
  5
146
  8
DATA
  6
CONTINUOUS
 62
     7
 10
23.800000000000001
 20
232.30000000000001
 30
0.0
 11
23.800000000000001
 21
238.69999999999999
 31
0.0
  0
LINE
  5
147
  8
DATA
  6
CONTINUOUS
 62
     7
 10
28.800000000000001
 20
231.69999999999999
 30
0.0
 11
28.800000000000001
 21
239.30000000000001
 31
0.0
  0
LINE
  5
148
  8
DATA
  6
CONTINUOUS
 62
     7
 10
23.800000000000001
 20
237.5
 30
0.0
 11
28.800000000000001
 21
237.5
 31
0.0
  0
LINE
  5
149
  8
DATA
  6
CONTINUOUS
 62
     7
 10
28.800000000000001
 20
233.5
 30
0.0
 11
23.800000000000001
 21
233.5
 31
0.0
  0
LINE
  5
14A
  8
DATA
  6
CONTINUOUS
 62
     7
 10
50.399999999999999
 20
232.55000000000001
 30
0.0
 11
50.399999999999999
 21
234.55000000000001
 31
0.0
  0
LINE
  5
14B
  8
DATA
  6
CONTINUOUS
 62
     7
 10
50.399999999999999
 20
236.44999999999999
 30
0.0
 11
50.399999999999999
 21
238.44999999999999
 31
0.0
  0
LINE
  5
14C
  8
DATA
  6
CONTINUOUS
 62
     7
 10
28.800000000000001
 20
239.30000000000001
 30
0.0
 11
50.399999999999999
 21
238.44999999999999
 31
0.0
  0
LINE
  5
14D
  8
DATA
  6
CONTINUOUS
 62
     7
 10
50.399999999999999
 20
232.55000000000001
 30
0.0
 11
28.800000000000001
 21
231.69999999999999
 31
0.0
  0
LINE
  5
14E
  8
DATA
  6
CONTINUOUS
 62
     7
 10
47.899999999999999
 20
234.55000000000001
 30
0.0
 11
47.899999999999999
 21
236.44999999999999
 31
0.0
  0
LINE
  5
14F
  8
DATA
  6
CONTINUOUS
 62
     7
 10
47.899999999999999
 20
236.44999999999999
 30
0.0
 11
50.399999999999999
 21
236.44999999999999
 31
0.0
  0
LINE
  5
150
  8
DATA
  6
CONTINUOUS
 62
     7
 10
50.399999999999999
 20
234.55000000000001
 30
0.0
 11
47.899999999999999
 21
234.55000000000001
 31
0.0
  0
LINE
  5
151
  8
DATA
  6
CONTINUOUS
 62
     7
 10
28.800000000000001
 20
238.80000000000001
 30
0.0
 11
41.505882352940453
 21
238.80000000000001
 31
0.0
  0
LINE
  5
152
  8
DATA
  6
CONTINUOUS
 62
     7
 10
28.800000000000001
 20
238.0
 30
0.0
 11
50.399999999999999
 21
238.0
 31
0.0
  0
LINE
  5
153
  8
DATA
  6
CONTINUOUS
 62
     7
 10
28.800000000000001
 20
237.19999999999999
 30
0.0
 11
50.399999999999999
 21
237.19999999999999
 31
0.0
  0
LINE
  5
154
  8
DATA
  6
CONTINUOUS
 62
     7
 10
28.800000000000001
 20
236.40000000000001
 30
0.0
 11
47.899999999999999
 21
236.40000000000001
 31
0.0
  0
LINE
  5
155
  8
DATA
  6
CONTINUOUS
 62
     7
 10
28.800000000000001
 20
235.59999999999999
 30
0.0
 11
47.899999999999999
 21
235.59999999999999
 31
0.0
  0
LINE
  5
156
  8
DATA
  6
CONTINUOUS
 62
     7
 10
28.800000000000001
 20
234.80000000000001
 30
0.0
 11
47.899999999999999
 21
234.80000000000001
 31
0.0
  0
LINE
  5
157
  8
DATA
  6
CONTINUOUS
 62
     7
 10
28.800000000000001
 20
234.0
 30
0.0
 11
50.399999999999999
 21
234.0
 31
0.0
  0
LINE
  5
158
  8
DATA
  6
CONTINUOUS
 62
     7
 10
28.800000000000001
 20
233.19999999999999
 30
0.0
 11
50.399999999999999
 21
233.19999999999999
 31
0.0
  0
LINE
  5
159
  8
DATA
  6
CONTINUOUS
 62
     7
 10
28.800000000000001
 20
232.40000000000001
 30
0.0
 11
46.5882352941181
 21
232.40000000000001
 31
0.0
  0
LINE
  5
15A
  8
DATA
  6
CONTINUOUS
 62
     7
 10
161.25
 20
231.75
 30
0.0
 11
36.499999999999993
 21
231.75
 31
0.0
  0
LINE
  5
15B
  8
DATA
  6
CONTINUOUS
 62
     7
 10
36.5
 20
239.25
 30
0.0
 11
168.75
 21
239.25
 31
0.0
  0
LINE
  5
15C
  8
DATA
  6
CONTINUOUS
 62
     7
 10
181.25
 20
65.5
 30
0.0
 11
181.25
 21
146.69730734816511
 31
0.0
  0
LINE
  5
15D
  8
DATA
  6
CONTINUOUS
 62
     7
 10
181.25
 20
150.23008810699869
 30
0.0
 11
181.25
 21
211.75
 31
0.0
  0
LINE
  5
15E
  8
DATA
  6
CONTINUOUS
 62
     7
 10
188.75
 20
58.0
 30
0.0
 11
188.75
 21
142.1304058706165
 31
0.0
  0
LINE
  5
15F
  8
DATA
  6
CONTINUOUS
 62
     7
 10
188.75
 20
145.66318662945019
 30
0.0
 11
188.75
 21
219.25
 31
0.0
  0
ARC
  5
160
  8
DATA
  6
CONTINUOUS
 62
     7
 10
161.25
 20
211.75
 30
0.0
 40
20.0
 50
0.0
 51
90.0
  0
ARC
  5
161
  8
DATA
  6
CONTINUOUS
 62
     7
 10
168.75
 20
219.25
 30
0.0
 40
20.0
 50
0.0
 51
90.0
  0
ARC
  5
162
  8
DATA
  6
CONTINUOUS
 62
     7
 10
161.25
 20
65.5
 30
0.0
 40
20.0
 50
270.0
 51
0.0
  0
ARC
  5
163
  8
DATA
  6
CONTINUOUS
 62
     7
 10
168.75
 20
58.0
 30
0.0
 40
20.0
 50
270.0
 51
0.0
  0
ARC
  5
164
  8
DATA
  6
CONTINUOUS
 62
     7
 10
181.1070147838052
 20
146.01361823152101
 30
0.0
 40
4.2188935733035446
 50
27.269827443099331
 51
152.7301725569007
  0
ARC
  5
165
  8
DATA
  6
CONTINUOUS
 62
     7
 10
188.6070147838052
 20
149.87965650492799
 30
0.0
 40
4.2188935733035526
 50
207.26982744309959
 51
332.73017255690041
  0
ARC
  5
166
  8
DATA
  6
CONTINUOUS
 62
     7
 10
181.1070147838052
 20
142.48083747268731
 30
0.0
 40
4.2188935733035473
 50
27.269827443099349
 51
152.73017255690061
  0
ARC
  5
167
  8
DATA
  6
CONTINUOUS
 62
     7
 10
188.6070147838052
 20
146.34687574609441
 30
0.0
 40
4.2188935733035446
 50
207.26982744309939
 51
332.73017255690081
  0
LINE
  5
168
  8
DATA
  6
CONTINUOUS
 62
     7
 10
36.5
 20
35.75
 30
0.0
 11
36.5
 21
38.253009259259258
 31
0.0
  0
LINE
  5
169
  8
DATA
  6
CONTINUOUS
 62
     7
 10
36.5
 20
47.75
 30
0.0
 11
36.5
 21
45.246990740740742
 31
0.0
  0
LINE
  5
16A
  8
DATA
  6
CONTINUOUS
 62
     7
 10
36.5
 20
229.5
 30
0.0
 11
36.5
 21
232.0030092592593
 31
0.0
  0
LINE
  5
16B
  8
DATA
  6
CONTINUOUS
 62
     7
 10
36.5
 20
241.5
 30
0.0
 11
36.5
 21
238.9969907407407
 31
0.0
  0
CIRCLE
  5
16C
  8
DATA
  6
CONTINUOUS
 62
     7
 10
-28.050000000000029
 20
41.749999999999993
 30
0.0
 40
3.7999999999999958
  0
TEXT
  5
16D
  8
DATA
 62
     7
 10
198.1368060373396
 20
-79.231645180019413
 30
0.0
 40
4.8865234375000002
  1
Gefen
 41
0.7
 11
198.1368060373396
 21
-74.34512174251941
 31
0.0
 73
     3
  0
ENDSEC
  0
EOF
