  0
SECTION
  2
HEADER
  9
$ACADVER
  1
AC1009
  9
$INSBASE
 10
0.0
 20
0.0
 30
0.0
  9
$EXTMIN
 10
14.994507516960759
 20
3.6436817846316889
 30
-0.0015258207003583
  9
$EXTMAX
 10
285.00869817334308
 20
405.012360562119
 30
0.0000000349246037
  9
$LIMMIN
 10
0.0
 20
0.0
  9
$LIMMAX
 10
0.0
 20
0.0
  9
$ORTHOMODE
 70
     0
  9
$REGENMODE
 70
     1
  9
$FILLMODE
 70
     1
  9
$QTEXTMODE
 70
     0
  9
$MIRRTEXT
 70
     1
  9
$DRAGMODE
 70
     2
  9
$LTSCALE
 40
7.6199999999999983
  9
$OSMODE
 70
   231
  9
$ATTMODE
 70
     1
  9
$TEXTSIZE
 40
0.0
  9
$TRACEWID
 40
1.0
  9
$TEXTSTYLE
  7
STANDARD
  9
$CLAYER
  8
DATA
  9
$CELTYPE
  6
BYLAYER
  9
$CECOLOR
 62
   256
  9
$DIMSCALE
 40
1.0
  9
$DIMASZ
 40
0.18
  9
$DIMEXO
 40
0.0625
  9
$DIMDLI
 40
0.38
  9
$DIMRND
 40
0.0
  9
$DIMDLE
 40
0.0
  9
$DIMEXE
 40
0.18
  9
$DIMTP
 40
0.0
  9
$DIMTM
 40
0.0
  9
$DIMTXT
 40
0.18
  9
$DIMCEN
 40
0.09
  9
$DIMTSZ
 40
0.0
  9
$DIMTOL
 70
     0
  9
$DIMLIM
 70
     0
  9
$DIMTIH
 70
     1
  9
$DIMTOH
 70
     1
  9
$DIMSE1
 70
     0
  9
$DIMSE2
 70
     0
  9
$DIMTAD
 70
     0
  9
$DIMZIN
 70
     0
  9
$DIMBLK
  1

  9
$DIMASO
 70
     1
  9
$DIMSHO
 70
     1
  9
$DIMPOST
  1

  9
$DIMAPOST
  1

  9
$DIMALT
 70
     0
  9
$DIMALTD
 70
     2
  9
$DIMALTF
 40
25.399999999999999
  9
$DIMLFAC
 40
1.0
  9
$DIMTOFL
 70
     0
  9
$DIMTVP
 40
0.0
  9
$DIMTIX
 70
     0
  9
$DIMSOXD
 70
     0
  9
$DIMSAH
 70
     0
  9
$DIMBLK1
  1

  9
$DIMBLK2
  1

  9
$DIMSTYLE
  2
STANDARD
  9
$DIMCLRD
 70
     0
  9
$DIMCLRE
 70
     0
  9
$DIMCLRT
 70
     0
  9
$DIMTFAC
 40
1.0
  9
$DIMGAP
 40
0.09
  9
$LUNITS
 70
     2
  9
$LUPREC
 70
     4
  9
$SKETCHINC
 40
0.1
  9
$FILLETRAD
 40
0.0
  9
$AUNITS
 70
     0
  9
$AUPREC
 70
     0
  9
$MENU
  1
acad
  9
$ELEVATION
 40
0.0
  9
$PELEVATION
 40
0.0
  9
$THICKNESS
 40
0.0
  9
$LIMCHECK
 70
     0
  9
$BLIPMODE
 70
     0
  9
$CHAMFERA
 40
0.0
  9
$CHAMFERB
 40
0.0
  9
$SKPOLY
 70
     0
  9
$TDCREATE
 40
2456258.7244097218
  9
$TDUPDATE
 40
2456258.7264531711
  9
$TDINDWG
 40
0.0003615278
  9
$TDUSRTIMER
 40
0.0003613426
  9
$USRTIMER
 70
     1
  9
$ANGBASE
 50
0.0
  9
$ANGDIR
 70
     0
  9
$PDMODE
 70
     1
  9
$PDSIZE
 40
-2.0
  9
$PLINEWID
 40
0.0
  9
$COORDS
 70
     2
  9
$SPLFRAME
 70
     0
  9
$SPLINETYPE
 70
     6
  9
$SPLINESEGS
 70
     8
  9
$ATTDIA
 70
     0
  9
$ATTREQ
 70
     1
  9
$HANDLING
 70
     1
  9
$HANDSEED
  5
612
  9
$SURFTAB1
 70
     6
  9
$SURFTAB2
 70
     6
  9
$SURFTYPE
 70
     6
  9
$SURFU
 70
     6
  9
$SURFV
 70
     6
  9
$UCSNAME
  2

  9
$UCSORG
 10
0.0
 20
0.0
 30
0.0
  9
$UCSXDIR
 10
1.0
 20
0.0
 30
0.0
  9
$UCSYDIR
 10
0.0
 20
1.0
 30
0.0
  9
$PUCSNAME
  2

  9
$PUCSORG
 10
0.0
 20
0.0
 30
0.0
  9
$PUCSXDIR
 10
1.0
 20
0.0
 30
0.0
  9
$PUCSYDIR
 10
0.0
 20
1.0
 30
0.0
  9
$USERI1
 70
     0
  9
$USERI2
 70
     0
  9
$USERI3
 70
     0
  9
$USERI4
 70
     0
  9
$USERI5
 70
     0
  9
$USERR1
 40
0.0
  9
$USERR2
 40
0.0
  9
$USERR3
 40
0.0
  9
$USERR4
 40
0.0
  9
$USERR5
 40
0.0
  9
$WORLDVIEW
 70
     1
  9
$SHADEDGE
 70
     3
  9
$SHADEDIF
 70
    70
  9
$TILEMODE
 70
     1
  9
$MAXACTVP
 70
    64
  9
$PLIMCHECK
 70
     0
  9
$PEXTMIN
 10
1.0000000000000000E+020
 20
1.0000000000000000E+020
 30
1.0000000000000000E+020
  9
$PEXTMAX
 10
-1.0000000000000000E+020
 20
-1.0000000000000000E+020
 30
-1.0000000000000000E+020
  9
$PLIMMIN
 10
0.0
 20
0.0
  9
$PLIMMAX
 10
12.0
 20
9.0
  9
$UNITMODE
 70
     0
  9
$VISRETAIN
 70
     0
  9
$PLINEGEN
 70
     1
  9
$PSLTSCALE
 70
     0
  0
ENDSEC
  0
SECTION
  2
TABLES
  0
TABLE
  2
VPORT
 70
     1
  0
VPORT
  2
*ACTIVE
 70
     0
 10
0.0
 20
0.0
 11
1.0
 21
1.0
 12
150.00160284515201
 22
204.72473239086651
 13
0.0
 23
0.0
 14
1.0
 24
1.0
 15
0.0
 25
0.0
 16
0.0
 26
0.0
 36
1.0
 17
0.0
 27
0.0
 37
0.0
 40
403.70883070763563
 41
2.1866840731070489
 42
50.0
 43
0.0
 44
0.0
 50
0.0
 51
0.0
 71
     0
 72
  2000
 73
     1
 74
     1
 75
     0
 76
     0
 77
     0
 78
     0
  0
ENDTAB
  0
TABLE
  2
LTYPE
 70
    11
  0
LTYPE
  2
CONTINUOUS
 70
     0
  3
Solid line
 72
    65
 73
     0
 40
0.0
  0
LTYPE
  2
STYLE_01
 70
     0
  3

 72
    65
 73
     2
 40
0.4166412353515625
 49
0.208282470703125
 49
-0.2083587646484375
  0
LTYPE
  2
STYLE_05
 70
     0
  3

 72
    65
 73
     2
 40
0.208282470703125
 49
0.0196850396634087
 49
-0.0196850396634087
  0
ENDTAB
  0
TABLE
  2
LAYER
 70
     5
  0
LAYER
  2
0
 70
     0
 62
     7
  6
CONTINUOUS
  0
LAYER
  2
DATA
 70
     0
 62
     7
  6
CONTINUOUS
  0
LAYER
  2
HIBINO-BASE
 70
     0
 62
     7
  6
CONTINUOUS
  0
LAYER
  2
SPEC
 70
     0
 62
     7
  6
CONTINUOUS
  0
LAYER
  2
DIMNSIONS
 70
     0
 62
     7
  6
CONTINUOUS
  0
ENDTAB
  0
TABLE
  2
STYLE
 70
     4
  0
STYLE
  2
STANDARD
 70
     0
 40
0.0
 41
1.0
 50
0.0
 71
     0
 42
0.0
  3
txt
  4
BIGFONT.SHX
  0
ENDTAB
  0
TABLE
  2
VIEW
 70
     0
  0
ENDTAB
  0
TABLE
  2
UCS
 70
     0
  0
ENDTAB
  0
TABLE
  2
APPID
 70
     4
  0
APPID
  2
ACAD
 70
     0
  0
APPID
  2
ACADANNOTATIVE
 70
     0
  0
APPID
  2
ACAD_NAV_VCDISPLAY
 70
     0
  0
APPID
  2
ACAD_MLEADERVER
 70
     0
  0
ENDTAB
  0
TABLE
  2
DIMSTYLE
 70
     2
  0
DIMSTYLE
  2
STANDARD
 70
     0
  3

  4

  5

  6

  7

 40
1.0
 41
0.18
 42
0.0625
 43
0.38
 44
0.18
 45
0.0
 46
0.0
 47
0.0
 48
0.0
140
0.18
141
0.09
142
0.0
143
25.399999999999999
144
1.0
145
0.0
146
1.0
147
0.09
 71
     0
 72
     0
 73
     1
 74
     1
 75
     0
 76
     0
 77
     0
 78
     0
170
     0
171
     2
172
     0
173
     0
174
     0
175
     0
176
     0
177
     0
178
     0
  0
ENDTAB
  0
ENDSEC
  0
SECTION
  2
BLOCKS
  0
BLOCK
  8
0
  2
$MODEL_SPACE
 70
     0
 10
0.0
 20
0.0
 30
0.0
  3
$MODEL_SPACE
  1

  0
ENDBLK
  5
471
  8
0
  0
BLOCK
 67
     1
  8
0
  2
$PAPER_SPACE
 70
     0
 10
0.0
 20
0.0
 30
0.0
  3
$PAPER_SPACE
  1

  0
ENDBLK
  5
46D
 67
     1
  8
0
  0
ENDSEC
  0
SECTION
  2
ENTITIES
  0
LINE
  5
2D
  8
HIBINO-BASE
  6
CONTINUOUS
 62
     7
 10
15.0
 20
405.0
 30
0.0
 11
285.0
 21
405.0
 31
0.0
  0
LINE
  5
2E
  8
HIBINO-BASE
  6
CONTINUOUS
 62
     7
 10
285.0
 20
15.0
 30
0.0
 11
15.0
 21
15.0
 31
0.0
  0
LINE
  5
2F
  8
HIBINO-BASE
  6
CONTINUOUS
 62
     7
 10
15.0
 20
15.0
 30
0.0
 11
15.0
 21
405.0
 31
0.0
  0
LINE
  5
30
  8
HIBINO-BASE
  6
CONTINUOUS
 62
     7
 10
285.0
 20
405.0
 30
0.0
 11
285.0
 21
15.0
 31
0.0
  0
LINE
  5
31
  8
HIBINO-BASE
  6
CONTINUOUS
 62
     7
 10
150.0
 20
48.750000000000021
 30
0.0
 11
285.0
 21
48.750000000000021
 31
0.0
  0
LINE
  5
32
  8
HIBINO-BASE
  6
CONTINUOUS
 62
     7
 10
150.0
 20
15.0
 30
0.0
 11
150.0
 21
48.750000000000021
 31
0.0
  0
TEXT
  5
33
  8
HIBINO-BASE
 62
     7
 10
151.34999999999991
 20
44.98696000000001
 30
0.0
 40
2.4432617187500001
  1
NOTE
 41
0.7
 11
151.34999999999991
 21
47.430221718750012
 31
0.0
 73
     3
  0
LINE
  5
34
  8
HIBINO-BASE
  6
CONTINUOUS
 62
     7
 10
202.5
 20
15.0
 30
0.0
 11
202.5
 21
48.750000000000021
 31
0.0
  0
TEXT
  5
35
  8
HIBINO-BASE
 62
     7
 10
203.84999999999999
 20
44.98696000000001
 30
0.0
 40
2.4432617187500001
  1
TITLE
 41
0.7
 11
203.84999999999999
 21
47.430221718750012
 31
0.0
 73
     3
  0
LINE
  5
36
  8
HIBINO-BASE
  6
CONTINUOUS
 62
     7
 10
150.0
 20
30.000000000000028
 30
0.0
 11
285.0
 21
30.000000000000028
 31
0.0
  0
TEXT
  5
37
  8
HIBINO-BASE
 62
     7
 10
222.59999999999999
 20
26.321439999999988
 30
0.0
 40
2.4432617187500001
  1
DRAWN
 41
0.7
 11
222.59999999999999
 21
28.76470171874999
 31
0.0
 73
     3
  0
TEXT
  5
38
  8
HIBINO-BASE
 62
     7
 10
185.09999999999999
 20
26.321439999999988
 30
0.0
 40
2.4432617187500001
  1
DATE
 41
0.7
 11
185.09999999999999
 21
28.76470171874999
 31
0.0
 73
     3
  0
TEXT
  5
39
  8
HIBINO-BASE
 62
     7
 10
170.09999999999991
 20
26.321439999999988
 30
0.0
 40
2.4432617187500001
  1
SCALE
 41
0.7
 11
170.09999999999991
 21
28.76470171874999
 31
0.0
 73
     3
  0
TEXT
  5
3A
  8
HIBINO-BASE
 62
     7
 10
203.84999999999999
 20
26.321439999999988
 30
0.0
 40
2.4432617187500001
  1
DESIGN
 41
0.7
 11
203.84999999999999
 21
28.76470171874999
 31
0.0
 73
     3
  0
TEXT
  5
3B
  8
HIBINO-BASE
 62
     7
 10
260.10000000000002
 20
26.321439999999988
 30
0.0
 40
2.4432617187500001
  1
DRAWING NO.
 41
0.7
 11
260.10000000000002
 21
28.76470171874999
 31
0.0
 73
     3
  0
TEXT
  5
3C
  8
HIBINO-BASE
 62
     7
 10
241.34999999999999
 20
26.321439999999988
 30
0.0
 40
2.4432617187500001
  1
CHECK
 41
0.7
 11
241.34999999999999
 21
28.76470171874999
 31
0.0
 73
     3
  0
LINE
  5
3D
  8
HIBINO-BASE
  6
CONTINUOUS
 62
     7
 10
171.5625
 20
16.875
 30
0.0
 11
177.18749999999989
 21
22.500000000000028
 31
0.0
  0
TEXT
  5
3E
  8
HIBINO-BASE
 62
     7
 10
170.625
 20
20.83658500000001
 30
0.0
 40
2.4432617187500001
  1
1
 41
0.7
 11
170.625
 21
23.279846718750012
 31
0.0
 73
     3
  0
LINE
  5
3F
  8
HIBINO-BASE
  6
CONTINUOUS
 62
     7
 10
168.75
 20
15.0
 30
0.0
 11
168.75
 21
30.000000000000028
 31
0.0
  0
LINE
  5
40
  8
HIBINO-BASE
  6
CONTINUOUS
 62
     7
 10
183.75
 20
15.0
 30
0.0
 11
183.75
 21
30.000000000000028
 31
0.0
  0
LINE
  5
41
  8
HIBINO-BASE
  6
CONTINUOUS
 62
     7
 10
221.25
 20
30.000000000000028
 30
0.0
 11
221.25
 21
15.0
 31
0.0
  0
LINE
  5
42
  8
HIBINO-BASE
  6
CONTINUOUS
 62
     7
 10
258.75
 20
30.000000000000028
 30
0.0
 11
258.75
 21
15.0
 31
0.0
  0
LINE
  5
43
  8
HIBINO-BASE
  6
CONTINUOUS
 62
     7
 10
240.0
 20
15.0
 30
0.0
 11
240.0
 21
30.000000000000028
 31
0.0
  0
TEXT
  5
44
  8
HIBINO-BASE
 62
     7
 10
185.03480999999999
 20
19.295469999999991
 30
0.0
 40
2.4432617187500001
  1
'12.11.
 41
0.7
 11
185.03480999999999
 21
21.738731718749989
 31
0.0
 73
     3
  0
TEXT
  5
45
  8
HIBINO-BASE
 62
     7
 10
176.25
 20
18.02408500000001
 30
0.0
 40
2.4432617187500001
  1
1.5
 41
0.7
 11
176.25
 21
20.467346718750012
 31
0.0
 73
     3
  0
TEXT
  5
46
  8
HIBINO-BASE
 62
     7
 10
155.82499999999999
 20
17.964000000000009
 30
0.0
 40
4.8865234374999993
  1
A4
 41
0.7
 11
155.82499999999999
 21
22.850523437500019
 31
0.0
 73
     3
  0
TEXT
  5
47
  8
HIBINO-BASE
 62
     7
 10
151.4375
 20
26.070817500000029
 30
0.0
 40
2.4432617187500001
  1
PAPER SIZE
 41
0.7
 11
151.4375
 21
28.51407921875003
 31
0.0
 73
     3
  0
TEXT
  5
48
  8
HIBINO-BASE
 62
     7
 10
19.371316120197179
 20
5.408259692617797
 30
0.0
 40
5.293733723958332
  1
Hibino-Intersound Corporation
 41
0.7
 11
19.371316120197179
 21
10.70199341657613
 31
0.0
 73
     3
  0
TEXT
  5
49
  8
HIBINO-BASE
 62
     7
 10
180.9689499059817
 20
5.8737681933067387
 30
0.0
 40
5.293733723958332
  1
ヒビノインターサウンド株式会社
 41
0.7
 11
180.9689499059817
 21
11.167501917265071
 31
0.0
 73
     3
  0
TEXT
  5
4A
  8
HIBINO-BASE
 62
     7
 10
224.4003416977045
 20
19.424252062764499
 30
0.0
 40
2.4432617187500001
  1
Ootake
 41
0.7
 11
224.4003416977045
 21
21.8675137815145
 31
0.0
 73
     3
  0
TEXT
  5
4B
  8
SPEC
 62
     7
 10
28.125
 20
392.08990499999999
 30
0.0
 40
3.664892578124999
  1
仕様
 41
0.7
 11
28.125
 21
395.75479757812491
 31
0.0
 73
     3
  0
LINE
  5
4C
  8
SPEC
  6
CONTINUOUS
 62
     7
 10
26.249999999999972
 20
389.99999999983282
 30
0.0
 11
211.62181333603399
 21
389.99999999983282
 31
0.0
  0
LINE
  5
4D
  8
SPEC
  6
CONTINUOUS
 62
     7
 10
26.249999999999972
 20
384.37499999983282
 30
0.0
 11
211.62181333603399
 21
384.37499999983282
 31
0.0
  0
LINE
  5
4E
  8
SPEC
  6
CONTINUOUS
 62
     7
 10
26.249999999999972
 20
361.87499999983282
 30
0.0
 11
211.62181333603399
 21
361.87499999983282
 31
0.0
  0
LINE
  5
4F
  8
SPEC
  6
CONTINUOUS
 62
     7
 10
26.249999999999972
 20
367.49999999983282
 30
0.0
 11
211.62181333603399
 21
367.49999999983282
 31
0.0
  0
LINE
  5
50
  8
SPEC
  6
CONTINUOUS
 62
     7
 10
26.249999999999972
 20
373.12499999983282
 30
0.0
 11
211.62181333603399
 21
373.12499999983282
 31
0.0
  0
LINE
  5
51
  8
SPEC
  6
CONTINUOUS
 62
     7
 10
211.62181333603399
 20
356.24999999983282
 30
0.0
 11
26.249999999999972
 21
356.24999999983282
 31
0.0
  0
LINE
  5
52
  8
SPEC
  6
CONTINUOUS
 62
     7
 10
26.249999999999972
 20
378.74999999983282
 30
0.0
 11
211.62181333603399
 21
378.74999999983282
 31
0.0
  0
LINE
  5
53
  8
SPEC
  6
CONTINUOUS
 62
     7
 10
26.249999999999972
 20
389.99999999983282
 30
0.0
 11
26.249999999999972
 21
339.35999999983278
 31
0.0
  0
LINE
  5
54
  8
SPEC
  6
CONTINUOUS
 62
     7
 10
74.999999999999972
 20
389.99999999983282
 30
0.0
 11
74.999999999999972
 21
356.24999999983282
 31
0.0
  0
LINE
  5
55
  8
SPEC
  6
CONTINUOUS
 62
     7
 10
211.62181333603399
 20
389.99999999983282
 30
0.0
 11
211.62181333603399
 21
339.35999999983278
 31
0.0
  0
TEXT
  5
56
  8
SPEC
 62
     7
 10
26.927665698241501
 20
385.8496131240629
 30
0.0
 40
2.850466875
  1
ビデオアンプ帯域
 41
0.7
 11
26.927665698241501
 21
388.70007999906289
 31
0.0
 73
     3
  0
LINE
  5
57
  8
SPEC
  6
CONTINUOUS
 62
     7
 10
74.999999999999972
 20
389.99999999983282
 30
0.0
 11
74.999999999999972
 21
339.35999999983278
 31
0.0
  0
TEXT
  5
58
  8
SPEC
 62
     7
 10
27.459812966256131
 20
346.26650021096839
 30
0.0
 40
2.8504720052083332
  1
寸法
 41
0.7
 11
27.459812966256131
 21
349.11697221617669
 31
0.0
 73
     3
  0
TEXT
  5
59
  8
SPEC
 62
     7
 10
27.506014583388009
 20
340.88138802085081
 30
0.0
 40
2.8504720052083332
  1
重量
 41
0.7
 11
27.506014583388009
 21
343.73186002605922
 31
0.0
 73
     3
  0
TEXT
  5
5A
  8
SPEC
 62
     7
 10
27.49103728372646
 20
357.60827409466049
 30
0.0
 40
2.8504720052083332
  1
電源
 41
0.7
 11
27.49103728372646
 21
360.45874609986879
 31
0.0
 73
     3
  0
TEXT
  5
5B
  8
SPEC
 62
     7
 10
76.382357408381921
 20
357.5849477706102
 30
0.0
 40
2.8504720052083332
  1
5V DC
 41
0.7
 11
76.382357408381921
 21
360.43541977581862
 31
0.0
 73
     3
  0
TEXT
  5
5C
  8
SPEC
 62
     7
 10
76.379537029207341
 20
346.44315177446617
 30
0.0
 40
2.8504720052083332
  1
39(W)\U+00D715(H)\U+00D768(D)mm(突起部含まず)、(送受信機共に)
 41
0.7
 11
76.379537029207341
 21
349.29362377967448
 31
0.0
 73
     3
  0
TEXT
  5
5D
  8
SPEC
 62
     7
 10
76.209276777666005
 20
385.74728493568199
 30
0.0
 40
2.8504720052083332
  1
165MHz
 41
0.7
 11
76.209276777666005
 21
388.59775694089041
 31
0.0
 73
     3
  0
LINE
  5
5E
  8
SPEC
  6
CONTINUOUS
 62
     7
 10
211.62181333603399
 20
350.61999999983283
 30
0.0
 11
26.249999999999972
 21
350.61999999983283
 31
0.0
  0
LINE
  5
5F
  8
SPEC
  6
CONTINUOUS
 62
     7
 10
211.62181333603399
 20
344.98999999983278
 30
0.0
 11
26.249999999999972
 21
344.98999999983278
 31
0.0
  0
LINE
  5
60
  8
SPEC
  6
CONTINUOUS
 62
     7
 10
211.62181333603399
 20
339.35999999983278
 30
0.0
 11
26.249999999999972
 21
339.35999999983278
 31
0.0
  0
TEXT
  5
61
  8
SPEC
 62
     7
 10
27.521695034077339
 20
380.1683282163836
 30
0.0
 40
2.850466875
  1
入力ビデオ信号
 41
0.7
 11
27.521695034077339
 21
383.01879509138371
 31
0.0
 73
     3
  0
TEXT
  5
62
  8
SPEC
 62
     7
 10
76.215279385545955
 20
380.26683460165469
 30
0.0
 40
2.8504720052083332
  1
1.2Vp-p
 41
0.7
 11
76.215279385545955
 21
383.11730660686311
 31
0.0
 73
     3
  0
TEXT
  5
63
  8
SPEC
 62
     7
 10
27.578211792736528
 20
374.46933972188401
 30
0.0
 40
2.850466875
  1
入力DDC信号
 41
0.7
 11
27.578211792736528
 21
377.31980659688401
 31
0.0
 73
     3
  0
TEXT
  5
64
  8
SPEC
 62
     7
 10
76.358150735021155
 20
374.51714152538392
 30
0.0
 40
2.8504720052083332
  1
5V p-p
 41
0.7
 11
76.358150735021155
 21
377.36761353059228
 31
0.0
 73
     3
  0
TEXT
  5
65
  8
SPEC
 62
     7
 10
26.85233359508797
 20
363.19649838786069
 30
0.0
 40
2.850466875
  1
リンクコネクター
 41
0.7
 11
26.85233359508797
 21
366.04696526286079
 31
0.0
 73
     3
  0
TEXT
  5
66
  8
SPEC
 62
     7
 10
76.397439462049903
 20
363.20599277237579
 30
0.0
 40
2.8504720052083332
  1
SC
 41
0.7
 11
76.397439462049903
 21
366.05646477758421
 31
0.0
 73
     3
  0
TEXT
  5
67
  8
SPEC
 62
     7
 10
27.635771362648409
 20
368.88412675907841
 30
0.0
 40
2.850466875
  1
DVI入出力端子
 41
0.7
 11
27.635771362648409
 21
371.73459363407829
 31
0.0
 73
     3
  0
TEXT
  5
68
  8
SPEC
 62
     7
 10
76.367996118782514
 20
368.8410494398525
 30
0.0
 40
2.8504720052083332
  1
DVI(19pin)
 41
0.7
 11
76.367996118782514
 21
371.69152144506091
 31
0.0
 73
     3
  0
TEXT
  5
69
  8
SPEC
 62
     7
 10
27.551302897639371
 20
351.99490171200011
 30
0.0
 40
2.8504720052083332
  1
消費電力
 41
0.7
 11
27.551302897639371
 21
354.84537371720847
 31
0.0
 73
     3
  0
TEXT
  5
6A
  8
SPEC
 62
     7
 10
76.465781528627971
 20
352.01333468771833
 30
0.0
 40
2.8504720052083332
  1
送信機250ｍA　受信機190ｍA 
 41
0.7
 11
76.465781528627971
 21
354.86380669292657
 31
0.0
 73
     3
  0
TEXT
  5
6B
  8
SPEC
 62
     7
 10
76.228351439899697
 20
340.84732602275858
 30
0.0
 40
3.2576822916666659
  1
約65g(送受信機共に)
 41
0.7
 11
76.228351439899697
 21
344.10500831442522
 31
0.0
 73
     3
  0
TEXT
  5
6C
  8
DIMNSIONS
 62
     7
 10
119.9999999999999
 20
33.404235000000021
 30
0.0
 40
3.664892578124999
  1
(単位：mm)
 41
0.7
 11
119.9999999999999
 21
37.06912757812502
 31
0.0
 73
     3
  0
LINE
  5
6D
  8
DIMNSIONS
  6
CONTINUOUS
 62
     7
 10
42.5
 20
175.75
 30
0.0
 11
28.25
 21
175.75
 31
0.0
  0
LINE
  5
6E
  8
DIMNSIONS
  6
CONTINUOUS
 62
     7
 10
34.499999999800011
 20
243.75
 30
0.0
 11
28.25
 21
243.75
 31
0.0
  0
LINE
  5
6F
  8
DIMNSIONS
  6
CONTINUOUS
 62
     7
 10
31.25
 20
175.75
 30
0.0
 11
31.25
 21
243.75
 31
0.0
  0
LINE
  5
70
  8
DIMNSIONS
  6
CONTINUOUS
 62
     7
 10
31.25
 20
175.75
 30
0.0
 11
30.244940307274629
 21
179.50093383789061
 31
0.0
  0
LINE
  5
71
  8
DIMNSIONS
  6
CONTINUOUS
 62
     7
 10
31.25
 20
175.75
 30
0.0
 11
32.255059692725382
 21
179.50093383789061
 31
0.0
  0
LINE
  5
72
  8
DIMNSIONS
  6
CONTINUOUS
 62
     7
 10
31.25
 20
243.75
 30
0.0
 11
32.255059692725382
 21
239.99906616210939
 31
0.0
  0
LINE
  5
73
  8
DIMNSIONS
  6
CONTINUOUS
 62
     7
 10
31.25
 20
243.75
 30
0.0
 11
30.244940307274629
 21
239.99906616210939
 31
0.0
  0
TEXT
  5
74
  8
DIMNSIONS
 62
     7
 10
29.17708331362034
 20
206.78666671713191
 30
0.0
 40
3.7896050911917389
  1
68
 50
90.0
 41
0.7
 11
25.387478222428602
 21
206.78666671713191
 31
0.0
 73
     3
  0
LINE
  5
75
  8
DIMNSIONS
  6
CONTINUOUS
 62
     7
 10
34.499999999800011
 20
131.40000000000001
 30
0.0
 11
28.25
 21
131.40000000000001
 31
0.0
  0
LINE
  5
76
  8
DIMNSIONS
  6
CONTINUOUS
 62
     7
 10
34.499999999800011
 20
146.40000000000001
 30
0.0
 11
28.25
 21
146.40000000000001
 31
0.0
  0
LINE
  5
77
  8
DIMNSIONS
  6
CONTINUOUS
 62
     7
 10
31.25
 20
131.40000000000001
 30
0.0
 11
31.25
 21
146.40000000000001
 31
0.0
  0
LINE
  5
78
  8
DIMNSIONS
  6
CONTINUOUS
 62
     7
 10
31.25
 20
131.40000000000001
 30
0.0
 11
30.244940307274629
 21
135.15093383789059
 31
0.0
  0
LINE
  5
79
  8
DIMNSIONS
  6
CONTINUOUS
 62
     7
 10
31.25
 20
131.40000000000001
 30
0.0
 11
32.255059692725382
 21
135.15093383789059
 31
0.0
  0
LINE
  5
7A
  8
DIMNSIONS
  6
CONTINUOUS
 62
     7
 10
31.25
 20
146.40000000000001
 30
0.0
 11
32.255059692725382
 21
142.64906616210931
 31
0.0
  0
LINE
  5
7B
  8
DIMNSIONS
  6
CONTINUOUS
 62
     7
 10
31.25
 20
146.40000000000001
 30
0.0
 11
30.244940307274629
 21
142.64906616210931
 31
0.0
  0
TEXT
  5
7C
  8
DIMNSIONS
 62
     7
 10
29.17708331362034
 20
135.93666671713191
 30
0.0
 40
3.7896050911917389
  1
15
 50
90.0
 41
0.7
 11
25.387478222428602
 21
135.93666671713191
 31
0.0
 73
     3
  0
LINE
  5
7D
  8
DIMNSIONS
  6
CONTINUOUS
 62
     7
 10
38.499999999800011
 20
128.40000000000001
 30
0.0
 11
38.499999999800011
 21
115.90000000000001
 31
0.0
  0
LINE
  5
7E
  8
DIMNSIONS
  6
CONTINUOUS
 62
     7
 10
77.499999999799982
 20
128.40000000000001
 30
0.0
 11
77.499999999799982
 21
115.90000000000001
 31
0.0
  0
LINE
  5
7F
  8
DIMNSIONS
  6
CONTINUOUS
 62
     7
 10
38.499999999800011
 20
118.90000000000001
 30
0.0
 11
77.499999999799982
 21
118.90000000000001
 31
0.0
  0
LINE
  5
80
  8
DIMNSIONS
  6
CONTINUOUS
 62
     7
 10
38.499999999800011
 20
118.90000000000001
 30
0.0
 11
42.250933837690617
 21
119.9050596927253
 31
0.0
  0
LINE
  5
81
  8
DIMNSIONS
  6
CONTINUOUS
 62
     7
 10
38.499999999800011
 20
118.90000000000001
 30
0.0
 11
42.250933837690617
 21
117.8949403072746
 31
0.0
  0
LINE
  5
82
  8
DIMNSIONS
  6
CONTINUOUS
 62
     7
 10
77.499999999799982
 20
118.90000000000001
 30
0.0
 11
73.749066161909369
 21
117.8949403072746
 31
0.0
  0
LINE
  5
83
  8
DIMNSIONS
  6
CONTINUOUS
 62
     7
 10
77.499999999799982
 20
118.90000000000001
 30
0.0
 11
73.749066161909369
 21
119.9050596927253
 31
0.0
  0
TEXT
  5
84
  8
DIMNSIONS
 62
     7
 10
55.036666716931933
 20
120.97291668637961
 30
0.0
 40
3.7896050911917389
  1
39
 41
0.7
 11
55.036666716931933
 21
124.76252177757139
 31
0.0
 73
     3
  0
LINE
  5
85
  8
DIMNSIONS
  6
CONTINUOUS
 62
     7
 10
172.75
 20
175.75
 30
0.0
 11
159.5
 21
175.75
 31
0.0
  0
LINE
  5
86
  8
DIMNSIONS
  6
CONTINUOUS
 62
     7
 10
164.7499999998
 20
243.75
 30
0.0
 11
159.5
 21
243.75
 31
0.0
  0
LINE
  5
87
  8
DIMNSIONS
  6
CONTINUOUS
 62
     7
 10
162.5
 20
175.75
 30
0.0
 11
162.5
 21
243.75
 31
0.0
  0
LINE
  5
88
  8
DIMNSIONS
  6
CONTINUOUS
 62
     7
 10
162.5
 20
175.75
 30
0.0
 11
161.49494030727459
 21
179.50093383789061
 31
0.0
  0
LINE
  5
89
  8
DIMNSIONS
  6
CONTINUOUS
 62
     7
 10
162.5
 20
175.75
 30
0.0
 11
163.50505969272541
 21
179.50093383789061
 31
0.0
  0
LINE
  5
8A
  8
DIMNSIONS
  6
CONTINUOUS
 62
     7
 10
162.5
 20
243.75
 30
0.0
 11
163.50505969272541
 21
239.99906616210939
 31
0.0
  0
LINE
  5
8B
  8
DIMNSIONS
  6
CONTINUOUS
 62
     7
 10
162.5
 20
243.75
 30
0.0
 11
161.49494030727459
 21
239.99906616210939
 31
0.0
  0
TEXT
  5
8C
  8
DIMNSIONS
 62
     7
 10
160.4270833136203
 20
206.78666671713191
 30
0.0
 40
3.7896050911917389
  1
68
 50
90.0
 41
0.7
 11
156.6374782224286
 21
206.78666671713191
 31
0.0
 73
     3
  0
LINE
  5
8D
  8
DIMNSIONS
  6
CONTINUOUS
 62
     7
 10
168.7499999998
 20
128.40000000000001
 30
0.0
 11
168.7499999998
 21
115.90000000000001
 31
0.0
  0
LINE
  5
8E
  8
DIMNSIONS
  6
CONTINUOUS
 62
     7
 10
207.7499999998
 20
128.40000000000001
 30
0.0
 11
207.7499999998
 21
115.90000000000001
 31
0.0
  0
LINE
  5
8F
  8
DIMNSIONS
  6
CONTINUOUS
 62
     7
 10
168.7499999998
 20
118.90000000000001
 30
0.0
 11
207.7499999998
 21
118.90000000000001
 31
0.0
  0
LINE
  5
90
  8
DIMNSIONS
  6
CONTINUOUS
 62
     7
 10
168.7499999998
 20
118.90000000000001
 30
0.0
 11
172.50093383769061
 21
119.9050596927253
 31
0.0
  0
LINE
  5
91
  8
DIMNSIONS
  6
CONTINUOUS
 62
     7
 10
168.7499999998
 20
118.90000000000001
 30
0.0
 11
172.50093383769061
 21
117.8949403072746
 31
0.0
  0
LINE
  5
92
  8
DIMNSIONS
  6
CONTINUOUS
 62
     7
 10
207.7499999998
 20
118.90000000000001
 30
0.0
 11
203.9990661619093
 21
117.8949403072746
 31
0.0
  0
LINE
  5
93
  8
DIMNSIONS
  6
CONTINUOUS
 62
     7
 10
207.7499999998
 20
118.90000000000001
 30
0.0
 11
203.9990661619093
 21
119.9050596927253
 31
0.0
  0
TEXT
  5
94
  8
DIMNSIONS
 62
     7
 10
185.2866667169319
 20
120.97291668637961
 30
0.0
 40
3.7896050911917389
  1
39
 41
0.7
 11
185.2866667169319
 21
124.76252177757139
 31
0.0
 73
     3
  0
LINE
  5
95
  8
DIMNSIONS
  6
CONTINUOUS
 62
     7
 10
165.7499999998
 20
131.40000000000001
 30
0.0
 11
159.5
 21
131.40000000000001
 31
0.0
  0
LINE
  5
96
  8
DIMNSIONS
  6
CONTINUOUS
 62
     7
 10
165.7499999998
 20
146.40000000000001
 30
0.0
 11
159.5
 21
146.40000000000001
 31
0.0
  0
LINE
  5
97
  8
DIMNSIONS
  6
CONTINUOUS
 62
     7
 10
162.5
 20
131.40000000000001
 30
0.0
 11
162.5
 21
146.40000000000001
 31
0.0
  0
LINE
  5
98
  8
DIMNSIONS
  6
CONTINUOUS
 62
     7
 10
162.5
 20
131.40000000000001
 30
0.0
 11
161.49494030727459
 21
135.15093383789059
 31
0.0
  0
LINE
  5
99
  8
DIMNSIONS
  6
CONTINUOUS
 62
     7
 10
162.5
 20
131.40000000000001
 30
0.0
 11
163.50505969272541
 21
135.15093383789059
 31
0.0
  0
LINE
  5
9A
  8
DIMNSIONS
  6
CONTINUOUS
 62
     7
 10
162.5
 20
146.40000000000001
 30
0.0
 11
163.50505969272541
 21
142.64906616210931
 31
0.0
  0
LINE
  5
9B
  8
DIMNSIONS
  6
CONTINUOUS
 62
     7
 10
162.5
 20
146.40000000000001
 30
0.0
 11
161.49494030727459
 21
142.64906616210931
 31
0.0
  0
TEXT
  5
9C
  8
DIMNSIONS
 62
     7
 10
160.4270833136203
 20
135.93666671713191
 30
0.0
 40
3.7896050911917389
  1
15
 50
90.0
 41
0.7
 11
156.6374782224286
 21
135.93666671713191
 31
0.0
 73
     3
  0
TEXT
  5
9D
  8
DATA
 62
     7
 10
30.0
 20
21.356999999999989
 30
0.0
 40
2.4432617187500001
  1
仕様および外観は予告なく変更されることがありますので、ご了承ください。
 41
0.7
 11
30.0
 21
23.80026171874999
 31
0.0
 73
     3
  0
TEXT
  5
9E
  8
DATA
 62
     7
 10
224.77500000000001
 20
31.606633065059562
 30
0.0
 40
3.664892578124999
  1
GEF-DVI-FM1500
 41
0.7
 11
224.77500000000001
 21
35.27152564318456
 31
0.0
 73
     3
  0
TEXT
  5
9F
  8
DATA
 62
     7
 10
224.8320650654141
 20
43.14337015648664
 30
0.0
 40
3.664892578124999
  1
Gefen
 41
0.7
 11
224.8320650654141
 21
46.808262734611638
 31
0.0
 73
     3
  0
TEXT
  5
A0
  8
DATA
 62
     7
 10
221.84999999999999
 20
37.983158215963527
 30
0.0
 40
2.4432617187500001
  1
DVI延長機
 41
0.7
 11
221.84999999999999
 21
40.426419934713522
 31
0.0
 73
     3
  0
LINE
  5
A1
  8
DATA
  6
CONTINUOUS
 62
     7
 10
38.93555309169151
 20
262.5
 30
0.0
 11
77.064446907908447
 21
262.5
 31
0.0
  0
LINE
  5
A2
  8
DATA
  6
CONTINUOUS
 62
     7
 10
38.93555309169151
 20
277.5
 30
0.0
 11
77.064446907908447
 21
277.5
 31
0.0
  0
LINE
  5
A3
  8
DATA
  6
CONTINUOUS
 62
     7
 10
39.499999999799968
 20
264.19999999999999
 30
0.0
 11
76.499999999799982
 21
264.19999999999999
 31
0.0
  0
LINE
  5
A4
  8
DATA
  6
CONTINUOUS
 62
     7
 10
39.499999999799968
 20
275.80000000000001
 30
0.0
 11
76.499999999799982
 21
275.80000000000001
 31
0.0
  0
LINE
  5
A5
  8
DATA
  6
CONTINUOUS
 62
     7
 10
39.499999999799968
 20
264.19999999999999
 30
0.0
 11
39.499999999799968
 21
275.80000000000001
 31
0.0
  0
LINE
  5
A6
  8
DATA
  6
CONTINUOUS
 62
     7
 10
76.499999999799982
 20
264.19999999999999
 30
0.0
 11
76.499999999799982
 21
275.80000000000001
 31
0.0
  0
CIRCLE
  5
A7
  8
DATA
  6
CONTINUOUS
 62
     7
 10
41.649999999799959
 20
270.0
 30
0.0
 40
1.2999999999999969
  0
CIRCLE
  5
A8
  8
DATA
  6
CONTINUOUS
 62
     7
 10
74.349999999799991
 20
270.0
 30
0.0
 40
1.2999999999999969
  0
POLYLINE
  5
A9
  8
DATA
  6
CONTINUOUS
 62
     7
 66
     1
 10
0.0
 20
0.0
 30
0.0
 70
   128
  0
VERTEX
  5
4A1
  8
DATA
  6
CONTINUOUS
 62
     7
 10
70.999999999799996
 20
270.73000000000002
 30
0.0
  0
VERTEX
  5
4A2
  8
DATA
  6
CONTINUOUS
 62
     7
 10
70.999999999799996
 20
266.30000000000001
 30
0.0
 42
-0.4142135623730976
  0
VERTEX
  5
4A3
  8
DATA
  6
CONTINUOUS
 62
     7
 10
70.199999999799999
 20
265.5
 30
0.0
  0
VERTEX
  5
4A4
  8
DATA
  6
CONTINUOUS
 62
     7
 10
45.799999999799958
 20
265.5
 30
0.0
 42
-0.4142135623730898
  0
VERTEX
  5
4A5
  8
DATA
  6
CONTINUOUS
 62
     7
 10
44.999999999799968
 20
266.30000000000001
 30
0.0
  0
VERTEX
  5
4A6
  8
DATA
  6
CONTINUOUS
 62
     7
 10
44.999999999799968
 20
270.73000000000002
 30
0.0
  0
SEQEND
  5
4A7
  8
DATA
  6
CONTINUOUS
 62
     7
  0
LINE
  5
B1
  8
DATA
  6
CONTINUOUS
 62
     7
 10
46.103417038776627
 20
274.5
 30
0.0
 11
69.896582960823352
 21
274.5
 31
0.0
  0
LINE
  5
B2
  8
DATA
  6
CONTINUOUS
 62
     7
 10
70.999999999799996
 20
270.73000000000002
 30
0.0
 11
70.692549753553934
 21
273.78023007459888
 31
0.0
  0
LINE
  5
B3
  8
DATA
  6
CONTINUOUS
 62
     7
 10
44.999999999799968
 20
270.73000000000002
 30
0.0
 11
45.307450246046031
 21
273.78023007459888
 31
0.0
  0
ARC
  5
B4
  8
DATA
  6
CONTINUOUS
 62
     7
 10
69.896582960823352
 20
273.69999999999999
 30
0.0
 40
0.7999999999999937
 50
5.7557316099206988
 51
90.0
  0
ARC
  5
B5
  8
DATA
  6
CONTINUOUS
 62
     7
 10
46.103417038776627
 20
273.69999999999999
 30
0.0
 40
0.7999999999999972
 50
90.0
 51
174.2442683900793
  0
LINE
  5
B6
  8
DATA
  6
CONTINUOUS
 62
     7
 10
39.499999999799968
 20
270.0
 30
0.0
 11
38.499999999800011
 21
270.0
 31
0.0
  0
LINE
  5
B7
  8
DATA
  6
CONTINUOUS
 62
     7
 10
76.499999999799982
 20
270.0
 30
0.0
 11
77.499999999799982
 21
270.0
 31
0.0
  0
POLYLINE
  5
B8
  8
DATA
  6
CONTINUOUS
 62
     7
 66
     1
 10
0.0
 20
0.0
 30
0.0
 70
     1
  0
VERTEX
  5
4A8
  8
DATA
  6
CONTINUOUS
 62
     7
 10
66.551808560229347
 20
270.25
 30
0.0
  0
VERTEX
  5
4A9
  8
DATA
  6
CONTINUOUS
 62
     7
 10
69.051808560229361
 20
270.25
 30
0.0
  0
VERTEX
  5
4AA
  8
DATA
  6
CONTINUOUS
 62
     7
 10
69.051808560229361
 20
269.75
 30
0.0
  0
VERTEX
  5
4AB
  8
DATA
  6
CONTINUOUS
 62
     7
 10
66.551808560229347
 20
269.75
 30
0.0
  0
SEQEND
  5
4AC
  8
DATA
  6
CONTINUOUS
 62
     7
  0
POLYLINE
  5
BF
  8
DATA
  6
CONTINUOUS
 62
     7
 66
     1
 10
0.0
 20
0.0
 30
0.0
 70
     1
  0
VERTEX
  5
4AD
  8
DATA
  6
CONTINUOUS
 62
     7
 10
47.850784584652992
 20
270.63639610306791
 30
0.0
  0
VERTEX
  5
4AE
  8
DATA
  6
CONTINUOUS
 62
     7
 10
48.770023400195541
 20
269.71715728752542
 30
0.0
  0
VERTEX
  5
4AF
  8
DATA
  6
CONTINUOUS
 62
     7
 10
48.41647000960225
 20
269.36360389693209
 30
0.0
  0
VERTEX
  5
4B0
  8
DATA
  6
CONTINUOUS
 62
     7
 10
47.497231194059736
 20
270.28284271247458
 30
0.0
  0
SEQEND
  5
4B1
  8
DATA
  6
CONTINUOUS
 62
     7
  0
POLYLINE
  5
C6
  8
DATA
  6
CONTINUOUS
 62
     7
 66
     1
 10
0.0
 20
0.0
 30
0.0
 70
     1
  0
VERTEX
  5
4B2
  8
DATA
  6
CONTINUOUS
 62
     7
 10
47.850784584652992
 20
272.63639610306791
 30
0.0
  0
VERTEX
  5
4B3
  8
DATA
  6
CONTINUOUS
 62
     7
 10
48.770023400195541
 20
271.71715728752542
 30
0.0
  0
VERTEX
  5
4B4
  8
DATA
  6
CONTINUOUS
 62
     7
 10
48.41647000960225
 20
271.36360389693209
 30
0.0
  0
VERTEX
  5
4B5
  8
DATA
  6
CONTINUOUS
 62
     7
 10
47.497231194059736
 20
272.28284271247458
 30
0.0
  0
SEQEND
  5
4B6
  8
DATA
  6
CONTINUOUS
 62
     7
  0
POLYLINE
  5
CD
  8
DATA
  6
CONTINUOUS
 62
     7
 66
     1
 10
0.0
 20
0.0
 30
0.0
 70
     1
  0
VERTEX
  5
4B7
  8
DATA
  6
CONTINUOUS
 62
     7
 10
47.850784584652992
 20
268.63639610306791
 30
0.0
  0
VERTEX
  5
4B8
  8
DATA
  6
CONTINUOUS
 62
     7
 10
48.770023400195541
 20
267.71715728752542
 30
0.0
  0
VERTEX
  5
4B9
  8
DATA
  6
CONTINUOUS
 62
     7
 10
48.41647000960225
 20
267.36360389693209
 30
0.0
  0
VERTEX
  5
4BA
  8
DATA
  6
CONTINUOUS
 62
     7
 10
47.497231194059736
 20
268.28284271247458
 30
0.0
  0
SEQEND
  5
4BB
  8
DATA
  6
CONTINUOUS
 62
     7
  0
POLYLINE
  5
D4
  8
DATA
  6
CONTINUOUS
 62
     7
 66
     1
 10
0.0
 20
0.0
 30
0.0
 70
     1
  0
VERTEX
  5
4BC
  8
DATA
  6
CONTINUOUS
 62
     7
 10
49.850784584652999
 20
270.63639610306791
 30
0.0
  0
VERTEX
  5
4BD
  8
DATA
  6
CONTINUOUS
 62
     7
 10
50.770023400195541
 20
269.71715728752542
 30
0.0
  0
VERTEX
  5
4BE
  8
DATA
  6
CONTINUOUS
 62
     7
 10
50.41647000960225
 20
269.36360389693209
 30
0.0
  0
VERTEX
  5
4BF
  8
DATA
  6
CONTINUOUS
 62
     7
 10
49.497231194059736
 20
270.28284271247458
 30
0.0
  0
SEQEND
  5
4C0
  8
DATA
  6
CONTINUOUS
 62
     7
  0
POLYLINE
  5
DB
  8
DATA
  6
CONTINUOUS
 62
     7
 66
     1
 10
0.0
 20
0.0
 30
0.0
 70
     1
  0
VERTEX
  5
4C1
  8
DATA
  6
CONTINUOUS
 62
     7
 10
49.850784584652999
 20
272.63639610306791
 30
0.0
  0
VERTEX
  5
4C2
  8
DATA
  6
CONTINUOUS
 62
     7
 10
50.770023400195541
 20
271.71715728752542
 30
0.0
  0
VERTEX
  5
4C3
  8
DATA
  6
CONTINUOUS
 62
     7
 10
50.41647000960225
 20
271.36360389693209
 30
0.0
  0
VERTEX
  5
4C4
  8
DATA
  6
CONTINUOUS
 62
     7
 10
49.497231194059736
 20
272.28284271247458
 30
0.0
  0
SEQEND
  5
4C5
  8
DATA
  6
CONTINUOUS
 62
     7
  0
POLYLINE
  5
E2
  8
DATA
  6
CONTINUOUS
 62
     7
 66
     1
 10
0.0
 20
0.0
 30
0.0
 70
     1
  0
VERTEX
  5
4C6
  8
DATA
  6
CONTINUOUS
 62
     7
 10
49.850784584652999
 20
268.63639610306791
 30
0.0
  0
VERTEX
  5
4C7
  8
DATA
  6
CONTINUOUS
 62
     7
 10
50.770023400195541
 20
267.71715728752542
 30
0.0
  0
VERTEX
  5
4C8
  8
DATA
  6
CONTINUOUS
 62
     7
 10
50.41647000960225
 20
267.36360389693209
 30
0.0
  0
VERTEX
  5
4C9
  8
DATA
  6
CONTINUOUS
 62
     7
 10
49.497231194059736
 20
268.28284271247458
 30
0.0
  0
SEQEND
  5
4CA
  8
DATA
  6
CONTINUOUS
 62
     7
  0
POLYLINE
  5
E9
  8
DATA
  6
CONTINUOUS
 62
     7
 66
     1
 10
0.0
 20
0.0
 30
0.0
 70
     1
  0
VERTEX
  5
4CB
  8
DATA
  6
CONTINUOUS
 62
     7
 10
51.850784584652999
 20
270.63639610306791
 30
0.0
  0
VERTEX
  5
4CC
  8
DATA
  6
CONTINUOUS
 62
     7
 10
52.770023400195541
 20
269.71715728752542
 30
0.0
  0
VERTEX
  5
4CD
  8
DATA
  6
CONTINUOUS
 62
     7
 10
52.416470009602257
 20
269.36360389693209
 30
0.0
  0
VERTEX
  5
4CE
  8
DATA
  6
CONTINUOUS
 62
     7
 10
51.497231194059736
 20
270.28284271247458
 30
0.0
  0
SEQEND
  5
4CF
  8
DATA
  6
CONTINUOUS
 62
     7
  0
POLYLINE
  5
F0
  8
DATA
  6
CONTINUOUS
 62
     7
 66
     1
 10
0.0
 20
0.0
 30
0.0
 70
     1
  0
VERTEX
  5
4D0
  8
DATA
  6
CONTINUOUS
 62
     7
 10
51.850784584652999
 20
272.63639610306791
 30
0.0
  0
VERTEX
  5
4D1
  8
DATA
  6
CONTINUOUS
 62
     7
 10
52.770023400195541
 20
271.71715728752542
 30
0.0
  0
VERTEX
  5
4D2
  8
DATA
  6
CONTINUOUS
 62
     7
 10
52.416470009602257
 20
271.36360389693209
 30
0.0
  0
VERTEX
  5
4D3
  8
DATA
  6
CONTINUOUS
 62
     7
 10
51.497231194059736
 20
272.28284271247458
 30
0.0
  0
SEQEND
  5
4D4
  8
DATA
  6
CONTINUOUS
 62
     7
  0
POLYLINE
  5
F7
  8
DATA
  6
CONTINUOUS
 62
     7
 66
     1
 10
0.0
 20
0.0
 30
0.0
 70
     1
  0
VERTEX
  5
4D5
  8
DATA
  6
CONTINUOUS
 62
     7
 10
51.850784584652999
 20
268.63639610306791
 30
0.0
  0
VERTEX
  5
4D6
  8
DATA
  6
CONTINUOUS
 62
     7
 10
52.770023400195541
 20
267.71715728752542
 30
0.0
  0
VERTEX
  5
4D7
  8
DATA
  6
CONTINUOUS
 62
     7
 10
52.416470009602257
 20
267.36360389693209
 30
0.0
  0
VERTEX
  5
4D8
  8
DATA
  6
CONTINUOUS
 62
     7
 10
51.497231194059736
 20
268.28284271247458
 30
0.0
  0
SEQEND
  5
4D9
  8
DATA
  6
CONTINUOUS
 62
     7
  0
POLYLINE
  5
FE
  8
DATA
  6
CONTINUOUS
 62
     7
 66
     1
 10
0.0
 20
0.0
 30
0.0
 70
     1
  0
VERTEX
  5
4DA
  8
DATA
  6
CONTINUOUS
 62
     7
 10
55.850784584652999
 20
270.63639610306791
 30
0.0
  0
VERTEX
  5
4DB
  8
DATA
  6
CONTINUOUS
 62
     7
 10
56.770023400195541
 20
269.71715728752542
 30
0.0
  0
VERTEX
  5
4DC
  8
DATA
  6
CONTINUOUS
 62
     7
 10
56.416470009602257
 20
269.36360389693209
 30
0.0
  0
VERTEX
  5
4DD
  8
DATA
  6
CONTINUOUS
 62
     7
 10
55.497231194059751
 20
270.28284271247458
 30
0.0
  0
SEQEND
  5
4DE
  8
DATA
  6
CONTINUOUS
 62
     7
  0
POLYLINE
  5
105
  8
DATA
  6
CONTINUOUS
 62
     7
 66
     1
 10
0.0
 20
0.0
 30
0.0
 70
     1
  0
VERTEX
  5
4DF
  8
DATA
  6
CONTINUOUS
 62
     7
 10
55.850784584652999
 20
272.63639610306791
 30
0.0
  0
VERTEX
  5
4E0
  8
DATA
  6
CONTINUOUS
 62
     7
 10
56.770023400195541
 20
271.71715728752542
 30
0.0
  0
VERTEX
  5
4E1
  8
DATA
  6
CONTINUOUS
 62
     7
 10
56.416470009602257
 20
271.36360389693209
 30
0.0
  0
VERTEX
  5
4E2
  8
DATA
  6
CONTINUOUS
 62
     7
 10
55.497231194059751
 20
272.28284271247458
 30
0.0
  0
SEQEND
  5
4E3
  8
DATA
  6
CONTINUOUS
 62
     7
  0
POLYLINE
  5
10C
  8
DATA
  6
CONTINUOUS
 62
     7
 66
     1
 10
0.0
 20
0.0
 30
0.0
 70
     1
  0
VERTEX
  5
4E4
  8
DATA
  6
CONTINUOUS
 62
     7
 10
55.850784584652999
 20
268.63639610306791
 30
0.0
  0
VERTEX
  5
4E5
  8
DATA
  6
CONTINUOUS
 62
     7
 10
56.770023400195541
 20
267.71715728752542
 30
0.0
  0
VERTEX
  5
4E6
  8
DATA
  6
CONTINUOUS
 62
     7
 10
56.416470009602257
 20
267.36360389693209
 30
0.0
  0
VERTEX
  5
4E7
  8
DATA
  6
CONTINUOUS
 62
     7
 10
55.497231194059751
 20
268.28284271247458
 30
0.0
  0
SEQEND
  5
4E8
  8
DATA
  6
CONTINUOUS
 62
     7
  0
POLYLINE
  5
113
  8
DATA
  6
CONTINUOUS
 62
     7
 66
     1
 10
0.0
 20
0.0
 30
0.0
 70
     1
  0
VERTEX
  5
4E9
  8
DATA
  6
CONTINUOUS
 62
     7
 10
57.850784584652992
 20
270.63639610306791
 30
0.0
  0
VERTEX
  5
4EA
  8
DATA
  6
CONTINUOUS
 62
     7
 10
58.770023400195541
 20
269.71715728752542
 30
0.0
  0
VERTEX
  5
4EB
  8
DATA
  6
CONTINUOUS
 62
     7
 10
58.41647000960225
 20
269.36360389693209
 30
0.0
  0
VERTEX
  5
4EC
  8
DATA
  6
CONTINUOUS
 62
     7
 10
57.497231194059736
 20
270.28284271247458
 30
0.0
  0
SEQEND
  5
4ED
  8
DATA
  6
CONTINUOUS
 62
     7
  0
POLYLINE
  5
11A
  8
DATA
  6
CONTINUOUS
 62
     7
 66
     1
 10
0.0
 20
0.0
 30
0.0
 70
     1
  0
VERTEX
  5
4EE
  8
DATA
  6
CONTINUOUS
 62
     7
 10
57.850784584652992
 20
272.63639610306791
 30
0.0
  0
VERTEX
  5
4EF
  8
DATA
  6
CONTINUOUS
 62
     7
 10
58.770023400195541
 20
271.71715728752542
 30
0.0
  0
VERTEX
  5
4F0
  8
DATA
  6
CONTINUOUS
 62
     7
 10
58.41647000960225
 20
271.36360389693209
 30
0.0
  0
VERTEX
  5
4F1
  8
DATA
  6
CONTINUOUS
 62
     7
 10
57.497231194059736
 20
272.28284271247458
 30
0.0
  0
SEQEND
  5
4F2
  8
DATA
  6
CONTINUOUS
 62
     7
  0
POLYLINE
  5
121
  8
DATA
  6
CONTINUOUS
 62
     7
 66
     1
 10
0.0
 20
0.0
 30
0.0
 70
     1
  0
VERTEX
  5
4F3
  8
DATA
  6
CONTINUOUS
 62
     7
 10
57.850784584652992
 20
268.63639610306791
 30
0.0
  0
VERTEX
  5
4F4
  8
DATA
  6
CONTINUOUS
 62
     7
 10
58.770023400195541
 20
267.71715728752542
 30
0.0
  0
VERTEX
  5
4F5
  8
DATA
  6
CONTINUOUS
 62
     7
 10
58.41647000960225
 20
267.36360389693209
 30
0.0
  0
VERTEX
  5
4F6
  8
DATA
  6
CONTINUOUS
 62
     7
 10
57.497231194059736
 20
268.28284271247458
 30
0.0
  0
SEQEND
  5
4F7
  8
DATA
  6
CONTINUOUS
 62
     7
  0
POLYLINE
  5
128
  8
DATA
  6
CONTINUOUS
 62
     7
 66
     1
 10
0.0
 20
0.0
 30
0.0
 70
     1
  0
VERTEX
  5
4F8
  8
DATA
  6
CONTINUOUS
 62
     7
 10
59.850784584652999
 20
270.63639610306791
 30
0.0
  0
VERTEX
  5
4F9
  8
DATA
  6
CONTINUOUS
 62
     7
 10
60.770023400195541
 20
269.71715728752542
 30
0.0
  0
VERTEX
  5
4FA
  8
DATA
  6
CONTINUOUS
 62
     7
 10
60.41647000960225
 20
269.36360389693209
 30
0.0
  0
VERTEX
  5
4FB
  8
DATA
  6
CONTINUOUS
 62
     7
 10
59.497231194059736
 20
270.28284271247458
 30
0.0
  0
SEQEND
  5
4FC
  8
DATA
  6
CONTINUOUS
 62
     7
  0
POLYLINE
  5
12F
  8
DATA
  6
CONTINUOUS
 62
     7
 66
     1
 10
0.0
 20
0.0
 30
0.0
 70
     1
  0
VERTEX
  5
4FD
  8
DATA
  6
CONTINUOUS
 62
     7
 10
59.850784584652999
 20
272.63639610306791
 30
0.0
  0
VERTEX
  5
4FE
  8
DATA
  6
CONTINUOUS
 62
     7
 10
60.770023400195541
 20
271.71715728752542
 30
0.0
  0
VERTEX
  5
4FF
  8
DATA
  6
CONTINUOUS
 62
     7
 10
60.41647000960225
 20
271.36360389693209
 30
0.0
  0
VERTEX
  5
500
  8
DATA
  6
CONTINUOUS
 62
     7
 10
59.497231194059736
 20
272.28284271247458
 30
0.0
  0
SEQEND
  5
501
  8
DATA
  6
CONTINUOUS
 62
     7
  0
POLYLINE
  5
136
  8
DATA
  6
CONTINUOUS
 62
     7
 66
     1
 10
0.0
 20
0.0
 30
0.0
 70
     1
  0
VERTEX
  5
502
  8
DATA
  6
CONTINUOUS
 62
     7
 10
59.850784584652999
 20
268.63639610306791
 30
0.0
  0
VERTEX
  5
503
  8
DATA
  6
CONTINUOUS
 62
     7
 10
60.770023400195541
 20
267.71715728752542
 30
0.0
  0
VERTEX
  5
504
  8
DATA
  6
CONTINUOUS
 62
     7
 10
60.41647000960225
 20
267.36360389693209
 30
0.0
  0
VERTEX
  5
505
  8
DATA
  6
CONTINUOUS
 62
     7
 10
59.497231194059736
 20
268.28284271247458
 30
0.0
  0
SEQEND
  5
506
  8
DATA
  6
CONTINUOUS
 62
     7
  0
POLYLINE
  5
13D
  8
DATA
  6
CONTINUOUS
 62
     7
 66
     1
 10
0.0
 20
0.0
 30
0.0
 70
     1
  0
VERTEX
  5
507
  8
DATA
  6
CONTINUOUS
 62
     7
 10
61.850784584652999
 20
270.63639610306791
 30
0.0
  0
VERTEX
  5
508
  8
DATA
  6
CONTINUOUS
 62
     7
 10
62.770023400195541
 20
269.71715728752542
 30
0.0
  0
VERTEX
  5
509
  8
DATA
  6
CONTINUOUS
 62
     7
 10
62.416470009602257
 20
269.36360389693209
 30
0.0
  0
VERTEX
  5
50A
  8
DATA
  6
CONTINUOUS
 62
     7
 10
61.497231194059736
 20
270.28284271247458
 30
0.0
  0
SEQEND
  5
50B
  8
DATA
  6
CONTINUOUS
 62
     7
  0
POLYLINE
  5
144
  8
DATA
  6
CONTINUOUS
 62
     7
 66
     1
 10
0.0
 20
0.0
 30
0.0
 70
     1
  0
VERTEX
  5
50C
  8
DATA
  6
CONTINUOUS
 62
     7
 10
61.850784584652999
 20
272.63639610306791
 30
0.0
  0
VERTEX
  5
50D
  8
DATA
  6
CONTINUOUS
 62
     7
 10
62.770023400195541
 20
271.71715728752542
 30
0.0
  0
VERTEX
  5
50E
  8
DATA
  6
CONTINUOUS
 62
     7
 10
62.416470009602257
 20
271.36360389693209
 30
0.0
  0
VERTEX
  5
50F
  8
DATA
  6
CONTINUOUS
 62
     7
 10
61.497231194059736
 20
272.28284271247458
 30
0.0
  0
SEQEND
  5
510
  8
DATA
  6
CONTINUOUS
 62
     7
  0
POLYLINE
  5
14B
  8
DATA
  6
CONTINUOUS
 62
     7
 66
     1
 10
0.0
 20
0.0
 30
0.0
 70
     1
  0
VERTEX
  5
511
  8
DATA
  6
CONTINUOUS
 62
     7
 10
61.850784584652999
 20
268.63639610306791
 30
0.0
  0
VERTEX
  5
512
  8
DATA
  6
CONTINUOUS
 62
     7
 10
62.770023400195541
 20
267.71715728752542
 30
0.0
  0
VERTEX
  5
513
  8
DATA
  6
CONTINUOUS
 62
     7
 10
62.416470009602257
 20
267.36360389693209
 30
0.0
  0
VERTEX
  5
514
  8
DATA
  6
CONTINUOUS
 62
     7
 10
61.497231194059736
 20
268.28284271247458
 30
0.0
  0
SEQEND
  5
515
  8
DATA
  6
CONTINUOUS
 62
     7
  0
LINE
  5
152
  8
DATA
  6
CONTINUOUS
 62
     7
 10
96.250000000300005
 20
236.52006852957561
 30
0.0
 11
96.250000000300005
 21
237.2500000000511
 31
0.0
  0
LINE
  5
153
  8
DATA
  6
CONTINUOUS
 62
     7
 10
81.250000000299991
 20
175.74999999995109
 30
0.0
 11
85.750000000300005
 21
175.74999999995109
 31
0.0
  0
LINE
  5
154
  8
DATA
  6
CONTINUOUS
 62
     7
 10
91.750000000300005
 20
175.74999999995109
 30
0.0
 11
96.250000000300005
 21
175.74999999995109
 31
0.0
  0
LINE
  5
155
  8
DATA
  6
CONTINUOUS
 62
     7
 10
81.250000000299991
 20
243.749999999951
 30
0.0
 11
83.250000000300005
 21
243.749999999951
 31
0.0
  0
LINE
  5
156
  8
DATA
  6
CONTINUOUS
 62
     7
 10
94.250000000300005
 20
243.749999999951
 30
0.0
 11
96.250000000300005
 21
243.749999999951
 31
0.0
  0
LINE
  5
157
  8
DATA
  6
CONTINUOUS
 62
     7
 10
84.250000000299991
 20
248.749999999951
 30
0.0
 11
93.250000000300005
 21
248.749999999951
 31
0.0
  0
LINE
  5
158
  8
DATA
  6
CONTINUOUS
 62
     7
 10
81.250000000299991
 20
240.749999999951
 30
0.0
 11
96.250000000300005
 21
240.749999999951
 31
0.0
  0
LINE
  5
159
  8
DATA
  6
CONTINUOUS
 62
     7
 10
88.750000000300005
 20
242.9499999999511
 30
0.0
 11
88.750000000300005
 21
240.749999999951
 31
0.0
  0
TEXT
  5
15A
  8
DATA
 62
     7
 10
50.082989581219401
 20
107.95599081026521
 30
0.0
 40
4.072102864583333
  1
SENDER
 41
0.7
 11
50.082989581219401
 21
112.02809367484851
 31
0.0
 73
     3
  0
LINE
  5
15B
  8
DATA
  6
CONTINUOUS
 62
     7
 10
47.47999999999999
 20
106.20000000029999
 30
0.0
 11
69.389999999999986
 21
106.20000000029999
 31
0.0
  0
LINE
  5
15C
  8
DATA
  6
CONTINUOUS
 62
     7
 10
76.499999999799982
 20
270.0
 30
0.0
 11
77.499999999799982
 21
270.0
 31
0.0
  0
LINE
  5
15D
  8
DATA
  6
CONTINUOUS
 62
     7
 10
44.999999999799968
 20
248.75
 30
0.0
 11
44.999999999799968
 21
243.75
 31
0.0
  0
LINE
  5
15E
  8
DATA
  6
CONTINUOUS
 62
     7
 10
70.999999999799996
 20
248.75
 30
0.0
 11
70.999999999799996
 21
243.75
 31
0.0
  0
LINE
  5
15F
  8
DATA
  6
CONTINUOUS
 62
     7
 10
44.999999999799989
 20
248.75
 30
0.0
 11
70.999999999799996
 21
248.75
 31
0.0
  0
LINE
  5
160
  8
DATA
  6
CONTINUOUS
 62
     7
 10
40.349999999799962
 20
243.75
 30
0.0
 11
40.349999999799962
 21
246.75
 31
0.0
  0
LINE
  5
161
  8
DATA
  6
CONTINUOUS
 62
     7
 10
42.94999999979995
 20
246.75
 30
0.0
 11
42.94999999979995
 21
243.75
 31
0.0
  0
LINE
  5
162
  8
DATA
  6
CONTINUOUS
 62
     7
 10
40.349999999799962
 20
246.75
 30
0.0
 11
42.94999999979995
 21
246.75
 31
0.0
  0
LINE
  5
163
  8
DATA
  6
CONTINUOUS
 62
     7
 10
40.349999999799962
 20
243.75
 30
0.0
 11
42.94999999979995
 21
244.20845014984201
 31
0.0
  0
LINE
  5
164
  8
DATA
  6
CONTINUOUS
 62
     7
 10
40.349999999799962
 20
244.55000000000001
 30
0.0
 11
42.94999999979995
 21
245.00845014984199
 31
0.0
  0
LINE
  5
165
  8
DATA
  6
CONTINUOUS
 62
     7
 10
40.349999999799962
 20
245.34999999999999
 30
0.0
 11
42.94999999979995
 21
245.808450149842
 31
0.0
  0
LINE
  5
166
  8
DATA
  6
CONTINUOUS
 62
     7
 10
40.349999999799962
 20
246.15000000000001
 30
0.0
 11
42.94999999979995
 21
246.60845014984201
 31
0.0
  0
LINE
  5
167
  8
DATA
  6
CONTINUOUS
 62
     7
 10
38.499999999800011
 20
243.75
 30
0.0
 11
77.499999999799982
 21
243.75
 31
0.0
  0
LINE
  5
168
  8
DATA
  6
CONTINUOUS
 62
     7
 10
73.049999999799965
 20
243.75
 30
0.0
 11
73.049999999799965
 21
246.75
 31
0.0
  0
LINE
  5
169
  8
DATA
  6
CONTINUOUS
 62
     7
 10
75.649999999799974
 20
246.75
 30
0.0
 11
75.649999999799974
 21
243.75
 31
0.0
  0
LINE
  5
16A
  8
DATA
  6
CONTINUOUS
 62
     7
 10
73.049999999799965
 20
246.75
 30
0.0
 11
75.649999999799974
 21
246.75
 31
0.0
  0
LINE
  5
16B
  8
DATA
  6
CONTINUOUS
 62
     7
 10
73.049999999799965
 20
243.75
 30
0.0
 11
75.649999999799974
 21
244.20845014984201
 31
0.0
  0
LINE
  5
16C
  8
DATA
  6
CONTINUOUS
 62
     7
 10
73.049999999799965
 20
244.55000000000001
 30
0.0
 11
75.649999999799974
 21
245.00845014984199
 31
0.0
  0
LINE
  5
16D
  8
DATA
  6
CONTINUOUS
 62
     7
 10
73.049999999799965
 20
245.34999999999999
 30
0.0
 11
75.649999999799974
 21
245.808450149842
 31
0.0
  0
LINE
  5
16E
  8
DATA
  6
CONTINUOUS
 62
     7
 10
73.049999999799965
 20
246.15000000000001
 30
0.0
 11
75.649999999799974
 21
246.60845014984201
 31
0.0
  0
LINE
  5
16F
  8
DATA
  6
CONTINUOUS
 62
     7
 10
45.499999999999993
 20
175.75
 30
0.0
 11
70.5
 21
175.75
 31
0.0
  0
LINE
  5
170
  8
DATA
  6
CONTINUOUS
 62
     7
 10
45.499999999999993
 20
175.75
 30
0.0
 11
38.499999999800011
 21
184.50000000003129
 31
0.0
  0
LINE
  5
171
  8
DATA
  6
CONTINUOUS
 62
     7
 10
70.5
 20
175.75
 30
0.0
 11
77.499999999799982
 21
184.49999999996879
 31
0.0
  0
POLYLINE
  5
172
  8
DATA
  6
CONTINUOUS
 62
     7
 66
     1
 10
0.0
 20
0.0
 30
0.0
  0
VERTEX
  5
516
  8
DATA
  6
CONTINUOUS
 62
     7
 10
43.799999999799958
 20
177.87500000019691
 30
0.0
  0
VERTEX
  5
517
  8
DATA
  6
CONTINUOUS
 62
     7
 10
43.799999999799958
 20
170.75
 30
0.0
  0
VERTEX
  5
518
  8
DATA
  6
CONTINUOUS
 62
     7
 10
39.499999999799968
 20
170.75
 30
0.0
  0
VERTEX
  5
519
  8
DATA
  6
CONTINUOUS
 62
     7
 10
39.499999999799968
 20
183.2500000000625
 30
0.0
  0
SEQEND
  5
51A
  8
DATA
  6
CONTINUOUS
 62
     7
  0
POLYLINE
  5
179
  8
DATA
  6
CONTINUOUS
 62
     7
 66
     1
 10
0.0
 20
0.0
 30
0.0
  0
VERTEX
  5
51B
  8
DATA
  6
CONTINUOUS
 62
     7
 10
76.499999999800011
 20
183.2499999999375
 30
0.0
  0
VERTEX
  5
51C
  8
DATA
  6
CONTINUOUS
 62
     7
 10
76.499999999800011
 20
170.75
 30
0.0
  0
VERTEX
  5
51D
  8
DATA
  6
CONTINUOUS
 62
     7
 10
72.199999999800013
 20
170.75
 30
0.0
  0
VERTEX
  5
51E
  8
DATA
  6
CONTINUOUS
 62
     7
 10
72.199999999800013
 20
177.87499999980309
 30
0.0
  0
SEQEND
  5
51F
  8
DATA
  6
CONTINUOUS
 62
     7
  0
LINE
  5
180
  8
DATA
  6
CONTINUOUS
 62
     7
 10
42.499999999800018
 20
238.75
 30
0.0
 11
73.499999999799982
 21
238.75
 31
0.0
  0
LINE
  5
181
  8
DATA
  6
CONTINUOUS
 62
     7
 10
42.499999999800018
 20
232.75
 30
0.0
 11
73.499999999799982
 21
232.75
 31
0.0
  0
LINE
  5
182
  8
DATA
  6
CONTINUOUS
 62
     7
 10
42.499999999800018
 20
232.75
 30
0.0
 11
73.499999999799982
 21
232.75
 31
0.0
  0
LINE
  5
183
  8
DATA
  6
CONTINUOUS
 62
     7
 10
42.499999999800018
 20
232.75
 30
0.0
 11
42.499999999800018
 21
238.75
 31
0.0
  0
LINE
  5
184
  8
DATA
  6
CONTINUOUS
 62
     7
 10
73.499999999799982
 20
232.75
 30
0.0
 11
73.499999999799982
 21
238.75
 31
0.0
  0
LINE
  5
185
  8
DATA
  6
CONTINUOUS
 62
     7
 10
49.0
 20
178.75
 30
0.0
 11
67.0
 21
178.75
 31
0.0
  0
LINE
  5
186
  8
DATA
  6
CONTINUOUS
 62
     7
 10
46.52117294042425
 20
200.75
 30
0.0
 11
69.478827059575764
 21
200.75
 31
0.0
  0
ARC
  5
187
  8
DATA
  6
CONTINUOUS
 62
     7
 10
150.7229527249944
 20
203.79617231299599
 30
0.0
 40
104.7621036059867
 50
181.94912527504479
 51
193.8323312792528
  0
ARC
  5
188
  8
DATA
  6
CONTINUOUS
 62
     7
 10
-34.722952724994371
 20
203.79617231299599
 30
0.0
 40
104.7621036059867
 50
346.1676687207472
 51
358.05087472495512
  0
CIRCLE
  5
189
  8
DATA
  6
CONTINUOUS
 62
     7
 10
66.627274194338426
 20
197.1560787342562
 30
0.0
 40
0.7500000000000853
  0
TEXT
  5
18A
  8
DATA
 62
     7
 10
60.836929775536852
 20
196.75170302694929
 30
0.0
 40
0.7579210069444442
  1
STATUS
 41
0.7
 11
60.836929775536852
 21
197.50962403389369
 31
0.0
 73
     3
  0
CIRCLE
  5
18B
  8
DATA
  6
CONTINUOUS
 62
     7
 10
66.627274194338426
 20
188.9497791032737
 30
0.0
 40
0.7500000000000853
  0
TEXT
  5
18C
  8
DATA
 62
     7
 10
60.836929775536852
 20
188.54540339596679
 30
0.0
 40
0.7579210069444442
  1
POWER
 41
0.7
 11
60.836929775536852
 21
189.3033244029113
 31
0.0
 73
     3
  0
TEXT
  5
18D
  8
DATA
 62
     7
 10
54.703278989233311
 20
184.47648538449681
 30
0.0
 40
1.1368815104166661
  1
SENDER
 41
0.7
 11
54.703278989233311
 21
185.61336689491341
 31
0.0
 73
     3
  0
ARC
  5
18E
  8
DATA
  6
CONTINUOUS
 62
     7
 10
46.52117294042425
 20
200.25
 30
0.0
 40
0.5000000000000142
 50
90.0
 51
181.94912527504309
  0
ARC
  5
18F
  8
DATA
  6
CONTINUOUS
 62
     7
 10
69.478827059575764
 20
200.25
 30
0.0
 40
0.5000000000000177
 50
358.050874724957
 51
90.0
  0
LINE
  5
190
  8
DATA
  6
CONTINUOUS
 62
     7
 10
45.499999999999993
 20
175.75
 30
0.0
 11
41.029935117463957
 21
184.2032910154889
 31
0.0
  0
LINE
  5
191
  8
DATA
  6
CONTINUOUS
 62
     7
 10
40.450000000000003
 20
186.54060281201319
 30
0.0
 11
40.450000000000003
 21
202.35699241700769
 31
0.0
  0
ARC
  5
192
  8
DATA
  6
CONTINUOUS
 62
     7
 10
45.45000000000001
 20
186.54060281201319
 30
0.0
 40
5.0000000000000142
 50
179.99999999999989
 51
207.86969847315621
  0
LINE
  5
193
  8
DATA
  6
CONTINUOUS
 62
     7
 10
45.823386706696532
 20
232.75
 30
0.0
 11
43.264409720600682
 21
230.3466400199749
 31
0.0
  0
LINE
  5
194
  8
DATA
  6
CONTINUOUS
 62
     7
 10
41.652999646008951
 20
230.70004342687159
 30
0.0
 11
38.499999999800011
 21
238.4819148941107
 31
0.0
  0
ARC
  5
195
  8
DATA
  6
CONTINUOUS
 62
     7
 10
42.579814081807228
 20
231.07556306896231
 30
0.0
 40
0.9999999999999971
 50
202.0564335270395
 51
313.20381472555562
  0
LINE
  5
196
  8
DATA
  6
CONTINUOUS
 62
     7
 10
70.07661329330351
 20
232.75
 30
0.0
 11
72.635590279399352
 21
230.3466400199749
 31
0.0
  0
LINE
  5
197
  8
DATA
  6
CONTINUOUS
 62
     7
 10
74.247000353991055
 20
230.70004342687159
 30
0.0
 11
77.499999999799982
 21
238.72872340376171
 31
0.0
  0
ARC
  5
198
  8
DATA
  6
CONTINUOUS
 62
     7
 10
73.320185918192792
 20
231.07556306896231
 30
0.0
 40
1.0
 50
226.79618527444441
 51
337.94356647296053
  0
LINE
  5
199
  8
DATA
  6
CONTINUOUS
 62
     7
 10
40.450000000000003
 20
193.14060281201321
 30
0.0
 11
40.450000000000003
 21
208.9569924170076
 31
0.0
  0
ARC
  5
19A
  8
DATA
  6
CONTINUOUS
 62
     7
 10
58.231468531468543
 20
214.3115384615385
 30
0.0
 40
18.491053997812632
 50
197.017100595664
 51
228.79338525031179
  0
LINE
  5
19B
  8
DATA
  6
CONTINUOUS
 62
     7
 10
70.794980694995132
 20
176.1187258687531
 30
0.0
 11
75.070064882536059
 21
184.2032910154889
 31
0.0
  0
LINE
  5
19C
  8
DATA
  6
CONTINUOUS
 62
     7
 10
75.65000000000002
 20
186.54060281201319
 30
0.0
 11
75.65000000000002
 21
202.35699241700769
 31
0.0
  0
ARC
  5
19D
  8
DATA
  6
CONTINUOUS
 62
     7
 10
70.65000000000002
 20
186.54060281201319
 30
0.0
 40
4.9999999999999991
 50
332.13030152684382
 51
0.0000000000001705
  0
LINE
  5
19E
  8
DATA
  6
CONTINUOUS
 62
     7
 10
75.65000000000002
 20
193.14060281201321
 30
0.0
 11
75.65000000000002
 21
208.9569924170076
 31
0.0
  0
ARC
  5
19F
  8
DATA
  6
CONTINUOUS
 62
     7
 10
57.868531468531472
 20
214.3115384615385
 30
0.0
 40
18.491053997812632
 50
311.20661474968819
 51
342.98289940433602
  0
LINE
  5
1A0
  8
DATA
  6
CONTINUOUS
 62
     7
 10
57.650000000000013
 20
206.19999999999999
 30
0.0
 11
47.330188818083791
 21
206.19999999999999
 31
0.0
  0
LINE
  5
1A1
  8
DATA
  6
CONTINUOUS
 62
     7
 10
55.450000000000003
 20
206.19999999999999
 30
0.0
 11
45.130188818083802
 21
206.19999999999999
 31
0.0
  0
ARC
  5
1A2
  8
DATA
  6
CONTINUOUS
 62
     7
 10
47.466129032258138
 20
215.759677419355
 30
0.0
 40
9.8131880777728409
 50
226.00555322816811
 51
256.9482095592079
  0
LINE
  5
1A3
  8
DATA
  6
CONTINUOUS
 62
     7
 10
58.450000000000017
 20
206.19999999999999
 30
0.0
 11
68.769811181916225
 21
206.19999999999999
 31
0.0
  0
LINE
  5
1A4
  8
DATA
  6
CONTINUOUS
 62
     7
 10
60.65000000000002
 20
206.19999999999999
 30
0.0
 11
70.969811181916242
 21
206.19999999999999
 31
0.0
  0
ARC
  5
1A5
  8
DATA
  6
CONTINUOUS
 62
     7
 10
68.633870967741871
 20
215.759677419355
 30
0.0
 40
9.8131880777728409
 50
283.0517904407921
 51
313.99444677183192
  0
LINE
  5
1A6
  8
DATA
  6
CONTINUOUS
 62
     7
 10
58.550000000000011
 20
206.19999999999999
 30
0.0
 11
48.230188818083803
 21
206.19999999999999
 31
0.0
  0
LINE
  5
1A7
  8
DATA
  6
CONTINUOUS
 62
     7
 10
38.499999999800011
 20
277.5
 30
0.0
 11
69.378893816216959
 21
277.5
 31
0.0
  0
LINE
  5
1A8
  8
DATA
  6
CONTINUOUS
 62
     7
 10
81.250000000299991
 20
187.74999999995109
 30
0.0
 11
81.250000000299991
 21
200.0895013021894
 31
0.0
  0
LINE
  5
1A9
  8
DATA
  6
CONTINUOUS
 62
     7
 10
81.250000000299991
 20
237.56338027241901
 30
0.0
 11
81.250000000299991
 21
243.749999999951
 31
0.0
  0
LINE
  5
1AA
  8
DATA
  6
CONTINUOUS
 62
     7
 10
96.250000000300005
 20
187.74999999995109
 30
0.0
 11
96.250000000300005
 21
200.55779398230649
 31
0.0
  0
LINE
  5
1AB
  8
DATA
  6
CONTINUOUS
 62
     7
 10
96.250000000300005
 20
236.52006852957561
 30
0.0
 11
96.250000000300005
 21
243.749999999951
 31
0.0
  0
LINE
  5
1AC
  8
DATA
  6
CONTINUOUS
 62
     7
 10
87.449999999799971
 20
246.75
 30
0.0
 11
90.049999999799994
 21
246.75
 31
0.0
  0
LINE
  5
1AD
  8
DATA
  6
CONTINUOUS
 62
     7
 10
87.449999999799971
 20
243.75
 30
0.0
 11
90.049999999799994
 21
244.20845014984201
 31
0.0
  0
LINE
  5
1AE
  8
DATA
  6
CONTINUOUS
 62
     7
 10
87.449999999799971
 20
244.55000000000001
 30
0.0
 11
90.049999999799994
 21
245.00845014984199
 31
0.0
  0
LINE
  5
1AF
  8
DATA
  6
CONTINUOUS
 62
     7
 10
87.449999999799971
 20
245.34999999999999
 30
0.0
 11
90.049999999799994
 21
245.808450149842
 31
0.0
  0
LINE
  5
1B0
  8
DATA
  6
CONTINUOUS
 62
     7
 10
87.449999999799971
 20
246.15000000000001
 30
0.0
 11
90.049999999799994
 21
246.60845014984201
 31
0.0
  0
POLYLINE
  5
1B1
  8
DATA
  6
CONTINUOUS
 62
     7
 66
     1
 10
0.0
 20
0.0
 30
0.0
  0
VERTEX
  5
520
  8
DATA
  6
CONTINUOUS
 62
     7
 10
90.900000000299997
 20
183.49039109496701
 30
0.0
  0
VERTEX
  5
521
  8
DATA
  6
CONTINUOUS
 62
     7
 10
90.900000000299997
 20
170.75
 30
0.0
  0
VERTEX
  5
522
  8
DATA
  6
CONTINUOUS
 62
     7
 10
86.600000000300014
 20
170.75
 30
0.0
  0
VERTEX
  5
523
  8
DATA
  6
CONTINUOUS
 62
     7
 10
86.600000000300014
 20
183.49039109496701
 30
0.0
  0
SEQEND
  5
524
  8
DATA
  6
CONTINUOUS
 62
     7
  0
LINE
  5
1B8
  8
DATA
  6
CONTINUOUS
 62
     7
 10
82.100000000300014
 20
175.74999999995109
 30
0.0
 11
86.600000000300014
 21
175.74999999995109
 31
0.0
  0
LINE
  5
1B9
  8
DATA
  6
CONTINUOUS
 62
     7
 10
90.900000000299997
 20
175.74999999995109
 30
0.0
 11
93.647426259506815
 21
175.74999999995109
 31
0.0
  0
ARC
  5
1BA
  8
DATA
  6
CONTINUOUS
 62
     7
 10
88.126112919155375
 20
188.91919110466989
 30
0.0
 40
5.6392278005456307
 50
188.58024296744131
 51
268.92392904035643
  0
ARC
  5
1BB
  8
DATA
  6
CONTINUOUS
 62
     7
 10
89.373887081444664
 20
188.91919110466989
 30
0.0
 40
5.6392278005456333
 50
273.53304661732062
 51
351.41975703255861
  0
ARC
  5
1BC
  8
DATA
  6
CONTINUOUS
 62
     7
 10
88.813235575970197
 20
193.3581221992408
 30
0.0
 40
10.10831999563128
 50
265.50035810843758
 51
275.15459076883081
  0
LINE
  5
1BD
  8
DATA
  6
CONTINUOUS
 62
     7
 10
83.250000000300005
 20
242.9499999999511
 30
0.0
 11
83.250000000300005
 21
243.749999999951
 31
0.0
  0
LINE
  5
1BE
  8
DATA
  6
CONTINUOUS
 62
     7
 10
94.250000000300005
 20
242.9499999999511
 30
0.0
 11
83.250000000300005
 21
242.9499999999511
 31
0.0
  0
LINE
  5
1BF
  8
DATA
  6
CONTINUOUS
 62
     7
 10
94.250000000300005
 20
243.749999999951
 30
0.0
 11
94.250000000300005
 21
242.9499999999511
 31
0.0
  0
LINE
  5
1C0
  8
DATA
  6
CONTINUOUS
 62
     7
 10
84.250000000299991
 20
248.749999999951
 30
0.0
 11
84.250000000299991
 21
242.9499999999511
 31
0.0
  0
LINE
  5
1C1
  8
DATA
  6
CONTINUOUS
 62
     7
 10
93.250000000300005
 20
248.749999999951
 30
0.0
 11
93.250000000300005
 21
242.9499999999511
 31
0.0
  0
LINE
  5
1C2
  8
DATA
  6
CONTINUOUS
 62
     7
 10
87.449999999799971
 20
246.75
 30
0.0
 11
87.449999999799971
 21
242.9499999999511
 31
0.0
  0
LINE
  5
1C3
  8
DATA
  6
CONTINUOUS
 62
     7
 10
90.049999999799994
 20
246.75
 30
0.0
 11
90.049999999799994
 21
242.9499999999511
 31
0.0
  0
ARC
  5
1C4
  8
DATA
  6
CONTINUOUS
 62
     7
 10
89.541805377720848
 20
237.8316901408451
 30
0.0
 40
8.2961452857649736
 50
178.1466448301523
 51
222.7524503914328
  0
ARC
  5
1C5
  8
DATA
  6
CONTINUOUS
 62
     7
 10
88.058194622279146
 20
237.8316901408451
 30
0.0
 40
8.2961452857649576
 50
317.24754960856711
 51
350.90336211570121
  0
LINE
  5
1C6
  8
DATA
  6
CONTINUOUS
 62
     7
 10
82.850000000000009
 20
208.8491517886321
 30
0.0
 11
82.850000000000009
 21
232.92804176547941
 31
0.0
  0
LINE
  5
1C7
  8
DATA
  6
CONTINUOUS
 62
     7
 10
94.650000000000006
 20
232.7944162288197
 30
0.0
 11
94.650000000000006
 21
209.3174444715589
 31
0.0
  0
LINE
  5
1C8
  8
DATA
  6
CONTINUOUS
 62
     7
 10
81.426390044139055
 20
201.760168011578
 30
0.0
 11
82.761804978080448
 21
208.01381843393779
 31
0.0
  0
LINE
  5
1C9
  8
DATA
  6
CONTINUOUS
 62
     7
 10
96.07360995646097
 20
202.22846069169509
 30
0.0
 11
94.738195021919523
 21
208.48211111686459
 31
0.0
  0
LINE
  5
1CA
  8
DATA
  6
CONTINUOUS
 62
     7
 10
81.250000000299991
 20
187.74999999995109
 30
0.0
 11
81.250000000299991
 21
175.74999999995109
 31
0.0
  0
LINE
  5
1CB
  8
DATA
  6
CONTINUOUS
 62
     7
 10
96.250000000300005
 20
187.74999999995109
 30
0.0
 11
96.250000000300005
 21
175.74999999995109
 31
0.0
  0
LINE
  5
1CC
  8
DATA
  6
CONTINUOUS
 62
     7
 10
82.550000000000026
 20
188.07784997333519
 30
0.0
 11
82.550000000000026
 21
198.7073271497153
 31
0.0
  0
LINE
  5
1CD
  8
DATA
  6
CONTINUOUS
 62
     7
 10
94.950000000599999
 20
188.07784997333519
 30
0.0
 11
94.950000000599999
 21
198.7073271497153
 31
0.0
  0
LINE
  5
1CE
  8
DATA
  6
CONTINUOUS
 62
     7
 10
84.408066031882328
 20
184.67925979266889
 30
0.0
 11
85.304299958014568
 21
179.5964646212708
 31
0.0
  0
LINE
  5
1CF
  8
DATA
  6
CONTINUOUS
 62
     7
 10
93.091933968717626
 20
184.67925979266889
 30
0.0
 11
92.195700042585415
 21
179.5964646212708
 31
0.0
  0
LINE
  5
1D0
  8
DATA
  6
CONTINUOUS
 62
     7
 10
85.304299958014568
 20
179.5964646212708
 30
0.0
 11
86.600000000300014
 21
179.5964646212708
 31
0.0
  0
LINE
  5
1D1
  8
DATA
  6
CONTINUOUS
 62
     7
 10
90.900000000299997
 20
179.5964646212708
 30
0.0
 11
92.195700042585415
 21
179.5964646212708
 31
0.0
  0
ARC
  5
1D2
  8
DATA
  6
CONTINUOUS
 62
     7
 10
78.850000000000023
 20
208.8491517886321
 30
0.0
 40
3.9999999999999849
 50
347.94600832309129
 51
0.0000000000002274
  0
ARC
  5
1D3
  8
DATA
  6
CONTINUOUS
 62
     7
 10
98.650000000000006
 20
209.3174444715589
 30
0.0
 40
4.0000000000000071
 50
179.99999999999969
 51
192.05399167690871
  0
ARC
  5
1D4
  8
DATA
  6
CONTINUOUS
 62
     7
 10
89.250000000300005
 20
200.0895013021894
 30
0.0
 40
7.9999999999999867
 50
167.94600832309129
 51
180.0000000000002
  0
ARC
  5
1D5
  8
DATA
  6
CONTINUOUS
 62
     7
 10
88.250000000300005
 20
200.55779398230649
 30
0.0
 40
8.0
 50
0.0
 51
12.053991676908939
  0
LINE
  5
1D6
  8
DATA
  6
CONTINUOUS
 62
     7
 10
38.499999999800011
 20
131.40000000000001
 30
0.0
 11
77.499999999799982
 21
131.40000000000001
 31
0.0
  0
LINE
  5
1D7
  8
DATA
  6
CONTINUOUS
 62
     7
 10
38.499999999800011
 20
146.40000000000001
 30
0.0
 11
77.499999999799982
 21
146.40000000000001
 31
0.0
  0
CIRCLE
  5
1D8
  8
DATA
  6
CONTINUOUS
 62
     7
 10
41.649999999799959
 20
138.90000000000001
 30
0.0
 40
2.1500000000000048
  0
CIRCLE
  5
1D9
  8
DATA
  6
CONTINUOUS
 62
     7
 10
74.349999999800033
 20
138.90000000000001
 30
0.0
 40
2.149999999999991
  0
LINE
  5
1DA
  8
DATA
  6
CONTINUOUS
 62
     7
 10
45.499999999999993
 20
145.40000000000001
 30
0.0
 11
45.499999999999993
 21
132.40000000000001
 31
0.0
  0
LINE
  5
1DB
  8
DATA
  6
CONTINUOUS
 62
     7
 10
70.5
 20
145.40000000000001
 30
0.0
 11
70.5
 21
132.40000000000001
 31
0.0
  0
LINE
  5
1DC
  8
DATA
  6
CONTINUOUS
 62
     7
 10
45.499999999999993
 20
145.40000000000001
 30
0.0
 11
70.5
 21
145.40000000000001
 31
0.0
  0
LINE
  5
1DD
  8
DATA
  6
CONTINUOUS
 62
     7
 10
45.499999999999993
 20
132.40000000000001
 30
0.0
 11
70.5
 21
132.40000000000001
 31
0.0
  0
ARC
  5
1DE
  8
DATA
  6
CONTINUOUS
 62
     7
 10
40.037881356378954
 20
143.8621186434211
 30
0.0
 40
2.594254832090753
 50
101.9662565511091
 51
126.3561519749709
  0
ARC
  5
1DF
  8
DATA
  6
CONTINUOUS
 62
     7
 10
40.037881356378954
 20
133.93788135657891
 30
0.0
 40
2.5942548320907579
 50
233.643848025029
 51
258.0337434488909
  0
ARC
  5
1E0
  8
DATA
  6
CONTINUOUS
 62
     7
 10
75.962118643221046
 20
143.8621186434211
 30
0.0
 40
2.5942548320907579
 50
53.643848025029037
 51
78.033743448890903
  0
ARC
  5
1E1
  8
DATA
  6
CONTINUOUS
 62
     7
 10
75.962118643221046
 20
133.93788135657891
 30
0.0
 40
2.594254832090753
 50
281.9662565511091
 51
306.35615197497089
  0
ARC
  5
1E2
  8
DATA
  6
CONTINUOUS
 62
     7
 10
38.764427268211421
 20
123.24487835824
 30
0.0
 40
23.166802228364588
 50
73.175119112045905
 51
88.180487009215511
  0
ARC
  5
1E3
  8
DATA
  6
CONTINUOUS
 62
     7
 10
38.764427268211421
 20
154.55512164176
 30
0.0
 40
23.166802228364588
 50
271.81951299078452
 51
286.82488088795401
  0
ARC
  5
1E4
  8
DATA
  6
CONTINUOUS
 62
     7
 10
77.235572731388572
 20
123.24487835824
 30
0.0
 40
23.166802228364588
 50
91.819512990784474
 51
106.824880887954
  0
ARC
  5
1E5
  8
DATA
  6
CONTINUOUS
 62
     7
 10
77.235572731388572
 20
154.55512164176
 30
0.0
 40
23.166802228364588
 50
253.17511911204591
 51
268.18048700921548
  0
POLYLINE
  5
1E6
  8
DATA
  6
CONTINUOUS
 62
     7
 66
     1
 10
0.0
 20
0.0
 30
0.0
 70
     1
  0
VERTEX
  5
525
  8
DATA
  6
CONTINUOUS
 62
     7
 10
38.499999999800011
 20
277.5
 30
0.0
  0
VERTEX
  5
526
  8
DATA
  6
CONTINUOUS
 62
     7
 10
77.499999999799982
 20
277.5
 30
0.0
  0
VERTEX
  5
527
  8
DATA
  6
CONTINUOUS
 62
     7
 10
77.499999999799982
 20
262.5
 30
0.0
  0
VERTEX
  5
528
  8
DATA
  6
CONTINUOUS
 62
     7
 10
38.499999999800011
 20
262.5
 30
0.0
  0
SEQEND
  5
529
  8
DATA
  6
CONTINUOUS
 62
     7
  0
LINE
  5
1ED
  8
DATA
  6
CONTINUOUS
 62
     7
 10
38.499999999800011
 20
131.40000000000001
 30
0.0
 11
38.499999999800011
 21
146.40000000000001
 31
0.0
  0
LINE
  5
1EE
  8
DATA
  6
CONTINUOUS
 62
     7
 10
77.499999999799982
 20
131.40000000000001
 30
0.0
 11
77.499999999799982
 21
146.40000000000001
 31
0.0
  0
LINE
  5
1EF
  8
DATA
  6
CONTINUOUS
 62
     7
 10
38.499999999800011
 20
184.50000000003129
 30
0.0
 11
38.499999999800011
 21
243.75
 31
0.0
  0
LINE
  5
1F0
  8
DATA
  6
CONTINUOUS
 62
     7
 10
77.499999999799982
 20
184.49999999996879
 30
0.0
 11
77.499999999799982
 21
243.75
 31
0.0
  0
CIRCLE
  5
1F1
  8
DATA
  6
CONTINUOUS
 62
     7
 10
66.724612712470076
 20
135.18535385752159
 30
0.0
 40
1.8499999999999941
  0
POLYLINE
  5
1F2
  8
DATA
  6
CONTINUOUS
 62
     7
 66
     1
 10
0.0
 20
0.0
 30
0.0
  0
VERTEX
  5
52A
  8
DATA
  6
CONTINUOUS
 62
     7
 10
51.75683112968229
 20
140.67303637279559
 30
0.0
  0
VERTEX
  5
52B
  8
DATA
  6
CONTINUOUS
 62
     7
 10
55.50683112968229
 20
140.67303637279559
 30
0.0
  0
VERTEX
  5
52C
  8
DATA
  6
CONTINUOUS
 62
     7
 10
55.50683112968229
 20
132.9730363727956
 30
0.0
  0
VERTEX
  5
52D
  8
DATA
  6
CONTINUOUS
 62
     7
 10
46.00683112968229
 20
132.9730363727956
 30
0.0
  0
VERTEX
  5
52E
  8
DATA
  6
CONTINUOUS
 62
     7
 10
46.00683112968229
 20
140.67303637279559
 30
0.0
  0
VERTEX
  5
52F
  8
DATA
  6
CONTINUOUS
 62
     7
 10
49.75683112968229
 20
140.67303637279559
 30
0.0
  0
SEQEND
  5
530
  8
DATA
  6
CONTINUOUS
 62
     7
  0
CIRCLE
  5
1FB
  8
DATA
  6
CONTINUOUS
 62
     7
 10
50.75683112968229
 20
136.8230363727956
 30
0.0
 40
1.973090634180634
  0
LINE
  5
1FC
  8
DATA
  6
CONTINUOUS
 62
     7
 10
51.75683112968229
 20
142.17303637279559
 30
0.0
 11
51.75683112968229
 21
140.67303637279559
 31
0.0
  0
LINE
  5
1FD
  8
DATA
  6
CONTINUOUS
 62
     7
 10
49.75683112968229
 20
142.17303637279559
 30
0.0
 11
51.75683112968229
 21
142.17303637279559
 31
0.0
  0
LINE
  5
1FE
  8
DATA
  6
CONTINUOUS
 62
     7
 10
49.75683112968229
 20
140.67303637279559
 30
0.0
 11
49.75683112968229
 21
142.17303637279559
 31
0.0
  0
CIRCLE
  5
1FF
  8
DATA
  6
CONTINUOUS
 62
     7
 10
66.724612712470076
 20
135.18535385752159
 30
0.0
 40
0.4000000000000057
  0
TEXT
  5
200
  8
DATA
 62
     7
 10
49.61912498990695
 20
180.4760416666667
 30
0.0
 40
0.7579210069444442
  1
5V
 41
0.7
 11
49.61912498990695
 21
181.2339626736111
 31
0.0
 73
     3
  0
LINE
  5
201
  8
DATA
  6
STYLE_01
 62
     7
 10
51.100000000000001
 20
181.09
 30
0.0
 11
51.97105942159002
 21
181.09
 31
0.0
  0
LINE
  5
202
  8
DATA
  6
STYLE_05
 62
     7
 10
51.100000000000001
 20
180.68068255183951
 30
0.0
 11
51.97105942159002
 21
180.68068255183951
 31
0.0
  0
LINE
  5
203
  8
DATA
  6
CONTINUOUS
 62
     7
 10
169.1855530916915
 20
262.5
 30
0.0
 11
207.31444690790849
 21
262.5
 31
0.0
  0
LINE
  5
204
  8
DATA
  6
CONTINUOUS
 62
     7
 10
169.1855530916915
 20
277.5
 30
0.0
 11
207.31444690790849
 21
277.5
 31
0.0
  0
LINE
  5
205
  8
DATA
  6
CONTINUOUS
 62
     7
 10
169.74999999979991
 20
264.19999999999999
 30
0.0
 11
206.7499999998
 21
264.19999999999999
 31
0.0
  0
LINE
  5
206
  8
DATA
  6
CONTINUOUS
 62
     7
 10
169.74999999979991
 20
275.80000000000001
 30
0.0
 11
206.7499999998
 21
275.80000000000001
 31
0.0
  0
LINE
  5
207
  8
DATA
  6
CONTINUOUS
 62
     7
 10
169.74999999979991
 20
264.19999999999999
 30
0.0
 11
169.74999999979991
 21
275.80000000000001
 31
0.0
  0
LINE
  5
208
  8
DATA
  6
CONTINUOUS
 62
     7
 10
206.7499999998
 20
264.19999999999999
 30
0.0
 11
206.7499999998
 21
275.80000000000001
 31
0.0
  0
CIRCLE
  5
209
  8
DATA
  6
CONTINUOUS
 62
     7
 10
171.89999999979989
 20
270.0
 30
0.0
 40
1.2999999999999969
  0
CIRCLE
  5
20A
  8
DATA
  6
CONTINUOUS
 62
     7
 10
204.59999999979999
 20
270.0
 30
0.0
 40
1.2999999999999969
  0
POLYLINE
  5
20B
  8
DATA
  6
CONTINUOUS
 62
     7
 66
     1
 10
0.0
 20
0.0
 30
0.0
 70
   128
  0
VERTEX
  5
531
  8
DATA
  6
CONTINUOUS
 62
     7
 10
201.2499999998
 20
270.73000000000002
 30
0.0
  0
VERTEX
  5
532
  8
DATA
  6
CONTINUOUS
 62
     7
 10
201.2499999998
 20
266.30000000000001
 30
0.0
 42
-0.4142135623730976
  0
VERTEX
  5
533
  8
DATA
  6
CONTINUOUS
 62
     7
 10
200.44999999980001
 20
265.5
 30
0.0
  0
VERTEX
  5
534
  8
DATA
  6
CONTINUOUS
 62
     7
 10
176.04999999979989
 20
265.5
 30
0.0
 42
-0.4142135623730964
  0
VERTEX
  5
535
  8
DATA
  6
CONTINUOUS
 62
     7
 10
175.2499999998
 20
266.30000000000001
 30
0.0
  0
VERTEX
  5
536
  8
DATA
  6
CONTINUOUS
 62
     7
 10
175.2499999998
 20
270.73000000000002
 30
0.0
  0
SEQEND
  5
537
  8
DATA
  6
CONTINUOUS
 62
     7
  0
LINE
  5
213
  8
DATA
  6
CONTINUOUS
 62
     7
 10
176.3534170387766
 20
274.5
 30
0.0
 11
200.14658296082331
 21
274.5
 31
0.0
  0
LINE
  5
214
  8
DATA
  6
CONTINUOUS
 62
     7
 10
201.2499999998
 20
270.73000000000002
 30
0.0
 11
200.942549753554
 21
273.78023007459888
 31
0.0
  0
LINE
  5
215
  8
DATA
  6
CONTINUOUS
 62
     7
 10
175.2499999998
 20
270.73000000000002
 30
0.0
 11
175.55745024604599
 21
273.78023007459888
 31
0.0
  0
ARC
  5
216
  8
DATA
  6
CONTINUOUS
 62
     7
 10
200.14658296082331
 20
273.69999999999999
 30
0.0
 40
0.7999999999999937
 50
5.7557316099206988
 51
90.0
  0
ARC
  5
217
  8
DATA
  6
CONTINUOUS
 62
     7
 10
176.3534170387766
 20
273.69999999999999
 30
0.0
 40
0.7999999999999972
 50
90.0
 51
174.2442683900793
  0
LINE
  5
218
  8
DATA
  6
CONTINUOUS
 62
     7
 10
169.74999999979991
 20
270.0
 30
0.0
 11
168.7499999998
 21
270.0
 31
0.0
  0
LINE
  5
219
  8
DATA
  6
CONTINUOUS
 62
     7
 10
206.7499999998
 20
270.0
 30
0.0
 11
207.7499999998
 21
270.0
 31
0.0
  0
POLYLINE
  5
21A
  8
DATA
  6
CONTINUOUS
 62
     7
 66
     1
 10
0.0
 20
0.0
 30
0.0
 70
     1
  0
VERTEX
  5
538
  8
DATA
  6
CONTINUOUS
 62
     7
 10
196.80180856022929
 20
270.25
 30
0.0
  0
VERTEX
  5
539
  8
DATA
  6
CONTINUOUS
 62
     7
 10
199.30180856022929
 20
270.25
 30
0.0
  0
VERTEX
  5
53A
  8
DATA
  6
CONTINUOUS
 62
     7
 10
199.30180856022929
 20
269.75
 30
0.0
  0
VERTEX
  5
53B
  8
DATA
  6
CONTINUOUS
 62
     7
 10
196.80180856022929
 20
269.75
 30
0.0
  0
SEQEND
  5
53C
  8
DATA
  6
CONTINUOUS
 62
     7
  0
POLYLINE
  5
221
  8
DATA
  6
CONTINUOUS
 62
     7
 66
     1
 10
0.0
 20
0.0
 30
0.0
 70
     1
  0
VERTEX
  5
53D
  8
DATA
  6
CONTINUOUS
 62
     7
 10
178.10078458465301
 20
270.63639610306791
 30
0.0
  0
VERTEX
  5
53E
  8
DATA
  6
CONTINUOUS
 62
     7
 10
179.02002340019561
 20
269.71715728752542
 30
0.0
  0
VERTEX
  5
53F
  8
DATA
  6
CONTINUOUS
 62
     7
 10
178.66647000960219
 20
269.36360389693209
 30
0.0
  0
VERTEX
  5
540
  8
DATA
  6
CONTINUOUS
 62
     7
 10
177.74723119405979
 20
270.28284271247458
 30
0.0
  0
SEQEND
  5
541
  8
DATA
  6
CONTINUOUS
 62
     7
  0
POLYLINE
  5
228
  8
DATA
  6
CONTINUOUS
 62
     7
 66
     1
 10
0.0
 20
0.0
 30
0.0
 70
     1
  0
VERTEX
  5
542
  8
DATA
  6
CONTINUOUS
 62
     7
 10
178.10078458465301
 20
272.63639610306791
 30
0.0
  0
VERTEX
  5
543
  8
DATA
  6
CONTINUOUS
 62
     7
 10
179.02002340019561
 20
271.71715728752542
 30
0.0
  0
VERTEX
  5
544
  8
DATA
  6
CONTINUOUS
 62
     7
 10
178.66647000960219
 20
271.36360389693209
 30
0.0
  0
VERTEX
  5
545
  8
DATA
  6
CONTINUOUS
 62
     7
 10
177.74723119405979
 20
272.28284271247458
 30
0.0
  0
SEQEND
  5
546
  8
DATA
  6
CONTINUOUS
 62
     7
  0
POLYLINE
  5
22F
  8
DATA
  6
CONTINUOUS
 62
     7
 66
     1
 10
0.0
 20
0.0
 30
0.0
 70
     1
  0
VERTEX
  5
547
  8
DATA
  6
CONTINUOUS
 62
     7
 10
178.10078458465301
 20
268.63639610306791
 30
0.0
  0
VERTEX
  5
548
  8
DATA
  6
CONTINUOUS
 62
     7
 10
179.02002340019561
 20
267.71715728752542
 30
0.0
  0
VERTEX
  5
549
  8
DATA
  6
CONTINUOUS
 62
     7
 10
178.66647000960219
 20
267.36360389693209
 30
0.0
  0
VERTEX
  5
54A
  8
DATA
  6
CONTINUOUS
 62
     7
 10
177.74723119405979
 20
268.28284271247458
 30
0.0
  0
SEQEND
  5
54B
  8
DATA
  6
CONTINUOUS
 62
     7
  0
POLYLINE
  5
236
  8
DATA
  6
CONTINUOUS
 62
     7
 66
     1
 10
0.0
 20
0.0
 30
0.0
 70
     1
  0
VERTEX
  5
54C
  8
DATA
  6
CONTINUOUS
 62
     7
 10
180.10078458465301
 20
270.63639610306791
 30
0.0
  0
VERTEX
  5
54D
  8
DATA
  6
CONTINUOUS
 62
     7
 10
181.0200234001955
 20
269.71715728752542
 30
0.0
  0
VERTEX
  5
54E
  8
DATA
  6
CONTINUOUS
 62
     7
 10
180.66647000960231
 20
269.36360389693209
 30
0.0
  0
VERTEX
  5
54F
  8
DATA
  6
CONTINUOUS
 62
     7
 10
179.74723119405971
 20
270.28284271247458
 30
0.0
  0
SEQEND
  5
550
  8
DATA
  6
CONTINUOUS
 62
     7
  0
POLYLINE
  5
23D
  8
DATA
  6
CONTINUOUS
 62
     7
 66
     1
 10
0.0
 20
0.0
 30
0.0
 70
     1
  0
VERTEX
  5
551
  8
DATA
  6
CONTINUOUS
 62
     7
 10
180.10078458465301
 20
272.63639610306791
 30
0.0
  0
VERTEX
  5
552
  8
DATA
  6
CONTINUOUS
 62
     7
 10
181.0200234001955
 20
271.71715728752542
 30
0.0
  0
VERTEX
  5
553
  8
DATA
  6
CONTINUOUS
 62
     7
 10
180.66647000960231
 20
271.36360389693209
 30
0.0
  0
VERTEX
  5
554
  8
DATA
  6
CONTINUOUS
 62
     7
 10
179.74723119405971
 20
272.28284271247458
 30
0.0
  0
SEQEND
  5
555
  8
DATA
  6
CONTINUOUS
 62
     7
  0
POLYLINE
  5
244
  8
DATA
  6
CONTINUOUS
 62
     7
 66
     1
 10
0.0
 20
0.0
 30
0.0
 70
     1
  0
VERTEX
  5
556
  8
DATA
  6
CONTINUOUS
 62
     7
 10
180.10078458465301
 20
268.63639610306791
 30
0.0
  0
VERTEX
  5
557
  8
DATA
  6
CONTINUOUS
 62
     7
 10
181.0200234001955
 20
267.71715728752542
 30
0.0
  0
VERTEX
  5
558
  8
DATA
  6
CONTINUOUS
 62
     7
 10
180.66647000960231
 20
267.36360389693209
 30
0.0
  0
VERTEX
  5
559
  8
DATA
  6
CONTINUOUS
 62
     7
 10
179.74723119405971
 20
268.28284271247458
 30
0.0
  0
SEQEND
  5
55A
  8
DATA
  6
CONTINUOUS
 62
     7
  0
POLYLINE
  5
24B
  8
DATA
  6
CONTINUOUS
 62
     7
 66
     1
 10
0.0
 20
0.0
 30
0.0
 70
     1
  0
VERTEX
  5
55B
  8
DATA
  6
CONTINUOUS
 62
     7
 10
182.10078458465301
 20
270.63639610306791
 30
0.0
  0
VERTEX
  5
55C
  8
DATA
  6
CONTINUOUS
 62
     7
 10
183.02002340019561
 20
269.71715728752542
 30
0.0
  0
VERTEX
  5
55D
  8
DATA
  6
CONTINUOUS
 62
     7
 10
182.66647000960219
 20
269.36360389693209
 30
0.0
  0
VERTEX
  5
55E
  8
DATA
  6
CONTINUOUS
 62
     7
 10
181.74723119405971
 20
270.28284271247458
 30
0.0
  0
SEQEND
  5
55F
  8
DATA
  6
CONTINUOUS
 62
     7
  0
POLYLINE
  5
252
  8
DATA
  6
CONTINUOUS
 62
     7
 66
     1
 10
0.0
 20
0.0
 30
0.0
 70
     1
  0
VERTEX
  5
560
  8
DATA
  6
CONTINUOUS
 62
     7
 10
182.10078458465301
 20
272.63639610306791
 30
0.0
  0
VERTEX
  5
561
  8
DATA
  6
CONTINUOUS
 62
     7
 10
183.02002340019561
 20
271.71715728752542
 30
0.0
  0
VERTEX
  5
562
  8
DATA
  6
CONTINUOUS
 62
     7
 10
182.66647000960219
 20
271.36360389693209
 30
0.0
  0
VERTEX
  5
563
  8
DATA
  6
CONTINUOUS
 62
     7
 10
181.74723119405971
 20
272.28284271247458
 30
0.0
  0
SEQEND
  5
564
  8
DATA
  6
CONTINUOUS
 62
     7
  0
POLYLINE
  5
259
  8
DATA
  6
CONTINUOUS
 62
     7
 66
     1
 10
0.0
 20
0.0
 30
0.0
 70
     1
  0
VERTEX
  5
565
  8
DATA
  6
CONTINUOUS
 62
     7
 10
182.10078458465301
 20
268.63639610306791
 30
0.0
  0
VERTEX
  5
566
  8
DATA
  6
CONTINUOUS
 62
     7
 10
183.02002340019561
 20
267.71715728752542
 30
0.0
  0
VERTEX
  5
567
  8
DATA
  6
CONTINUOUS
 62
     7
 10
182.66647000960219
 20
267.36360389693209
 30
0.0
  0
VERTEX
  5
568
  8
DATA
  6
CONTINUOUS
 62
     7
 10
181.74723119405971
 20
268.28284271247458
 30
0.0
  0
SEQEND
  5
569
  8
DATA
  6
CONTINUOUS
 62
     7
  0
POLYLINE
  5
260
  8
DATA
  6
CONTINUOUS
 62
     7
 66
     1
 10
0.0
 20
0.0
 30
0.0
 70
     1
  0
VERTEX
  5
56A
  8
DATA
  6
CONTINUOUS
 62
     7
 10
186.10078458465301
 20
270.63639610306791
 30
0.0
  0
VERTEX
  5
56B
  8
DATA
  6
CONTINUOUS
 62
     7
 10
187.02002340019561
 20
269.71715728752542
 30
0.0
  0
VERTEX
  5
56C
  8
DATA
  6
CONTINUOUS
 62
     7
 10
186.66647000960231
 20
269.36360389693209
 30
0.0
  0
VERTEX
  5
56D
  8
DATA
  6
CONTINUOUS
 62
     7
 10
185.74723119405971
 20
270.28284271247458
 30
0.0
  0
SEQEND
  5
56E
  8
DATA
  6
CONTINUOUS
 62
     7
  0
POLYLINE
  5
267
  8
DATA
  6
CONTINUOUS
 62
     7
 66
     1
 10
0.0
 20
0.0
 30
0.0
 70
     1
  0
VERTEX
  5
56F
  8
DATA
  6
CONTINUOUS
 62
     7
 10
186.10078458465301
 20
272.63639610306791
 30
0.0
  0
VERTEX
  5
570
  8
DATA
  6
CONTINUOUS
 62
     7
 10
187.02002340019561
 20
271.71715728752542
 30
0.0
  0
VERTEX
  5
571
  8
DATA
  6
CONTINUOUS
 62
     7
 10
186.66647000960231
 20
271.36360389693209
 30
0.0
  0
VERTEX
  5
572
  8
DATA
  6
CONTINUOUS
 62
     7
 10
185.74723119405971
 20
272.28284271247458
 30
0.0
  0
SEQEND
  5
573
  8
DATA
  6
CONTINUOUS
 62
     7
  0
POLYLINE
  5
26E
  8
DATA
  6
CONTINUOUS
 62
     7
 66
     1
 10
0.0
 20
0.0
 30
0.0
 70
     1
  0
VERTEX
  5
574
  8
DATA
  6
CONTINUOUS
 62
     7
 10
186.10078458465301
 20
268.63639610306791
 30
0.0
  0
VERTEX
  5
575
  8
DATA
  6
CONTINUOUS
 62
     7
 10
187.02002340019561
 20
267.71715728752542
 30
0.0
  0
VERTEX
  5
576
  8
DATA
  6
CONTINUOUS
 62
     7
 10
186.66647000960231
 20
267.36360389693209
 30
0.0
  0
VERTEX
  5
577
  8
DATA
  6
CONTINUOUS
 62
     7
 10
185.74723119405971
 20
268.28284271247458
 30
0.0
  0
SEQEND
  5
578
  8
DATA
  6
CONTINUOUS
 62
     7
  0
POLYLINE
  5
275
  8
DATA
  6
CONTINUOUS
 62
     7
 66
     1
 10
0.0
 20
0.0
 30
0.0
 70
     1
  0
VERTEX
  5
579
  8
DATA
  6
CONTINUOUS
 62
     7
 10
188.10078458465301
 20
270.63639610306791
 30
0.0
  0
VERTEX
  5
57A
  8
DATA
  6
CONTINUOUS
 62
     7
 10
189.02002340019561
 20
269.71715728752542
 30
0.0
  0
VERTEX
  5
57B
  8
DATA
  6
CONTINUOUS
 62
     7
 10
188.66647000960231
 20
269.36360389693209
 30
0.0
  0
VERTEX
  5
57C
  8
DATA
  6
CONTINUOUS
 62
     7
 10
187.74723119405971
 20
270.28284271247458
 30
0.0
  0
SEQEND
  5
57D
  8
DATA
  6
CONTINUOUS
 62
     7
  0
POLYLINE
  5
27C
  8
DATA
  6
CONTINUOUS
 62
     7
 66
     1
 10
0.0
 20
0.0
 30
0.0
 70
     1
  0
VERTEX
  5
57E
  8
DATA
  6
CONTINUOUS
 62
     7
 10
188.10078458465301
 20
272.63639610306791
 30
0.0
  0
VERTEX
  5
57F
  8
DATA
  6
CONTINUOUS
 62
     7
 10
189.02002340019561
 20
271.71715728752542
 30
0.0
  0
VERTEX
  5
580
  8
DATA
  6
CONTINUOUS
 62
     7
 10
188.66647000960231
 20
271.36360389693209
 30
0.0
  0
VERTEX
  5
581
  8
DATA
  6
CONTINUOUS
 62
     7
 10
187.74723119405971
 20
272.28284271247458
 30
0.0
  0
SEQEND
  5
582
  8
DATA
  6
CONTINUOUS
 62
     7
  0
POLYLINE
  5
283
  8
DATA
  6
CONTINUOUS
 62
     7
 66
     1
 10
0.0
 20
0.0
 30
0.0
 70
     1
  0
VERTEX
  5
583
  8
DATA
  6
CONTINUOUS
 62
     7
 10
188.10078458465301
 20
268.63639610306791
 30
0.0
  0
VERTEX
  5
584
  8
DATA
  6
CONTINUOUS
 62
     7
 10
189.02002340019561
 20
267.71715728752542
 30
0.0
  0
VERTEX
  5
585
  8
DATA
  6
CONTINUOUS
 62
     7
 10
188.66647000960231
 20
267.36360389693209
 30
0.0
  0
VERTEX
  5
586
  8
DATA
  6
CONTINUOUS
 62
     7
 10
187.74723119405971
 20
268.28284271247458
 30
0.0
  0
SEQEND
  5
587
  8
DATA
  6
CONTINUOUS
 62
     7
  0
POLYLINE
  5
28A
  8
DATA
  6
CONTINUOUS
 62
     7
 66
     1
 10
0.0
 20
0.0
 30
0.0
 70
     1
  0
VERTEX
  5
588
  8
DATA
  6
CONTINUOUS
 62
     7
 10
190.10078458465301
 20
270.63639610306791
 30
0.0
  0
VERTEX
  5
589
  8
DATA
  6
CONTINUOUS
 62
     7
 10
191.02002340019561
 20
269.71715728752542
 30
0.0
  0
VERTEX
  5
58A
  8
DATA
  6
CONTINUOUS
 62
     7
 10
190.66647000960231
 20
269.36360389693209
 30
0.0
  0
VERTEX
  5
58B
  8
DATA
  6
CONTINUOUS
 62
     7
 10
189.74723119405971
 20
270.28284271247458
 30
0.0
  0
SEQEND
  5
58C
  8
DATA
  6
CONTINUOUS
 62
     7
  0
POLYLINE
  5
291
  8
DATA
  6
CONTINUOUS
 62
     7
 66
     1
 10
0.0
 20
0.0
 30
0.0
 70
     1
  0
VERTEX
  5
58D
  8
DATA
  6
CONTINUOUS
 62
     7
 10
190.10078458465301
 20
272.63639610306791
 30
0.0
  0
VERTEX
  5
58E
  8
DATA
  6
CONTINUOUS
 62
     7
 10
191.02002340019561
 20
271.71715728752542
 30
0.0
  0
VERTEX
  5
58F
  8
DATA
  6
CONTINUOUS
 62
     7
 10
190.66647000960231
 20
271.36360389693209
 30
0.0
  0
VERTEX
  5
590
  8
DATA
  6
CONTINUOUS
 62
     7
 10
189.74723119405971
 20
272.28284271247458
 30
0.0
  0
SEQEND
  5
591
  8
DATA
  6
CONTINUOUS
 62
     7
  0
POLYLINE
  5
298
  8
DATA
  6
CONTINUOUS
 62
     7
 66
     1
 10
0.0
 20
0.0
 30
0.0
 70
     1
  0
VERTEX
  5
592
  8
DATA
  6
CONTINUOUS
 62
     7
 10
190.10078458465301
 20
268.63639610306791
 30
0.0
  0
VERTEX
  5
593
  8
DATA
  6
CONTINUOUS
 62
     7
 10
191.02002340019561
 20
267.71715728752542
 30
0.0
  0
VERTEX
  5
594
  8
DATA
  6
CONTINUOUS
 62
     7
 10
190.66647000960231
 20
267.36360389693209
 30
0.0
  0
VERTEX
  5
595
  8
DATA
  6
CONTINUOUS
 62
     7
 10
189.74723119405971
 20
268.28284271247458
 30
0.0
  0
SEQEND
  5
596
  8
DATA
  6
CONTINUOUS
 62
     7
  0
POLYLINE
  5
29F
  8
DATA
  6
CONTINUOUS
 62
     7
 66
     1
 10
0.0
 20
0.0
 30
0.0
 70
     1
  0
VERTEX
  5
597
  8
DATA
  6
CONTINUOUS
 62
     7
 10
192.10078458465301
 20
270.63639610306791
 30
0.0
  0
VERTEX
  5
598
  8
DATA
  6
CONTINUOUS
 62
     7
 10
193.02002340019561
 20
269.71715728752542
 30
0.0
  0
VERTEX
  5
599
  8
DATA
  6
CONTINUOUS
 62
     7
 10
192.66647000960219
 20
269.36360389693209
 30
0.0
  0
VERTEX
  5
59A
  8
DATA
  6
CONTINUOUS
 62
     7
 10
191.74723119405971
 20
270.28284271247458
 30
0.0
  0
SEQEND
  5
59B
  8
DATA
  6
CONTINUOUS
 62
     7
  0
POLYLINE
  5
2A6
  8
DATA
  6
CONTINUOUS
 62
     7
 66
     1
 10
0.0
 20
0.0
 30
0.0
 70
     1
  0
VERTEX
  5
59C
  8
DATA
  6
CONTINUOUS
 62
     7
 10
192.10078458465301
 20
272.63639610306791
 30
0.0
  0
VERTEX
  5
59D
  8
DATA
  6
CONTINUOUS
 62
     7
 10
193.02002340019561
 20
271.71715728752542
 30
0.0
  0
VERTEX
  5
59E
  8
DATA
  6
CONTINUOUS
 62
     7
 10
192.66647000960219
 20
271.36360389693209
 30
0.0
  0
VERTEX
  5
59F
  8
DATA
  6
CONTINUOUS
 62
     7
 10
191.74723119405971
 20
272.28284271247458
 30
0.0
  0
SEQEND
  5
5A0
  8
DATA
  6
CONTINUOUS
 62
     7
  0
POLYLINE
  5
2AD
  8
DATA
  6
CONTINUOUS
 62
     7
 66
     1
 10
0.0
 20
0.0
 30
0.0
 70
     1
  0
VERTEX
  5
5A1
  8
DATA
  6
CONTINUOUS
 62
     7
 10
192.10078458465301
 20
268.63639610306791
 30
0.0
  0
VERTEX
  5
5A2
  8
DATA
  6
CONTINUOUS
 62
     7
 10
193.02002340019561
 20
267.71715728752542
 30
0.0
  0
VERTEX
  5
5A3
  8
DATA
  6
CONTINUOUS
 62
     7
 10
192.66647000960219
 20
267.36360389693209
 30
0.0
  0
VERTEX
  5
5A4
  8
DATA
  6
CONTINUOUS
 62
     7
 10
191.74723119405971
 20
268.28284271247458
 30
0.0
  0
SEQEND
  5
5A5
  8
DATA
  6
CONTINUOUS
 62
     7
  0
LINE
  5
2B4
  8
DATA
  6
CONTINUOUS
 62
     7
 10
226.50000000029999
 20
236.52006852957561
 30
0.0
 11
226.50000000029999
 21
237.2500000000511
 31
0.0
  0
LINE
  5
2B5
  8
DATA
  6
CONTINUOUS
 62
     7
 10
211.50000000029999
 20
175.74999999995109
 30
0.0
 11
216.00000000029999
 21
175.74999999995109
 31
0.0
  0
LINE
  5
2B6
  8
DATA
  6
CONTINUOUS
 62
     7
 10
222.00000000029999
 20
175.74999999995109
 30
0.0
 11
226.50000000029999
 21
175.74999999995109
 31
0.0
  0
LINE
  5
2B7
  8
DATA
  6
CONTINUOUS
 62
     7
 10
211.50000000029999
 20
243.749999999951
 30
0.0
 11
213.50000000029999
 21
243.749999999951
 31
0.0
  0
LINE
  5
2B8
  8
DATA
  6
CONTINUOUS
 62
     7
 10
224.50000000029999
 20
243.749999999951
 30
0.0
 11
226.50000000029999
 21
243.749999999951
 31
0.0
  0
LINE
  5
2B9
  8
DATA
  6
CONTINUOUS
 62
     7
 10
214.50000000029999
 20
248.749999999951
 30
0.0
 11
223.50000000029999
 21
248.749999999951
 31
0.0
  0
LINE
  5
2BA
  8
DATA
  6
CONTINUOUS
 62
     7
 10
211.50000000029999
 20
240.749999999951
 30
0.0
 11
226.50000000029999
 21
240.749999999951
 31
0.0
  0
LINE
  5
2BB
  8
DATA
  6
CONTINUOUS
 62
     7
 10
219.00000000029999
 20
242.9499999999511
 30
0.0
 11
219.00000000029999
 21
240.749999999951
 31
0.0
  0
TEXT
  5
2BC
  8
DATA
 62
     7
 10
176.40143051020991
 20
107.95599081026521
 30
0.0
 40
4.072102864583333
  1
RECEIVER
 41
0.7
 11
176.40143051020991
 21
112.02809367484851
 31
0.0
 73
     3
  0
LINE
  5
2BD
  8
DATA
  6
CONTINUOUS
 62
     7
 10
173.685
 20
106.20000000029999
 30
0.0
 11
203.685
 21
106.20000000029999
 31
0.0
  0
LINE
  5
2BE
  8
DATA
  6
CONTINUOUS
 62
     7
 10
206.7499999998
 20
270.0
 30
0.0
 11
207.7499999998
 21
270.0
 31
0.0
  0
LINE
  5
2BF
  8
DATA
  6
CONTINUOUS
 62
     7
 10
175.2499999998
 20
248.75
 30
0.0
 11
175.2499999998
 21
243.75
 31
0.0
  0
LINE
  5
2C0
  8
DATA
  6
CONTINUOUS
 62
     7
 10
201.2499999998
 20
248.75
 30
0.0
 11
201.2499999998
 21
243.75
 31
0.0
  0
LINE
  5
2C1
  8
DATA
  6
CONTINUOUS
 62
     7
 10
175.2499999998
 20
248.75
 30
0.0
 11
201.2499999998
 21
248.75
 31
0.0
  0
LINE
  5
2C2
  8
DATA
  6
CONTINUOUS
 62
     7
 10
170.59999999979991
 20
243.75
 30
0.0
 11
170.59999999979991
 21
246.75
 31
0.0
  0
LINE
  5
2C3
  8
DATA
  6
CONTINUOUS
 62
     7
 10
173.1999999997999
 20
246.75
 30
0.0
 11
173.1999999997999
 21
243.75
 31
0.0
  0
LINE
  5
2C4
  8
DATA
  6
CONTINUOUS
 62
     7
 10
170.59999999979991
 20
246.75
 30
0.0
 11
173.1999999997999
 21
246.75
 31
0.0
  0
LINE
  5
2C5
  8
DATA
  6
CONTINUOUS
 62
     7
 10
170.59999999979991
 20
243.75
 30
0.0
 11
173.1999999997999
 21
244.20845014984201
 31
0.0
  0
LINE
  5
2C6
  8
DATA
  6
CONTINUOUS
 62
     7
 10
170.59999999979991
 20
244.55000000000001
 30
0.0
 11
173.1999999997999
 21
245.00845014984199
 31
0.0
  0
LINE
  5
2C7
  8
DATA
  6
CONTINUOUS
 62
     7
 10
170.59999999979991
 20
245.34999999999999
 30
0.0
 11
173.1999999997999
 21
245.808450149842
 31
0.0
  0
LINE
  5
2C8
  8
DATA
  6
CONTINUOUS
 62
     7
 10
170.59999999979991
 20
246.15000000000001
 30
0.0
 11
173.1999999997999
 21
246.60845014984201
 31
0.0
  0
LINE
  5
2C9
  8
DATA
  6
CONTINUOUS
 62
     7
 10
168.7499999998
 20
243.75
 30
0.0
 11
207.7499999998
 21
243.75
 31
0.0
  0
LINE
  5
2CA
  8
DATA
  6
CONTINUOUS
 62
     7
 10
203.29999999980001
 20
243.75
 30
0.0
 11
203.29999999980001
 21
246.75
 31
0.0
  0
LINE
  5
2CB
  8
DATA
  6
CONTINUOUS
 62
     7
 10
205.8999999998
 20
246.75
 30
0.0
 11
205.8999999998
 21
243.75
 31
0.0
  0
LINE
  5
2CC
  8
DATA
  6
CONTINUOUS
 62
     7
 10
203.29999999980001
 20
246.75
 30
0.0
 11
205.8999999998
 21
246.75
 31
0.0
  0
LINE
  5
2CD
  8
DATA
  6
CONTINUOUS
 62
     7
 10
203.29999999980001
 20
243.75
 30
0.0
 11
205.8999999998
 21
244.20845014984201
 31
0.0
  0
LINE
  5
2CE
  8
DATA
  6
CONTINUOUS
 62
     7
 10
203.29999999980001
 20
244.55000000000001
 30
0.0
 11
205.8999999998
 21
245.00845014984199
 31
0.0
  0
LINE
  5
2CF
  8
DATA
  6
CONTINUOUS
 62
     7
 10
203.29999999980001
 20
245.34999999999999
 30
0.0
 11
205.8999999998
 21
245.808450149842
 31
0.0
  0
LINE
  5
2D0
  8
DATA
  6
CONTINUOUS
 62
     7
 10
203.29999999980001
 20
246.15000000000001
 30
0.0
 11
205.8999999998
 21
246.60845014984201
 31
0.0
  0
LINE
  5
2D1
  8
DATA
  6
CONTINUOUS
 62
     7
 10
175.75
 20
175.75
 30
0.0
 11
200.75
 21
175.75
 31
0.0
  0
LINE
  5
2D2
  8
DATA
  6
CONTINUOUS
 62
     7
 10
175.75
 20
175.75
 30
0.0
 11
168.7499999998
 21
184.50000000003129
 31
0.0
  0
LINE
  5
2D3
  8
DATA
  6
CONTINUOUS
 62
     7
 10
200.75
 20
175.75
 30
0.0
 11
207.7499999998
 21
184.49999999996879
 31
0.0
  0
POLYLINE
  5
2D4
  8
DATA
  6
CONTINUOUS
 62
     7
 66
     1
 10
0.0
 20
0.0
 30
0.0
  0
VERTEX
  5
5A6
  8
DATA
  6
CONTINUOUS
 62
     7
 10
174.04999999979989
 20
177.87500000019691
 30
0.0
  0
VERTEX
  5
5A7
  8
DATA
  6
CONTINUOUS
 62
     7
 10
174.04999999979989
 20
170.75
 30
0.0
  0
VERTEX
  5
5A8
  8
DATA
  6
CONTINUOUS
 62
     7
 10
169.74999999979991
 20
170.75
 30
0.0
  0
VERTEX
  5
5A9
  8
DATA
  6
CONTINUOUS
 62
     7
 10
169.74999999979991
 20
183.2500000000625
 30
0.0
  0
SEQEND
  5
5AA
  8
DATA
  6
CONTINUOUS
 62
     7
  0
POLYLINE
  5
2DB
  8
DATA
  6
CONTINUOUS
 62
     7
 66
     1
 10
0.0
 20
0.0
 30
0.0
  0
VERTEX
  5
5AB
  8
DATA
  6
CONTINUOUS
 62
     7
 10
206.7499999998
 20
183.2499999999375
 30
0.0
  0
VERTEX
  5
5AC
  8
DATA
  6
CONTINUOUS
 62
     7
 10
206.7499999998
 20
170.75
 30
0.0
  0
VERTEX
  5
5AD
  8
DATA
  6
CONTINUOUS
 62
     7
 10
202.44999999980001
 20
170.75
 30
0.0
  0
VERTEX
  5
5AE
  8
DATA
  6
CONTINUOUS
 62
     7
 10
202.44999999980001
 20
177.87499999980309
 30
0.0
  0
SEQEND
  5
5AF
  8
DATA
  6
CONTINUOUS
 62
     7
  0
LINE
  5
2E2
  8
DATA
  6
CONTINUOUS
 62
     7
 10
172.7499999998
 20
238.75
 30
0.0
 11
203.7499999998
 21
238.75
 31
0.0
  0
LINE
  5
2E3
  8
DATA
  6
CONTINUOUS
 62
     7
 10
172.7499999998
 20
232.75
 30
0.0
 11
203.7499999998
 21
232.75
 31
0.0
  0
LINE
  5
2E4
  8
DATA
  6
CONTINUOUS
 62
     7
 10
172.7499999998
 20
232.75
 30
0.0
 11
203.7499999998
 21
232.75
 31
0.0
  0
LINE
  5
2E5
  8
DATA
  6
CONTINUOUS
 62
     7
 10
172.7499999998
 20
232.75
 30
0.0
 11
172.7499999998
 21
238.75
 31
0.0
  0
LINE
  5
2E6
  8
DATA
  6
CONTINUOUS
 62
     7
 10
203.7499999998
 20
232.75
 30
0.0
 11
203.7499999998
 21
238.75
 31
0.0
  0
LINE
  5
2E7
  8
DATA
  6
CONTINUOUS
 62
     7
 10
179.25
 20
178.75
 30
0.0
 11
197.25
 21
178.75
 31
0.0
  0
LINE
  5
2E8
  8
DATA
  6
CONTINUOUS
 62
     7
 10
176.77117294042421
 20
200.75
 30
0.0
 11
199.72882705957579
 21
200.75
 31
0.0
  0
ARC
  5
2E9
  8
DATA
  6
CONTINUOUS
 62
     7
 10
280.9729527249944
 20
203.79617231299599
 30
0.0
 40
104.7621036059867
 50
181.94912527504479
 51
193.8323312792528
  0
ARC
  5
2EA
  8
DATA
  6
CONTINUOUS
 62
     7
 10
95.527047275005643
 20
203.79617231299599
 30
0.0
 40
104.7621036059867
 50
346.1676687207472
 51
358.05087472495512
  0
CIRCLE
  5
2EB
  8
DATA
  6
CONTINUOUS
 62
     7
 10
196.87727419433841
 20
197.1560787342562
 30
0.0
 40
0.7500000000000853
  0
TEXT
  5
2EC
  8
DATA
 62
     7
 10
191.08692977553679
 20
196.75170302694929
 30
0.0
 40
0.7579210069444442
  1
STATUS
 41
0.7
 11
191.08692977553679
 21
197.50962403389369
 31
0.0
 73
     3
  0
CIRCLE
  5
2ED
  8
DATA
  6
CONTINUOUS
 62
     7
 10
196.87727419433841
 20
188.9497791032737
 30
0.0
 40
0.7500000000000853
  0
TEXT
  5
2EE
  8
DATA
 62
     7
 10
191.08692977553679
 20
188.54540339596679
 30
0.0
 40
0.7579210069444442
  1
POWER
 41
0.7
 11
191.08692977553679
 21
189.3033244029113
 31
0.0
 73
     3
  0
TEXT
  5
2EF
  8
DATA
 62
     7
 10
184.9532789892333
 20
184.47648538449681
 30
0.0
 40
1.1368815104166661
  1
RECEIVER
 41
0.7
 11
184.9532789892333
 21
185.61336689491341
 31
0.0
 73
     3
  0
ARC
  5
2F0
  8
DATA
  6
CONTINUOUS
 62
     7
 10
176.77117294042421
 20
200.25
 30
0.0
 40
0.5000000000000142
 50
90.0
 51
181.94912527504309
  0
ARC
  5
2F1
  8
DATA
  6
CONTINUOUS
 62
     7
 10
199.72882705957579
 20
200.25
 30
0.0
 40
0.5000000000000177
 50
358.050874724957
 51
90.0
  0
LINE
  5
2F2
  8
DATA
  6
CONTINUOUS
 62
     7
 10
175.75
 20
175.75
 30
0.0
 11
171.27993511746391
 21
184.2032910154889
 31
0.0
  0
LINE
  5
2F3
  8
DATA
  6
CONTINUOUS
 62
     7
 10
170.69999999999999
 20
186.54060281201319
 30
0.0
 11
170.69999999999999
 21
202.35699241700769
 31
0.0
  0
ARC
  5
2F4
  8
DATA
  6
CONTINUOUS
 62
     7
 10
175.69999999999999
 20
186.54060281201319
 30
0.0
 40
5.0000000000000142
 50
179.99999999999989
 51
207.86969847315621
  0
LINE
  5
2F5
  8
DATA
  6
CONTINUOUS
 62
     7
 10
176.07338670669651
 20
232.75
 30
0.0
 11
173.5144097206007
 21
230.3466400199749
 31
0.0
  0
LINE
  5
2F6
  8
DATA
  6
CONTINUOUS
 62
     7
 10
171.90299964600891
 20
230.70004342687159
 30
0.0
 11
168.7499999998
 21
238.4819148941107
 31
0.0
  0
ARC
  5
2F7
  8
DATA
  6
CONTINUOUS
 62
     7
 10
172.8298140818072
 20
231.07556306896231
 30
0.0
 40
0.9999999999999971
 50
202.0564335270395
 51
313.20381472555562
  0
LINE
  5
2F8
  8
DATA
  6
CONTINUOUS
 62
     7
 10
200.3266132933035
 20
232.75
 30
0.0
 11
202.88559027939939
 21
230.3466400199749
 31
0.0
  0
LINE
  5
2F9
  8
DATA
  6
CONTINUOUS
 62
     7
 10
204.4970003539911
 20
230.70004342687159
 30
0.0
 11
207.7499999998
 21
238.72872340376171
 31
0.0
  0
ARC
  5
2FA
  8
DATA
  6
CONTINUOUS
 62
     7
 10
203.57018591819281
 20
231.07556306896231
 30
0.0
 40
1.0
 50
226.79618527444441
 51
337.94356647296053
  0
LINE
  5
2FB
  8
DATA
  6
CONTINUOUS
 62
     7
 10
170.69999999999999
 20
193.14060281201321
 30
0.0
 11
170.69999999999999
 21
208.9569924170076
 31
0.0
  0
ARC
  5
2FC
  8
DATA
  6
CONTINUOUS
 62
     7
 10
188.48146853146849
 20
214.3115384615385
 30
0.0
 40
18.491053997812632
 50
197.017100595664
 51
228.79338525031179
  0
LINE
  5
2FD
  8
DATA
  6
CONTINUOUS
 62
     7
 10
201.04498069499519
 20
176.1187258687531
 30
0.0
 11
205.32006488253609
 21
184.2032910154889
 31
0.0
  0
LINE
  5
2FE
  8
DATA
  6
CONTINUOUS
 62
     7
 10
205.90000000000001
 20
186.54060281201319
 30
0.0
 11
205.90000000000001
 21
202.35699241700769
 31
0.0
  0
ARC
  5
2FF
  8
DATA
  6
CONTINUOUS
 62
     7
 10
200.90000000000001
 20
186.54060281201319
 30
0.0
 40
4.9999999999999991
 50
332.13030152684382
 51
0.0000000000001705
  0
LINE
  5
300
  8
DATA
  6
CONTINUOUS
 62
     7
 10
205.90000000000001
 20
193.14060281201321
 30
0.0
 11
205.90000000000001
 21
208.9569924170076
 31
0.0
  0
ARC
  5
301
  8
DATA
  6
CONTINUOUS
 62
     7
 10
188.11853146853139
 20
214.3115384615385
 30
0.0
 40
18.491053997812632
 50
311.20661474968819
 51
342.98289940433602
  0
LINE
  5
302
  8
DATA
  6
CONTINUOUS
 62
     7
 10
187.90000000000001
 20
206.19999999999999
 30
0.0
 11
177.5801888180838
 21
206.19999999999999
 31
0.0
  0
LINE
  5
303
  8
DATA
  6
CONTINUOUS
 62
     7
 10
185.69999999999999
 20
206.19999999999999
 30
0.0
 11
175.38018881808381
 21
206.19999999999999
 31
0.0
  0
ARC
  5
304
  8
DATA
  6
CONTINUOUS
 62
     7
 10
177.7161290322581
 20
215.759677419355
 30
0.0
 40
9.8131880777728409
 50
226.00555322816811
 51
256.9482095592079
  0
LINE
  5
305
  8
DATA
  6
CONTINUOUS
 62
     7
 10
188.69999999999999
 20
206.19999999999999
 30
0.0
 11
199.0198111819162
 21
206.19999999999999
 31
0.0
  0
LINE
  5
306
  8
DATA
  6
CONTINUOUS
 62
     7
 10
190.90000000000001
 20
206.19999999999999
 30
0.0
 11
201.21981118191621
 21
206.19999999999999
 31
0.0
  0
ARC
  5
307
  8
DATA
  6
CONTINUOUS
 62
     7
 10
198.8838709677419
 20
215.759677419355
 30
0.0
 40
9.8131880777728409
 50
283.0517904407921
 51
313.99444677183192
  0
LINE
  5
308
  8
DATA
  6
CONTINUOUS
 62
     7
 10
188.80000000000001
 20
206.19999999999999
 30
0.0
 11
178.4801888180838
 21
206.19999999999999
 31
0.0
  0
LINE
  5
309
  8
DATA
  6
CONTINUOUS
 62
     7
 10
168.7499999998
 20
277.5
 30
0.0
 11
199.6288938162169
 21
277.5
 31
0.0
  0
LINE
  5
30A
  8
DATA
  6
CONTINUOUS
 62
     7
 10
211.50000000029999
 20
187.74999999995109
 30
0.0
 11
211.50000000029999
 21
200.0895013021894
 31
0.0
  0
LINE
  5
30B
  8
DATA
  6
CONTINUOUS
 62
     7
 10
211.50000000029999
 20
237.56338027241901
 30
0.0
 11
211.50000000029999
 21
243.749999999951
 31
0.0
  0
LINE
  5
30C
  8
DATA
  6
CONTINUOUS
 62
     7
 10
226.50000000029999
 20
187.74999999995109
 30
0.0
 11
226.50000000029999
 21
200.55779398230649
 31
0.0
  0
LINE
  5
30D
  8
DATA
  6
CONTINUOUS
 62
     7
 10
226.50000000029999
 20
236.52006852957561
 30
0.0
 11
226.50000000029999
 21
243.749999999951
 31
0.0
  0
LINE
  5
30E
  8
DATA
  6
CONTINUOUS
 62
     7
 10
217.69999999980001
 20
246.75
 30
0.0
 11
220.29999999980001
 21
246.75
 31
0.0
  0
LINE
  5
30F
  8
DATA
  6
CONTINUOUS
 62
     7
 10
217.69999999980001
 20
243.75
 30
0.0
 11
220.29999999980001
 21
244.20845014984201
 31
0.0
  0
LINE
  5
310
  8
DATA
  6
CONTINUOUS
 62
     7
 10
217.69999999980001
 20
244.55000000000001
 30
0.0
 11
220.29999999980001
 21
245.00845014984199
 31
0.0
  0
LINE
  5
311
  8
DATA
  6
CONTINUOUS
 62
     7
 10
217.69999999980001
 20
245.34999999999999
 30
0.0
 11
220.29999999980001
 21
245.808450149842
 31
0.0
  0
LINE
  5
312
  8
DATA
  6
CONTINUOUS
 62
     7
 10
217.69999999980001
 20
246.15000000000001
 30
0.0
 11
220.29999999980001
 21
246.60845014984201
 31
0.0
  0
POLYLINE
  5
313
  8
DATA
  6
CONTINUOUS
 62
     7
 66
     1
 10
0.0
 20
0.0
 30
0.0
  0
VERTEX
  5
5B0
  8
DATA
  6
CONTINUOUS
 62
     7
 10
221.1500000003
 20
183.49039109496701
 30
0.0
  0
VERTEX
  5
5B1
  8
DATA
  6
CONTINUOUS
 62
     7
 10
221.1500000003
 20
170.75
 30
0.0
  0
VERTEX
  5
5B2
  8
DATA
  6
CONTINUOUS
 62
     7
 10
216.85000000030001
 20
170.75
 30
0.0
  0
VERTEX
  5
5B3
  8
DATA
  6
CONTINUOUS
 62
     7
 10
216.85000000030001
 20
183.49039109496701
 30
0.0
  0
SEQEND
  5
5B4
  8
DATA
  6
CONTINUOUS
 62
     7
  0
LINE
  5
31A
  8
DATA
  6
CONTINUOUS
 62
     7
 10
212.35000000030001
 20
175.74999999995109
 30
0.0
 11
216.85000000030001
 21
175.74999999995109
 31
0.0
  0
LINE
  5
31B
  8
DATA
  6
CONTINUOUS
 62
     7
 10
221.1500000003
 20
175.74999999995109
 30
0.0
 11
223.89742625950689
 21
175.74999999995109
 31
0.0
  0
ARC
  5
31C
  8
DATA
  6
CONTINUOUS
 62
     7
 10
218.37611291915539
 20
188.91919110466989
 30
0.0
 40
5.6392278005456307
 50
188.58024296744131
 51
268.92392904035643
  0
ARC
  5
31D
  8
DATA
  6
CONTINUOUS
 62
     7
 10
219.62388708144459
 20
188.91919110466989
 30
0.0
 40
5.6392278005456333
 50
273.53304661732062
 51
351.41975703255861
  0
ARC
  5
31E
  8
DATA
  6
CONTINUOUS
 62
     7
 10
219.0632355759702
 20
193.3581221992408
 30
0.0
 40
10.10831999563128
 50
265.50035810843758
 51
275.15459076883081
  0
LINE
  5
31F
  8
DATA
  6
CONTINUOUS
 62
     7
 10
213.50000000029999
 20
242.9499999999511
 30
0.0
 11
213.50000000029999
 21
243.749999999951
 31
0.0
  0
LINE
  5
320
  8
DATA
  6
CONTINUOUS
 62
     7
 10
224.50000000029999
 20
242.9499999999511
 30
0.0
 11
213.50000000029999
 21
242.9499999999511
 31
0.0
  0
LINE
  5
321
  8
DATA
  6
CONTINUOUS
 62
     7
 10
224.50000000029999
 20
243.749999999951
 30
0.0
 11
224.50000000029999
 21
242.9499999999511
 31
0.0
  0
LINE
  5
322
  8
DATA
  6
CONTINUOUS
 62
     7
 10
214.50000000029999
 20
248.749999999951
 30
0.0
 11
214.50000000029999
 21
242.9499999999511
 31
0.0
  0
LINE
  5
323
  8
DATA
  6
CONTINUOUS
 62
     7
 10
223.50000000029999
 20
248.749999999951
 30
0.0
 11
223.50000000029999
 21
242.9499999999511
 31
0.0
  0
LINE
  5
324
  8
DATA
  6
CONTINUOUS
 62
     7
 10
217.69999999980001
 20
246.75
 30
0.0
 11
217.69999999980001
 21
242.9499999999511
 31
0.0
  0
LINE
  5
325
  8
DATA
  6
CONTINUOUS
 62
     7
 10
220.29999999980001
 20
246.75
 30
0.0
 11
220.29999999980001
 21
242.9499999999511
 31
0.0
  0
ARC
  5
326
  8
DATA
  6
CONTINUOUS
 62
     7
 10
219.79180537772081
 20
237.8316901408451
 30
0.0
 40
8.2961452857649736
 50
178.1466448301523
 51
222.7524503914328
  0
ARC
  5
327
  8
DATA
  6
CONTINUOUS
 62
     7
 10
218.30819462227919
 20
237.8316901408451
 30
0.0
 40
8.2961452857649576
 50
317.24754960856711
 51
350.90336211570121
  0
LINE
  5
328
  8
DATA
  6
CONTINUOUS
 62
     7
 10
213.09999999999999
 20
208.8491517886321
 30
0.0
 11
213.09999999999999
 21
232.92804176547941
 31
0.0
  0
LINE
  5
329
  8
DATA
  6
CONTINUOUS
 62
     7
 10
224.90000000000001
 20
232.7944162288197
 30
0.0
 11
224.90000000000001
 21
209.3174444715589
 31
0.0
  0
LINE
  5
32A
  8
DATA
  6
CONTINUOUS
 62
     7
 10
211.676390044139
 20
201.760168011578
 30
0.0
 11
213.01180497808051
 21
208.01381843393779
 31
0.0
  0
LINE
  5
32B
  8
DATA
  6
CONTINUOUS
 62
     7
 10
226.3236099564609
 20
202.22846069169509
 30
0.0
 11
224.98819502191949
 21
208.48211111686459
 31
0.0
  0
LINE
  5
32C
  8
DATA
  6
CONTINUOUS
 62
     7
 10
211.50000000029999
 20
187.74999999995109
 30
0.0
 11
211.50000000029999
 21
175.74999999995109
 31
0.0
  0
LINE
  5
32D
  8
DATA
  6
CONTINUOUS
 62
     7
 10
226.50000000029999
 20
187.74999999995109
 30
0.0
 11
226.50000000029999
 21
175.74999999995109
 31
0.0
  0
LINE
  5
32E
  8
DATA
  6
CONTINUOUS
 62
     7
 10
212.80000000000001
 20
188.07784997333519
 30
0.0
 11
212.80000000000001
 21
198.7073271497153
 31
0.0
  0
LINE
  5
32F
  8
DATA
  6
CONTINUOUS
 62
     7
 10
225.2000000006
 20
188.07784997333519
 30
0.0
 11
225.2000000006
 21
198.7073271497153
 31
0.0
  0
LINE
  5
330
  8
DATA
  6
CONTINUOUS
 62
     7
 10
214.65806603188241
 20
184.67925979266889
 30
0.0
 11
215.5542999580145
 21
179.5964646212708
 31
0.0
  0
LINE
  5
331
  8
DATA
  6
CONTINUOUS
 62
     7
 10
223.3419339687176
 20
184.67925979266889
 30
0.0
 11
222.44570004258549
 21
179.5964646212708
 31
0.0
  0
LINE
  5
332
  8
DATA
  6
CONTINUOUS
 62
     7
 10
215.5542999580145
 20
179.5964646212708
 30
0.0
 11
216.85000000030001
 21
179.5964646212708
 31
0.0
  0
LINE
  5
333
  8
DATA
  6
CONTINUOUS
 62
     7
 10
221.1500000003
 20
179.5964646212708
 30
0.0
 11
222.44570004258549
 21
179.5964646212708
 31
0.0
  0
ARC
  5
334
  8
DATA
  6
CONTINUOUS
 62
     7
 10
209.09999999999999
 20
208.8491517886321
 30
0.0
 40
3.9999999999999849
 50
347.94600832309129
 51
0.0000000000002274
  0
ARC
  5
335
  8
DATA
  6
CONTINUOUS
 62
     7
 10
228.90000000000001
 20
209.3174444715589
 30
0.0
 40
4.0
 50
179.99999999999969
 51
192.05399167690871
  0
ARC
  5
336
  8
DATA
  6
CONTINUOUS
 62
     7
 10
219.50000000029999
 20
200.0895013021894
 30
0.0
 40
7.9999999999999867
 50
167.94600832309129
 51
180.0000000000002
  0
ARC
  5
337
  8
DATA
  6
CONTINUOUS
 62
     7
 10
218.50000000029999
 20
200.55779398230649
 30
0.0
 40
8.0
 50
0.0
 51
12.053991676908939
  0
LINE
  5
338
  8
DATA
  6
CONTINUOUS
 62
     7
 10
168.7499999998
 20
131.40000000000001
 30
0.0
 11
207.7499999998
 21
131.40000000000001
 31
0.0
  0
LINE
  5
339
  8
DATA
  6
CONTINUOUS
 62
     7
 10
168.7499999998
 20
146.40000000000001
 30
0.0
 11
207.7499999998
 21
146.40000000000001
 31
0.0
  0
CIRCLE
  5
33A
  8
DATA
  6
CONTINUOUS
 62
     7
 10
171.89999999979989
 20
138.90000000000001
 30
0.0
 40
2.1500000000000048
  0
CIRCLE
  5
33B
  8
DATA
  6
CONTINUOUS
 62
     7
 10
204.59999999979999
 20
138.90000000000001
 30
0.0
 40
2.149999999999991
  0
LINE
  5
33C
  8
DATA
  6
CONTINUOUS
 62
     7
 10
175.75
 20
145.40000000000001
 30
0.0
 11
175.75
 21
132.40000000000001
 31
0.0
  0
LINE
  5
33D
  8
DATA
  6
CONTINUOUS
 62
     7
 10
200.75
 20
145.40000000000001
 30
0.0
 11
200.75
 21
132.40000000000001
 31
0.0
  0
LINE
  5
33E
  8
DATA
  6
CONTINUOUS
 62
     7
 10
175.75
 20
145.40000000000001
 30
0.0
 11
200.75
 21
145.40000000000001
 31
0.0
  0
LINE
  5
33F
  8
DATA
  6
CONTINUOUS
 62
     7
 10
175.75
 20
132.40000000000001
 30
0.0
 11
200.75
 21
132.40000000000001
 31
0.0
  0
ARC
  5
340
  8
DATA
  6
CONTINUOUS
 62
     7
 10
170.2878813563789
 20
143.8621186434211
 30
0.0
 40
2.594254832090753
 50
101.9662565511091
 51
126.3561519749709
  0
ARC
  5
341
  8
DATA
  6
CONTINUOUS
 62
     7
 10
170.2878813563789
 20
133.93788135657891
 30
0.0
 40
2.5942548320907579
 50
233.643848025029
 51
258.0337434488909
  0
ARC
  5
342
  8
DATA
  6
CONTINUOUS
 62
     7
 10
206.212118643221
 20
143.8621186434211
 30
0.0
 40
2.5942548320907579
 50
53.643848025029037
 51
78.033743448890903
  0
ARC
  5
343
  8
DATA
  6
CONTINUOUS
 62
     7
 10
206.212118643221
 20
133.93788135657891
 30
0.0
 40
2.594254832090753
 50
281.9662565511091
 51
306.35615197497089
  0
ARC
  5
344
  8
DATA
  6
CONTINUOUS
 62
     7
 10
169.01442726821139
 20
123.24487835824
 30
0.0
 40
23.166802228364588
 50
73.175119112045905
 51
88.180487009215511
  0
ARC
  5
345
  8
DATA
  6
CONTINUOUS
 62
     7
 10
169.01442726821139
 20
154.55512164176
 30
0.0
 40
23.166802228364588
 50
271.81951299078452
 51
286.82488088795401
  0
ARC
  5
346
  8
DATA
  6
CONTINUOUS
 62
     7
 10
207.48557273138849
 20
123.24487835824
 30
0.0
 40
23.166802228364588
 50
91.819512990784474
 51
106.824880887954
  0
ARC
  5
347
  8
DATA
  6
CONTINUOUS
 62
     7
 10
207.48557273138849
 20
154.55512164176
 30
0.0
 40
23.166802228364588
 50
253.17511911204591
 51
268.18048700921548
  0
POLYLINE
  5
348
  8
DATA
  6
CONTINUOUS
 62
     7
 66
     1
 10
0.0
 20
0.0
 30
0.0
 70
     1
  0
VERTEX
  5
5B5
  8
DATA
  6
CONTINUOUS
 62
     7
 10
168.7499999998
 20
277.5
 30
0.0
  0
VERTEX
  5
5B6
  8
DATA
  6
CONTINUOUS
 62
     7
 10
207.7499999998
 20
277.5
 30
0.0
  0
VERTEX
  5
5B7
  8
DATA
  6
CONTINUOUS
 62
     7
 10
207.7499999998
 20
262.5
 30
0.0
  0
VERTEX
  5
5B8
  8
DATA
  6
CONTINUOUS
 62
     7
 10
168.7499999998
 20
262.5
 30
0.0
  0
SEQEND
  5
5B9
  8
DATA
  6
CONTINUOUS
 62
     7
  0
LINE
  5
34F
  8
DATA
  6
CONTINUOUS
 62
     7
 10
168.7499999998
 20
131.40000000000001
 30
0.0
 11
168.7499999998
 21
146.40000000000001
 31
0.0
  0
LINE
  5
350
  8
DATA
  6
CONTINUOUS
 62
     7
 10
207.7499999998
 20
131.40000000000001
 30
0.0
 11
207.7499999998
 21
146.40000000000001
 31
0.0
  0
LINE
  5
351
  8
DATA
  6
CONTINUOUS
 62
     7
 10
168.7499999998
 20
184.50000000003129
 30
0.0
 11
168.7499999998
 21
243.75
 31
0.0
  0
LINE
  5
352
  8
DATA
  6
CONTINUOUS
 62
     7
 10
207.7499999998
 20
184.49999999996879
 30
0.0
 11
207.7499999998
 21
243.75
 31
0.0
  0
CIRCLE
  5
353
  8
DATA
  6
CONTINUOUS
 62
     7
 10
196.30266474039371
 20
135.3484978840647
 30
0.0
 40
1.8499999999999941
  0
POLYLINE
  5
354
  8
DATA
  6
CONTINUOUS
 62
     7
 66
     1
 10
0.0
 20
0.0
 30
0.0
  0
VERTEX
  5
5BA
  8
DATA
  6
CONTINUOUS
 62
     7
 10
182.5829338184171
 20
140.67361552468421
 30
0.0
  0
VERTEX
  5
5BB
  8
DATA
  6
CONTINUOUS
 62
     7
 10
186.3329338184171
 20
140.67361552468421
 30
0.0
  0
VERTEX
  5
5BC
  8
DATA
  6
CONTINUOUS
 62
     7
 10
186.3329338184171
 20
132.97361552468419
 30
0.0
  0
VERTEX
  5
5BD
  8
DATA
  6
CONTINUOUS
 62
     7
 10
176.8329338184171
 20
132.97361552468419
 30
0.0
  0
VERTEX
  5
5BE
  8
DATA
  6
CONTINUOUS
 62
     7
 10
176.8329338184171
 20
140.67361552468421
 30
0.0
  0
VERTEX
  5
5BF
  8
DATA
  6
CONTINUOUS
 62
     7
 10
180.5829338184171
 20
140.67361552468421
 30
0.0
  0
SEQEND
  5
5C0
  8
DATA
  6
CONTINUOUS
 62
     7
  0
CIRCLE
  5
35D
  8
DATA
  6
CONTINUOUS
 62
     7
 10
181.5829338184171
 20
136.8236155246841
 30
0.0
 40
1.973090634180634
  0
LINE
  5
35E
  8
DATA
  6
CONTINUOUS
 62
     7
 10
182.5829338184171
 20
142.17361552468421
 30
0.0
 11
182.5829338184171
 21
140.67361552468421
 31
0.0
  0
LINE
  5
35F
  8
DATA
  6
CONTINUOUS
 62
     7
 10
180.5829338184171
 20
142.17361552468421
 30
0.0
 11
182.5829338184171
 21
142.17361552468421
 31
0.0
  0
LINE
  5
360
  8
DATA
  6
CONTINUOUS
 62
     7
 10
180.5829338184171
 20
140.67361552468421
 30
0.0
 11
180.5829338184171
 21
142.17361552468421
 31
0.0
  0
CIRCLE
  5
361
  8
DATA
  6
CONTINUOUS
 62
     7
 10
196.30266474039371
 20
135.3484978840647
 30
0.0
 40
0.4000000000000057
  0
TEXT
  5
362
  8
DATA
 62
     7
 10
179.86912498990691
 20
180.4760416666667
 30
0.0
 40
0.7579210069444442
  1
5V
 41
0.7
 11
179.86912498990691
 21
181.2339626736111
 31
0.0
 73
     3
  0
LINE
  5
363
  8
DATA
  6
STYLE_01
 62
     7
 10
181.34999999999999
 20
181.09
 30
0.0
 11
182.22105942159001
 21
181.09
 31
0.0
  0
LINE
  5
364
  8
DATA
  6
STYLE_05
 62
     7
 10
181.34999999999999
 20
180.68068255183951
 30
0.0
 11
182.22105942159001
 21
180.68068255183951
 31
0.0
  0
LINE
  5
365
  8
DATA
  6
CONTINUOUS
 62
     7
 10
134.91165409225201
 20
248.75
 30
0.0
 11
134.91165409225201
 21
243.75
 31
0.0
  0
LINE
  5
366
  8
DATA
  6
CONTINUOUS
 62
     7
 10
108.91165409225199
 20
248.75
 30
0.0
 11
108.91165409225199
 21
243.75
 31
0.0
  0
LINE
  5
367
  8
DATA
  6
CONTINUOUS
 62
     7
 10
134.91165409225201
 20
248.75
 30
0.0
 11
108.91165409225199
 21
248.75
 31
0.0
  0
LINE
  5
368
  8
DATA
  6
CONTINUOUS
 62
     7
 10
139.56165409225201
 20
243.75
 30
0.0
 11
139.56165409225201
 21
246.75
 31
0.0
  0
LINE
  5
369
  8
DATA
  6
CONTINUOUS
 62
     7
 10
136.96165409225199
 20
246.75
 30
0.0
 11
136.96165409225199
 21
243.75
 31
0.0
  0
LINE
  5
36A
  8
DATA
  6
CONTINUOUS
 62
     7
 10
139.56165409225201
 20
246.75
 30
0.0
 11
136.96165409225199
 21
246.75
 31
0.0
  0
LINE
  5
36B
  8
DATA
  6
CONTINUOUS
 62
     7
 10
139.56165409225201
 20
243.75
 30
0.0
 11
136.96165409225199
 21
244.20845014984201
 31
0.0
  0
LINE
  5
36C
  8
DATA
  6
CONTINUOUS
 62
     7
 10
139.56165409225201
 20
244.55000000000001
 30
0.0
 11
136.96165409225199
 21
245.00845014984199
 31
0.0
  0
LINE
  5
36D
  8
DATA
  6
CONTINUOUS
 62
     7
 10
139.56165409225201
 20
245.34999999999999
 30
0.0
 11
136.96165409225199
 21
245.808450149842
 31
0.0
  0
LINE
  5
36E
  8
DATA
  6
CONTINUOUS
 62
     7
 10
139.56165409225201
 20
246.15000000000001
 30
0.0
 11
136.96165409225199
 21
246.60845014984201
 31
0.0
  0
LINE
  5
36F
  8
DATA
  6
CONTINUOUS
 62
     7
 10
141.41165409225201
 20
243.75
 30
0.0
 11
102.41165409225199
 21
243.75
 31
0.0
  0
LINE
  5
370
  8
DATA
  6
CONTINUOUS
 62
     7
 10
106.861654092252
 20
243.75
 30
0.0
 11
106.861654092252
 21
246.75
 31
0.0
  0
LINE
  5
371
  8
DATA
  6
CONTINUOUS
 62
     7
 10
104.261654092252
 20
246.75
 30
0.0
 11
104.261654092252
 21
243.75
 31
0.0
  0
LINE
  5
372
  8
DATA
  6
CONTINUOUS
 62
     7
 10
106.861654092252
 20
246.75
 30
0.0
 11
104.261654092252
 21
246.75
 31
0.0
  0
LINE
  5
373
  8
DATA
  6
CONTINUOUS
 62
     7
 10
106.861654092252
 20
243.75
 30
0.0
 11
104.261654092252
 21
244.20845014984201
 31
0.0
  0
LINE
  5
374
  8
DATA
  6
CONTINUOUS
 62
     7
 10
106.861654092252
 20
244.55000000000001
 30
0.0
 11
104.261654092252
 21
245.00845014984199
 31
0.0
  0
LINE
  5
375
  8
DATA
  6
CONTINUOUS
 62
     7
 10
106.861654092252
 20
245.34999999999999
 30
0.0
 11
104.261654092252
 21
245.808450149842
 31
0.0
  0
LINE
  5
376
  8
DATA
  6
CONTINUOUS
 62
     7
 10
106.861654092252
 20
246.15000000000001
 30
0.0
 11
104.261654092252
 21
246.60845014984201
 31
0.0
  0
LINE
  5
377
  8
DATA
  6
CONTINUOUS
 62
     7
 10
134.41165409205189
 20
175.75
 30
0.0
 11
109.411654092052
 21
175.75
 31
0.0
  0
LINE
  5
378
  8
DATA
  6
CONTINUOUS
 62
     7
 10
134.41165409205189
 20
175.75
 30
0.0
 11
141.41165409225201
 21
184.50000000003129
 31
0.0
  0
LINE
  5
379
  8
DATA
  6
CONTINUOUS
 62
     7
 10
109.411654092052
 20
175.75
 30
0.0
 11
102.41165409225199
 21
184.49999999996879
 31
0.0
  0
POLYLINE
  5
37A
  8
DATA
  6
CONTINUOUS
 62
     7
 66
     1
 10
0.0
 20
0.0
 30
0.0
  0
VERTEX
  5
5C1
  8
DATA
  6
CONTINUOUS
 62
     7
 10
136.111654092252
 20
177.87500000019691
 30
0.0
  0
VERTEX
  5
5C2
  8
DATA
  6
CONTINUOUS
 62
     7
 10
136.111654092252
 20
170.75
 30
0.0
  0
VERTEX
  5
5C3
  8
DATA
  6
CONTINUOUS
 62
     7
 10
140.41165409225201
 20
170.75
 30
0.0
  0
VERTEX
  5
5C4
  8
DATA
  6
CONTINUOUS
 62
     7
 10
140.41165409225201
 20
183.2500000000625
 30
0.0
  0
SEQEND
  5
5C5
  8
DATA
  6
CONTINUOUS
 62
     7
  0
POLYLINE
  5
381
  8
DATA
  6
CONTINUOUS
 62
     7
 66
     1
 10
0.0
 20
0.0
 30
0.0
  0
VERTEX
  5
5C6
  8
DATA
  6
CONTINUOUS
 62
     7
 10
103.41165409225199
 20
183.2499999999375
 30
0.0
  0
VERTEX
  5
5C7
  8
DATA
  6
CONTINUOUS
 62
     7
 10
103.41165409225199
 20
170.75
 30
0.0
  0
VERTEX
  5
5C8
  8
DATA
  6
CONTINUOUS
 62
     7
 10
107.711654092252
 20
170.75
 30
0.0
  0
VERTEX
  5
5C9
  8
DATA
  6
CONTINUOUS
 62
     7
 10
107.711654092252
 20
177.87499999980309
 30
0.0
  0
SEQEND
  5
5CA
  8
DATA
  6
CONTINUOUS
 62
     7
  0
LINE
  5
388
  8
DATA
  6
CONTINUOUS
 62
     7
 10
137.41165409225189
 20
238.75
 30
0.0
 11
106.41165409225199
 21
238.75
 31
0.0
  0
LINE
  5
389
  8
DATA
  6
CONTINUOUS
 62
     7
 10
137.41165409225189
 20
232.75
 30
0.0
 11
106.41165409225199
 21
232.75
 31
0.0
  0
LINE
  5
38A
  8
DATA
  6
CONTINUOUS
 62
     7
 10
137.41165409225189
 20
232.75
 30
0.0
 11
106.41165409225199
 21
232.75
 31
0.0
  0
LINE
  5
38B
  8
DATA
  6
CONTINUOUS
 62
     7
 10
137.41165409225189
 20
232.75
 30
0.0
 11
137.41165409225189
 21
238.75
 31
0.0
  0
LINE
  5
38C
  8
DATA
  6
CONTINUOUS
 62
     7
 10
106.41165409225199
 20
232.75
 30
0.0
 11
106.41165409225199
 21
238.75
 31
0.0
  0
LINE
  5
38D
  8
DATA
  6
CONTINUOUS
 62
     7
 10
130.91165409205189
 20
178.75
 30
0.0
 11
112.911654092052
 21
178.75
 31
0.0
  0
LINE
  5
38E
  8
DATA
  6
CONTINUOUS
 62
     7
 10
133.39048115162771
 20
200.75
 30
0.0
 11
110.4328270324762
 21
200.75
 31
0.0
  0
ARC
  5
38F
  8
DATA
  6
CONTINUOUS
 62
     7
 10
29.188701367057469
 20
203.79617231299599
 30
0.0
 40
104.76210360598679
 50
346.1676687207472
 51
358.05087472495512
  0
ARC
  5
390
  8
DATA
  6
CONTINUOUS
 62
     7
 10
214.6346068170462
 20
203.79617231299599
 30
0.0
 40
104.7621036059866
 50
181.94912527504479
 51
193.8323312792528
  0
CIRCLE
  5
391
  8
DATA
  6
CONTINUOUS
 62
     7
 10
113.28437989771351
 20
197.1560787342562
 30
0.0
 40
0.7500000000000782
  0
TEXT
  5
392
  8
DATA
 62
     7
 10
114.8731409529026
 20
196.75170302694929
 30
0.0
 40
0.7579210069444442
  1
STATUS
 41
0.7
 11
114.8731409529026
 21
197.50962403389369
 31
0.0
 73
     3
  0
CIRCLE
  5
393
  8
DATA
  6
CONTINUOUS
 62
     7
 10
113.28437989771351
 20
188.9497791032737
 30
0.0
 40
0.7500000000000782
  0
TEXT
  5
394
  8
DATA
 62
     7
 10
115.02130773059289
 20
188.54540339596679
 30
0.0
 40
0.7579210069444442
  1
POWER
 41
0.7
 11
115.02130773059289
 21
189.3033244029113
 31
0.0
 73
     3
  0
TEXT
  5
395
  8
DATA
 62
     7
 10
118.5885004863546
 20
184.47648538449681
 30
0.0
 40
1.1368815104166661
  1
SENDER
 41
0.7
 11
118.5885004863546
 21
185.61336689491341
 31
0.0
 73
     3
  0
ARC
  5
396
  8
DATA
  6
CONTINUOUS
 62
     7
 10
133.39048115162771
 20
200.25
 30
0.0
 40
0.5000000000000071
 50
358.05087472495683
 51
90.0
  0
ARC
  5
397
  8
DATA
  6
CONTINUOUS
 62
     7
 10
110.4328270324762
 20
200.25
 30
0.0
 40
0.5000000000000142
 50
90.0
 51
181.949125275043
  0
LINE
  5
398
  8
DATA
  6
CONTINUOUS
 62
     7
 10
134.41165409205189
 20
175.75
 30
0.0
 11
138.88171897458801
 21
184.2032910154889
 31
0.0
  0
LINE
  5
399
  8
DATA
  6
CONTINUOUS
 62
     7
 10
139.4616540920519
 20
186.54060281201319
 30
0.0
 11
139.4616540920519
 21
202.35699241700769
 31
0.0
  0
ARC
  5
39A
  8
DATA
  6
CONTINUOUS
 62
     7
 10
134.4616540920519
 20
186.54060281201319
 30
0.0
 40
4.999999999999992
 50
332.13030152684382
 51
0.0000000000001705
  0
LINE
  5
39B
  8
DATA
  6
CONTINUOUS
 62
     7
 10
134.08826738535541
 20
232.75
 30
0.0
 11
136.64724437145131
 21
230.3466400199749
 31
0.0
  0
LINE
  5
39C
  8
DATA
  6
CONTINUOUS
 62
     7
 10
138.25865444604301
 20
230.70004342687159
 30
0.0
 11
141.41165409225201
 21
238.4819148941107
 31
0.0
  0
ARC
  5
39D
  8
DATA
  6
CONTINUOUS
 62
     7
 10
137.33184001024469
 20
231.07556306896231
 30
0.0
 40
1.0
 50
226.79618527444441
 51
337.94356647296053
  0
LINE
  5
39E
  8
DATA
  6
CONTINUOUS
 62
     7
 10
109.83504079874849
 20
232.75
 30
0.0
 11
107.27606381265259
 21
230.3466400199749
 31
0.0
  0
LINE
  5
39F
  8
DATA
  6
CONTINUOUS
 62
     7
 10
105.66465373806091
 20
230.70004342687159
 30
0.0
 11
102.41165409225199
 21
238.72872340376171
 31
0.0
  0
ARC
  5
3A0
  8
DATA
  6
CONTINUOUS
 62
     7
 10
106.5914681738592
 20
231.07556306896231
 30
0.0
 40
0.9999999999999841
 50
202.0564335270397
 51
313.20381472555562
  0
LINE
  5
3A1
  8
DATA
  6
CONTINUOUS
 62
     7
 10
139.4616540920519
 20
193.14060281201321
 30
0.0
 11
139.4616540920519
 21
208.9569924170076
 31
0.0
  0
ARC
  5
3A2
  8
DATA
  6
CONTINUOUS
 62
     7
 10
121.6801855605833
 20
214.3115384615385
 30
0.0
 40
18.491053997812649
 50
311.2066147496883
 51
342.98289940433602
  0
LINE
  5
3A3
  8
DATA
  6
CONTINUOUS
 62
     7
 10
109.1166733970569
 20
176.1187258687531
 30
0.0
 11
104.8415892095159
 21
184.2032910154889
 31
0.0
  0
LINE
  5
3A4
  8
DATA
  6
CONTINUOUS
 62
     7
 10
104.261654092052
 20
186.54060281201319
 30
0.0
 11
104.261654092052
 21
202.35699241700769
 31
0.0
  0
ARC
  5
3A5
  8
DATA
  6
CONTINUOUS
 62
     7
 10
109.261654092052
 20
186.54060281201319
 30
0.0
 40
5.0
 50
179.99999999999989
 51
207.86969847315621
  0
LINE
  5
3A6
  8
DATA
  6
CONTINUOUS
 62
     7
 10
104.261654092052
 20
193.14060281201321
 30
0.0
 11
104.261654092052
 21
208.9569924170076
 31
0.0
  0
ARC
  5
3A7
  8
DATA
  6
CONTINUOUS
 62
     7
 10
122.0431226235204
 20
214.3115384615385
 30
0.0
 40
18.491053997812561
 50
197.017100595664
 51
228.79338525031201
  0
LINE
  5
3A8
  8
DATA
  6
CONTINUOUS
 62
     7
 10
122.2616540920519
 20
206.19999999999999
 30
0.0
 11
132.58146527396809
 21
206.19999999999999
 31
0.0
  0
LINE
  5
3A9
  8
DATA
  6
CONTINUOUS
 62
     7
 10
124.4616540920519
 20
206.19999999999999
 30
0.0
 11
134.78146527396811
 21
206.19999999999999
 31
0.0
  0
ARC
  5
3AA
  8
DATA
  6
CONTINUOUS
 62
     7
 10
132.44552505979379
 20
215.759677419355
 30
0.0
 40
9.8131880777728409
 50
283.05179044079222
 51
313.99444677183192
  0
LINE
  5
3AB
  8
DATA
  6
CONTINUOUS
 62
     7
 10
121.4616540920519
 20
206.19999999999999
 30
0.0
 11
111.14184291013569
 21
206.19999999999999
 31
0.0
  0
LINE
  5
3AC
  8
DATA
  6
CONTINUOUS
 62
     7
 10
119.2616540920519
 20
206.19999999999999
 30
0.0
 11
108.9418429101357
 21
206.19999999999999
 31
0.0
  0
ARC
  5
3AD
  8
DATA
  6
CONTINUOUS
 62
     7
 10
111.2777831243101
 20
215.759677419355
 30
0.0
 40
9.8131880777728409
 50
226.00555322816811
 51
256.9482095592079
  0
LINE
  5
3AE
  8
DATA
  6
CONTINUOUS
 62
     7
 10
121.36165409205189
 20
206.19999999999999
 30
0.0
 11
131.68146527396809
 21
206.19999999999999
 31
0.0
  0
LINE
  5
3AF
  8
DATA
  6
CONTINUOUS
 62
     7
 10
141.41165409225201
 20
184.50000000003129
 30
0.0
 11
141.41165409225201
 21
243.75
 31
0.0
  0
LINE
  5
3B0
  8
DATA
  6
CONTINUOUS
 62
     7
 10
102.41165409225199
 20
184.49999999996879
 30
0.0
 11
102.41165409225199
 21
243.75
 31
0.0
  0
TEXT
  5
3B1
  8
DATA
 62
     7
 10
114.4646909004228
 20
180.4760416666667
 30
0.0
 40
0.7579210069444442
  1
5V
 41
0.7
 11
114.4646909004228
 21
181.2339626736111
 31
0.0
 73
     3
  0
LINE
  5
3B2
  8
DATA
  6
STYLE_01
 62
     7
 10
116.9585744071302
 20
181.09
 30
0.0
 11
116.0875149855401
 21
181.09
 31
0.0
  0
LINE
  5
3B3
  8
DATA
  6
STYLE_05
 62
     7
 10
116.9585744071302
 20
180.68068255183951
 30
0.0
 11
116.0875149855401
 21
180.68068255183951
 31
0.0
  0
LINE
  5
3B4
  8
DATA
  6
CONTINUOUS
 62
     7
 10
265.16165409225198
 20
248.75
 30
0.0
 11
265.16165409225198
 21
243.75
 31
0.0
  0
LINE
  5
3B5
  8
DATA
  6
CONTINUOUS
 62
     7
 10
239.16165409225201
 20
248.75
 30
0.0
 11
239.16165409225201
 21
243.75
 31
0.0
  0
LINE
  5
3B6
  8
DATA
  6
CONTINUOUS
 62
     7
 10
265.16165409225198
 20
248.75
 30
0.0
 11
239.16165409225201
 21
248.75
 31
0.0
  0
LINE
  5
3B7
  8
DATA
  6
CONTINUOUS
 62
     7
 10
269.81165409225201
 20
243.75
 30
0.0
 11
269.81165409225201
 21
246.75
 31
0.0
  0
LINE
  5
3B8
  8
DATA
  6
CONTINUOUS
 62
     7
 10
267.21165409225199
 20
246.75
 30
0.0
 11
267.21165409225199
 21
243.75
 31
0.0
  0
LINE
  5
3B9
  8
DATA
  6
CONTINUOUS
 62
     7
 10
269.81165409225201
 20
246.75
 30
0.0
 11
267.21165409225199
 21
246.75
 31
0.0
  0
LINE
  5
3BA
  8
DATA
  6
CONTINUOUS
 62
     7
 10
269.81165409225201
 20
243.75
 30
0.0
 11
267.21165409225199
 21
244.20845014984201
 31
0.0
  0
LINE
  5
3BB
  8
DATA
  6
CONTINUOUS
 62
     7
 10
269.81165409225201
 20
244.55000000000001
 30
0.0
 11
267.21165409225199
 21
245.00845014984199
 31
0.0
  0
LINE
  5
3BC
  8
DATA
  6
CONTINUOUS
 62
     7
 10
269.81165409225201
 20
245.34999999999999
 30
0.0
 11
267.21165409225199
 21
245.808450149842
 31
0.0
  0
LINE
  5
3BD
  8
DATA
  6
CONTINUOUS
 62
     7
 10
269.81165409225201
 20
246.15000000000001
 30
0.0
 11
267.21165409225199
 21
246.60845014984201
 31
0.0
  0
LINE
  5
3BE
  8
DATA
  6
CONTINUOUS
 62
     7
 10
271.66165409225198
 20
243.75
 30
0.0
 11
232.66165409225201
 21
243.75
 31
0.0
  0
LINE
  5
3BF
  8
DATA
  6
CONTINUOUS
 62
     7
 10
237.111654092252
 20
243.75
 30
0.0
 11
237.111654092252
 21
246.75
 31
0.0
  0
LINE
  5
3C0
  8
DATA
  6
CONTINUOUS
 62
     7
 10
234.511654092252
 20
246.75
 30
0.0
 11
234.511654092252
 21
243.75
 31
0.0
  0
LINE
  5
3C1
  8
DATA
  6
CONTINUOUS
 62
     7
 10
237.111654092252
 20
246.75
 30
0.0
 11
234.511654092252
 21
246.75
 31
0.0
  0
LINE
  5
3C2
  8
DATA
  6
CONTINUOUS
 62
     7
 10
237.111654092252
 20
243.75
 30
0.0
 11
234.511654092252
 21
244.20845014984201
 31
0.0
  0
LINE
  5
3C3
  8
DATA
  6
CONTINUOUS
 62
     7
 10
237.111654092252
 20
244.55000000000001
 30
0.0
 11
234.511654092252
 21
245.00845014984199
 31
0.0
  0
LINE
  5
3C4
  8
DATA
  6
CONTINUOUS
 62
     7
 10
237.111654092252
 20
245.34999999999999
 30
0.0
 11
234.511654092252
 21
245.808450149842
 31
0.0
  0
LINE
  5
3C5
  8
DATA
  6
CONTINUOUS
 62
     7
 10
237.111654092252
 20
246.15000000000001
 30
0.0
 11
234.511654092252
 21
246.60845014984201
 31
0.0
  0
LINE
  5
3C6
  8
DATA
  6
CONTINUOUS
 62
     7
 10
264.66165409205189
 20
175.75
 30
0.0
 11
239.661654092052
 21
175.75
 31
0.0
  0
LINE
  5
3C7
  8
DATA
  6
CONTINUOUS
 62
     7
 10
264.66165409205189
 20
175.75
 30
0.0
 11
271.66165409225198
 21
184.50000000003129
 31
0.0
  0
LINE
  5
3C8
  8
DATA
  6
CONTINUOUS
 62
     7
 10
239.661654092052
 20
175.75
 30
0.0
 11
232.66165409225201
 21
184.49999999996879
 31
0.0
  0
POLYLINE
  5
3C9
  8
DATA
  6
CONTINUOUS
 62
     7
 66
     1
 10
0.0
 20
0.0
 30
0.0
  0
VERTEX
  5
5CB
  8
DATA
  6
CONTINUOUS
 62
     7
 10
266.36165409225202
 20
177.87500000019691
 30
0.0
  0
VERTEX
  5
5CC
  8
DATA
  6
CONTINUOUS
 62
     7
 10
266.36165409225202
 20
170.75
 30
0.0
  0
VERTEX
  5
5CD
  8
DATA
  6
CONTINUOUS
 62
     7
 10
270.66165409225198
 20
170.75
 30
0.0
  0
VERTEX
  5
5CE
  8
DATA
  6
CONTINUOUS
 62
     7
 10
270.66165409225198
 20
183.2500000000625
 30
0.0
  0
SEQEND
  5
5CF
  8
DATA
  6
CONTINUOUS
 62
     7
  0
POLYLINE
  5
3D0
  8
DATA
  6
CONTINUOUS
 62
     7
 66
     1
 10
0.0
 20
0.0
 30
0.0
  0
VERTEX
  5
5D0
  8
DATA
  6
CONTINUOUS
 62
     7
 10
233.66165409225201
 20
183.2499999999375
 30
0.0
  0
VERTEX
  5
5D1
  8
DATA
  6
CONTINUOUS
 62
     7
 10
233.66165409225201
 20
170.75
 30
0.0
  0
VERTEX
  5
5D2
  8
DATA
  6
CONTINUOUS
 62
     7
 10
237.96165409225199
 20
170.75
 30
0.0
  0
VERTEX
  5
5D3
  8
DATA
  6
CONTINUOUS
 62
     7
 10
237.96165409225199
 20
177.87499999980309
 30
0.0
  0
SEQEND
  5
5D4
  8
DATA
  6
CONTINUOUS
 62
     7
  0
LINE
  5
3D7
  8
DATA
  6
CONTINUOUS
 62
     7
 10
267.66165409225192
 20
238.75
 30
0.0
 11
236.66165409225201
 21
238.75
 31
0.0
  0
LINE
  5
3D8
  8
DATA
  6
CONTINUOUS
 62
     7
 10
267.66165409225192
 20
232.75
 30
0.0
 11
236.66165409225201
 21
232.75
 31
0.0
  0
LINE
  5
3D9
  8
DATA
  6
CONTINUOUS
 62
     7
 10
267.66165409225192
 20
232.75
 30
0.0
 11
236.66165409225201
 21
232.75
 31
0.0
  0
LINE
  5
3DA
  8
DATA
  6
CONTINUOUS
 62
     7
 10
267.66165409225192
 20
232.75
 30
0.0
 11
267.66165409225192
 21
238.75
 31
0.0
  0
LINE
  5
3DB
  8
DATA
  6
CONTINUOUS
 62
     7
 10
236.66165409225201
 20
232.75
 30
0.0
 11
236.66165409225201
 21
238.75
 31
0.0
  0
LINE
  5
3DC
  8
DATA
  6
CONTINUOUS
 62
     7
 10
261.161654092052
 20
178.75
 30
0.0
 11
243.161654092052
 21
178.75
 31
0.0
  0
LINE
  5
3DD
  8
DATA
  6
CONTINUOUS
 62
     7
 10
263.64048115162768
 20
200.75
 30
0.0
 11
240.68282703247621
 21
200.75
 31
0.0
  0
ARC
  5
3DE
  8
DATA
  6
CONTINUOUS
 62
     7
 10
159.43870136705749
 20
203.79617231299599
 30
0.0
 40
104.76210360598679
 50
346.1676687207472
 51
358.05087472495512
  0
ARC
  5
3DF
  8
DATA
  6
CONTINUOUS
 62
     7
 10
344.88460681704629
 20
203.79617231299599
 30
0.0
 40
104.7621036059866
 50
181.94912527504479
 51
193.8323312792528
  0
CIRCLE
  5
3E0
  8
DATA
  6
CONTINUOUS
 62
     7
 10
243.53437989771359
 20
197.1560787342562
 30
0.0
 40
0.7500000000000711
  0
TEXT
  5
3E1
  8
DATA
 62
     7
 10
245.1231409529027
 20
196.75170302694929
 30
0.0
 40
0.7579210069444442
  1
STATUS
 41
0.7
 11
245.1231409529027
 21
197.50962403389369
 31
0.0
 73
     3
  0
CIRCLE
  5
3E2
  8
DATA
  6
CONTINUOUS
 62
     7
 10
243.53437989771359
 20
188.9497791032737
 30
0.0
 40
0.7500000000000711
  0
TEXT
  5
3E3
  8
DATA
 62
     7
 10
245.27130773059289
 20
188.54540339596679
 30
0.0
 40
0.7579210069444442
  1
POWER
 41
0.7
 11
245.27130773059289
 21
189.3033244029113
 31
0.0
 73
     3
  0
TEXT
  5
3E4
  8
DATA
 62
     7
 10
248.8385004863546
 20
184.47648538449681
 30
0.0
 40
1.1368815104166661
  1
SENDER
 41
0.7
 11
248.8385004863546
 21
185.61336689491341
 31
0.0
 73
     3
  0
ARC
  5
3E5
  8
DATA
  6
CONTINUOUS
 62
     7
 10
263.64048115162768
 20
200.25
 30
0.0
 40
0.5000000000000177
 50
358.050874724957
 51
90.0
  0
ARC
  5
3E6
  8
DATA
  6
CONTINUOUS
 62
     7
 10
240.68282703247621
 20
200.25
 30
0.0
 40
0.5000000000000142
 50
90.0
 51
181.949125275043
  0
LINE
  5
3E7
  8
DATA
  6
CONTINUOUS
 62
     7
 10
264.66165409205189
 20
175.75
 30
0.0
 11
269.13171897458801
 21
184.2032910154889
 31
0.0
  0
LINE
  5
3E8
  8
DATA
  6
CONTINUOUS
 62
     7
 10
269.71165409205202
 20
186.54060281201319
 30
0.0
 11
269.71165409205202
 21
202.35699241700769
 31
0.0
  0
ARC
  5
3E9
  8
DATA
  6
CONTINUOUS
 62
     7
 10
264.71165409205202
 20
186.54060281201319
 30
0.0
 40
4.9999999999999849
 50
332.13030152684371
 51
0.0000000000001705
  0
LINE
  5
3EA
  8
DATA
  6
CONTINUOUS
 62
     7
 10
264.33826738535549
 20
232.75
 30
0.0
 11
266.89724437145128
 21
230.3466400199749
 31
0.0
  0
LINE
  5
3EB
  8
DATA
  6
CONTINUOUS
 62
     7
 10
268.50865444604301
 20
230.70004342687159
 30
0.0
 11
271.66165409225198
 21
238.4819148941107
 31
0.0
  0
ARC
  5
3EC
  8
DATA
  6
CONTINUOUS
 62
     7
 10
267.58184001024472
 20
231.07556306896231
 30
0.0
 40
0.9999999999999912
 50
226.79618527444501
 51
337.94356647296081
  0
LINE
  5
3ED
  8
DATA
  6
CONTINUOUS
 62
     7
 10
240.08504079874851
 20
232.75
 30
0.0
 11
237.52606381265261
 21
230.3466400199749
 31
0.0
  0
LINE
  5
3EE
  8
DATA
  6
CONTINUOUS
 62
     7
 10
235.91465373806091
 20
230.70004342687159
 30
0.0
 11
232.66165409225201
 21
238.72872340376171
 31
0.0
  0
ARC
  5
3EF
  8
DATA
  6
CONTINUOUS
 62
     7
 10
236.8414681738592
 20
231.07556306896231
 30
0.0
 40
0.9999999999999841
 50
202.0564335270397
 51
313.20381472555562
  0
LINE
  5
3F0
  8
DATA
  6
CONTINUOUS
 62
     7
 10
269.71165409205202
 20
193.14060281201321
 30
0.0
 11
269.71165409205202
 21
208.9569924170076
 31
0.0
  0
ARC
  5
3F1
  8
DATA
  6
CONTINUOUS
 62
     7
 10
251.9301855605834
 20
214.3115384615385
 30
0.0
 40
18.49105399781266
 50
311.2066147496883
 51
342.98289940433602
  0
LINE
  5
3F2
  8
DATA
  6
CONTINUOUS
 62
     7
 10
239.36667339705679
 20
176.1187258687531
 30
0.0
 11
235.09158920951589
 21
184.2032910154889
 31
0.0
  0
LINE
  5
3F3
  8
DATA
  6
CONTINUOUS
 62
     7
 10
234.511654092052
 20
186.54060281201319
 30
0.0
 11
234.511654092052
 21
202.35699241700769
 31
0.0
  0
ARC
  5
3F4
  8
DATA
  6
CONTINUOUS
 62
     7
 10
239.511654092052
 20
186.54060281201319
 30
0.0
 40
5.0
 50
179.99999999999989
 51
207.86969847315621
  0
LINE
  5
3F5
  8
DATA
  6
CONTINUOUS
 62
     7
 10
234.511654092052
 20
193.14060281201321
 30
0.0
 11
234.511654092052
 21
208.9569924170076
 31
0.0
  0
ARC
  5
3F6
  8
DATA
  6
CONTINUOUS
 62
     7
 10
252.29312262352039
 20
214.3115384615385
 30
0.0
 40
18.491053997812561
 50
197.017100595664
 51
228.79338525031201
  0
LINE
  5
3F7
  8
DATA
  6
CONTINUOUS
 62
     7
 10
252.51165409205191
 20
206.19999999999999
 30
0.0
 11
262.83146527396809
 21
206.19999999999999
 31
0.0
  0
LINE
  5
3F8
  8
DATA
  6
CONTINUOUS
 62
     7
 10
254.7116540920519
 20
206.19999999999999
 30
0.0
 11
265.03146527396808
 21
206.19999999999999
 31
0.0
  0
ARC
  5
3F9
  8
DATA
  6
CONTINUOUS
 62
     7
 10
262.69552505979368
 20
215.759677419355
 30
0.0
 40
9.8131880777728444
 50
283.05179044079222
 51
313.99444677183192
  0
LINE
  5
3FA
  8
DATA
  6
CONTINUOUS
 62
     7
 10
251.7116540920519
 20
206.19999999999999
 30
0.0
 11
241.39184291013581
 21
206.19999999999999
 31
0.0
  0
LINE
  5
3FB
  8
DATA
  6
CONTINUOUS
 62
     7
 10
249.51165409205191
 20
206.19999999999999
 30
0.0
 11
239.1918429101357
 21
206.19999999999999
 31
0.0
  0
ARC
  5
3FC
  8
DATA
  6
CONTINUOUS
 62
     7
 10
241.5277831243101
 20
215.759677419355
 30
0.0
 40
9.8131880777728409
 50
226.00555322816811
 51
256.9482095592079
  0
LINE
  5
3FD
  8
DATA
  6
CONTINUOUS
 62
     7
 10
251.61165409205191
 20
206.19999999999999
 30
0.0
 11
261.93146527396812
 21
206.19999999999999
 31
0.0
  0
LINE
  5
3FE
  8
DATA
  6
CONTINUOUS
 62
     7
 10
271.66165409225198
 20
184.50000000003129
 30
0.0
 11
271.66165409225198
 21
243.75
 31
0.0
  0
LINE
  5
3FF
  8
DATA
  6
CONTINUOUS
 62
     7
 10
232.66165409225201
 20
184.49999999996879
 30
0.0
 11
232.66165409225201
 21
243.75
 31
0.0
  0
TEXT
  5
400
  8
DATA
 62
     7
 10
244.33103354312641
 20
180.4760416666667
 30
0.0
 40
0.7579210069444442
  1
5V
 41
0.7
 11
244.33103354312641
 21
181.2339626736111
 31
0.0
 73
     3
  0
LINE
  5
401
  8
DATA
  6
STYLE_01
 62
     7
 10
247.27272654613361
 20
181.09
 30
0.0
 11
246.40166712454359
 21
181.09
 31
0.0
  0
LINE
  5
402
  8
DATA
  6
STYLE_05
 62
     7
 10
247.27272654613361
 20
180.68068255183951
 30
0.0
 11
246.40166712454359
 21
180.68068255183951
 31
0.0
  0
ENDSEC
  0
EOF
