  0
SECTION
  2
HEADER
  9
$ACADVER
  1
AC1009
  9
$INSBASE
 10
0.0
 20
0.0
 30
0.0
  9
$EXTMIN
 10
-180.0109854908475
 20
-271.59501526754423
 30
-0.0004406539666224
  9
$EXTMAX
 10
180.01098716722819
 20
263.52508398166992
 30
0.0000000100861541
  9
$LIMMIN
 10
0.0
 20
0.0
  9
$LIMMAX
 10
0.0
 20
0.0
  9
$ORTHOMODE
 70
     0
  9
$REGENMODE
 70
     1
  9
$FILLMODE
 70
     1
  9
$QTEXTMODE
 70
     0
  9
$MIRRTEXT
 70
     1
  9
$DRAGMODE
 70
     2
  9
$LTSCALE
 40
25.399999999999999
  9
$OSMODE
 70
   231
  9
$ATTMODE
 70
     1
  9
$TEXTSIZE
 40
0.0
  9
$TRACEWID
 40
1.0
  9
$TEXTSTYLE
  7
STANDARD
  9
$CLAYER
  8
DATA
  9
$CELTYPE
  6
BYLAYER
  9
$CECOLOR
 62
   256
  9
$DIMSCALE
 40
1.0
  9
$DIMASZ
 40
0.18
  9
$DIMEXO
 40
0.0625
  9
$DIMDLI
 40
0.38
  9
$DIMRND
 40
0.0
  9
$DIMDLE
 40
0.0
  9
$DIMEXE
 40
0.18
  9
$DIMTP
 40
0.0
  9
$DIMTM
 40
0.0
  9
$DIMTXT
 40
0.18
  9
$DIMCEN
 40
0.09
  9
$DIMTSZ
 40
0.0
  9
$DIMTOL
 70
     0
  9
$DIMLIM
 70
     0
  9
$DIMTIH
 70
     1
  9
$DIMTOH
 70
     1
  9
$DIMSE1
 70
     0
  9
$DIMSE2
 70
     0
  9
$DIMTAD
 70
     0
  9
$DIMZIN
 70
     0
  9
$DIMBLK
  1

  9
$DIMASO
 70
     1
  9
$DIMSHO
 70
     1
  9
$DIMPOST
  1

  9
$DIMAPOST
  1

  9
$DIMALT
 70
     0
  9
$DIMALTD
 70
     2
  9
$DIMALTF
 40
25.399999999999999
  9
$DIMLFAC
 40
1.0
  9
$DIMTOFL
 70
     0
  9
$DIMTVP
 40
0.0
  9
$DIMTIX
 70
     0
  9
$DIMSOXD
 70
     0
  9
$DIMSAH
 70
     0
  9
$DIMBLK1
  1

  9
$DIMBLK2
  1

  9
$DIMSTYLE
  2
STANDARD
  9
$DIMCLRD
 70
     0
  9
$DIMCLRE
 70
     0
  9
$DIMCLRT
 70
     0
  9
$DIMTFAC
 40
1.0
  9
$DIMGAP
 40
0.09
  9
$LUNITS
 70
     2
  9
$LUPREC
 70
     4
  9
$SKETCHINC
 40
0.1
  9
$FILLETRAD
 40
0.0
  9
$AUNITS
 70
     0
  9
$AUPREC
 70
     0
  9
$MENU
  1
acad
  9
$ELEVATION
 40
0.0
  9
$PELEVATION
 40
0.0
  9
$THICKNESS
 40
0.0
  9
$LIMCHECK
 70
     0
  9
$BLIPMODE
 70
     0
  9
$CHAMFERA
 40
0.0
  9
$CHAMFERB
 40
0.0
  9
$SKPOLY
 70
     0
  9
$TDCREATE
 40
2456274.6769212959
  9
$TDUPDATE
 40
2456274.6787365512
  9
$TDINDWG
 40
0.0006058681
  9
$TDUSRTIMER
 40
0.0006058102
  9
$USRTIMER
 70
     1
  9
$ANGBASE
 50
0.0
  9
$ANGDIR
 70
     0
  9
$PDMODE
 70
     1
  9
$PDSIZE
 40
-2.0
  9
$PLINEWID
 40
0.0
  9
$COORDS
 70
     2
  9
$SPLFRAME
 70
     0
  9
$SPLINETYPE
 70
     6
  9
$SPLINESEGS
 70
     8
  9
$ATTDIA
 70
     0
  9
$ATTREQ
 70
     1
  9
$HANDLING
 70
     1
  9
$HANDSEED
  5
263
  9
$SURFTAB1
 70
     6
  9
$SURFTAB2
 70
     6
  9
$SURFTYPE
 70
     6
  9
$SURFU
 70
     6
  9
$SURFV
 70
     6
  9
$UCSNAME
  2

  9
$UCSORG
 10
0.0
 20
0.0
 30
0.0
  9
$UCSXDIR
 10
1.0
 20
0.0
 30
0.0
  9
$UCSYDIR
 10
0.0
 20
1.0
 30
0.0
  9
$PUCSNAME
  2

  9
$PUCSORG
 10
0.0
 20
0.0
 30
0.0
  9
$PUCSXDIR
 10
1.0
 20
0.0
 30
0.0
  9
$PUCSYDIR
 10
0.0
 20
1.0
 30
0.0
  9
$USERI1
 70
     0
  9
$USERI2
 70
     0
  9
$USERI3
 70
     0
  9
$USERI4
 70
     0
  9
$USERI5
 70
     0
  9
$USERR1
 40
0.0
  9
$USERR2
 40
0.0
  9
$USERR3
 40
0.0
  9
$USERR4
 40
0.0
  9
$USERR5
 40
0.0
  9
$WORLDVIEW
 70
     1
  9
$SHADEDGE
 70
     3
  9
$SHADEDIF
 70
    70
  9
$TILEMODE
 70
     1
  9
$MAXACTVP
 70
    64
  9
$PLIMCHECK
 70
     0
  9
$PEXTMIN
 10
1.0000000000000000E+020
 20
1.0000000000000000E+020
 30
1.0000000000000000E+020
  9
$PEXTMAX
 10
-1.0000000000000000E+020
 20
-1.0000000000000000E+020
 30
-1.0000000000000000E+020
  9
$PLIMMIN
 10
0.0
 20
0.0
  9
$PLIMMAX
 10
12.0
 20
9.0
  9
$UNITMODE
 70
     0
  9
$VISRETAIN
 70
     0
  9
$PLINEGEN
 70
     1
  9
$PSLTSCALE
 70
     0
  0
ENDSEC
  0
SECTION
  2
TABLES
  0
TABLE
  2
VPORT
 70
     1
  0
VPORT
  2
*ACTIVE
 70
     0
 10
0.0
 20
0.0
 11
1.0
 21
1.0
 12
0.0000008381904308
 22
-3.5087840343801409
 13
0.0
 23
0.0
 14
1.0
 24
1.0
 15
0.0
 25
0.0
 16
0.0
 26
0.0
 36
1.0
 17
0.0
 27
0.0
 37
0.0
 40
539.21951483626833
 41
2.5684380032206109
 42
50.0
 43
0.0
 44
0.0
 50
0.0
 51
0.0
 71
     0
 72
  2000
 73
     1
 74
     1
 75
     0
 76
     0
 77
     0
 78
     0
  0
ENDTAB
  0
TABLE
  2
LTYPE
 70
    18
  0
LTYPE
  2
CONTINUOUS
 70
     0
  3
Solid line
 72
    65
 73
     0
 40
0.0
  0
LTYPE
  2
PHANTOM2
 70
     0
  3
___ _ _ ___ _ _ ___ _ _ ___ _ _
 72
    65
 73
     6
 40
1.25
 49
0.625
 49
-0.125
 49
0.125
 49
-0.125
 49
0.125
 49
-0.125
  0
ENDTAB
  0
TABLE
  2
LAYER
 70
     6
  0
LAYER
  2
0
 70
     0
 62
     7
  6
CONTINUOUS
  0
LAYER
  2
DATA
 70
     0
 62
     7
  6
CONTINUOUS
  0
LAYER
  2
HIC-BASE
 70
     0
 62
     7
  6
CONTINUOUS
  0
LAYER
  2
PATTERN_FILL
 70
     0
 62
     7
  6
CONTINUOUS
  0
LAYER
  2
SPEC
 70
     0
 62
     7
  6
CONTINUOUS
  0
LAYER
  2
DIMNSIONS
 70
     0
 62
     7
  6
CONTINUOUS
  0
ENDTAB
  0
TABLE
  2
STYLE
 70
     3
  0
STYLE
  2
STANDARD
 70
     0
 40
0.0
 41
1.0
 50
0.0
 71
     0
 42
0.0
  3
txt
  4
BIGFONT.SHX
  0
ENDTAB
  0
TABLE
  2
VIEW
 70
     0
  0
ENDTAB
  0
TABLE
  2
UCS
 70
     0
  0
ENDTAB
  0
TABLE
  2
APPID
 70
     4
  0
APPID
  2
ACAD
 70
     0
  0
APPID
  2
ACADANNOTATIVE
 70
     0
  0
APPID
  2
ACAD_NAV_VCDISPLAY
 70
     0
  0
APPID
  2
ACAD_MLEADERVER
 70
     0
  0
ENDTAB
  0
TABLE
  2
DIMSTYLE
 70
     2
  0
DIMSTYLE
  2
STANDARD
 70
     0
  3

  4

  5

  6

  7

 40
1.0
 41
0.18
 42
0.0625
 43
0.38
 44
0.18
 45
0.0
 46
0.0
 47
0.0
 48
0.0
140
0.18
141
0.09
142
0.0
143
25.399999999999999
144
1.0
145
0.0
146
1.0
147
0.09
 71
     0
 72
     0
 73
     1
 74
     1
 75
     0
 76
     0
 77
     0
 78
     0
170
     0
171
     2
172
     0
173
     0
174
     0
175
     0
176
     0
177
     0
178
     0
  0
ENDTAB
  0
ENDSEC
  0
SECTION
  2
BLOCKS
  0
BLOCK
  8
0
  2
$MODEL_SPACE
 70
     0
 10
0.0
 20
0.0
 30
0.0
  3
$MODEL_SPACE
  1

  0
ENDBLK
  5
1EB
  8
0
  0
BLOCK
 67
     1
  8
0
  2
$PAPER_SPACE
 70
     0
 10
0.0
 20
0.0
 30
0.0
  3
$PAPER_SPACE
  1

  0
ENDBLK
  5
1E7
 67
     1
  8
0
  0
BLOCK
  8
DATA
  2
____
 70
     0
 10
0.0
 20
0.0
 30
0.0
  3
____
  1

  0
ARC
  5
36
  8
0
  6
CONTINUOUS
 62
     7
 10
-53.180334160122932
 20
-93.856341101091274
 30
0.0
 40
1.6896549119219031
 50
92.363021210493713
 51
169.84149174731141
  0
ARC
  5
37
  8
0
  6
CONTINUOUS
 62
     7
 10
-53.319665839877111
 20
-93.856341101091274
 30
0.0
 40
1.6896549119219311
 50
10.15850825268854
 51
87.636978789505349
  0
LINE
  5
38
  8
0
  6
CONTINUOUS
 62
     7
 10
-53.25
 20
-94.107588109188555
 30
0.0
 11
-53.25
 21
-94.196819087968507
 31
0.0
  0
ARC
  5
39
  8
0
  6
CONTINUOUS
 62
     7
 10
-53.923437765873892
 20
-93.569817919972195
 30
0.0
 40
0.9201352559129014
 50
179.28484923733029
 51
317.04507187888862
  0
ARC
  5
3A
  8
0
  6
CONTINUOUS
 62
     7
 10
-52.576562234126129
 20
-93.569817919972195
 30
0.0
 40
0.9201352559128972
 50
222.9549281211126
 51
0.7151507626696515
  0
ENDBLK
  5
3B
  8
DATA
  0
BLOCK
  8
DATA
  2
____-1
 70
     0
 10
0.0
 20
0.0
 30
0.0
  3
____-1
  1

  0
ARC
  5
3D
  8
0
  6
CONTINUOUS
 62
     7
 10
-46.680334160122932
 20
-93.856341101091274
 30
0.0
 40
1.6896549119219031
 50
92.363021210493713
 51
169.84149174731141
  0
ARC
  5
3E
  8
0
  6
CONTINUOUS
 62
     7
 10
-46.860484318060578
 20
-94.916567014350647
 30
0.0
 40
0.2228204460516166
 50
170.1197600372461
 51
258.22896823540702
  0
ARC
  5
3F
  8
0
  6
CONTINUOUS
 62
     7
 10
-46.749999999999993
 20
-94.776783187902197
 30
0.0
 40
0.3904137807976753
 50
246.45793647081129
 51
293.54206352918487
  0
ARC
  5
40
  8
0
  6
CONTINUOUS
 62
     7
 10
-46.819665839877104
 20
-93.856341101091274
 30
0.0
 40
1.6896549119219311
 50
10.15850825268854
 51
87.636978789505349
  0
ARC
  5
41
  8
0
  6
CONTINUOUS
 62
     7
 10
-46.639515681939429
 20
-94.916567014350647
 30
0.0
 40
0.2228204460516088
 50
281.77103176459292
 51
9.8802399627538744
  0
ARC
  5
42
  8
0
  6
CONTINUOUS
 62
     7
 10
-46.749999999999993
 20
-94.776783187902197
 30
0.0
 40
0.3904137807976753
 50
246.45793647081129
 51
293.54206352918487
  0
LINE
  5
43
  8
0
  6
CONTINUOUS
 62
     7
 10
-46.749999999999993
 20
-94.107588109188555
 30
0.0
 11
-46.749999999999993
 21
-94.196819087968507
 31
0.0
  0
ARC
  5
44
  8
0
  6
CONTINUOUS
 62
     7
 10
-47.346281298365597
 20
-94.906200701795015
 30
0.0
 40
0.9267004158926546
 50
1.7232317299140569
 51
49.950768848315612
  0
ARC
  5
45
  8
0
  6
CONTINUOUS
 62
     7
 10
-46.153718701634418
 20
-94.906200701795015
 30
0.0
 40
0.9267004158926473
 50
130.0492311516837
 51
178.276768270086
  0
ARC
  5
46
  8
0
  6
CONTINUOUS
 62
     7
 10
-47.423437765873871
 20
-93.569817919972195
 30
0.0
 40
0.9201352559129014
 50
179.28484923733029
 51
317.045071878888
  0
ARC
  5
47
  8
0
  6
CONTINUOUS
 62
     7
 10
-46.076562234126143
 20
-93.569817919972195
 30
0.0
 40
0.9201352559128972
 50
222.9549281211126
 51
0.7151507626696515
  0
ENDBLK
  5
48
  8
DATA
  0
ENDSEC
  0
SECTION
  2
ENTITIES
  0
LINE
  5
49
  8
HIC-BASE
  6
CONTINUOUS
 62
     7
 10
-180.00000000089989
 20
263.50878527911289
 30
0.0
 11
180.0000000009
 21
263.50878527911289
 31
0.0
  0
LINE
  5
4A
  8
HIC-BASE
  6
CONTINUOUS
 62
     7
 10
180.0000000009
 20
-256.49121472348708
 30
0.0
 11
-180.00000000089989
 21
-256.49121472348708
 31
0.0
  0
LINE
  5
4B
  8
HIC-BASE
  6
CONTINUOUS
 62
     7
 10
-180.00000000089989
 20
-256.49121472348708
 30
0.0
 11
-180.00000000089989
 21
263.50878527911289
 31
0.0
  0
LINE
  5
4C
  8
HIC-BASE
  6
CONTINUOUS
 62
     7
 10
180.0000000009
 20
263.50878527911289
 30
0.0
 11
180.0000000009
 21
-256.49121472348708
 31
0.0
  0
LINE
  5
4D
  8
HIC-BASE
  6
CONTINUOUS
 62
     7
 10
0.0000000000000095
 20
-211.49121472326209
 30
0.0
 11
180.0000000009
 21
-211.49121472326209
 31
0.0
  0
LINE
  5
4E
  8
HIC-BASE
  6
CONTINUOUS
 62
     7
 10
0.0000000000000095
 20
-256.49121472348708
 30
0.0
 11
0.0000000000000095
 21
-211.49121472326209
 31
0.0
  0
TEXT
  5
4F
  8
HIC-BASE
 62
     7
 10
1.800000000009039
 20
-216.50860138995381
 30
0.0
 40
3.2576822916829542
  1
NOTE
 41
0.7
 11
1.800000000009039
 21
-213.25091909827091
 31
0.0
 73
     3
  0
LINE
  5
50
  8
HIC-BASE
  6
CONTINUOUS
 62
     7
 10
70.000000000349999
 20
-256.49121472348708
 30
0.0
 11
70.000000000349999
 21
-211.49121472326209
 31
0.0
  0
TEXT
  5
51
  8
HIC-BASE
 62
     7
 10
71.800000000359049
 20
-216.50860138995381
 30
0.0
 40
3.2576822916829542
  1
TITLE
 41
0.7
 11
71.800000000359049
 21
-213.25091909827091
 31
0.0
 73
     3
  0
LINE
  5
52
  8
HIC-BASE
  6
CONTINUOUS
 62
     7
 10
0.0000000000000095
 20
-236.49121472338709
 30
0.0
 11
180.0000000009
 21
-236.49121472338709
 31
0.0
  0
TEXT
  5
53
  8
HIC-BASE
 62
     7
 10
96.800000000484047
 20
-241.39596139007821
 30
0.0
 40
3.2576822916829542
  1
DRAWN
 41
0.7
 11
96.800000000484047
 21
-238.1382790983952
 31
0.0
 73
     3
  0
TEXT
  5
54
  8
HIC-BASE
 62
     7
 10
46.800000000234043
 20
-241.39596139007821
 30
0.0
 40
3.2576822916829542
  1
DATE
 41
0.7
 11
46.800000000234043
 21
-238.1382790983952
 31
0.0
 73
     3
  0
TEXT
  5
55
  8
HIC-BASE
 62
     7
 10
26.800000000134041
 20
-241.39596139007821
 30
0.0
 40
3.2576822916829542
  1
SCALE
 41
0.7
 11
26.800000000134041
 21
-238.1382790983952
 31
0.0
 73
     3
  0
TEXT
  5
56
  8
HIC-BASE
 62
     7
 10
71.800000000359049
 20
-241.39596139007821
 30
0.0
 40
3.2576822916829542
  1
DESIGN
 41
0.7
 11
71.800000000359049
 21
-238.1382790983952
 31
0.0
 73
     3
  0
TEXT
  5
57
  8
HIC-BASE
 62
     7
 10
146.800000000734
 20
-241.39596139007821
 30
0.0
 40
3.2576822916829542
  1
DRAWING NO.
 41
0.7
 11
146.800000000734
 21
-238.1382790983952
 31
0.0
 73
     3
  0
TEXT
  5
58
  8
HIC-BASE
 62
     7
 10
121.800000000609
 20
-241.39596139007821
 30
0.0
 40
3.2576822916829542
  1
CHECK
 41
0.7
 11
121.800000000609
 21
-238.1382790983952
 31
0.0
 73
     3
  0
LINE
  5
59
  8
HIC-BASE
  6
CONTINUOUS
 62
     7
 10
28.750000000143761
 20
-253.9912147234746
 30
0.0
 11
36.250000000181259
 21
-246.49121472343711
 31
0.0
  0
TEXT
  5
5A
  8
HIC-BASE
 62
     7
 10
27.500000000137511
 20
-248.70910139011491
 30
0.0
 40
3.2576822916829542
  1
1
 41
0.7
 11
27.500000000137511
 21
-245.4514190984319
 31
0.0
 73
     3
  0
LINE
  5
5B
  8
HIC-BASE
  6
CONTINUOUS
 62
     7
 10
25.000000000125009
 20
-256.49121472348708
 30
0.0
 11
25.000000000125009
 21
-236.49121472338709
 31
0.0
  0
LINE
  5
5C
  8
HIC-BASE
  6
CONTINUOUS
 62
     7
 10
45.000000000225008
 20
-256.49121472348708
 30
0.0
 11
45.000000000225008
 21
-236.49121472338709
 31
0.0
  0
LINE
  5
5D
  8
HIC-BASE
  6
CONTINUOUS
 62
     7
 10
95.000000000475012
 20
-236.49121472338709
 30
0.0
 11
95.000000000475012
 21
-256.49121472348708
 31
0.0
  0
LINE
  5
5E
  8
HIC-BASE
  6
CONTINUOUS
 62
     7
 10
145.00000000072501
 20
-236.49121472338709
 30
0.0
 11
145.00000000072501
 21
-256.49121472348708
 31
0.0
  0
LINE
  5
5F
  8
HIC-BASE
  6
CONTINUOUS
 62
     7
 10
120.0000000006
 20
-256.49121472348708
 30
0.0
 11
120.0000000006
 21
-236.49121472338709
 31
0.0
  0
TEXT
  5
60
  8
HIC-BASE
 62
     7
 10
46.713080000233568
 20
-250.76392139012509
 30
0.0
 40
3.2576822916829542
  1
'12.12.
 41
0.7
 11
46.713080000233568
 21
-247.50623909844219
 31
0.0
 73
     3
  0
TEXT
  5
61
  8
HIC-BASE
 62
     7
 10
35.000000000175007
 20
-252.45910139013361
 30
0.0
 40
3.2576822916829542
  1
2
 41
0.7
 11
35.000000000175007
 21
-249.20141909845071
 31
0.0
 73
     3
  0
TEXT
  5
62
  8
HIC-BASE
 62
     7
 10
98.011620022559313
 20
-250.76392139012509
 30
0.0
 40
3.2576822916829542
  1
N.Sasaki
 41
0.7
 11
98.011620022559313
 21
-247.50623909844219
 31
0.0
 73
     3
  0
TEXT
  5
63
  8
HIC-BASE
 62
     7
 10
7.7666666667055688
 20
-252.53921472346721
 30
0.0
 40
6.5153645833659084
  1
A4
 41
0.7
 11
7.7666666667055688
 21
-246.0238501401013
 31
0.0
 73
     3
  0
TEXT
  5
64
  8
HIC-BASE
 62
     7
 10
1.9166666666762591
 20
-241.7301247234133
 30
0.0
 40
3.2576822916829542
  1
PAPER SIZE
 41
0.7
 11
1.9166666666762591
 21
-238.4724424317304
 31
0.0
 73
     3
  0
TEXT
  5
65
  8
HIC-BASE
 62
     7
 10
-165.6320000008281
 20
-269.24224472355081
 30
0.0
 40
7.0583116319797341
  1
Hibino-Intersound Corporation
 41
0.7
 11
-165.6320000008281
 21
-262.18393309157108
 31
0.0
 73
     3
  0
TEXT
  5
66
  8
HIC-BASE
 62
     7
 10
28.048668334626541
 20
-269.24224472355081
 30
0.0
 40
7.0583116319797341
  1
ヒビノインターサウンド株式会社
 41
0.7
 11
28.048668334626541
 21
-262.18393309157108
 31
0.0
 73
     3
  0
ARC
  5
67
  8
PATTERN_FILL
  6
CONTINUOUS
 62
     7
 10
-50.0
 20
-157.9261482096943
 30
0.0
 40
27.999999999999879
 50
37.6003534713576
 51
142.39964652864251
  0
ARC
  5
68
  8
PATTERN_FILL
  6
CONTINUOUS
 62
     7
 10
-50.0
 20
-157.9261482096943
 30
0.0
 40
29.999999999999972
 50
54.428653172455768
 51
125.5713468275442
  0
LINE
  5
69
  8
PATTERN_FILL
  6
CONTINUOUS
 62
     7
 10
-50.0
 20
-126.0
 30
0.0
 11
-50.0
 21
-130.40000000000001
 31
0.0
  0
ARC
  5
6A
  8
PATTERN_FILL
  6
CONTINUOUS
 62
     7
 10
-50.0
 20
-157.9261482096943
 30
0.0
 40
21.999999999999972
 50
21.117359857472032
 51
27.802087852355129
  0
ARC
  5
6B
  8
PATTERN_FILL
  6
CONTINUOUS
 62
     7
 10
-50.0
 20
-157.9261482096943
 30
0.0
 40
23.99999999999995
 50
19.284325027965121
 51
42.018173024696601
  0
ARC
  5
6C
  8
PATTERN_FILL
  6
CONTINUOUS
 62
     7
 10
-50.0
 20
-157.9261482096943
 30
0.0
 40
25.999999999999972
 50
23.269112630061091
 51
59.372877802119582
  0
ARC
  5
6D
  8
PATTERN_FILL
  6
CONTINUOUS
 62
     7
 10
577.25000000000068
 20
-151.9261482096943
 30
0.0
 40
625.2500000000008
 50
177.63582077930911
 51
178.04016628423071
  0
ARC
  5
6E
  8
PATTERN_FILL
  6
CONTINUOUS
 62
     7
 10
577.15511396063755
 20
-162.79901137646459
 30
0.0
 40
623.25000000000068
 50
176.66282653071761
 51
177.07324786649369
  0
ARC
  5
6F
  8
PATTERN_FILL
  6
CONTINUOUS
 62
     7
 10
576.8714995841774
 20
-173.63072568963739
 30
0.0
 40
621.2500000000008
 50
175.7098878794435
 51
176.1305832553202
  0
ARC
  5
70
  8
PATTERN_FILL
  6
CONTINUOUS
 62
     7
 10
576.40044573234491
 20
-184.41968863877469
 30
0.0
 40
619.25000000000057
 50
174.77782198038199
 51
175.21391969176341
  0
ARC
  5
71
  8
PATTERN_FILL
  6
CONTINUOUS
 62
     7
 10
575.74330135383389
 20
-195.1639042543616
 30
0.0
 40
617.25000000000045
 50
173.8680153906445
 51
174.32630525472189
  0
ARC
  5
72
  8
PATTERN_FILL
  6
CONTINUOUS
 62
     7
 10
574.90148115807028
 20
-205.8602440127801
 30
0.0
 40
615.25000000000057
 50
172.98271200391159
 51
173.4730193927702
  0
ARC
  5
73
  8
PATTERN_FILL
  6
CONTINUOUS
 62
     7
 10
573.8764552367777
 20
-216.50554522283969
 30
0.0
 40
613.2500000000008
 50
172.1253256848307
 51
172.66353023963131
  0
ARC
  5
74
  8
PATTERN_FILL
  6
CONTINUOUS
 62
     7
 10
572.66974763606004
 20
-227.09668190701561
 30
0.0
 40
611.25000000000057
 50
171.30126116535041
 51
171.91756513785239
  0
ARC
  5
75
  8
PATTERN_FILL
  6
CONTINUOUS
 62
     7
 10
571.28293552303433
 20
-237.63056571810881
 30
0.0
 40
609.25000000000114
 50
170.51979019995329
 51
171.29334192225389
  0
ARC
  5
76
  8
PATTERN_FILL
  6
CONTINUOUS
 62
     7
 10
569.71764833695386
 20
-248.1041468380063
 30
0.0
 40
607.25000000000068
 50
169.79926257689459
 51
170.7028466230787
  0
ARC
  5
77
  8
PATTERN_FILL
  6
CONTINUOUS
 62
     7
 10
567.97556692520448
 20
-258.5144148582811
 30
0.0
 40
605.2500000000008
 50
169.18833786436861
 51
169.67167547154281
  0
ARC
  5
78
  8
PATTERN_FILL
  6
CONTINUOUS
 62
     7
 10
-50.0
 20
-157.9261482096943
 30
0.0
 40
21.999999999999961
 50
152.19791214764479
 51
158.88264014252789
  0
ARC
  5
79
  8
PATTERN_FILL
  6
CONTINUOUS
 62
     7
 10
-50.0
 20
-157.9261482096943
 30
0.0
 40
24.000000000000028
 50
137.98182697530271
 51
160.715674972035
  0
ARC
  5
7A
  8
PATTERN_FILL
  6
CONTINUOUS
 62
     7
 10
-50.0
 20
-157.9261482096943
 30
0.0
 40
26.000000000000082
 50
120.6271221978793
 51
156.7308873699389
  0
ARC
  5
7B
  8
PATTERN_FILL
  6
CONTINUOUS
 62
     7
 10
-677.25000000000068
 20
-151.9261482096943
 30
0.0
 40
625.25000000000102
 50
1.959833715769153
 51
2.3641792206929511
  0
ARC
  5
7C
  8
PATTERN_FILL
  6
CONTINUOUS
 62
     7
 10
-677.15511396063755
 20
-162.79901137646459
 30
0.0
 40
623.25000000000068
 50
2.9267521335059081
 51
3.337173469279477
  0
ARC
  5
7D
  8
PATTERN_FILL
  6
CONTINUOUS
 62
     7
 10
-676.87149958417751
 20
-173.63072568963739
 30
0.0
 40
621.2500000000008
 50
3.8694167446794241
 51
4.2901121205551744
  0
ARC
  5
7E
  8
PATTERN_FILL
  6
CONTINUOUS
 62
     7
 10
-676.40044573234502
 20
-184.41968863877469
 30
0.0
 40
619.25000000000057
 50
4.7860803082368237
 51
5.2221780196225387
  0
ARC
  5
7F
  8
PATTERN_FILL
  6
CONTINUOUS
 62
     7
 10
-675.743301353834
 20
-195.1639042543616
 30
0.0
 40
617.25000000000045
 50
5.6736947452776096
 51
6.1319846093482973
  0
ARC
  5
80
  8
PATTERN_FILL
  6
CONTINUOUS
 62
     7
 10
-674.90148115807028
 20
-205.8602440127801
 30
0.0
 40
615.25000000000057
 50
6.5269806072296159
 51
7.0172879960926693
  0
ARC
  5
81
  8
PATTERN_FILL
  6
CONTINUOUS
 62
     7
 10
-673.8764552367777
 20
-216.50554522283969
 30
0.0
 40
613.25000000000045
 50
7.3364697603682094
 51
7.8746743151684786
  0
ARC
  5
82
  8
PATTERN_FILL
  6
CONTINUOUS
 62
     7
 10
-672.66974763606015
 20
-227.09668190701561
 30
0.0
 40
611.25000000000068
 50
8.0824348621482685
 51
8.6987388346501682
  0
ARC
  5
83
  8
PATTERN_FILL
  6
CONTINUOUS
 62
     7
 10
-671.28293552303433
 20
-237.63056571810881
 30
0.0
 40
609.25000000000125
 50
8.7066580777456863
 51
9.4802098000462056
  0
ARC
  5
84
  8
PATTERN_FILL
  6
CONTINUOUS
 62
     7
 10
-669.71764833695397
 20
-248.1041468380063
 30
0.0
 40
607.25000000000068
 50
9.2971533769213561
 51
10.200737423101479
  0
ARC
  5
85
  8
PATTERN_FILL
  6
CONTINUOUS
 62
     7
 10
-667.97556692520448
 20
-258.5144148582811
 30
0.0
 40
605.2500000000008
 50
10.328324528457211
 51
10.81166213563232
  0
ARC
  5
86
  8
PATTERN_FILL
  6
CONTINUOUS
 62
     7
 10
-50.0
 20
-142.0738517903057
 30
0.0
 40
27.99999999999995
 50
217.60035347135741
 51
322.39964652864262
  0
ARC
  5
87
  8
PATTERN_FILL
  6
CONTINUOUS
 62
     7
 10
-50.0
 20
-142.0738517903057
 30
0.0
 40
30.0
 50
234.4286531724558
 51
305.57134682754401
  0
LINE
  5
88
  8
PATTERN_FILL
  6
CONTINUOUS
 62
     7
 10
-50.0
 20
-174.0
 30
0.0
 11
-50.0
 21
-169.59999999999999
 31
0.0
  0
ARC
  5
89
  8
PATTERN_FILL
  6
CONTINUOUS
 62
     7
 10
-50.0
 20
-142.0738517903057
 30
0.0
 40
21.999999999999961
 50
332.19791214764479
 51
338.8826401425278
  0
ARC
  5
8A
  8
PATTERN_FILL
  6
CONTINUOUS
 62
     7
 10
-50.0
 20
-142.0738517903057
 30
0.0
 40
23.99999999999995
 50
317.98182697530342
 51
340.71567497203489
  0
ARC
  5
8B
  8
PATTERN_FILL
  6
CONTINUOUS
 62
     7
 10
-50.0
 20
-142.0738517903057
 30
0.0
 40
25.999999999999972
 50
300.62712219788028
 51
336.73088736993901
  0
ARC
  5
8C
  8
PATTERN_FILL
  6
CONTINUOUS
 62
     7
 10
577.25000000000068
 20
-148.0738517903057
 30
0.0
 40
625.2500000000008
 50
181.95983371576921
 51
182.36417922069251
  0
ARC
  5
8D
  8
PATTERN_FILL
  6
CONTINUOUS
 62
     7
 10
577.15511396063755
 20
-137.20098862353541
 30
0.0
 40
623.25000000000068
 50
182.9267521335058
 51
183.3371734692777
  0
ARC
  5
8E
  8
PATTERN_FILL
  6
CONTINUOUS
 62
     7
 10
576.8714995841774
 20
-126.3692743103626
 30
0.0
 40
621.2500000000008
 50
183.86941674467931
 51
184.29011212055491
  0
ARC
  5
8F
  8
PATTERN_FILL
  6
CONTINUOUS
 62
     7
 10
576.40044573234491
 20
-115.5803113612253
 30
0.0
 40
619.25000000000057
 50
184.7860803082369
 51
185.22217801962361
  0
ARC
  5
90
  8
PATTERN_FILL
  6
CONTINUOUS
 62
     7
 10
575.74330135383389
 20
-104.8360957456383
 30
0.0
 40
617.25000000000045
 50
185.67369474527769
 51
186.13198460935001
  0
ARC
  5
91
  8
PATTERN_FILL
  6
CONTINUOUS
 62
     7
 10
574.90148115807028
 20
-94.139755987219885
 30
0.0
 40
615.25000000000011
 50
186.52698060722921
 51
187.0172879960906
  0
ARC
  5
92
  8
PATTERN_FILL
  6
CONTINUOUS
 62
     7
 10
573.8764552367777
 20
-83.494454777160286
 30
0.0
 40
613.25000000000045
 50
187.3364697603682
 51
187.87467431516811
  0
ARC
  5
93
  8
PATTERN_FILL
  6
CONTINUOUS
 62
     7
 10
572.66974763606004
 20
-72.90331809298435
 30
0.0
 40
611.25000000000068
 50
188.0824348621482
 51
188.6987388346511
  0
ARC
  5
94
  8
PATTERN_FILL
  6
CONTINUOUS
 62
     7
 10
571.28293552303433
 20
-62.369434281891252
 30
0.0
 40
609.25000000000125
 50
188.70665807774569
 51
189.48020980004679
  0
ARC
  5
95
  8
PATTERN_FILL
  6
CONTINUOUS
 62
     7
 10
569.71764833695386
 20
-51.89585316199372
 30
0.0
 40
607.25000000000068
 50
189.2971533769213
 51
190.2007374231014
  0
ARC
  5
96
  8
PATTERN_FILL
  6
CONTINUOUS
 62
     7
 10
567.97556692520448
 20
-41.48558514171895
 30
0.0
 40
605.2500000000008
 50
190.32832452845719
 51
190.81166213563219
  0
ARC
  5
97
  8
PATTERN_FILL
  6
CONTINUOUS
 62
     7
 10
-50.0
 20
-142.0738517903057
 30
0.0
 40
21.999999999999972
 50
201.117359857472
 51
207.80208785235521
  0
ARC
  5
98
  8
PATTERN_FILL
  6
CONTINUOUS
 62
     7
 10
-50.0
 20
-142.0738517903057
 30
0.0
 40
24.00000000000006
 50
199.284325027965
 51
222.01817302469729
  0
ARC
  5
99
  8
PATTERN_FILL
  6
CONTINUOUS
 62
     7
 10
-50.0
 20
-142.0738517903057
 30
0.0
 40
26.00000000000005
 50
203.26911263006079
 51
239.37287780212031
  0
ARC
  5
9A
  8
PATTERN_FILL
  6
CONTINUOUS
 62
     7
 10
-677.25000000000068
 20
-148.0738517903057
 30
0.0
 40
625.2500000000008
 50
357.63582077934188
 51
358.04016628423159
  0
ARC
  5
9B
  8
PATTERN_FILL
  6
CONTINUOUS
 62
     7
 10
-677.15511396063755
 20
-137.20098862353541
 30
0.0
 40
623.25000000000068
 50
356.66282653071761
 51
357.0732478664932
  0
ARC
  5
9C
  8
PATTERN_FILL
  6
CONTINUOUS
 62
     7
 10
-676.87149958417751
 20
-126.3692743103626
 30
0.0
 40
621.2500000000008
 50
355.70988787944361
 51
356.13058325532057
  0
ARC
  5
9D
  8
PATTERN_FILL
  6
CONTINUOUS
 62
     7
 10
-676.40044573234502
 20
-115.5803113612253
 30
0.0
 40
619.25000000000057
 50
354.77782198038187
 51
355.21391969176278
  0
ARC
  5
9E
  8
PATTERN_FILL
  6
CONTINUOUS
 62
     7
 10
-675.743301353834
 20
-104.8360957456383
 30
0.0
 40
617.25000000000045
 50
353.86801539064447
 51
354.32630525472172
  0
ARC
  5
9F
  8
PATTERN_FILL
  6
CONTINUOUS
 62
     7
 10
-674.90148115807028
 20
-94.139755987219885
 30
0.0
 40
615.25000000000057
 50
352.98271200391167
 51
353.4730193927702
  0
ARC
  5
A0
  8
PATTERN_FILL
  6
CONTINUOUS
 62
     7
 10
-673.8764552367777
 20
-83.494454777160286
 30
0.0
 40
613.2500000000008
 50
352.12532568483078
 51
352.66353023963148
  0
ARC
  5
A1
  8
PATTERN_FILL
  6
CONTINUOUS
 62
     7
 10
-672.66974763606015
 20
-72.90331809298435
 30
0.0
 40
611.25000000000057
 50
351.30126116535041
 51
351.91756513785208
  0
ARC
  5
A2
  8
PATTERN_FILL
  6
CONTINUOUS
 62
     7
 10
-671.28293552303433
 20
-62.369434281891252
 30
0.0
 40
609.25000000000114
 50
350.51979019995338
 51
351.2933419222544
  0
ARC
  5
A3
  8
PATTERN_FILL
  6
CONTINUOUS
 62
     7
 10
-669.71764833695397
 20
-51.89585316199372
 30
0.0
 40
607.25000000000068
 50
349.79926257689459
 51
350.70284662307859
  0
ARC
  5
A4
  8
PATTERN_FILL
  6
CONTINUOUS
 62
     7
 10
-667.97556692520448
 20
-41.48558514171895
 30
0.0
 40
605.2500000000008
 50
349.18833786436858
 51
349.67167547154281
  0
ARC
  5
A5
  8
PATTERN_FILL
  6
CONTINUOUS
 62
     7
 10
-50.0
 20
58.473851790331253
 30
0.0
 40
10.000000000000011
 50
53.3805298697268
 51
126.61947013027159
  0
ARC
  5
A6
  8
PATTERN_FILL
  6
CONTINUOUS
 62
     7
 10
-50.0
 20
58.473851790331253
 30
0.0
 40
12.00000000000003
 50
41.978036550102729
 51
138.02196344989591
  0
ARC
  5
A7
  8
PATTERN_FILL
  6
CONTINUOUS
 62
     7
 10
-50.0
 20
58.473851790331253
 30
0.0
 40
14.0
 50
34.980408191511067
 51
145.01959180848829
  0
ARC
  5
A8
  8
PATTERN_FILL
  6
CONTINUOUS
 62
     7
 10
-50.0
 20
58.473851790331253
 30
0.0
 40
16.000000000000021
 50
30.108181005260828
 51
149.89181899473169
  0
ARC
  5
A9
  8
PATTERN_FILL
  6
CONTINUOUS
 62
     7
 10
-50.0
 20
58.473851790331253
 30
0.0
 40
18.000000000000039
 50
26.480750716242682
 51
153.51924928375681
  0
ARC
  5
AA
  8
PATTERN_FILL
  6
CONTINUOUS
 62
     7
 10
-50.0
 20
58.473851790331253
 30
0.0
 40
20.000000000000039
 50
23.659936496119059
 51
156.3400635038802
  0
ARC
  5
AB
  8
PATTERN_FILL
  6
CONTINUOUS
 62
     7
 10
-50.0
 20
58.473851790331253
 30
0.0
 40
21.999999999999972
 50
21.39680829646538
 51
158.603191703541
  0
ARC
  5
AC
  8
PATTERN_FILL
  6
CONTINUOUS
 62
     7
 10
-50.0
 20
58.473851790331253
 30
0.0
 40
23.999999999999929
 50
19.53744509878798
 51
160.4625549012118
  0
ARC
  5
AD
  8
PATTERN_FILL
  6
CONTINUOUS
 62
     7
 10
-50.0
 20
58.473851790331253
 30
0.0
 40
26.0
 50
29.284414519136249
 51
150.71558548087771
  0
ARC
  5
AE
  8
PATTERN_FILL
  6
CONTINUOUS
 62
     7
 10
-50.0
 20
58.473851790331253
 30
0.0
 40
27.99999999999994
 50
37.86115448118256
 51
142.138845518821
  0
LINE
  5
AF
  8
PATTERN_FILL
  6
CONTINUOUS
 62
     7
 10
-50.0
 20
92.500000000025523
 30
0.0
 11
-50.0
 21
66.473851790331253
 31
0.0
  0
ARC
  5
B0
  8
PATTERN_FILL
  6
CONTINUOUS
 62
     7
 10
577.25000000000068
 20
64.473851790331366
 30
0.0
 40
625.25000000000102
 50
177.43091849221719
 51
179.8143303570364
  0
ARC
  5
B1
  8
PATTERN_FILL
  6
CONTINUOUS
 62
     7
 10
577.15511396063755
 20
53.600988623561079
 30
0.0
 40
623.25000000000068
 50
176.4216627334753
 51
178.81410078891639
  0
ARC
  5
B2
  8
PATTERN_FILL
  6
CONTINUOUS
 62
     7
 10
576.87149958417785
 20
42.769274310388262
 30
0.0
 40
621.2500000000008
 50
175.40859142077261
 51
177.81086310428731
  0
ARC
  5
B3
  8
PATTERN_FILL
  6
CONTINUOUS
 62
     7
 10
576.40044573234525
 20
31.98031136125099
 30
0.0
 40
619.25000000000102
 50
174.3914953990521
 51
176.80442755867421
  0
ARC
  5
B4
  8
PATTERN_FILL
  6
CONTINUOUS
 62
     7
 10
575.74330135383434
 20
21.236095745663992
 30
0.0
 40
617.25000000000102
 50
173.37019546087191
 51
175.79463638621979
  0
ARC
  5
B5
  8
PATTERN_FILL
  6
CONTINUOUS
 62
     7
 10
574.90148115807051
 20
10.53975598724548
 30
0.0
 40
615.25000000000034
 50
172.3446121221065
 51
174.78143323256069
  0
ARC
  5
B6
  8
PATTERN_FILL
  6
CONTINUOUS
 62
     7
 10
573.87645523677793
 20
-0.1055452228140439
 30
0.0
 40
613.25000000000114
 50
171.3721728594648
 51
173.76476214715061
  0
ARC
  5
B7
  8
PATTERN_FILL
  6
CONTINUOUS
 62
     7
 10
572.66974763606038
 20
-10.696681906989969
 30
0.0
 40
611.25000000000102
 50
170.7683336985279
 51
172.7445608806201
  0
ARC
  5
B8
  8
PATTERN_FILL
  6
CONTINUOUS
 62
     7
 10
571.28293552303433
 20
-21.23056571808317
 30
0.0
 40
609.2500000000008
 50
170.24508885102489
 51
171.7207606068495
  0
ARC
  5
B9
  8
PATTERN_FILL
  6
CONTINUOUS
 62
     7
 10
569.71764833695431
 20
-31.70414683798063
 30
0.0
 40
607.25000000000125
 50
169.79605339655021
 51
170.69328561139449
  0
ARC
  5
BA
  8
PATTERN_FILL
  6
CONTINUOUS
 62
     7
 10
567.97556692520448
 20
-42.114414858255429
 30
0.0
 40
605.2500000000008
 50
169.4781787022718
 51
169.66205294322191
  0
ARC
  5
BB
  8
PATTERN_FILL
  6
CONTINUOUS
 62
     7
 10
-50.0
 20
58.473851790331253
 30
0.0
 40
29.999999999999929
 50
44.476331051993341
 51
135.52366894800571
  0
ARC
  5
BC
  8
PATTERN_FILL
  6
CONTINUOUS
 62
     7
 10
-50.0
 20
58.473851790331253
 30
0.0
 40
32.000000000000043
 50
49.923813226405152
 51
130.07618677359781
  0
ARC
  5
BD
  8
PATTERN_FILL
  6
CONTINUOUS
 62
     7
 10
-50.0
 20
58.473851790331253
 30
0.0
 40
33.999999999999979
 50
54.583456868931783
 51
125.41654313106859
  0
ARC
  5
BE
  8
PATTERN_FILL
  6
CONTINUOUS
 62
     7
 10
-50.0
 20
58.473851790331253
 30
0.0
 40
36.000000000000043
 50
58.672633930715378
 51
70.938887752911356
  0
ARC
  5
BF
  8
PATTERN_FILL
  6
CONTINUOUS
 62
     7
 10
-50.0
 20
58.473851790331253
 30
0.0
 40
35.999999999999957
 50
109.0611122470886
 51
121.3273660692866
  0
ARC
  5
C0
  8
PATTERN_FILL
  6
CONTINUOUS
 62
     7
 10
-677.25000000000068
 20
64.473851790331366
 30
0.0
 40
625.2500000000008
 50
0.1856696427620406
 51
2.569081507782601
  0
ARC
  5
C1
  8
PATTERN_FILL
  6
CONTINUOUS
 62
     7
 10
-677.15511396063732
 20
53.600988623561079
 30
0.0
 40
623.25000000000068
 50
1.1858992108751389
 51
3.5783372665245321
  0
ARC
  5
C2
  8
PATTERN_FILL
  6
CONTINUOUS
 62
     7
 10
-676.87149958417751
 20
42.769274310388262
 30
0.0
 40
621.25000000000045
 50
2.1891368955482342
 51
4.5914085792274211
  0
ARC
  5
C3
  8
PATTERN_FILL
  6
CONTINUOUS
 62
     7
 10
-676.40044573234502
 20
31.98031136125099
 30
0.0
 40
619.25000000000068
 50
3.1955724414121782
 51
5.608504600947942
  0
ARC
  5
C4
  8
PATTERN_FILL
  6
CONTINUOUS
 62
     7
 10
-675.743301353834
 20
21.236095745663992
 30
0.0
 40
617.2500000000008
 50
4.2053636137397534
 51
6.6298045391282239
  0
ARC
  5
C5
  8
PATTERN_FILL
  6
CONTINUOUS
 62
     7
 10
-674.90148115807028
 20
10.53975598724548
 30
0.0
 40
615.25000000000057
 50
5.21856676743257
 51
7.6553878778934958
  0
ARC
  5
C6
  8
PATTERN_FILL
  6
CONTINUOUS
 62
     7
 10
-673.8764552367777
 20
-0.1055452228140439
 30
0.0
 40
613.2500000000008
 50
6.2352378531966304
 51
8.627827140537736
  0
ARC
  5
C7
  8
PATTERN_FILL
  6
CONTINUOUS
 62
     7
 10
-672.66974763606015
 20
-10.696681906989969
 30
0.0
 40
611.25000000000068
 50
7.2554391195034329
 51
9.2316663014725151
  0
ARC
  5
C8
  8
PATTERN_FILL
  6
CONTINUOUS
 62
     7
 10
-671.2829355230341
 20
-21.23056571808317
 30
0.0
 40
609.25000000000045
 50
8.2792393934980861
 51
9.754911148974406
  0
ARC
  5
C9
  8
PATTERN_FILL
  6
CONTINUOUS
 62
     7
 10
-669.71764833695397
 20
-31.70414683798063
 30
0.0
 40
607.25000000000068
 50
9.3067143885766441
 51
10.203946603450269
  0
ARC
  5
CA
  8
PATTERN_FILL
  6
CONTINUOUS
 62
     7
 10
-667.97556692520448
 20
-42.114414858255429
 30
0.0
 40
605.25000000000125
 50
10.337947056717139
 51
10.521821297727071
  0
ARC
  5
CB
  8
PATTERN_FILL
  6
CONTINUOUS
 62
     7
 10
-50.0
 20
70.526148209719807
 30
0.0
 40
9.9999999999999556
 50
244.5039312471414
 51
295.4960687528586
  0
ARC
  5
CC
  8
PATTERN_FILL
  6
CONTINUOUS
 62
     7
 10
-50.0
 20
70.526148209719807
 30
0.0
 40
11.999999999999959
 50
228.7794852954288
 51
311.22051470457183
  0
ARC
  5
CD
  8
PATTERN_FILL
  6
CONTINUOUS
 62
     7
 10
-50.0
 20
70.526148209719807
 30
0.0
 40
13.999999999999989
 50
220.14505046064971
 51
319.85494953935017
  0
ARC
  5
CE
  8
PATTERN_FILL
  6
CONTINUOUS
 62
     7
 10
-50.0
 20
70.526148209719807
 30
0.0
 40
16.000000000000021
 50
214.34219457143229
 51
325.65780542856771
  0
ARC
  5
CF
  8
PATTERN_FILL
  6
CONTINUOUS
 62
     7
 10
-50.0
 20
70.526148209719807
 30
0.0
 40
17.999999999999979
 50
210.09615505238159
 51
329.9038449476185
  0
ARC
  5
D0
  8
PATTERN_FILL
  6
CONTINUOUS
 62
     7
 10
-50.0
 20
70.526148209719807
 30
0.0
 40
20.000000000000011
 50
206.82759703564659
 51
333.17240296435318
  0
ARC
  5
D1
  8
PATTERN_FILL
  6
CONTINUOUS
 62
     7
 10
-50.0
 20
70.526148209719807
 30
0.0
 40
22.000000000000011
 50
204.22239150520559
 51
335.77760849479438
  0
ARC
  5
D2
  8
PATTERN_FILL
  6
CONTINUOUS
 62
     7
 10
-50.0
 20
70.526148209719807
 30
0.0
 40
24.0
 50
202.0916671430885
 51
337.90833285691122
  0
ARC
  5
D3
  8
PATTERN_FILL
  6
CONTINUOUS
 62
     7
 10
-50.0
 20
70.526148209719807
 30
0.0
 40
26.000000000000011
 50
208.34438648710449
 51
331.65561351291842
  0
ARC
  5
D4
  8
PATTERN_FILL
  6
CONTINUOUS
 62
     7
 10
-50.0
 20
70.526148209719807
 30
0.0
 40
27.999999999999918
 50
216.63856962072921
 51
323.3614303792744
  0
LINE
  5
D5
  8
PATTERN_FILL
  6
CONTINUOUS
 62
     7
 10
-50.0
 20
38.5
 30
0.0
 11
-50.0
 21
61.5
 31
0.0
  0
ARC
  5
D6
  8
PATTERN_FILL
  6
CONTINUOUS
 62
     7
 10
577.25000000000068
 20
64.526148209719793
 30
0.0
 40
625.25000000000102
 50
180.2773069932324
 51
182.38563679325219
  0
ARC
  5
D7
  8
PATTERN_FILL
  6
CONTINUOUS
 62
     7
 10
577.15511396063755
 20
75.399011376490009
 30
0.0
 40
623.25000000000114
 50
181.27785112611329
 51
183.39413500297749
  0
ARC
  5
D8
  8
PATTERN_FILL
  6
CONTINUOUS
 62
     7
 10
576.87149958417785
 20
86.230725689662833
 30
0.0
 40
621.2500000000008
 50
182.28143374251641
 51
184.40638519948291
  0
ARC
  5
D9
  8
PATTERN_FILL
  6
CONTINUOUS
 62
     7
 10
576.40044573234525
 20
97.019688638800147
 30
0.0
 40
619.25000000000068
 50
183.28824523113309
 51
185.42259484067671
  0
ARC
  5
DA
  8
PATTERN_FILL
  6
CONTINUOUS
 62
     7
 10
575.74330135383434
 20
107.7639042543871
 30
0.0
 40
617.2500000000008
 50
184.2984440754316
 51
186.44294127025651
  0
ARC
  5
DB
  8
PATTERN_FILL
  6
CONTINUOUS
 62
     7
 10
574.90148115807051
 20
118.4602440128056
 30
0.0
 40
615.25000000000034
 50
185.3120874091442
 51
187.4675019713369
  0
ARC
  5
DC
  8
PATTERN_FILL
  6
CONTINUOUS
 62
     7
 10
573.87645523677793
 20
129.10554522286509
 30
0.0
 40
613.25000000000125
 50
186.32923203084999
 51
188.49635582971169
  0
ARC
  5
DD
  8
PATTERN_FILL
  6
CONTINUOUS
 62
     7
 10
572.66974763606038
 20
139.69668190704101
 30
0.0
 40
611.25000000000102
 50
187.3499411118334
 51
189.36302628898881
  0
ARC
  5
DE
  8
PATTERN_FILL
  6
CONTINUOUS
 62
     7
 10
571.28293552303433
 20
150.2305657181343
 30
0.0
 40
609.25000000000102
 50
188.37428447923051
 51
189.8709116159682
  0
ARC
  5
DF
  8
PATTERN_FILL
  6
CONTINUOUS
 62
     7
 10
569.71764833695431
 20
160.7041468380317
 30
0.0
 40
607.25000000000125
 50
189.4023389335573
 51
190.29622666915259
  0
ARC
  5
E0
  8
PATTERN_FILL
  6
CONTINUOUS
 62
     7
 10
567.97556692520448
 20
171.11441485830659
 30
0.0
 40
605.2500000000008
 50
190.43418860335899
 51
190.56655013870221
  0
ARC
  5
E1
  8
PATTERN_FILL
  6
CONTINUOUS
 62
     7
 10
-50.0
 20
70.526148209719807
 30
0.0
 40
29.99999999999995
 50
223.09432671075891
 51
316.9056732892418
  0
ARC
  5
E2
  8
PATTERN_FILL
  6
CONTINUOUS
 62
     7
 10
-50.0
 20
70.526148209719807
 30
0.0
 40
31.99999999999995
 50
228.43509669556261
 51
311.56490330443791
  0
ARC
  5
E3
  8
PATTERN_FILL
  6
CONTINUOUS
 62
     7
 10
-50.0
 20
70.526148209719807
 30
0.0
 40
33.999999999999922
 50
233.0163854968954
 51
250.3808932699815
  0
ARC
  5
E4
  8
PATTERN_FILL
  6
CONTINUOUS
 62
     7
 10
-50.0
 20
70.526148209719807
 30
0.0
 40
33.999999999999901
 50
289.6191067300183
 51
306.98361450310603
  0
ARC
  5
E5
  8
PATTERN_FILL
  6
CONTINUOUS
 62
     7
 10
-50.0
 20
70.526148209719807
 30
0.0
 40
35.999999999999957
 50
297.17506362580139
 51
302.95543008817828
  0
ARC
  5
E6
  8
PATTERN_FILL
  6
CONTINUOUS
 62
     7
 10
-50.0
 20
70.526148209719807
 30
0.0
 40
35.999999999999957
 50
237.0445699118207
 51
242.82493637419839
  0
ARC
  5
E7
  8
PATTERN_FILL
  6
CONTINUOUS
 62
     7
 10
-677.25000000000068
 20
64.526148209719793
 30
0.0
 40
625.2500000000008
 50
357.61436320674858
 51
359.72269300676402
  0
ARC
  5
E8
  8
PATTERN_FILL
  6
CONTINUOUS
 62
     7
 10
-677.15511396063732
 20
75.399011376490009
 30
0.0
 40
623.25000000000068
 50
356.60586499701981
 51
358.72214887388247
  0
ARC
  5
E9
  8
PATTERN_FILL
  6
CONTINUOUS
 62
     7
 10
-676.87149958417751
 20
86.230725689662833
 30
0.0
 40
621.25000000000011
 50
355.59361480051729
 51
357.71856625748597
  0
ARC
  5
EA
  8
PATTERN_FILL
  6
CONTINUOUS
 62
     7
 10
-676.40044573234502
 20
97.019688638800147
 30
0.0
 40
619.25000000000068
 50
354.5774051593263
 51
356.71175476885992
  0
ARC
  5
EB
  8
PATTERN_FILL
  6
CONTINUOUS
 62
     7
 10
-675.743301353834
 20
107.7639042543871
 30
0.0
 40
617.2500000000008
 50
353.55705872974357
 51
355.70155592456109
  0
ARC
  5
EC
  8
PATTERN_FILL
  6
CONTINUOUS
 62
     7
 10
-674.90148115807028
 20
118.4602440128056
 30
0.0
 40
615.25000000000011
 50
352.53249802866111
 51
354.6879125908539
  0
ARC
  5
ED
  8
PATTERN_FILL
  6
CONTINUOUS
 62
     7
 10
-673.8764552367777
 20
129.10554522286509
 30
0.0
 40
613.2500000000008
 50
351.50364417029311
 51
353.67076796914699
  0
ARC
  5
EE
  8
PATTERN_FILL
  6
CONTINUOUS
 62
     7
 10
-671.2829355230341
 20
150.2305657181343
 30
0.0
 40
609.2500000000008
 50
350.12908838403541
 51
351.62571552076901
  0
ARC
  5
EF
  8
PATTERN_FILL
  6
CONTINUOUS
 62
     7
 10
-669.71764833695397
 20
160.7041468380317
 30
0.0
 40
607.25000000000068
 50
349.70377333084792
 51
350.59766106644969
  0
ARC
  5
F0
  8
PATTERN_FILL
  6
CONTINUOUS
 62
     7
 10
-667.97556692520448
 20
171.11441485830659
 30
0.0
 40
605.25000000000125
 50
349.43344986129762
 51
349.5658113966353
  0
TEXT
  5
F1
  8
SPEC
 62
     7
 10
-162.50000000081241
 20
246.29531527902671
 30
0.0
 40
4.8865234375244322
  1
仕様
 41
0.7
 11
-162.50000000081241
 21
251.18183871655111
 31
0.0
 73
     3
  0
LINE
  5
F2
  8
SPEC
  6
CONTINUOUS
 62
     7
 10
-165.00000000082491
 20
243.50878527901281
 30
0.0
 11
129.99998999917511
 21
243.50878527901281
 31
0.0
  0
LINE
  5
F3
  8
SPEC
  6
CONTINUOUS
 62
     7
 10
-100.0000000008249
 20
243.50878527901281
 30
0.0
 11
-100.0000000008249
 21
183.50878527901281
 31
0.0
  0
LINE
  5
F4
  8
SPEC
  6
CONTINUOUS
 62
     7
 10
-165.00000000082491
 20
236.00878527901281
 30
0.0
 11
129.99998999917511
 21
236.00878527901281
 31
0.0
  0
TEXT
  5
F5
  8
SPEC
 62
     7
 10
-162.7775640643724
 20
237.94681664939719
 30
0.0
 40
3.8006293402777769
  1
形式
 41
0.7
 11
-162.7775640643724
 21
241.74744598967499
 31
0.0
 73
     3
  0
LINE
  5
F6
  8
SPEC
  6
CONTINUOUS
 62
     7
 10
-165.00000000082491
 20
228.50878527901281
 30
0.0
 11
129.99998999917511
 21
228.50878527901281
 31
0.0
  0
LINE
  5
F7
  8
SPEC
  6
CONTINUOUS
 62
     7
 10
-165.00000000082491
 20
213.50878527901281
 30
0.0
 11
129.99998999917511
 21
213.50878527901281
 31
0.0
  0
TEXT
  5
F8
  8
SPEC
 62
     7
 10
-162.85373943225639
 20
207.8854280703174
 30
0.0
 40
3.8006293402777769
  1
開回路感度
 41
0.7
 11
-162.85373943225639
 21
211.6860574105952
 31
0.0
 73
     3
  0
LINE
  5
F9
  8
SPEC
  6
CONTINUOUS
 62
     7
 10
-165.00000000082491
 20
206.00878527901281
 30
0.0
 11
129.99998999917511
 21
206.00878527901281
 31
0.0
  0
TEXT
  5
FA
  8
SPEC
 62
     7
 10
-162.89104721724661
 20
178.04635404819899
 30
0.0
 40
3.8006293402777769
  1
コネクター
 41
0.7
 11
-162.89104721724661
 21
181.8469833884767
 31
0.0
 73
     3
  0
LINE
  5
FB
  8
SPEC
  6
CONTINUOUS
 62
     7
 10
-165.00000000082491
 20
198.50878527901281
 30
0.0
 11
129.99998999917511
 21
198.50878527901281
 31
0.0
  0
LINE
  5
FC
  8
SPEC
  6
CONTINUOUS
 62
     7
 10
-165.00000000082491
 20
176.0087852790127
 30
0.0
 11
129.99998999917511
 21
176.0087852790127
 31
0.0
  0
LINE
  5
FD
  8
SPEC
  6
CONTINUOUS
 62
     7
 10
-165.00000000082491
 20
221.00878527901281
 30
0.0
 11
129.99998999917511
 21
221.00878527901281
 31
0.0
  0
LINE
  5
FE
  8
SPEC
  6
CONTINUOUS
 62
     7
 10
-165.00000000082491
 20
183.50878527901281
 30
0.0
 11
129.99998999917511
 21
183.50878527901281
 31
0.0
  0
LINE
  5
FF
  8
SPEC
  6
CONTINUOUS
 62
     7
 10
-165.00000000082491
 20
168.50878527901281
 30
0.0
 11
129.99998999917511
 21
168.50878527901281
 31
0.0
  0
LINE
  5
100
  8
SPEC
  6
CONTINUOUS
 62
     7
 10
-165.00000000082491
 20
161.00878527901281
 30
0.0
 11
129.99998999917511
 21
161.00878527901281
 31
0.0
  0
LINE
  5
101
  8
SPEC
  6
CONTINUOUS
 62
     7
 10
-165.00000000082491
 20
243.50878527901281
 30
0.0
 11
-165.00000000082491
 21
146.00878527901281
 31
0.0
  0
LINE
  5
102
  8
SPEC
  6
CONTINUOUS
 62
     7
 10
-100.0000000008249
 20
243.50878527901281
 30
0.0
 11
-100.0000000008249
 21
146.00878527901281
 31
0.0
  0
LINE
  5
103
  8
SPEC
  6
CONTINUOUS
 62
     7
 10
129.99998999917511
 20
243.50878527901281
 30
0.0
 11
129.99998999917511
 21
146.00878527901281
 31
0.0
  0
TEXT
  5
104
  8
SPEC
 62
     7
 10
-162.69192129847181
 20
200.45961942535979
 30
0.0
 40
3.8006293402777769
  1
等価雑音レベル
 41
0.7
 11
-162.69192129847181
 21
204.26024876563761
 31
0.0
 73
     3
  0
TEXT
  5
105
  8
SPEC
 62
     7
 10
-98.182256366310895
 20
200.4552607152493
 30
0.0
 40
3.8006293402777769
  1
22dB SPL(Aウェイト)
 41
0.7
 11
-98.182256366310895
 21
204.25589005552709
 31
0.0
 73
     3
  0
TEXT
  5
106
  8
SPEC
 62
     7
 10
-162.76354056052381
 20
185.3442064069277
 30
0.0
 40
3.8006293402777769
  1
電源
 41
0.7
 11
-162.76354056052381
 21
189.14483574720541
 31
0.0
 73
     3
  0
TEXT
  5
107
  8
SPEC
 62
     7
 10
-98.233142732942525
 20
185.4589505426672
 30
0.0
 40
3.8006293402777769
  1
ファンタム DC48V/5.2mA
 41
0.7
 11
-98.233142732942525
 21
189.25957988294499
 31
0.0
 73
     3
  0
TEXT
  5
108
  8
SPEC
 62
     7
 10
-97.615619335604478
 20
177.90359773894241
 30
0.0
 40
3.8006293402777769
  1
XLR3ピン（金メッキ）、オス
 41
0.7
 11
-97.615619335604478
 21
181.7042270792202
 31
0.0
 73
     3
  0
TEXT
  5
109
  8
SPEC
 62
     7
 10
-97.482639473529758
 20
207.98270308942449
 30
0.0
 40
3.8006293402777769
  1
-51dB re 1V/Pa
 41
0.7
 11
-97.482639473529758
 21
211.78333242970231
 31
0.0
 73
     3
  0
TEXT
  5
10A
  8
SPEC
 62
     7
 10
-97.983435248449524
 20
237.62826615227289
 30
0.0
 40
3.8006293402777769
  1
エレクトレットコンデンサー型 
 41
0.7
 11
-97.983435248449524
 21
241.42889549255071
 31
0.0
 73
     3
  0
TEXT
  5
10B
  8
SPEC
 62
     7
 10
-162.71283736606881
 20
230.44423248286569
 30
0.0
 40
3.8006293402777769
  1
指向特性
 41
0.7
 11
-162.71283736606881
 21
234.2448618231434
 31
0.0
 73
     3
  0
TEXT
  5
10C
  8
SPEC
 62
     7
 10
-98.107522251038674
 20
230.2704447460591
 30
0.0
 40
3.8006293402777769
  1
カーディオイド/スーパーカーディオイド(スイッチ切替)
 41
0.7
 11
-98.107522251038674
 21
234.07107408633681
 31
0.0
 73
     3
  0
TEXT
  5
10D
  8
SPEC
 62
     7
 10
-162.7464482985979
 20
223.0714432498055
 30
0.0
 40
3.8006293402777769
  1
周波数特性
 41
0.7
 11
-162.7464482985979
 21
226.87207259008321
 31
0.0
 73
     3
  0
TEXT
  5
10E
  8
SPEC
 62
     7
 10
-97.72947724526027
 20
222.9010524754267
 30
0.0
 40
3.8006293402777769
  1
50Hz～20Hz
 41
0.7
 11
-97.72947724526027
 21
226.7016818157044
 31
0.0
 73
     3
  0
TEXT
  5
10F
  8
SPEC
 62
     7
 10
-162.88605563720839
 20
215.4389917963245
 30
0.0
 40
3.8006293402777769
  1
インピーダンス
 41
0.7
 11
-162.88605563720839
 21
219.2396211366023
 31
0.0
 73
     3
  0
TEXT
  5
110
  8
SPEC
 62
     7
 10
-98.210645581657232
 20
215.2206626334879
 30
0.0
 40
3.8006293402777769
  1
150\U+03A9 
 41
0.7
 11
-98.210645581657232
 21
219.02129197376561
 31
0.0
 73
     3
  0
LINE
  5
111
  8
SPEC
  6
CONTINUOUS
 62
     7
 10
-165.00000000082491
 20
191.00878527901281
 30
0.0
 11
129.99998999917511
 21
191.00878527901281
 31
0.0
  0
TEXT
  5
112
  8
SPEC
 62
     7
 10
-162.69192129847181
 20
192.95961942535979
 30
0.0
 40
3.8006293402777769
  1
最大音圧レベル
 41
0.7
 11
-162.69192129847181
 21
196.76024876563761
 31
0.0
 73
     3
  0
TEXT
  5
113
  8
SPEC
 62
     7
 10
-98.182256366310895
 20
192.9552607152493
 30
0.0
 40
3.8006293402777769
  1
152dB SPL(2.5k\U+03A9負荷)
 41
0.7
 11
-98.182256366310895
 21
196.75589005552709
 31
0.0
 73
     3
  0
TEXT
  5
114
  8
SPEC
 62
     7
 10
-162.86839688171469
 20
155.63998373083291
 30
0.0
 40
3.8006293402777769
  1
質量
 41
0.7
 11
-162.86839688171469
 21
159.4406130711107
 31
0.0
 73
     3
  0
LINE
  5
115
  8
SPEC
  6
CONTINUOUS
 62
     7
 10
-165.00000000082491
 20
153.50878527901281
 30
0.0
 11
129.99998999917511
 21
153.50878527901281
 31
0.0
  0
TEXT
  5
116
  8
SPEC
 62
     7
 10
-162.86839688171469
 20
148.13998373083291
 30
0.0
 40
3.8006293402777769
  1
付属品
 41
0.7
 11
-162.86839688171469
 21
151.9406130711107
 31
0.0
 73
     3
  0
TEXT
  5
117
  8
SPEC
 62
     7
 10
-97.732599381687237
 20
147.9834788143597
 30
0.0
 40
3.8006293402777769
  1
マイクホルダー（A25E）、3/8"→5/8"変換ねじ、キャリングケース
 41
0.7
 11
-97.732599381687237
 21
151.78410815463741
 31
0.0
 73
     3
  0
LINE
  5
118
  8
SPEC
  6
CONTINUOUS
 62
     7
 10
-165.00000000082491
 20
146.00878527901281
 30
0.0
 11
129.99998999917511
 21
146.00878527901281
 31
0.0
  0
TEXT
  5
119
  8
SPEC
 62
     7
 10
-97.732599381687237
 20
155.4834788143597
 30
0.0
 40
3.8006293402777769
  1
300g
 41
0.7
 11
-97.732599381687237
 21
159.28410815463741
 31
0.0
 73
     3
  0
TEXT
  5
11A
  8
SPEC
 62
     7
 10
-162.8765280616924
 20
170.5169586300714
 30
0.0
 40
3.8006293402777769
  1
色
 41
0.7
 11
-162.8765280616924
 21
174.31758797034919
 31
0.0
 73
     3
  0
TEXT
  5
11B
  8
SPEC
 62
     7
 10
-97.740730561665004
 20
170.36045371359819
 30
0.0
 40
3.8006293402777769
  1
シャンパンゴールド(KSM9/SL)、チャコールグレー(KSM9/CG)
 41
0.7
 11
-97.740730561665004
 21
174.1610830538759
 31
0.0
 73
     3
  0
TEXT
  5
11C
  8
SPEC
 62
     7
 10
-162.86839688171469
 20
163.13998373083291
 30
0.0
 40
3.8006293402777769
  1
寸法
 41
0.7
 11
-162.86839688171469
 21
166.9406130711107
 31
0.0
 73
     3
  0
TEXT
  5
11D
  8
SPEC
 62
     7
 10
-98.476913009973686
 20
163.10604564654059
 30
0.0
 40
3.8006293402777769
  1
\U+03C649\U+00D7全長191mm
 41
0.7
 11
-98.476913009973686
 21
166.9066749868183
 31
0.0
 73
     3
  0
TEXT
  5
11E
  8
DIMNSIONS
 62
     7
 10
-40.000000000199989
 20
-231.9522347233644
 30
0.0
 40
4.8865234375244322
  1
(単位：mm)
 41
0.7
 11
-40.000000000199989
 21
-227.06571128584
 31
0.0
 73
     3
  0
LINE
  5
11F
  8
DIMNSIONS
  6
CONTINUOUS
 62
     7
 10
-72.75
 20
31.0
 30
0.0
 11
-104.0
 21
31.0
 31
0.0
  0
LINE
  5
120
  8
DIMNSIONS
  6
CONTINUOUS
 62
     7
 10
-64.25
 20
-100.0
 30
0.0
 11
-104.0
 21
-100.0
 31
0.0
  0
LINE
  5
121
  8
DIMNSIONS
  6
CONTINUOUS
 62
     7
 10
-100.0
 20
31.0
 30
0.0
 11
-100.0
 21
-100.0
 31
0.0
  0
LINE
  5
122
  8
DIMNSIONS
  6
CONTINUOUS
 62
     7
 10
-100.0
 20
31.0
 30
0.0
 11
-98.659920409699509
 21
25.998754882812499
 31
0.0
  0
LINE
  5
123
  8
DIMNSIONS
  6
CONTINUOUS
 62
     7
 10
-100.0
 20
31.0
 30
0.0
 11
-101.3400795903005
 21
25.998754882812499
 31
0.0
  0
LINE
  5
124
  8
DIMNSIONS
  6
CONTINUOUS
 62
     7
 10
-100.0
 20
-100.0
 30
0.0
 11
-101.3400795903005
 21
-94.998754882812506
 31
0.0
  0
LINE
  5
125
  8
DIMNSIONS
  6
CONTINUOUS
 62
     7
 10
-100.0
 20
-100.0
 30
0.0
 11
-98.659920409699509
 21
-94.998754882812506
 31
0.0
  0
TEXT
  5
126
  8
DIMNSIONS
 62
     7
 10
-103.98777776660189
 20
-39.791666666666657
 30
0.0
 40
5.4294704861111107
  1
131
 50
90.0
 41
0.7
 11
-109.41724825271299
 21
-39.791666666666657
 31
0.0
 73
     3
  0
LINE
  5
127
  8
DIMNSIONS
  6
CONTINUOUS
 62
     7
 10
-70.129631002509768
 20
92.5
 30
0.0
 11
-116.5
 21
92.5
 31
0.0
  0
LINE
  5
128
  8
DIMNSIONS
  6
CONTINUOUS
 62
     7
 10
-64.25
 20
-100.0
 30
0.0
 11
-116.5
 21
-100.0
 31
0.0
  0
LINE
  5
129
  8
DIMNSIONS
  6
CONTINUOUS
 62
     7
 10
-112.5
 20
92.5
 30
0.0
 11
-112.5
 21
-100.0
 31
0.0
  0
LINE
  5
12A
  8
DIMNSIONS
  6
CONTINUOUS
 62
     7
 10
-112.5
 20
92.5
 30
0.0
 11
-111.1599204096995
 21
87.498754882812506
 31
0.0
  0
LINE
  5
12B
  8
DIMNSIONS
  6
CONTINUOUS
 62
     7
 10
-112.5
 20
92.5
 30
0.0
 11
-113.8400795903005
 21
87.498754882812506
 31
0.0
  0
LINE
  5
12C
  8
DIMNSIONS
  6
CONTINUOUS
 62
     7
 10
-112.5
 20
-100.0
 30
0.0
 11
-113.8400795903005
 21
-94.998754882812506
 31
0.0
  0
LINE
  5
12D
  8
DIMNSIONS
  6
CONTINUOUS
 62
     7
 10
-112.5
 20
-100.0
 30
0.0
 11
-111.1599204096995
 21
-94.998754882812506
 31
0.0
  0
TEXT
  5
12E
  8
DIMNSIONS
 62
     7
 10
-116.48777776660189
 20
-9.0416666666666661
 30
0.0
 40
5.4294704861111107
  1
193
 50
90.0
 41
0.7
 11
-121.91724825271299
 21
-9.0416666666666661
 31
0.0
 73
     3
  0
LINE
  5
12F
  8
DIMNSIONS
  6
CONTINUOUS
 62
     7
 10
-72.75
 20
31.0
 30
0.0
 11
-104.0
 21
31.0
 31
0.0
  0
LINE
  5
130
  8
DIMNSIONS
  6
CONTINUOUS
 62
     7
 10
-70.129631002509768
 20
92.5
 30
0.0
 11
-104.0
 21
92.5
 31
0.0
  0
LINE
  5
131
  8
DIMNSIONS
  6
CONTINUOUS
 62
     7
 10
-100.0
 20
31.0
 30
0.0
 11
-100.0
 21
92.5
 31
0.0
  0
LINE
  5
132
  8
DIMNSIONS
  6
CONTINUOUS
 62
     7
 10
-100.0
 20
31.0
 30
0.0
 11
-101.3400795903005
 21
36.001245117187501
 31
0.0
  0
LINE
  5
133
  8
DIMNSIONS
  6
CONTINUOUS
 62
     7
 10
-100.0
 20
31.0
 30
0.0
 11
-98.659920409699509
 21
36.001245117187501
 31
0.0
  0
LINE
  5
134
  8
DIMNSIONS
  6
CONTINUOUS
 62
     7
 10
-100.0
 20
92.5
 30
0.0
 11
-98.659920409699509
 21
87.498754882812506
 31
0.0
  0
LINE
  5
135
  8
DIMNSIONS
  6
CONTINUOUS
 62
     7
 10
-100.0
 20
92.5
 30
0.0
 11
-101.3400795903005
 21
87.498754882812506
 31
0.0
  0
TEXT
  5
136
  8
DIMNSIONS
 62
     7
 10
-103.98777776660189
 20
58.222222222222221
 30
0.0
 40
5.4294704861111107
  1
62
 50
90.0
 41
0.7
 11
-109.41724825271299
 21
58.222222222222221
 31
0.0
 73
     3
  0
LINE
  5
137
  8
DIMNSIONS
  6
CONTINUOUS
 62
     7
 10
-26.757259197762441
 20
-142.2524197325875
 30
0.0
 11
-12.499999999999989
 21
-137.5
 31
0.0
  0
LINE
  5
138
  8
DIMNSIONS
  6
CONTINUOUS
 62
     7
 10
-26.757259197762441
 20
-142.2524197325875
 30
0.0
 11
-22.41489980668981
 21
-139.4324585716324
 31
0.0
  0
LINE
  5
139
  8
DIMNSIONS
  6
CONTINUOUS
 62
     7
 10
-26.757259197762441
 20
-142.2524197325875
 30
0.0
 11
-21.586685072254081
 21
-141.9814414250512
 31
0.0
  0
LINE
  5
13A
  8
DIMNSIONS
  6
CONTINUOUS
 62
     7
 10
-12.499999999999989
 20
-137.5
 30
0.0
 11
5.611111111111116
 21
-137.5
 31
0.0
  0
TEXT
  5
13B
  8
DIMNSIONS
 62
     7
 10
-8.4999999999999911
 20
-135.51222222222231
 30
0.0
 40
5.4294704861111107
  1
\U+03C649
 41
0.7
 11
-8.4999999999999911
 21
-130.08275173611111
 31
0.0
 73
     3
  0
TEXT
  5
13C
  8
DATA
 62
     7
 10
-175.00000000087499
 20
-240.7386591678528
 30
0.0
 40
3.8006293402967799
  1
※仕様及び外観は予告なく変更されることがあります。
 41
0.7
 11
-175.00000000087499
 21
-236.93802982755599
 31
0.0
 73
     3
  0
TEXT
  5
13D
  8
DATA
 62
     7
 10
-175.00000000087499
 20
-245.6775480567664
 30
0.0
 40
3.8006293402967799
  1
　また、同一製品でも若干の個体差があることがあります。ご了承ください。
 41
0.7
 11
-175.00000000087499
 21
-241.87691871646959
 31
0.0
 73
     3
  0
TEXT
  5
13E
  8
DATA
 62
     7
 10
100.00000000049999
 20
-233.622666945595
 30
0.0
 40
4.3435763889106047
  1
KSM9/SL , KSM9/CG
 41
0.7
 11
100.00000000049999
 21
-229.27909055668439
 31
0.0
 73
     3
  0
TEXT
  5
13F
  8
DATA
 62
     7
 10
100.00000000049999
 20
-219.72944472330329
 30
0.0
 40
4.8865234375244322
  1
SHURE
 41
0.7
 11
100.00000000049999
 21
-214.8429212857788
 31
0.0
 73
     3
  0
TEXT
  5
140
  8
DATA
 62
     7
 10
81.66666666707502
 20
-226.39666302743021
 30
0.0
 40
4.3435763889106047
  1
コンデンサーボーカルマイクロホン
 41
0.7
 11
81.66666666707502
 21
-222.0530866385196
 31
0.0
 73
     3
  0
CIRCLE
  5
141
  8
DATA
  6
CONTINUOUS
 62
     7
 10
-50.0
 20
-150.0
 30
0.0
 40
24.499999999999972
  0
CIRCLE
  5
142
  8
DATA
  6
CONTINUOUS
 62
     7
 10
-50.0
 20
-150.0
 30
0.0
 40
24.0
  0
CIRCLE
  5
143
  8
DATA
  6
CONTINUOUS
 62
     7
 10
-50.0
 20
-150.0
 30
0.0
 40
18.5
  0
CIRCLE
  5
144
  8
DATA
  6
CONTINUOUS
 62
     7
 10
-50.0
 20
-150.0
 30
0.0
 40
19.600000000000001
  0
TEXT
  5
145
  8
DATA
 62
     7
 10
-57.981321614583329
 20
19.556738281249999
 30
0.0
 40
4.8865234374999993
  1
SHURE
 41
0.7
 72
     1
 11
-50.0
 21
22.0
 31
0.0
 73
     2
  0
LINE
  5
146
  8
DATA
  6
CONTINUOUS
 62
     7
 10
-69.599999999999994
 20
36.5
 30
0.0
 11
-30.400000000000009
 21
36.5
 31
0.0
  0
LINE
  5
147
  8
DATA
  6
CONTINUOUS
 62
     7
 10
-39.75
 20
-100.0
 30
0.0
 11
-60.25
 21
-100.0
 31
0.0
  0
CIRCLE
  5
148
  8
DATA
  6
CONTINUOUS
 62
     7
 10
-50.0
 20
-150.0
 30
0.0
 40
10.25
  0
LINE
  5
149
  8
DATA
  6
CONTINUOUS
 62
     7
 10
-68.75
 20
31.0
 30
0.0
 11
-63.0
 21
0.0
 31
0.0
  0
LINE
  5
14A
  8
DATA
  6
CONTINUOUS
 62
     7
 10
-31.25
 20
31.0
 30
0.0
 11
-37.0
 21
0.0
 31
0.0
  0
LINE
  5
14B
  8
DATA
  6
CONTINUOUS
 62
     7
 10
-69.599999999999994
 20
38.5
 30
0.0
 11
-30.400000000000009
 21
38.5
 31
0.0
  0
LINE
  5
14C
  8
DATA
  6
CONTINUOUS
 62
     7
 10
-69.599999999999994
 20
38.5
 30
0.0
 11
-69.599999999999994
 21
36.5
 31
0.0
  0
LINE
  5
14D
  8
DATA
  6
CONTINUOUS
 62
     7
 10
-30.400000000000009
 20
38.5
 30
0.0
 11
-30.400000000000009
 21
36.5
 31
0.0
  0
LINE
  5
14E
  8
DATA
  6
CONTINUOUS
 62
     7
 10
-74.0
 20
61.5
 30
0.0
 11
-26.0
 21
61.5
 31
0.0
  0
LINE
  5
14F
  8
DATA
  6
CONTINUOUS
 62
     7
 10
-74.5
 20
63.0
 30
0.0
 11
-25.5
 21
63.0
 31
0.0
  0
LINE
  5
150
  8
DATA
  6
CONTINUOUS
 62
     7
 10
-74.5
 20
65.0
 30
0.0
 11
-25.5
 21
65.0
 31
0.0
  0
LINE
  5
151
  8
DATA
  6
CONTINUOUS
 62
     7
 10
-74.0
 20
66.5
 30
0.0
 11
-26.0
 21
66.5
 31
0.0
  0
LINE
  5
152
  8
DATA
  6
CONTINUOUS
 62
     7
 10
-74.5
 20
65.0
 30
0.0
 11
-74.5
 21
63.0
 31
0.0
  0
LINE
  5
153
  8
DATA
  6
CONTINUOUS
 62
     7
 10
-25.5
 20
65.0
 30
0.0
 11
-25.5
 21
63.0
 31
0.0
  0
LINE
  5
154
  8
DATA
  6
CONTINUOUS
 62
     7
 10
-74.0
 20
66.5
 30
0.0
 11
-74.5
 21
65.0
 31
0.0
  0
LINE
  5
155
  8
DATA
  6
CONTINUOUS
 62
     7
 10
-26.0
 20
66.5
 30
0.0
 11
-25.5
 21
65.0
 31
0.0
  0
LINE
  5
156
  8
DATA
  6
CONTINUOUS
 62
     7
 10
-25.5
 20
63.0
 30
0.0
 11
-26.0
 21
61.5
 31
0.0
  0
LINE
  5
157
  8
DATA
  6
CONTINUOUS
 62
     7
 10
-74.5
 20
63.0
 30
0.0
 11
-74.0
 21
61.5
 31
0.0
  0
LINE
  5
158
  8
DATA
  6
CONTINUOUS
 62
     7
 10
-66.129631002509754
 20
92.5
 30
0.0
 11
-33.870368997490232
 21
92.5
 31
0.0
  0
ARC
  5
159
  8
DATA
  6
CONTINUOUS
 62
     7
 10
5.6337209302325837
 20
63.447674418604663
 30
0.0
 40
78.69293970102116
 50
159.34527540413629
 51
177.77706543690419
  0
ARC
  5
15A
  8
DATA
  6
CONTINUOUS
 62
     7
 10
5.6337209302325837
 20
63.447674418604663
 30
0.0
 40
78.692939701021132
 50
181.41823295586011
 51
198.48313927140771
  0
ARC
  5
15B
  8
DATA
  6
CONTINUOUS
 62
     7
 10
-105.6337209302325
 20
63.447674418604663
 30
0.0
 40
78.692939701021061
 50
341.51686072859218
 51
358.58176704414041
  0
ARC
  5
15C
  8
DATA
  6
CONTINUOUS
 62
     7
 10
-105.6337209302325
 20
63.447674418604663
 30
0.0
 40
78.692939701020961
 50
2.2229345630957189
 51
20.654724595863701
  0
ARC
  5
15D
  8
DATA
  6
CONTINUOUS
 62
     7
 10
-66.129631002509754
 20
90.5
 30
0.0
 40
2.0
 50
90.0
 51
159.345275404137
  0
ARC
  5
15E
  8
DATA
  6
CONTINUOUS
 62
     7
 10
-33.870368997490232
 20
90.500000000000043
 30
0.0
 40
1.9999999999999689
 50
20.65472459586254
 51
90.0
  0
LINE
  5
15F
  8
DATA
  6
CONTINUOUS
 62
     7
 10
-39.150000000000098
 20
-98.500000000000014
 30
0.0
 11
-60.850000000000009
 21
-98.500000000000014
 31
0.0
  0
LINE
  5
160
  8
DATA
  6
CONTINUOUS
 62
     7
 10
-60.850000000000009
 20
-98.500000000000014
 30
0.0
 11
-60.25
 21
-100.0
 31
0.0
  0
LINE
  5
161
  8
DATA
  6
CONTINUOUS
 62
     7
 10
-39.75
 20
-100.0
 30
0.0
 11
-39.150000000000098
 21
-98.500000000000014
 31
0.0
  0
LINE
  5
162
  8
DATA
  6
CONTINUOUS
 62
     7
 10
-37.700000000000053
 20
-73.0
 30
0.0
 11
-62.299999999999962
 21
-73.0
 31
0.0
  0
LINE
  5
163
  8
DATA
  6
CONTINUOUS
 62
     7
 10
-60.850000000000009
 20
-98.500000000000014
 30
0.0
 11
-62.299999999999962
 21
-73.0
 31
0.0
  0
LINE
  5
164
  8
DATA
  6
CONTINUOUS
 62
     7
 10
-37.700000000000053
 20
-73.0
 30
0.0
 11
-39.150000000000098
 21
-98.500000000000014
 31
0.0
  0
LINE
  5
165
  8
DATA
  6
CONTINUOUS
 62
     7
 10
-37.0
 20
0.0
 30
0.0
 11
-63.0
 21
0.0
 31
0.0
  0
LINE
  5
166
  8
DATA
  6
CONTINUOUS
 62
     7
 10
-63.0
 20
0.0
 30
0.0
 11
-62.299999999999962
 21
-73.0
 31
0.0
  0
LINE
  5
167
  8
DATA
  6
CONTINUOUS
 62
     7
 10
-37.0
 20
0.0
 30
0.0
 11
-37.700000000000053
 21
-73.0
 31
0.0
  0
LINE
  5
168
  8
DATA
  6
CONTINUOUS
 62
     7
 10
-31.25
 20
31.0
 30
0.0
 11
-68.75
 21
31.0
 31
0.0
  0
LINE
  5
169
  8
DATA
  6
CONTINUOUS
 62
     7
 10
-68.75
 20
31.0
 30
0.0
 11
-69.599999999999994
 21
36.5
 31
0.0
  0
LINE
  5
16A
  8
DATA
  6
CONTINUOUS
 62
     7
 10
-31.25
 20
31.0
 30
0.0
 11
-30.400000000000009
 21
36.5
 31
0.0
  0
TEXT
  5
16B
  8
DATA
 62
     7
 10
-53.658105740017362
 20
-91.425236002604166
 30
0.0
 40
2.8504720052083319
  1
KSM9
 41
0.7
 72
     1
 11
-50.0
 21
-90.0
 31
0.0
 73
     2
  0
CIRCLE
  5
16C
  8
DATA
  6
CONTINUOUS
 62
     7
 10
-50.0
 20
-150.0
 30
0.0
 40
10.849999999999991
  0
CIRCLE
  5
16D
  8
DATA
  6
CONTINUOUS
 62
     7
 10
-50.0
 20
-150.0
 30
0.0
 40
12.29999999999999
  0
CIRCLE
  5
16E
  8
DATA
  6
CONTINUOUS
 62
     7
 10
-50.0
 20
-150.0
 30
0.0
 40
13.0
  0
CIRCLE
  5
16F
  8
DATA
  6
CONTINUOUS
 62
     7
 10
-50.0
 20
-150.0
 30
0.0
 40
18.75
  0
INSERT
  5
170
  8
DATA
 62
     7
  2
____
 10
0.0
 20
0.0
 30
0.0
  0
INSERT
  5
171
  8
DATA
 62
     7
  2
____-1
 10
0.0
 20
0.0
 30
0.0
  0
LINE
  5
172
  8
DATA
  6
CONTINUOUS
 62
     7
 10
-50.0
 20
-92.11666666666666
 30
0.0
 11
-50.0
 21
-95.0
 31
0.0
  0
CIRCLE
  5
173
  8
DATA
  6
CONTINUOUS
 62
     7
 10
-54.0
 20
-150.0
 30
0.0
 40
1.5
  0
CIRCLE
  5
174
  8
DATA
  6
CONTINUOUS
 62
     7
 10
-50.0
 20
-145.0
 30
0.0
 40
1.5
  0
CIRCLE
  5
175
  8
DATA
  6
CONTINUOUS
 62
     7
 10
-46.0
 20
-150.0
 30
0.0
 40
1.5
  0
ARC
  5
176
  8
DATA
  6
CONTINUOUS
 62
     7
 10
-55.656849999999999
 20
-155.65684999999999
 30
0.0
 40
0.7499967147261354
 50
132.31372076086171
 51
317.68627923913789
  0
ARC
  5
177
  8
DATA
  6
CONTINUOUS
 62
     7
 10
-50.0
 20
-150.0
 30
0.0
 40
8.0000028487244812
 50
230.00002532363601
 51
218.99997218353931
  0
ENDSEC
  0
EOF
