  0
SECTION
  2
HEADER
  9
$ACADVER
  1
AC1009
  9
$INSBASE
 10
0.0
 20
0.0
 30
0.0
  9
$EXTMIN
 10
-450.02746372486871
 20
-690.44516990490229
 30
-0.0011016349165587
  9
$EXTMAX
 10
450.02746791582013
 20
647.372507282063
 30
0.0000000252153853
  9
$LIMMIN
 10
0.0
 20
0.0
  9
$LIMMAX
 10
0.0
 20
0.0
  9
$ORTHOMODE
 70
     0
  9
$REGENMODE
 70
     1
  9
$FILLMODE
 70
     1
  9
$QTEXTMODE
 70
     0
  9
$MIRRTEXT
 70
     1
  9
$DRAGMODE
 70
     2
  9
$LTSCALE
 40
25.399999999999999
  9
$OSMODE
 70
   231
  9
$ATTMODE
 70
     1
  9
$TEXTSIZE
 40
0.0
  9
$TRACEWID
 40
1.0
  9
$TEXTSTYLE
  7
STANDARD
  9
$CLAYER
  8
DATA
  9
$CELTYPE
  6
BYLAYER
  9
$CECOLOR
 62
   256
  9
$DIMSCALE
 40
1.0
  9
$DIMASZ
 40
0.18
  9
$DIMEXO
 40
0.0625
  9
$DIMDLI
 40
0.38
  9
$DIMRND
 40
0.0
  9
$DIMDLE
 40
0.0
  9
$DIMEXE
 40
0.18
  9
$DIMTP
 40
0.0
  9
$DIMTM
 40
0.0
  9
$DIMTXT
 40
0.18
  9
$DIMCEN
 40
0.09
  9
$DIMTSZ
 40
0.0
  9
$DIMTOL
 70
     0
  9
$DIMLIM
 70
     0
  9
$DIMTIH
 70
     1
  9
$DIMTOH
 70
     1
  9
$DIMSE1
 70
     0
  9
$DIMSE2
 70
     0
  9
$DIMTAD
 70
     0
  9
$DIMZIN
 70
     0
  9
$DIMBLK
  1

  9
$DIMASO
 70
     1
  9
$DIMSHO
 70
     1
  9
$DIMPOST
  1

  9
$DIMAPOST
  1

  9
$DIMALT
 70
     0
  9
$DIMALTD
 70
     2
  9
$DIMALTF
 40
25.399999999999999
  9
$DIMLFAC
 40
1.0
  9
$DIMTOFL
 70
     0
  9
$DIMTVP
 40
0.0
  9
$DIMTIX
 70
     0
  9
$DIMSOXD
 70
     0
  9
$DIMSAH
 70
     0
  9
$DIMBLK1
  1

  9
$DIMBLK2
  1

  9
$DIMSTYLE
  2
STANDARD
  9
$DIMCLRD
 70
     0
  9
$DIMCLRE
 70
     0
  9
$DIMCLRT
 70
     0
  9
$DIMTFAC
 40
1.0
  9
$DIMGAP
 40
0.09
  9
$LUNITS
 70
     2
  9
$LUPREC
 70
     4
  9
$SKETCHINC
 40
0.1
  9
$FILLETRAD
 40
0.0
  9
$AUNITS
 70
     0
  9
$AUPREC
 70
     0
  9
$MENU
  1
acad
  9
$ELEVATION
 40
0.0
  9
$PELEVATION
 40
0.0
  9
$THICKNESS
 40
0.0
  9
$LIMCHECK
 70
     0
  9
$BLIPMODE
 70
     0
  9
$CHAMFERA
 40
0.0
  9
$CHAMFERB
 40
0.0
  9
$SKPOLY
 70
     0
  9
$TDCREATE
 40
2456274.7001504628
  9
$TDUPDATE
 40
2456274.7210116661
  9
$TDINDWG
 40
0.0012103588
  9
$TDUSRTIMER
 40
0.0012103241
  9
$USRTIMER
 70
     1
  9
$ANGBASE
 50
0.0
  9
$ANGDIR
 70
     0
  9
$PDMODE
 70
     1
  9
$PDSIZE
 40
-2.0
  9
$PLINEWID
 40
0.0
  9
$COORDS
 70
     2
  9
$SPLFRAME
 70
     0
  9
$SPLINETYPE
 70
     6
  9
$SPLINESEGS
 70
     8
  9
$ATTDIA
 70
     0
  9
$ATTREQ
 70
     1
  9
$HANDLING
 70
     1
  9
$HANDSEED
  5
51A
  9
$SURFTAB1
 70
     6
  9
$SURFTAB2
 70
     6
  9
$SURFTYPE
 70
     6
  9
$SURFU
 70
     6
  9
$SURFV
 70
     6
  9
$UCSNAME
  2

  9
$UCSORG
 10
0.0
 20
0.0
 30
0.0
  9
$UCSXDIR
 10
1.0
 20
0.0
 30
0.0
  9
$UCSYDIR
 10
0.0
 20
1.0
 30
0.0
  9
$PUCSNAME
  2

  9
$PUCSORG
 10
0.0
 20
0.0
 30
0.0
  9
$PUCSXDIR
 10
1.0
 20
0.0
 30
0.0
  9
$PUCSYDIR
 10
0.0
 20
1.0
 30
0.0
  9
$USERI1
 70
     0
  9
$USERI2
 70
     0
  9
$USERI3
 70
     0
  9
$USERI4
 70
     0
  9
$USERI5
 70
     0
  9
$USERR1
 40
0.0
  9
$USERR2
 40
0.0
  9
$USERR3
 40
0.0
  9
$USERR4
 40
0.0
  9
$USERR5
 40
0.0
  9
$WORLDVIEW
 70
     1
  9
$SHADEDGE
 70
     3
  9
$SHADEDIF
 70
    70
  9
$TILEMODE
 70
     1
  9
$MAXACTVP
 70
    64
  9
$PLIMCHECK
 70
     0
  9
$PEXTMIN
 10
1.0000000000000000E+020
 20
1.0000000000000000E+020
 30
1.0000000000000000E+020
  9
$PEXTMAX
 10
-1.0000000000000000E+020
 20
-1.0000000000000000E+020
 30
-1.0000000000000000E+020
  9
$PLIMMIN
 10
0.0
 20
0.0
  9
$PLIMMAX
 10
12.0
 20
9.0
  9
$UNITMODE
 70
     0
  9
$VISRETAIN
 70
     0
  9
$PLINEGEN
 70
     1
  9
$PSLTSCALE
 70
     0
  0
ENDSEC
  0
SECTION
  2
TABLES
  0
TABLE
  2
VPORT
 70
     1
  0
VPORT
  2
*ACTIVE
 70
     0
 10
0.0
 20
0.0
 11
1.0
 21
1.0
 12
0.0000020954755655
 22
-21.536331311419641
 13
0.0
 23
0.0
 14
1.0
 24
1.0
 15
0.0
 25
0.0
 16
0.0
 26
0.0
 36
1.0
 17
0.0
 27
0.0
 37
0.0
 40
1350.722670857579
 41
2.5684380032206109
 42
50.0
 43
0.0
 44
0.0
 50
0.0
 51
0.0
 71
     0
 72
  2000
 73
     1
 74
     1
 75
     0
 76
     0
 77
     0
 78
     0
  0
ENDTAB
  0
TABLE
  2
LTYPE
 70
    12
  0
LTYPE
  2
CONTINUOUS
 70
     0
  3
Solid line
 72
    65
 73
     0
 40
0.0
  0
LTYPE
  2
PHANTOM2
 70
     0
  3
___ _ _ ___ _ _ ___ _ _ ___ _ _
 72
    65
 73
     6
 40
1.25
 49
0.625
 49
-0.125
 49
0.125
 49
-0.125
 49
0.125
 49
-0.125
  0
ENDTAB
  0
TABLE
  2
LAYER
 70
     5
  0
LAYER
  2
0
 70
     0
 62
     7
  6
CONTINUOUS
  0
LAYER
  2
DATA
 70
     0
 62
     7
  6
CONTINUOUS
  0
LAYER
  2
HIBINO-BASE
 70
     0
 62
     7
  6
CONTINUOUS
  0
LAYER
  2
SPEC
 70
     0
 62
     7
  6
CONTINUOUS
  0
LAYER
  2
DIMNSIONS
 70
     0
 62
     7
  6
CONTINUOUS
  0
ENDTAB
  0
TABLE
  2
STYLE
 70
     3
  0
STYLE
  2
STANDARD
 70
     0
 40
0.0
 41
1.0
 50
0.0
 71
     0
 42
0.0
  3
txt
  4
BIGFONT.SHX
  0
ENDTAB
  0
TABLE
  2
VIEW
 70
     0
  0
ENDTAB
  0
TABLE
  2
UCS
 70
     0
  0
ENDTAB
  0
TABLE
  2
APPID
 70
     4
  0
APPID
  2
ACAD
 70
     0
  0
APPID
  2
ACADANNOTATIVE
 70
     0
  0
APPID
  2
ACAD_NAV_VCDISPLAY
 70
     0
  0
APPID
  2
ACAD_MLEADERVER
 70
     0
  0
ENDTAB
  0
TABLE
  2
DIMSTYLE
 70
     2
  0
DIMSTYLE
  2
STANDARD
 70
     0
  3

  4

  5

  6

  7

 40
1.0
 41
0.18
 42
0.0625
 43
0.38
 44
0.18
 45
0.0
 46
0.0
 47
0.0
 48
0.0
140
0.18
141
0.09
142
0.0
143
25.399999999999999
144
1.0
145
0.0
146
1.0
147
0.09
 71
     0
 72
     0
 73
     1
 74
     1
 75
     0
 76
     0
 77
     0
 78
     0
170
     0
171
     2
172
     0
173
     0
174
     0
175
     0
176
     0
177
     0
178
     0
  0
ENDTAB
  0
ENDSEC
  0
SECTION
  2
BLOCKS
  0
BLOCK
  8
0
  2
$MODEL_SPACE
 70
     0
 10
0.0
 20
0.0
 30
0.0
  3
$MODEL_SPACE
  1

  0
ENDBLK
  5
3F9
  8
0
  0
BLOCK
 67
     1
  8
0
  2
$PAPER_SPACE
 70
     0
 10
0.0
 20
0.0
 30
0.0
  3
$PAPER_SPACE
  1

  0
ENDBLK
  5
3F5
 67
     1
  8
0
  0
BLOCK
  8
DATA
  2
____
 70
     0
 10
0.0
 20
0.0
 30
0.0
  3
____
  1

  0
LINE
  5
40
  8
0
  6
CONTINUOUS
 62
     7
 10
-208.99999999999929
 20
-48.300000000000011
 30
0.0
 11
-208.99999999999929
 21
-50.0
 31
0.0
  0
LINE
  5
41
  8
0
  6
CONTINUOUS
 62
     7
 10
-187.00000000000071
 20
-48.300000000000011
 30
0.0
 11
-187.00000000000071
 21
-50.0
 31
0.0
  0
LINE
  5
42
  8
0
  6
CONTINUOUS
 62
     7
 10
-205.75
 20
-46.0
 30
0.0
 11
-205.75
 21
-48.300000000000011
 31
0.0
  0
LINE
  5
43
  8
0
  6
CONTINUOUS
 62
     7
 10
-190.25
 20
-46.0
 30
0.0
 11
-190.25
 21
-48.300000000000011
 31
0.0
  0
LINE
  5
44
  8
0
  6
CONTINUOUS
 62
     7
 10
-205.75
 20
-46.0
 30
0.0
 11
-200.34999999999991
 21
-46.0
 31
0.0
  0
LINE
  5
45
  8
0
  6
CONTINUOUS
 62
     7
 10
-195.64999999999981
 20
-46.0
 30
0.0
 11
-190.25
 21
-46.0
 31
0.0
  0
LINE
  5
46
  8
0
  6
CONTINUOUS
 62
     7
 10
-208.99999999999929
 20
-48.300000000000011
 30
0.0
 11
-187.00000000000071
 21
-48.300000000000011
 31
0.0
  0
LINE
  5
47
  8
0
  6
CONTINUOUS
 62
     7
 10
-203.0
 20
-44.5
 30
0.0
 11
-193.0
 21
-44.5
 31
0.0
  0
LINE
  5
48
  8
0
  6
CONTINUOUS
 62
     7
 10
-203.0
 20
-45.0
 30
0.0
 11
-193.0
 21
-45.0
 31
0.0
  0
LINE
  5
49
  8
0
  6
CONTINUOUS
 62
     7
 10
-200.34999999999991
 20
-45.0
 30
0.0
 11
-200.34999999999991
 21
-48.300000000000011
 31
0.0
  0
LINE
  5
4A
  8
0
  6
CONTINUOUS
 62
     7
 10
-195.64999999999981
 20
-45.0
 30
0.0
 11
-195.64999999999981
 21
-48.300000000000011
 31
0.0
  0
LINE
  5
4B
  8
0
  6
CONTINUOUS
 62
     7
 10
-203.0
 20
-44.5
 30
0.0
 11
-203.0
 21
-45.0
 31
0.0
  0
LINE
  5
4C
  8
0
  6
CONTINUOUS
 62
     7
 10
-193.0
 20
-44.5
 30
0.0
 11
-193.0
 21
-45.0
 31
0.0
  0
LINE
  5
4D
  8
0
  6
CONTINUOUS
 62
     7
 10
-208.99999999999929
 20
-50.0
 30
0.0
 11
-187.00000000000071
 21
-50.0
 31
0.0
  0
ENDBLK
  5
4E
  8
DATA
  0
BLOCK
  8
DATA
  2
____-1
 70
     0
 10
0.0
 20
0.0
 30
0.0
  3
____-1
  1

  0
LINE
  5
50
  8
0
  6
CONTINUOUS
 62
     7
 10
-178.99999999999929
 20
-48.300000000000011
 30
0.0
 11
-178.99999999999929
 21
-50.0
 31
0.0
  0
LINE
  5
51
  8
0
  6
CONTINUOUS
 62
     7
 10
-157.0000000000006
 20
-48.300000000000011
 30
0.0
 11
-157.0000000000006
 21
-50.0
 31
0.0
  0
LINE
  5
52
  8
0
  6
CONTINUOUS
 62
     7
 10
-175.75
 20
-46.0
 30
0.0
 11
-175.75
 21
-48.300000000000011
 31
0.0
  0
LINE
  5
53
  8
0
  6
CONTINUOUS
 62
     7
 10
-160.24999999999989
 20
-46.0
 30
0.0
 11
-160.24999999999989
 21
-48.300000000000011
 31
0.0
  0
LINE
  5
54
  8
0
  6
CONTINUOUS
 62
     7
 10
-175.75
 20
-46.0
 30
0.0
 11
-170.34999999999991
 21
-46.0
 31
0.0
  0
LINE
  5
55
  8
0
  6
CONTINUOUS
 62
     7
 10
-165.64999999999981
 20
-46.0
 30
0.0
 11
-160.24999999999989
 21
-46.0
 31
0.0
  0
LINE
  5
56
  8
0
  6
CONTINUOUS
 62
     7
 10
-178.99999999999929
 20
-48.300000000000011
 30
0.0
 11
-157.0000000000006
 21
-48.300000000000011
 31
0.0
  0
LINE
  5
57
  8
0
  6
CONTINUOUS
 62
     7
 10
-173.0
 20
-44.5
 30
0.0
 11
-163.0
 21
-44.5
 31
0.0
  0
LINE
  5
58
  8
0
  6
CONTINUOUS
 62
     7
 10
-173.0
 20
-45.0
 30
0.0
 11
-163.0
 21
-45.0
 31
0.0
  0
LINE
  5
59
  8
0
  6
CONTINUOUS
 62
     7
 10
-170.34999999999991
 20
-45.0
 30
0.0
 11
-170.34999999999991
 21
-48.300000000000011
 31
0.0
  0
LINE
  5
5A
  8
0
  6
CONTINUOUS
 62
     7
 10
-165.64999999999981
 20
-45.0
 30
0.0
 11
-165.64999999999981
 21
-48.300000000000011
 31
0.0
  0
LINE
  5
5B
  8
0
  6
CONTINUOUS
 62
     7
 10
-173.0
 20
-44.5
 30
0.0
 11
-173.0
 21
-45.0
 31
0.0
  0
LINE
  5
5C
  8
0
  6
CONTINUOUS
 62
     7
 10
-163.0
 20
-44.5
 30
0.0
 11
-163.0
 21
-45.0
 31
0.0
  0
LINE
  5
5D
  8
0
  6
CONTINUOUS
 62
     7
 10
-178.99999999999929
 20
-50.0
 30
0.0
 11
-157.0000000000006
 21
-50.0
 31
0.0
  0
ENDBLK
  5
5E
  8
DATA
  0
BLOCK
  8
DATA
  2
____-2
 70
     0
 10
0.0
 20
0.0
 30
0.0
  3
____-2
  1

  0
LINE
  5
60
  8
0
  6
CONTINUOUS
 62
     7
 10
-150.6487803668694
 20
-47.5
 30
0.0
 11
-150.6487803668694
 21
-50.0
 31
0.0
  0
LINE
  5
61
  8
0
  6
CONTINUOUS
 62
     7
 10
-138.35121963313031
 20
-47.5
 30
0.0
 11
-138.35121963313031
 21
-50.0
 31
0.0
  0
LINE
  5
62
  8
0
  6
CONTINUOUS
 62
     7
 10
-149.09999999999991
 20
-45.399999999999977
 30
0.0
 11
-149.09999999999991
 21
-47.5
 31
0.0
  0
LINE
  5
63
  8
0
  6
CONTINUOUS
 62
     7
 10
-139.89999999999989
 20
-45.399999999999977
 30
0.0
 11
-139.89999999999989
 21
-47.5
 31
0.0
  0
LINE
  5
64
  8
0
  6
CONTINUOUS
 62
     7
 10
-150.6487803668694
 20
-47.5
 30
0.0
 11
-138.35121963313031
 21
-47.5
 31
0.0
  0
LINE
  5
65
  8
0
  6
CONTINUOUS
 62
     7
 10
-149.09999999999991
 20
-45.399999999999977
 30
0.0
 11
-139.89999999999989
 21
-45.399999999999977
 31
0.0
  0
LINE
  5
66
  8
0
  6
CONTINUOUS
 62
     7
 10
-150.6487803668694
 20
-50.0
 30
0.0
 11
-138.35121963313031
 21
-50.0
 31
0.0
  0
ENDBLK
  5
67
  8
DATA
  0
BLOCK
  8
DATA
  2
____-3
 70
     0
 10
0.0
 20
0.0
 30
0.0
  3
____-3
  1

  0
LINE
  5
69
  8
0
  6
CONTINUOUS
 62
     7
 10
-132.14878036686929
 20
-47.5
 30
0.0
 11
-132.14878036686929
 21
-50.0
 31
0.0
  0
LINE
  5
6A
  8
0
  6
CONTINUOUS
 62
     7
 10
-119.8512196331303
 20
-47.5
 30
0.0
 11
-119.8512196331303
 21
-50.0
 31
0.0
  0
LINE
  5
6B
  8
0
  6
CONTINUOUS
 62
     7
 10
-130.5999999999998
 20
-45.399999999999977
 30
0.0
 11
-130.5999999999998
 21
-47.5
 31
0.0
  0
LINE
  5
6C
  8
0
  6
CONTINUOUS
 62
     7
 10
-121.39999999999991
 20
-45.399999999999977
 30
0.0
 11
-121.39999999999991
 21
-47.5
 31
0.0
  0
LINE
  5
6D
  8
0
  6
CONTINUOUS
 62
     7
 10
-132.14878036686929
 20
-47.5
 30
0.0
 11
-119.8512196331303
 21
-47.5
 31
0.0
  0
LINE
  5
6E
  8
0
  6
CONTINUOUS
 62
     7
 10
-130.5999999999998
 20
-45.399999999999977
 30
0.0
 11
-121.39999999999991
 21
-45.399999999999977
 31
0.0
  0
LINE
  5
6F
  8
0
  6
CONTINUOUS
 62
     7
 10
-132.14878036686929
 20
-50.0
 30
0.0
 11
-119.8512196331303
 21
-50.0
 31
0.0
  0
ENDBLK
  5
70
  8
DATA
  0
BLOCK
  8
DATA
  2
____-4
 70
     0
 10
0.0
 20
0.0
 30
0.0
  3
____-4
  1

  0
LINE
  5
72
  8
0
  6
CONTINUOUS
 62
     7
 10
-234.5
 20
-357.0
 30
0.0
 11
-234.5
 21
-364.0
 31
0.0
  0
LINE
  5
73
  8
0
  6
CONTINUOUS
 62
     7
 10
-244.5
 20
-357.0
 30
0.0
 11
-244.5
 21
-364.0
 31
0.0
  0
LINE
  5
74
  8
0
  6
CONTINUOUS
 62
     7
 10
-244.5
 20
-357.0
 30
0.0
 11
-234.5
 21
-357.0
 31
0.0
  0
LINE
  5
75
  8
0
  6
CONTINUOUS
 62
     7
 10
-244.5
 20
-364.0
 30
0.0
 11
-234.5
 21
-364.0
 31
0.0
  0
POLYLINE
  5
76
  8
0
  6
CONTINUOUS
 62
     7
 66
     1
 10
0.0
 20
0.0
 30
0.0
 70
     1
  0
VERTEX
  5
43C
  8
0
  6
CONTINUOUS
 62
     7
 10
-244.19999999999999
 20
-357.75
 30
0.0
  0
VERTEX
  5
43D
  8
0
  6
CONTINUOUS
 62
     7
 10
-234.7999999999999
 20
-357.75
 30
0.0
  0
VERTEX
  5
43E
  8
0
  6
CONTINUOUS
 62
     7
 10
-234.7999999999999
 20
-363.25
 30
0.0
  0
VERTEX
  5
43F
  8
0
  6
CONTINUOUS
 62
     7
 10
-244.19999999999999
 20
-363.25
 30
0.0
  0
SEQEND
  5
440
  8
0
  6
CONTINUOUS
 62
     7
  0
ENDBLK
  5
7D
  8
DATA
  0
BLOCK
  8
DATA
  2
____-5
 70
     0
 10
0.0
 20
0.0
 30
0.0
  3
____-5
  1

  0
LINE
  5
7F
  8
0
  6
CONTINUOUS
 62
     7
 10
-234.5
 20
-347.0
 30
0.0
 11
-234.5
 21
-354.0
 31
0.0
  0
LINE
  5
80
  8
0
  6
CONTINUOUS
 62
     7
 10
-244.5
 20
-347.0
 30
0.0
 11
-244.5
 21
-354.0
 31
0.0
  0
LINE
  5
81
  8
0
  6
CONTINUOUS
 62
     7
 10
-244.5
 20
-347.0
 30
0.0
 11
-234.5
 21
-347.0
 31
0.0
  0
LINE
  5
82
  8
0
  6
CONTINUOUS
 62
     7
 10
-244.5
 20
-354.0
 30
0.0
 11
-234.5
 21
-354.0
 31
0.0
  0
POLYLINE
  5
83
  8
0
  6
CONTINUOUS
 62
     7
 66
     1
 10
0.0
 20
0.0
 30
0.0
 70
     1
  0
VERTEX
  5
441
  8
0
  6
CONTINUOUS
 62
     7
 10
-244.19999999999999
 20
-347.75
 30
0.0
  0
VERTEX
  5
442
  8
0
  6
CONTINUOUS
 62
     7
 10
-234.7999999999999
 20
-347.75
 30
0.0
  0
VERTEX
  5
443
  8
0
  6
CONTINUOUS
 62
     7
 10
-234.7999999999999
 20
-353.25
 30
0.0
  0
VERTEX
  5
444
  8
0
  6
CONTINUOUS
 62
     7
 10
-244.19999999999999
 20
-353.25
 30
0.0
  0
SEQEND
  5
445
  8
0
  6
CONTINUOUS
 62
     7
  0
ENDBLK
  5
8A
  8
DATA
  0
BLOCK
  8
DATA
  2
____-6
 70
     0
 10
0.0
 20
0.0
 30
0.0
  3
____-6
  1

  0
LINE
  5
8C
  8
0
  6
CONTINUOUS
 62
     7
 10
-163.2499999999998
 20
-357.0
 30
0.0
 11
-163.2499999999998
 21
-364.0
 31
0.0
  0
LINE
  5
8D
  8
0
  6
CONTINUOUS
 62
     7
 10
-153.2499999999998
 20
-357.0
 30
0.0
 11
-153.2499999999998
 21
-364.0
 31
0.0
  0
LINE
  5
8E
  8
0
  6
CONTINUOUS
 62
     7
 10
-153.2499999999998
 20
-357.0
 30
0.0
 11
-163.2499999999998
 21
-357.0
 31
0.0
  0
LINE
  5
8F
  8
0
  6
CONTINUOUS
 62
     7
 10
-153.2499999999998
 20
-364.0
 30
0.0
 11
-163.2499999999998
 21
-364.0
 31
0.0
  0
POLYLINE
  5
90
  8
0
  6
CONTINUOUS
 62
     7
 66
     1
 10
0.0
 20
0.0
 30
0.0
 70
     1
  0
VERTEX
  5
446
  8
0
  6
CONTINUOUS
 62
     7
 10
-162.9499999999999
 20
-357.75
 30
0.0
  0
VERTEX
  5
447
  8
0
  6
CONTINUOUS
 62
     7
 10
-153.5499999999999
 20
-357.75
 30
0.0
  0
VERTEX
  5
448
  8
0
  6
CONTINUOUS
 62
     7
 10
-153.5499999999999
 20
-363.25
 30
0.0
  0
VERTEX
  5
449
  8
0
  6
CONTINUOUS
 62
     7
 10
-162.9499999999999
 20
-363.25
 30
0.0
  0
SEQEND
  5
44A
  8
0
  6
CONTINUOUS
 62
     7
  0
ENDBLK
  5
97
  8
DATA
  0
BLOCK
  8
DATA
  2
____-7
 70
     0
 10
0.0
 20
0.0
 30
0.0
  3
____-7
  1

  0
LINE
  5
99
  8
0
  6
CONTINUOUS
 62
     7
 10
-163.2499999999998
 20
-347.0
 30
0.0
 11
-163.2499999999998
 21
-354.0
 31
0.0
  0
LINE
  5
9A
  8
0
  6
CONTINUOUS
 62
     7
 10
-153.2499999999998
 20
-347.0
 30
0.0
 11
-153.2499999999998
 21
-354.0
 31
0.0
  0
LINE
  5
9B
  8
0
  6
CONTINUOUS
 62
     7
 10
-153.2499999999998
 20
-347.0
 30
0.0
 11
-163.2499999999998
 21
-347.0
 31
0.0
  0
LINE
  5
9C
  8
0
  6
CONTINUOUS
 62
     7
 10
-153.2499999999998
 20
-354.0
 30
0.0
 11
-163.2499999999998
 21
-354.0
 31
0.0
  0
POLYLINE
  5
9D
  8
0
  6
CONTINUOUS
 62
     7
 66
     1
 10
0.0
 20
0.0
 30
0.0
 70
     1
  0
VERTEX
  5
44B
  8
0
  6
CONTINUOUS
 62
     7
 10
-162.9499999999999
 20
-347.75
 30
0.0
  0
VERTEX
  5
44C
  8
0
  6
CONTINUOUS
 62
     7
 10
-153.5499999999999
 20
-347.75
 30
0.0
  0
VERTEX
  5
44D
  8
0
  6
CONTINUOUS
 62
     7
 10
-153.5499999999999
 20
-353.25
 30
0.0
  0
VERTEX
  5
44E
  8
0
  6
CONTINUOUS
 62
     7
 10
-162.9499999999999
 20
-353.25
 30
0.0
  0
SEQEND
  5
44F
  8
0
  6
CONTINUOUS
 62
     7
  0
ENDBLK
  5
A4
  8
DATA
  0
BLOCK
  8
DATA
  2
____-8
 70
     0
 10
0.0
 20
0.0
 30
0.0
  3
____-8
  1

  0
LINE
  5
A6
  8
0
  6
CONTINUOUS
 62
     7
 10
-58.499999999999893
 20
-345.0
 30
0.0
 11
-58.499999999999893
 21
-368.0
 31
0.0
  0
LINE
  5
A7
  8
0
  6
CONTINUOUS
 62
     7
 10
-68.299999999999969
 20
-345.0
 30
0.0
 11
-68.299999999999969
 21
-368.0
 31
0.0
  0
LINE
  5
A8
  8
0
  6
CONTINUOUS
 62
     7
 10
-58.499999999999893
 20
-345.0
 30
0.0
 11
-68.299999999999969
 21
-345.0
 31
0.0
  0
LINE
  5
A9
  8
0
  6
CONTINUOUS
 62
     7
 10
-58.499999999999893
 20
-368.0
 30
0.0
 11
-68.299999999999969
 21
-368.0
 31
0.0
  0
POLYLINE
  5
AA
  8
0
  6
CONTINUOUS
 62
     7
 66
     1
 10
0.0
 20
0.0
 30
0.0
 70
     1
  0
VERTEX
  5
450
  8
0
  6
CONTINUOUS
 62
     7
 10
-65.549999999999969
 20
-349.0
 30
0.0
  0
VERTEX
  5
451
  8
0
  6
CONTINUOUS
 62
     7
 10
-61.249999999999893
 20
-349.0
 30
0.0
  0
VERTEX
  5
452
  8
0
  6
CONTINUOUS
 62
     7
 10
-61.249999999999893
 20
-364.0
 30
0.0
  0
VERTEX
  5
453
  8
0
  6
CONTINUOUS
 62
     7
 10
-65.549999999999969
 20
-364.0
 30
0.0
  0
SEQEND
  5
454
  8
0
  6
CONTINUOUS
 62
     7
  0
LINE
  5
B1
  8
0
  6
CONTINUOUS
 62
     7
 10
-65.549999999999969
 20
-360.5557460476104
 30
0.0
 11
-61.249999999999893
 21
-360.5557460476104
 31
0.0
  0
LINE
  5
B2
  8
0
  6
CONTINUOUS
 62
     7
 10
-63.399999999999977
 20
-350.0
 30
0.0
 11
-63.399999999999977
 21
-352.34999999999991
 31
0.0
  0
ENDBLK
  5
B3
  8
DATA
  0
BLOCK
  8
DATA
  2
____-9
 70
     0
 10
0.0
 20
0.0
 30
0.0
  3
____-9
  1

  0
ARC
  5
B5
  8
0
  6
CONTINUOUS
 62
     7
 10
-88.899999999999963
 20
-362.0
 30
0.0
 40
1.5000000000000211
 50
339.77466197216569
 51
200.83837973758159
  0
POLYLINE
  5
B6
  8
0
  6
CONTINUOUS
 62
     7
 66
     1
 10
0.0
 20
0.0
 30
0.0
 70
     1
  0
VERTEX
  5
455
  8
0
  6
CONTINUOUS
 62
     7
 10
-87.672178490592017
 20
-362.0
 30
0.0
  0
VERTEX
  5
456
  8
0
  6
CONTINUOUS
 62
     7
 10
-87.485786437626857
 20
-362.0
 30
0.0
  0
VERTEX
  5
457
  8
0
  6
CONTINUOUS
 62
     7
 10
-87.485786437626857
 20
-363.0
 30
0.0
  0
VERTEX
  5
458
  8
0
  6
CONTINUOUS
 62
     7
 10
-87.672178490592017
 20
-363.0
 30
0.0
  0
SEQEND
  5
459
  8
0
  6
CONTINUOUS
 62
     7
  0
POLYLINE
  5
BD
  8
0
  6
CONTINUOUS
 62
     7
 66
     1
 10
0.0
 20
0.0
 30
0.0
 70
     1
  0
VERTEX
  5
45A
  8
0
  6
CONTINUOUS
 62
     7
 10
-90.213607947034703
 20
-362.0
 30
0.0
  0
VERTEX
  5
45B
  8
0
  6
CONTINUOUS
 62
     7
 10
-90.027215894069499
 20
-362.0
 30
0.0
  0
VERTEX
  5
45C
  8
0
  6
CONTINUOUS
 62
     7
 10
-90.027215894069499
 20
-363.0
 30
0.0
  0
VERTEX
  5
45D
  8
0
  6
CONTINUOUS
 62
     7
 10
-90.213607947034703
 20
-363.0
 30
0.0
  0
SEQEND
  5
45E
  8
0
  6
CONTINUOUS
 62
     7
  0
ENDBLK
  5
C4
  8
DATA
  0
BLOCK
  8
DATA
  2
____-10
 70
     0
 10
0.0
 20
0.0
 30
0.0
  3
____-10
  1

  0
LINE
  5
C6
  8
0
  6
CONTINUOUS
 62
     7
 10
151.00000000000011
 20
-367.99999999999972
 30
0.0
 11
151.00000000000011
 21
-349.99999999999972
 31
0.0
  0
LINE
  5
C7
  8
0
  6
CONTINUOUS
 62
     7
 10
151.00000000000011
 20
-349.99999999999972
 30
0.0
 11
150.00000000000011
 21
-349.99999999999972
 31
0.0
  0
LINE
  5
C8
  8
0
  6
CONTINUOUS
 62
     7
 10
156.000672788065
 20
-365.62147442226927
 30
0.0
 11
156.000672788065
 21
-352.62147442226927
 31
0.0
  0
LINE
  5
C9
  8
0
  6
CONTINUOUS
 62
     7
 10
167.99999999971649
 20
-354.25046606402879
 30
0.0
 11
156.000672788065
 21
-354.25046606402879
 31
0.0
  0
LINE
  5
CA
  8
0
  6
CONTINUOUS
 62
     7
 10
167.99999999971649
 20
-363.74953393585588
 30
0.0
 11
156.000672788065
 21
-363.74953393585588
 31
0.0
  0
LINE
  5
CB
  8
0
  6
CONTINUOUS
 62
     7
 10
151.00000000000011
 20
-367.99999999999977
 30
0.0
 11
151.00000000000011
 21
-349.99999999999977
 31
0.0
  0
LINE
  5
CC
  8
0
  6
CONTINUOUS
 62
     7
 10
151.00000000000011
 20
-367.99999999999977
 30
0.0
 11
150.00000000000011
 21
-367.99999999999977
 31
0.0
  0
LINE
  5
CD
  8
0
  6
CONTINUOUS
 62
     7
 10
151.00000000000011
 20
-349.99999999999977
 30
0.0
 11
150.00000000000011
 21
-349.99999999999977
 31
0.0
  0
LINE
  5
CE
  8
0
  6
CONTINUOUS
 62
     7
 10
156.000672788065
 20
-365.62147442226927
 30
0.0
 11
151.00000000000011
 21
-365.62147442226927
 31
0.0
  0
LINE
  5
CF
  8
0
  6
CONTINUOUS
 62
     7
 10
156.000672788065
 20
-352.62147442226927
 30
0.0
 11
151.00000000000011
 21
-352.62147442226927
 31
0.0
  0
LINE
  5
D0
  8
0
  6
CONTINUOUS
 62
     7
 10
167.99999999971649
 20
-354.25046606402879
 30
0.0
 11
167.99999999971649
 21
-363.74953393585588
 31
0.0
  0
LINE
  5
D1
  8
0
  6
CONTINUOUS
 62
     7
 10
162.25000000000011
 20
-354.25046606402879
 30
0.0
 11
162.25000000000011
 21
-353.25046606402879
 31
0.0
  0
LINE
  5
D2
  8
0
  6
CONTINUOUS
 62
     7
 10
164.25000000000011
 20
-354.25046606402879
 30
0.0
 11
164.25000000000011
 21
-353.25046606402879
 31
0.0
  0
LINE
  5
D3
  8
0
  6
CONTINUOUS
 62
     7
 10
162.25000000000011
 20
-353.25046606402879
 30
0.0
 11
164.25000000000011
 21
-353.25046606402879
 31
0.0
  0
LINE
  5
D4
  8
0
  6
CONTINUOUS
 62
     7
 10
162.25000000000011
 20
-363.74953393585588
 30
0.0
 11
162.25000000000011
 21
-364.74953393585599
 31
0.0
  0
LINE
  5
D5
  8
0
  6
CONTINUOUS
 62
     7
 10
164.25000000000011
 20
-363.74953393585588
 30
0.0
 11
164.25000000000011
 21
-364.74953393585599
 31
0.0
  0
LINE
  5
D6
  8
0
  6
CONTINUOUS
 62
     7
 10
162.25000000000011
 20
-364.74953393585599
 30
0.0
 11
164.25000000000011
 21
-364.74953393585599
 31
0.0
  0
LINE
  5
D7
  8
0
  6
CONTINUOUS
 62
     7
 10
150.00000000000011
 20
-349.99999999999977
 30
0.0
 11
150.00000000000011
 21
-367.99999999999977
 31
0.0
  0
ENDBLK
  5
D8
  8
DATA
  0
BLOCK
  8
DATA
  2
____-11
 70
     0
 10
0.0
 20
0.0
 30
0.0
  3
____-11
  1

  0
POLYLINE
  5
DA
  8
0
  6
CONTINUOUS
 62
     7
 66
     1
 10
0.0
 20
0.0
 30
0.0
 70
     1
  0
VERTEX
  5
45F
  8
0
  6
CONTINUOUS
 62
     7
 10
150.00000000000011
 20
-347.4926727105651
 30
0.0
  0
VERTEX
  5
460
  8
0
  6
CONTINUOUS
 62
     7
 10
150.00000000000011
 20
-359.79023344430419
 30
0.0
  0
VERTEX
  5
461
  8
0
  6
CONTINUOUS
 62
     7
 10
152.50000000000011
 20
-359.79023344430419
 30
0.0
  0
VERTEX
  5
462
  8
0
  6
CONTINUOUS
 62
     7
 10
152.50000000000011
 20
-347.4926727105651
 30
0.0
  0
SEQEND
  5
463
  8
0
  6
CONTINUOUS
 62
     7
  0
POLYLINE
  5
E1
  8
0
  6
CONTINUOUS
 62
     7
 66
     1
 10
0.0
 20
0.0
 30
0.0
  0
VERTEX
  5
464
  8
0
  6
CONTINUOUS
 62
     7
 10
152.50000000000011
 20
-349.04145307743448
 30
0.0
  0
VERTEX
  5
465
  8
0
  6
CONTINUOUS
 62
     7
 10
154.60000000000011
 20
-349.04145307743448
 30
0.0
  0
VERTEX
  5
466
  8
0
  6
CONTINUOUS
 62
     7
 10
154.60000000000011
 20
-358.24145307743453
 30
0.0
  0
VERTEX
  5
467
  8
0
  6
CONTINUOUS
 62
     7
 10
152.50000000000011
 20
-358.24145307743453
 30
0.0
  0
SEQEND
  5
468
  8
0
  6
CONTINUOUS
 62
     7
  0
LINE
  5
E8
  8
0
  6
CONTINUOUS
 62
     7
 10
152.50000000000011
 20
-349.04145307743448
 30
0.0
 11
152.50000000000011
 21
-358.24145307743453
 31
0.0
  0
ENDBLK
  5
E9
  8
DATA
  0
BLOCK
  8
DATA
  2
____-12
 70
     0
 10
0.0
 20
0.0
 30
0.0
  3
____-12
  1

  0
POLYLINE
  5
EB
  8
0
  6
CONTINUOUS
 62
     7
 66
     1
 10
0.0
 20
0.0
 30
0.0
 70
     1
  0
VERTEX
  5
469
  8
0
  6
CONTINUOUS
 62
     7
 10
150.00000000000011
 20
-351.2000000000001
 30
0.0
  0
VERTEX
  5
46A
  8
0
  6
CONTINUOUS
 62
     7
 10
150.00000000000011
 20
-361.80000000000001
 30
0.0
  0
VERTEX
  5
46B
  8
0
  6
CONTINUOUS
 62
     7
 10
152.3000000000001
 20
-361.80000000000001
 30
0.0
  0
VERTEX
  5
46C
  8
0
  6
CONTINUOUS
 62
     7
 10
152.3000000000001
 20
-351.2000000000001
 30
0.0
  0
SEQEND
  5
46D
  8
0
  6
CONTINUOUS
 62
     7
  0
POLYLINE
  5
F2
  8
0
  6
CONTINUOUS
 62
     7
 66
     1
 10
0.0
 20
0.0
 30
0.0
  0
VERTEX
  5
46E
  8
0
  6
CONTINUOUS
 62
     7
 10
152.3000000000001
 20
-352.5499999999999
 30
0.0
  0
VERTEX
  5
46F
  8
0
  6
CONTINUOUS
 62
     7
 10
154.3000000000001
 20
-352.5499999999999
 30
0.0
  0
VERTEX
  5
470
  8
0
  6
CONTINUOUS
 62
     7
 10
154.3000000000001
 20
-360.4500000000001
 30
0.0
  0
VERTEX
  5
471
  8
0
  6
CONTINUOUS
 62
     7
 10
152.3000000000001
 20
-360.4500000000001
 30
0.0
  0
SEQEND
  5
472
  8
0
  6
CONTINUOUS
 62
     7
  0
LINE
  5
F9
  8
0
  6
CONTINUOUS
 62
     7
 10
152.3000000000001
 20
-352.5499999999999
 30
0.0
 11
152.3000000000001
 21
-360.4500000000001
 31
0.0
  0
ENDBLK
  5
FA
  8
DATA
  0
BLOCK
  8
DATA
  2
____-13
 70
     0
 10
0.0
 20
0.0
 30
0.0
  3
____-13
  1

  0
POLYLINE
  5
FC
  8
0
  6
CONTINUOUS
 62
     7
 66
     1
 10
0.0
 20
0.0
 30
0.0
 70
   129
  0
VERTEX
  5
473
  8
0
  6
CONTINUOUS
 62
     7
 10
-172.99999999999969
 20
4.7798835331840897
 30
0.0
 42
-0.4142135623730951
  0
VERTEX
  5
474
  8
0
  6
CONTINUOUS
 62
     7
 10
-169.99999999999969
 20
7.7798835331840888
 30
0.0
  0
VERTEX
  5
475
  8
0
  6
CONTINUOUS
 62
     7
 10
-165.99999999999969
 20
7.7798835331840888
 30
0.0
  0
VERTEX
  5
476
  8
0
  6
CONTINUOUS
 62
     7
 10
-165.99999999999969
 20
7.7798835331840888
 30
0.0
 42
-0.4142135623730951
  0
VERTEX
  5
477
  8
0
  6
CONTINUOUS
 62
     7
 10
-162.99999999999969
 20
4.7798835331840897
 30
0.0
  0
VERTEX
  5
478
  8
0
  6
CONTINUOUS
 62
     7
 10
-162.99999999999969
 20
4.2798835331840897
 30
0.0
 42
-0.4142135623730951
  0
VERTEX
  5
479
  8
0
  6
CONTINUOUS
 62
     7
 10
-165.99999999999969
 20
1.2798835331840901
 30
0.0
  0
VERTEX
  5
47A
  8
0
  6
CONTINUOUS
 62
     7
 10
-169.99999999999969
 20
1.2798835331840901
 30
0.0
  0
VERTEX
  5
47B
  8
0
  6
CONTINUOUS
 62
     7
 10
-169.99999999999969
 20
1.2798835331840901
 30
0.0
 42
-0.4142135623730951
  0
VERTEX
  5
47C
  8
0
  6
CONTINUOUS
 62
     7
 10
-172.99999999999969
 20
4.2798835331840897
 30
0.0
  0
SEQEND
  5
47D
  8
0
  6
CONTINUOUS
 62
     7
  0
POLYLINE
  5
108
  8
0
  6
CONTINUOUS
 62
     7
 66
     1
 10
0.0
 20
0.0
 30
0.0
 70
     1
  0
VERTEX
  5
47E
  8
0
  6
CONTINUOUS
 62
     7
 10
-170.34999999999991
 20
8.7798835331840888
 30
0.0
  0
VERTEX
  5
47F
  8
0
  6
CONTINUOUS
 62
     7
 10
-165.64999999999989
 20
8.7798835331840888
 30
0.0
  0
VERTEX
  5
480
  8
0
  6
CONTINUOUS
 62
     7
 10
-165.64999999999989
 20
7.7798835331840888
 30
0.0
  0
VERTEX
  5
481
  8
0
  6
CONTINUOUS
 62
     7
 10
-170.34999999999991
 20
7.7798835331840888
 30
0.0
  0
SEQEND
  5
482
  8
0
  6
CONTINUOUS
 62
     7
  0
ENDBLK
  5
10F
  8
DATA
  0
BLOCK
  8
DATA
  2
____-14
 70
     0
 10
0.0
 20
0.0
 30
0.0
  3
____-14
  1

  0
CIRCLE
  5
111
  8
0
  6
CONTINUOUS
 62
     7
 10
-144.4999999999998
 20
18.92133661061871
 30
0.0
 40
4.5999999999999091
  0
CIRCLE
  5
112
  8
0
  6
CONTINUOUS
 62
     7
 10
-144.4999999999998
 20
18.92133661061871
 30
0.0
 40
7.0999999999999091
  0
POLYLINE
  5
113
  8
0
  6
CONTINUOUS
 62
     7
 66
     1
 10
0.0
 20
0.0
 30
0.0
 70
     1
  0
VERTEX
  5
483
  8
0
  6
CONTINUOUS
 62
     7
 10
-144.4999999999998
 20
26.021336610618729
 30
0.0
  0
VERTEX
  5
484
  8
0
  6
CONTINUOUS
 62
     7
 10
-150.6487803668694
 20
22.471336610618721
 30
0.0
  0
VERTEX
  5
485
  8
0
  6
CONTINUOUS
 62
     7
 10
-150.6487803668694
 20
15.37133661061875
 30
0.0
  0
VERTEX
  5
486
  8
0
  6
CONTINUOUS
 62
     7
 10
-144.4999999999998
 20
11.82133661061868
 30
0.0
  0
VERTEX
  5
487
  8
0
  6
CONTINUOUS
 62
     7
 10
-138.35121963313031
 20
15.371336610618689
 30
0.0
  0
VERTEX
  5
488
  8
0
  6
CONTINUOUS
 62
     7
 10
-138.35121963313031
 20
22.471336610618721
 30
0.0
  0
SEQEND
  5
489
  8
0
  6
CONTINUOUS
 62
     7
  0
ENDBLK
  5
11C
  8
DATA
  0
BLOCK
  8
DATA
  2
____-15
 70
     0
 10
0.0
 20
0.0
 30
0.0
  3
____-15
  1

  0
POLYLINE
  5
11E
  8
0
  6
CONTINUOUS
 62
     7
 66
     1
 10
0.0
 20
0.0
 30
0.0
 70
   129
  0
VERTEX
  5
48A
  8
0
  6
CONTINUOUS
 62
     7
 10
-203.0
 20
4.7798835331840897
 30
0.0
 42
-0.4142135623730951
  0
VERTEX
  5
48B
  8
0
  6
CONTINUOUS
 62
     7
 10
-200.0
 20
7.7798835331840888
 30
0.0
  0
VERTEX
  5
48C
  8
0
  6
CONTINUOUS
 62
     7
 10
-196.0
 20
7.7798835331840888
 30
0.0
  0
VERTEX
  5
48D
  8
0
  6
CONTINUOUS
 62
     7
 10
-196.0
 20
7.7798835331840888
 30
0.0
 42
-0.4142135623730951
  0
VERTEX
  5
48E
  8
0
  6
CONTINUOUS
 62
     7
 10
-193.0
 20
4.7798835331840897
 30
0.0
  0
VERTEX
  5
48F
  8
0
  6
CONTINUOUS
 62
     7
 10
-193.0
 20
4.2798835331840897
 30
0.0
 42
-0.4142135623730951
  0
VERTEX
  5
490
  8
0
  6
CONTINUOUS
 62
     7
 10
-196.0
 20
1.2798835331840901
 30
0.0
  0
VERTEX
  5
491
  8
0
  6
CONTINUOUS
 62
     7
 10
-200.0
 20
1.2798835331840901
 30
0.0
  0
VERTEX
  5
492
  8
0
  6
CONTINUOUS
 62
     7
 10
-200.0
 20
1.2798835331840901
 30
0.0
 42
-0.4142135623730951
  0
VERTEX
  5
493
  8
0
  6
CONTINUOUS
 62
     7
 10
-203.0
 20
4.2798835331840897
 30
0.0
  0
SEQEND
  5
494
  8
0
  6
CONTINUOUS
 62
     7
  0
POLYLINE
  5
12A
  8
0
  6
CONTINUOUS
 62
     7
 66
     1
 10
0.0
 20
0.0
 30
0.0
 70
     1
  0
VERTEX
  5
495
  8
0
  6
CONTINUOUS
 62
     7
 10
-200.34999999999991
 20
8.7798835331840888
 30
0.0
  0
VERTEX
  5
496
  8
0
  6
CONTINUOUS
 62
     7
 10
-195.65000000000001
 20
8.7798835331840888
 30
0.0
  0
VERTEX
  5
497
  8
0
  6
CONTINUOUS
 62
     7
 10
-195.65000000000001
 20
7.7798835331840888
 30
0.0
  0
VERTEX
  5
498
  8
0
  6
CONTINUOUS
 62
     7
 10
-200.34999999999991
 20
7.7798835331840888
 30
0.0
  0
SEQEND
  5
499
  8
0
  6
CONTINUOUS
 62
     7
  0
ENDBLK
  5
131
  8
DATA
  0
BLOCK
  8
DATA
  2
____-16
 70
     0
 10
0.0
 20
0.0
 30
0.0
  3
____-16
  1

  0
CIRCLE
  5
133
  8
0
  6
CONTINUOUS
 62
     7
 10
-125.9999999999998
 20
18.92133661061871
 30
0.0
 40
4.5999999999999091
  0
CIRCLE
  5
134
  8
0
  6
CONTINUOUS
 62
     7
 10
-125.9999999999998
 20
18.92133661061871
 30
0.0
 40
7.0999999999999091
  0
POLYLINE
  5
135
  8
0
  6
CONTINUOUS
 62
     7
 66
     1
 10
0.0
 20
0.0
 30
0.0
 70
     1
  0
VERTEX
  5
49A
  8
0
  6
CONTINUOUS
 62
     7
 10
-125.9999999999998
 20
26.021336610618729
 30
0.0
  0
VERTEX
  5
49B
  8
0
  6
CONTINUOUS
 62
     7
 10
-132.1487803668694
 20
22.471336610618721
 30
0.0
  0
VERTEX
  5
49C
  8
0
  6
CONTINUOUS
 62
     7
 10
-132.1487803668694
 20
15.37133661061875
 30
0.0
  0
VERTEX
  5
49D
  8
0
  6
CONTINUOUS
 62
     7
 10
-125.9999999999998
 20
11.82133661061868
 30
0.0
  0
VERTEX
  5
49E
  8
0
  6
CONTINUOUS
 62
     7
 10
-119.8512196331303
 20
15.371336610618689
 30
0.0
  0
VERTEX
  5
49F
  8
0
  6
CONTINUOUS
 62
     7
 10
-119.8512196331303
 20
22.471336610618721
 30
0.0
  0
SEQEND
  5
4A0
  8
0
  6
CONTINUOUS
 62
     7
  0
ENDBLK
  5
13E
  8
DATA
  0
BLOCK
  8
DATA
  2
____-17
 70
     0
 10
0.0
 20
0.0
 30
0.0
  3
____-17
  1

  0
CIRCLE
  5
140
  8
0
  6
CONTINUOUS
 62
     7
 10
-79.999999999999844
 20
21.77988353318408
 30
0.0
 40
3.9499999999999309
  0
CIRCLE
  5
141
  8
0
  6
CONTINUOUS
 62
     7
 10
-79.999999999999844
 20
21.77988353318408
 30
0.0
 40
0.75
  0
CIRCLE
  5
142
  8
0
  6
CONTINUOUS
 62
     7
 10
-79.999999999999844
 20
21.77988353318408
 30
0.0
 40
5.2999999999999536
  0
POLYLINE
  5
143
  8
0
  6
CONTINUOUS
 62
     7
 66
     1
 10
0.0
 20
0.0
 30
0.0
 70
     1
  0
VERTEX
  5
4A1
  8
0
  6
CONTINUOUS
 62
     7
 10
-85.299999999999898
 20
21.77988353318408
 30
0.0
  0
VERTEX
  5
4A2
  8
0
  6
CONTINUOUS
 62
     7
 10
-82.649999999999807
 20
17.189948893126601
 30
0.0
  0
VERTEX
  5
4A3
  8
0
  6
CONTINUOUS
 62
     7
 10
-77.349999999999852
 20
17.189948893126601
 30
0.0
  0
VERTEX
  5
4A4
  8
0
  6
CONTINUOUS
 62
     7
 10
-74.699999999999875
 20
21.77988353318408
 30
0.0
  0
VERTEX
  5
4A5
  8
0
  6
CONTINUOUS
 62
     7
 10
-77.349999999999852
 20
26.36981817324159
 30
0.0
  0
VERTEX
  5
4A6
  8
0
  6
CONTINUOUS
 62
     7
 10
-82.649999999999906
 20
26.36981817324159
 30
0.0
  0
SEQEND
  5
4A7
  8
0
  6
CONTINUOUS
 62
     7
  0
ENDBLK
  5
14C
  8
DATA
  0
BLOCK
  8
DATA
  2
____-18
 70
     0
 10
0.0
 20
0.0
 30
0.0
  3
____-18
  1

  0
CIRCLE
  5
14E
  8
0
  6
CONTINUOUS
 62
     7
 10
-79.999999999999844
 20
11.37368353318408
 30
0.0
 40
0.5999999999999091
  0
ARC
  5
14F
  8
0
  6
CONTINUOUS
 62
     7
 10
-79.999999999999844
 20
11.37368353318408
 30
0.0
 40
1.125
 50
270.0
 51
90.0
  0
LINE
  5
150
  8
0
  6
CONTINUOUS
 62
     7
 10
-78.874999999999844
 20
11.37368353318408
 30
0.0
 11
-78.214999999999861
 21
11.37368353318408
 31
0.0
  0
LINE
  5
151
  8
0
  6
CONTINUOUS
 62
     7
 10
-80.599999999999866
 20
11.37368353318408
 30
0.0
 11
-81.102499999999907
 21
11.37368353318408
 31
0.0
  0
LINE
  5
152
  8
0
  6
CONTINUOUS
 62
     7
 10
-81.319735220764017
 20
11.37368353318408
 30
0.0
 11
-82.068285063472828
 21
11.37368353318408
 31
0.0
  0
LINE
  5
153
  8
0
  6
CONTINUOUS
 62
     7
 10
-81.694010142118415
 20
11.74795845454968
 30
0.0
 11
-81.694010142118415
 21
10.99940861181846
 31
0.0
  0
LINE
  5
154
  8
0
  6
CONTINUOUS
 62
     7
 10
-77.044063140448813
 20
11.37368353318408
 30
0.0
 11
-77.792612983157554
 21
11.37368353318408
 31
0.0
  0
ENDBLK
  5
155
  8
DATA
  0
ENDSEC
  0
SECTION
  2
ENTITIES
  0
LINE
  5
156
  8
HIBINO-BASE
  6
CONTINUOUS
 62
     7
 10
-449.99999999999989
 20
647.33176052567035
 30
0.0
 11
450.0
 21
647.33176052567035
 31
0.0
  0
LINE
  5
157
  8
HIBINO-BASE
  6
CONTINUOUS
 62
     7
 10
450.0
 20
-652.66823947432965
 30
0.0
 11
-449.99999999999989
 21
-652.66823947432965
 31
0.0
  0
LINE
  5
158
  8
HIBINO-BASE
  6
CONTINUOUS
 62
     7
 10
-449.99999999999989
 20
-652.66823947432965
 30
0.0
 11
-449.99999999999989
 21
647.33176052567035
 31
0.0
  0
LINE
  5
159
  8
HIBINO-BASE
  6
CONTINUOUS
 62
     7
 10
450.0
 20
647.33176052567035
 30
0.0
 11
450.0
 21
-652.66823947432965
 31
0.0
  0
LINE
  5
15A
  8
HIBINO-BASE
  6
CONTINUOUS
 62
     7
 10
0.0
 20
-540.16823947432965
 30
0.0
 11
450.0
 21
-540.16823947432965
 31
0.0
  0
LINE
  5
15B
  8
HIBINO-BASE
  6
CONTINUOUS
 62
     7
 10
0.0
 20
-652.66823947432965
 30
0.0
 11
0.0
 21
-540.16823947432965
 31
0.0
  0
TEXT
  5
15C
  8
HIBINO-BASE
 62
     7
 10
4.4999999999999991
 20
-552.71170614099583
 30
0.0
 40
8.1442057291666661
  1
NOTE
 41
0.7
 11
4.5
 21
-544.56750041182909
 31
0.0
 73
     3
  0
LINE
  5
15D
  8
HIBINO-BASE
  6
CONTINUOUS
 62
     7
 10
175.0000000000002
 20
-652.66823947432965
 30
0.0
 11
175.0000000000002
 21
-540.16823947432965
 31
0.0
  0
TEXT
  5
15E
  8
HIBINO-BASE
 62
     7
 10
179.5
 20
-552.71170614099583
 30
0.0
 40
8.1442057291666661
  1
TITLE
 41
0.7
 11
179.5
 21
-544.56750041182909
 31
0.0
 73
     3
  0
LINE
  5
15F
  8
HIBINO-BASE
  6
CONTINUOUS
 62
     7
 10
0.0
 20
-602.66823947432965
 30
0.0
 11
450.0
 21
-602.66823947432965
 31
0.0
  0
TEXT
  5
160
  8
HIBINO-BASE
 62
     7
 10
242.0
 20
-614.93010614099603
 30
0.0
 40
8.1442057291666661
  1
DRAWN
 41
0.7
 11
242.0
 21
-606.7859004118294
 31
0.0
 73
     3
  0
TEXT
  5
161
  8
HIBINO-BASE
 62
     7
 10
117.0
 20
-614.93010614099603
 30
0.0
 40
8.1442057291666661
  1
DATE
 41
0.7
 11
117.0
 21
-606.7859004118294
 31
0.0
 73
     3
  0
TEXT
  5
162
  8
HIBINO-BASE
 62
     7
 10
67.0
 20
-614.93010614099603
 30
0.0
 40
8.1442057291666661
  1
SCALE
 41
0.7
 11
67.0
 21
-606.7859004118294
 31
0.0
 73
     3
  0
TEXT
  5
163
  8
HIBINO-BASE
 62
     7
 10
179.5
 20
-614.93010614099603
 30
0.0
 40
8.1442057291666661
  1
DESIGN
 41
0.7
 11
179.5
 21
-606.7859004118294
 31
0.0
 73
     3
  0
TEXT
  5
164
  8
HIBINO-BASE
 62
     7
 10
367.0
 20
-614.93010614099603
 30
0.0
 40
8.1442057291666661
  1
DRAWING NO.
 41
0.7
 11
367.0
 21
-606.7859004118294
 31
0.0
 73
     3
  0
TEXT
  5
165
  8
HIBINO-BASE
 62
     7
 10
304.5
 20
-614.93010614099603
 30
0.0
 40
8.1442057291666661
  1
CHECK
 41
0.7
 11
304.5
 21
-606.7859004118294
 31
0.0
 73
     3
  0
LINE
  5
166
  8
HIBINO-BASE
  6
CONTINUOUS
 62
     7
 10
71.875
 20
-646.41823947432965
 30
0.0
 11
90.625000000000213
 21
-627.66823947432965
 31
0.0
  0
TEXT
  5
167
  8
HIBINO-BASE
 62
     7
 10
68.75
 20
-633.2129561409962
 30
0.0
 40
8.1442057291666661
  1
1
 41
0.7
 11
68.75
 21
-625.06875041182946
 31
0.0
 73
     3
  0
LINE
  5
168
  8
HIBINO-BASE
  6
CONTINUOUS
 62
     7
 10
62.5
 20
-652.66823947432965
 30
0.0
 11
62.5
 21
-602.66823947432965
 31
0.0
  0
LINE
  5
169
  8
HIBINO-BASE
  6
CONTINUOUS
 62
     7
 10
112.5
 20
-652.66823947432965
 30
0.0
 11
112.5
 21
-602.66823947432965
 31
0.0
  0
LINE
  5
16A
  8
HIBINO-BASE
  6
CONTINUOUS
 62
     7
 10
237.5
 20
-602.66823947432965
 30
0.0
 11
237.5
 21
-652.66823947432965
 31
0.0
  0
LINE
  5
16B
  8
HIBINO-BASE
  6
CONTINUOUS
 62
     7
 10
362.5
 20
-602.66823947432965
 30
0.0
 11
362.5
 21
-652.66823947432965
 31
0.0
  0
LINE
  5
16C
  8
HIBINO-BASE
  6
CONTINUOUS
 62
     7
 10
300.0
 20
-652.66823947432965
 30
0.0
 11
300.0
 21
-602.66823947432965
 31
0.0
  0
TEXT
  5
16D
  8
HIBINO-BASE
 62
     7
 10
116.7827000000002
 20
-638.35000614099602
 30
0.0
 40
8.1442057291666661
  1
'12.12.
 41
0.7
 11
116.7827000000002
 21
-630.20580041182927
 31
0.0
 73
     3
  0
TEXT
  5
16E
  8
HIBINO-BASE
 62
     7
 10
87.5
 20
-642.5879561409962
 30
0.0
 40
8.1442057291666661
  1
5
 41
0.7
 11
87.5
 21
-634.44375041182946
 31
0.0
 73
     3
  0
TEXT
  5
16F
  8
HIBINO-BASE
 62
     7
 10
245.02905005517329
 20
-638.35000614099602
 30
0.0
 40
8.1442057291666661
  1
N.Sasaki
 41
0.7
 11
245.02905005517329
 21
-630.20580041182927
 31
0.0
 73
     3
  0
TEXT
  5
170
  8
HIBINO-BASE
 62
     7
 10
19.416666666666739
 20
-642.78823947432943
 30
0.0
 40
16.288411458333329
  1
A4
 41
0.7
 11
19.416666666666739
 21
-626.49982801599594
 31
0.0
 73
     3
  0
TEXT
  5
171
  8
HIBINO-BASE
 62
     7
 10
4.7916666666667416
 20
-615.76551447432928
 30
0.0
 40
8.1442057291666661
  1
PAPER SIZE
 41
0.7
 11
4.7916666666667433
 21
-607.62130874516265
 31
0.0
 73
     3
  0
TEXT
  5
172
  8
HIBINO-BASE
 62
     7
 10
-414.07999999999993
 20
-684.54581447432952
 30
0.0
 40
17.645779079861111
  1
Hibino-Intersound Corporation
 41
0.7
 11
-414.07999999999993
 21
-666.90003539446843
 31
0.0
 73
     3
  0
TEXT
  5
173
  8
HIBINO-BASE
 62
     7
 10
70.121670836215799
 20
-684.54581447432952
 30
0.0
 40
17.645779079861111
  1
ヒビノインターサウンド株式会社
 41
0.7
 11
70.121670836215799
 21
-666.90003539446843
 31
0.0
 73
     3
  0
TEXT
  5
174
  8
SPEC
 62
     7
 10
-406.25
 20
604.29811052567038
 30
0.0
 40
12.21630859375
  1
仕様
 41
0.7
 11
-406.25
 21
616.5144191194205
 31
0.0
 73
     3
  0
TEXT
  5
175
  8
SPEC
 62
     7
 10
-408.0
 20
582.52134941455915
 30
0.0
 40
9.5015733506944464
  1
システム性能
 41
0.7
 11
-408.0
 21
592.0229227652535
 31
0.0
 73
     3
  0
LINE
  5
176
  8
SPEC
  6
CONTINUOUS
 62
     7
 10
-412.5
 20
578.58176052567035
 30
0.0
 11
325.0
 21
578.58176052567035
 31
0.0
  0
LINE
  5
177
  8
SPEC
  6
CONTINUOUS
 62
     7
 10
-412.5
 20
559.83176052567035
 30
0.0
 11
325.0
 21
559.83176052567035
 31
0.0
  0
LINE
  5
178
  8
SPEC
  6
CONTINUOUS
 62
     7
 10
-412.5
 20
484.8317605256704
 30
0.0
 11
325.0
 21
484.8317605256704
 31
0.0
  0
LINE
  5
179
  8
SPEC
  6
CONTINUOUS
 62
     7
 10
-412.5
 20
503.5817605256704
 30
0.0
 11
325.0
 21
503.5817605256704
 31
0.0
  0
LINE
  5
17A
  8
SPEC
  6
CONTINUOUS
 62
     7
 10
-412.5
 20
522.33176052567035
 30
0.0
 11
325.0
 21
522.33176052567035
 31
0.0
  0
LINE
  5
17B
  8
SPEC
  6
CONTINUOUS
 62
     7
 10
-412.5
 20
466.0817605256704
 30
0.0
 11
325.0
 21
466.0817605256704
 31
0.0
  0
LINE
  5
17C
  8
SPEC
  6
CONTINUOUS
 62
     7
 10
-412.5
 20
428.5817605256704
 30
0.0
 11
325.0
 21
428.5817605256704
 31
0.0
  0
LINE
  5
17D
  8
SPEC
  6
CONTINUOUS
 62
     7
 10
-412.5
 20
447.3317605256704
 30
0.0
 11
325.0
 21
447.3317605256704
 31
0.0
  0
LINE
  5
17E
  8
SPEC
  6
CONTINUOUS
 62
     7
 10
-412.5
 20
541.08176052567035
 30
0.0
 11
325.0
 21
541.08176052567035
 31
0.0
  0
TEXT
  5
17F
  8
SPEC
 62
     7
 10
-220.49999999999989
 20
563.77134941455915
 30
0.0
 40
9.5015733506944464
  1
F3E、F8E
 41
0.7
 11
-220.49999999999989
 21
573.2729227652535
 31
0.0
 73
     3
  0
LINE
  5
180
  8
SPEC
  6
CONTINUOUS
 62
     7
 10
-412.5
 20
578.58176052567035
 30
0.0
 11
-412.5
 21
447.3317605256704
 31
0.0
  0
LINE
  5
181
  8
SPEC
  6
CONTINUOUS
 62
     7
 10
-412.5
 20
428.5817605256704
 30
0.0
 11
-412.5
 21
166.08176052567049
 31
0.0
  0
LINE
  5
182
  8
SPEC
  6
CONTINUOUS
 62
     7
 10
-224.99999999999989
 20
578.58176052567035
 30
0.0
 11
-224.99999999999989
 21
447.3317605256704
 31
0.0
  0
LINE
  5
183
  8
SPEC
  6
CONTINUOUS
 62
     7
 10
-224.99999999999989
 20
428.5817605256704
 30
0.0
 11
-224.99999999999989
 21
166.08176052567049
 31
0.0
  0
LINE
  5
184
  8
SPEC
  6
CONTINUOUS
 62
     7
 10
325.0
 20
578.58176052567035
 30
0.0
 11
325.0
 21
447.3317605256704
 31
0.0
  0
LINE
  5
185
  8
SPEC
  6
CONTINUOUS
 62
     7
 10
325.0
 20
428.5817605256704
 30
0.0
 11
325.0
 21
166.08176052567049
 31
0.0
  0
TEXT
  5
186
  8
SPEC
 62
     7
 10
-220.49999999999989
 20
413.77134941455932
 30
0.0
 40
9.5015733506944464
  1
A2 型 (779～788MHz)69チャンネル、A型 (797～806MHz)69チャンネル、
 41
0.7
 11
-220.49999999999989
 21
423.27292276525372
 31
0.0
 73
     3
  0
TEXT
  5
187
  8
SPEC
 62
     7
 10
-408.0
 20
488.77134941455921
 30
0.0
 40
9.5015733506944464
  1
ステレオ・セパレーション
 41
0.7
 11
-408.0
 21
498.27292276525361
 31
0.0
 73
     3
  0
TEXT
  5
188
  8
SPEC
 62
     7
 10
-408.0
 20
563.77134941455915
 30
0.0
 40
9.5015733506944464
  1
電波形式
 41
0.7
 11
-408.0
 21
573.2729227652535
 31
0.0
 73
     3
  0
TEXT
  5
189
  8
SPEC
 62
     7
 10
-408.0
 20
451.27134941455932
 30
0.0
 40
9.5015733506944464
  1
THD
 41
0.7
 11
-408.0
 21
460.77292276525372
 31
0.0
 73
     3
  0
TEXT
  5
18A
  8
SPEC
 62
     7
 10
-408.0
 20
507.52134941455921
 30
0.0
 40
9.5015733506944464
  1
周波数特性
 41
0.7
 11
-408.0
 21
517.02292276525372
 31
0.0
 73
     3
  0
TEXT
  5
18B
  8
SPEC
 62
     7
 10
-408.0
 20
470.02134941455921
 30
0.0
 40
9.5015733506944464
  1
SN 比
 41
0.7
 11
-408.0
 21
479.52292276525361
 31
0.0
 73
     3
  0
TEXT
  5
18C
  8
SPEC
 62
     7
 10
-408.0
 20
545.02134941455915
 30
0.0
 40
9.5015733506944464
  1
到達距離
 41
0.7
 11
-408.0
 21
554.52292276525372
 31
0.0
 73
     3
  0
TEXT
  5
18D
  8
SPEC
 62
     7
 10
-408.0
 20
526.27134941455915
 30
0.0
 40
9.5015733506944464
  1
トーン信号周波数
 41
0.7
 11
-408.0
 21
535.77292276525372
 31
0.0
 73
     3
  0
TEXT
  5
18E
  8
SPEC
 62
     7
 10
-408.0
 20
413.77134941455932
 30
0.0
 40
9.5015733506944464
  1
送信周波数
 41
0.7
 11
-408.0
 21
423.27292276525372
 31
0.0
 73
     3
  0
TEXT
  5
18F
  8
SPEC
 62
     7
 10
-220.49999999999989
 20
488.77134941455921
 30
0.0
 40
9.5015733506944464
  1
60dB
 41
0.7
 11
-220.49999999999989
 21
498.27292276525361
 31
0.0
 73
     3
  0
TEXT
  5
190
  8
SPEC
 62
     7
 10
-220.49999999999989
 20
451.27134941455932
 30
0.0
 40
9.5015733506944464
  1
0.8%%%以下
 41
0.7
 11
-220.49999999999989
 21
460.77292276525372
 31
0.0
 73
     3
  0
TEXT
  5
191
  8
SPEC
 62
     7
 10
-220.49999999999989
 20
507.52134941455921
 30
0.0
 40
9.5015733506944464
  1
5Hz～15kHz
 41
0.7
 11
-220.49999999999989
 21
517.02292276525372
 31
0.0
 73
     3
  0
TEXT
  5
192
  8
SPEC
 62
     7
 10
-220.49999999999989
 20
470.02134941455921
 30
0.0
 40
9.5015733506944464
  1
90dB(A ウェイト)
 41
0.7
 11
-220.49999999999989
 21
479.52292276525361
 31
0.0
 73
     3
  0
TEXT
  5
193
  8
SPEC
 62
     7
 10
-220.49999999999989
 20
526.27134941455915
 30
0.0
 40
9.5015733506944464
  1
19kHz、32kHz(PTP モード)
 41
0.7
 11
-220.49999999999989
 21
535.77292276525372
 31
0.0
 73
     3
  0
TEXT
  5
194
  8
SPEC
 62
     7
 10
-220.49999999999989
 20
545.02134941455915
 30
0.0
 40
9.5015733506944464
  1
90m(10mW) ※見通しのよい屋外で使用した場合。使用環境よって異なる。
 41
0.7
 11
-220.49999999999989
 21
554.52292276525372
 31
0.0
 73
     3
  0
TEXT
  5
195
  8
SPEC
 62
     7
 10
-408.0
 20
432.52134941455932
 30
0.0
 40
9.5015733506944464
  1
送信機(9T-A24)
 41
0.7
 11
-408.0
 21
442.02292276525372
 31
0.0
 73
     3
  0
TEXT
  5
196
  8
SPEC
 62
     7
 10
-220.49999999999989
 20
376.27134941455932
 30
0.0
 40
9.5015733506944464
  1
6mW/10mW 切替
 41
0.7
 11
-220.49999999999989
 21
385.77292276525378
 31
0.0
 73
     3
  0
TEXT
  5
197
  8
SPEC
 62
     7
 10
-408.0
 20
376.27134941455932
 30
0.0
 40
9.5015733506944464
  1
空中線電力
 41
0.7
 11
-408.0
 21
385.77292276525378
 31
0.0
 73
     3
  0
TEXT
  5
198
  8
SPEC
 62
     7
 10
-220.49999999999989
 20
357.52134941455932
 30
0.0
 40
9.5015733506944464
  1
コネクター：BNC
 41
0.7
 11
-220.49999999999989
 21
367.02292276525378
 31
0.0
 73
     3
  0
TEXT
  5
199
  8
SPEC
 62
     7
 10
-220.49999999999989
 20
395.02134941455932
 30
0.0
 40
9.5015733506944464
  1
合計138 チャンネルのうち任意の1 チャンネル
 41
0.7
 11
-220.49999999999989
 21
404.52292276525372
 31
0.0
 73
     3
  0
LINE
  5
19A
  8
SPEC
  6
CONTINUOUS
 62
     7
 10
-412.5
 20
391.0817605256704
 30
0.0
 11
325.0
 21
391.0817605256704
 31
0.0
  0
LINE
  5
19B
  8
SPEC
  6
CONTINUOUS
 62
     7
 10
-412.5
 20
372.3317605256704
 30
0.0
 11
325.0
 21
372.3317605256704
 31
0.0
  0
LINE
  5
19C
  8
SPEC
  6
CONTINUOUS
 62
     7
 10
-412.5
 20
334.83176052567052
 30
0.0
 11
325.0
 21
334.83176052567052
 31
0.0
  0
TEXT
  5
19D
  8
SPEC
 62
     7
 10
-220.49999999999989
 20
320.02134941455938
 30
0.0
 40
9.5015733506944464
  1
コネクター：XLR3 ピン、メス(電子バランス)/フォーンジャック(電子バランス) 
 41
0.7
 11
-220.49999999999989
 21
329.5229227652539
 31
0.0
 73
     3
  0
TEXT
  5
19E
  8
SPEC
 62
     7
 10
-408.0
 20
320.02134941455938
 30
0.0
 40
9.5015733506944464
  1
音声入力
 41
0.7
 11
-408.0
 21
329.5229227652539
 31
0.0
 73
     3
  0
TEXT
  5
19F
  8
SPEC
 62
     7
 10
-408.0
 20
357.52134941455932
 30
0.0
 40
9.5015733506944464
  1
アンテナ出力
 41
0.7
 11
-408.0
 21
367.02292276525378
 31
0.0
 73
     3
  0
TEXT
  5
1A0
  8
SPEC
 62
     7
 10
-220.49999999999989
 20
338.77134941455938
 30
0.0
 40
9.5015733506944464
  1
実効インピーダンス：50\U+03A9
 41
0.7
 11
-220.49999999999989
 21
348.2729227652539
 31
0.0
 73
     3
  0
TEXT
  5
1A1
  8
SPEC
 62
     7
 10
-220.49999999999989
 20
301.27134941455938
 30
0.0
 40
9.5015733506944464
  1
インピーダンス：70.2k\U+03A9
 41
0.7
 11
-220.49999999999989
 21
310.7729227652539
 31
0.0
 73
     3
  0
TEXT
  5
1A2
  8
SPEC
 62
     7
 10
-408.0
 20
301.27134941455938
 30
0.0
 40
9.5015733506944464
  1
※XLR と標準プラグ対応の
 41
0.7
 11
-408.0
 21
310.7729227652539
 31
0.0
 73
     3
  0
TEXT
  5
1A3
  8
SPEC
 62
     7
 10
-220.49999999999989
 20
282.52134941455938
 30
0.0
 40
9.5015733506944464
  1
最大入力レベル：+23.3dBu(+4dBu)、+12.5dBu(-10dBV)
 41
0.7
 11
-220.49999999999989
 21
292.0229227652539
 31
0.0
 73
     3
  0
TEXT
  5
1A4
  8
SPEC
 62
     7
 10
-408.0
 20
282.52134941455938
 30
0.0
 40
9.5015733506944464
  1
複合型端子
 41
0.7
 11
-408.0
 21
292.0229227652539
 31
0.0
 73
     3
  0
LINE
  5
1A5
  8
SPEC
  6
CONTINUOUS
 62
     7
 10
-412.5
 20
278.5817605256704
 30
0.0
 11
325.0
 21
278.5817605256704
 31
0.0
  0
TEXT
  5
1A6
  8
SPEC
 62
     7
 10
-220.49999999999989
 20
263.77134941455938
 30
0.0
 40
9.5015733506944464
  1
コネクター：フォーンジャック(電子バランス) 
 41
0.7
 11
-220.49999999999989
 21
273.2729227652539
 31
0.0
 73
     3
  0
TEXT
  5
1A7
  8
SPEC
 62
     7
 10
-408.0
 20
263.77134941455938
 30
0.0
 40
9.5015733506944464
  1
ループ出力
 41
0.7
 11
-408.0
 21
273.2729227652539
 31
0.0
 73
     3
  0
LINE
  5
1A8
  8
SPEC
  6
CONTINUOUS
 62
     7
 10
-412.5
 20
259.8317605256704
 30
0.0
 11
325.0
 21
259.8317605256704
 31
0.0
  0
TEXT
  5
1A9
  8
SPEC
 62
     7
 10
-220.49999999999989
 20
245.02134941455941
 30
0.0
 40
9.5015733506944464
  1
DC15V(550mA)、付属のACアダプター(AC100V、50/60Hz)
 41
0.7
 11
-220.49999999999989
 21
254.5229227652539
 31
0.0
 73
     3
  0
TEXT
  5
1AA
  8
SPEC
 62
     7
 10
-408.0
 20
245.02134941455941
 30
0.0
 40
9.5015733506944464
  1
電源
 41
0.7
 11
-408.0
 21
254.5229227652539
 31
0.0
 73
     3
  0
LINE
  5
1AB
  8
SPEC
  6
CONTINUOUS
 62
     7
 10
-412.5
 20
241.0817605256704
 30
0.0
 11
325.0
 21
241.0817605256704
 31
0.0
  0
TEXT
  5
1AC
  8
SPEC
 62
     7
 10
-220.49999999999989
 20
226.27134941455941
 30
0.0
 40
9.5015733506944464
  1
幅197\U+00D7高42\U+00D7奥行150mm(除突起)・900g(ACアダプタ ー：250ｇ)
 41
0.7
 11
-220.49999999999989
 21
235.7729227652539
 31
0.0
 73
     3
  0
TEXT
  5
1AD
  8
SPEC
 62
     7
 10
-408.0
 20
226.27134941455941
 30
0.0
 40
9.5015733506944464
  1
寸法・質量
 41
0.7
 11
-408.0
 21
235.7729227652539
 31
0.0
 73
     3
  0
LINE
  5
1AE
  8
SPEC
  6
CONTINUOUS
 62
     7
 10
-412.5
 20
222.3317605256704
 30
0.0
 11
325.0
 21
222.3317605256704
 31
0.0
  0
TEXT
  5
1AF
  8
SPEC
 62
     7
 10
-220.49999999999989
 20
207.52134941455941
 30
0.0
 40
9.5015733506944464
  1
1/2 長アンテナ、ACアダプター、ラックマウント金具大・小\U+00D7各1、リンクバー、ねじ一式、
 41
0.7
 11
-220.49999999999989
 21
217.0229227652539
 31
0.0
 73
     3
  0
TEXT
  5
1B0
  8
SPEC
 62
     7
 10
-408.0
 20
207.52134941455941
 30
0.0
 40
9.5015733506944464
  1
付属品
 41
0.7
 11
-408.0
 21
217.0229227652539
 31
0.0
 73
     3
  0
LINE
  5
1B1
  8
SPEC
  6
CONTINUOUS
 62
     7
 10
-412.5
 20
166.08176052567049
 30
0.0
 11
325.0
 21
166.08176052567049
 31
0.0
  0
TEXT
  5
1B2
  8
SPEC
 62
     7
 10
-220.49999999999989
 20
188.7713494145593
 30
0.0
 40
9.5015733506944464
  1
保護用バンパー\U+00D7 4、50\U+03A9同軸ケーブル(50cm)、フロントアンテナ用バルクヘッドアダプター、
 41
0.7
 11
-220.49999999999989
 21
198.27292276525381
 31
0.0
 73
     3
  0
TEXT
  5
1B3
  8
SPEC
 62
     7
 10
-220.49999999999989
 20
170.0213494145593
 30
0.0
 40
9.5015733506944464
  1
アンテナホイールキャップ\U+00D72、ゴム足\U+00D74(1シート)、ポーチ
 41
0.7
 11
-220.49999999999989
 21
179.52292276525381
 31
0.0
 73
     3
  0
LINE
  5
1B4
  8
DIMNSIONS
  6
CONTINUOUS
 62
     7
 10
-250.0
 20
-385.0
 30
0.0
 11
-250.0
 21
-435.0
 31
0.0
  0
LINE
  5
1B5
  8
DIMNSIONS
  6
CONTINUOUS
 62
     7
 10
-52.999999999999901
 20
-385.0
 30
0.0
 11
-52.999999999999901
 21
-435.0
 31
0.0
  0
LINE
  5
1B6
  8
DIMNSIONS
  6
CONTINUOUS
 62
     7
 10
-250.0
 20
-425.0
 30
0.0
 11
-52.999999999999901
 21
-425.0
 31
0.0
  0
LINE
  5
1B7
  8
DIMNSIONS
  6
CONTINUOUS
 62
     7
 10
-250.0
 20
-425.0
 30
0.0
 11
-237.49688720703119
 21
-421.6498010242488
 31
0.0
  0
LINE
  5
1B8
  8
DIMNSIONS
  6
CONTINUOUS
 62
     7
 10
-250.0
 20
-425.0
 30
0.0
 11
-237.49688720703119
 21
-428.35019897575108
 31
0.0
  0
LINE
  5
1B9
  8
DIMNSIONS
  6
CONTINUOUS
 62
     7
 10
-52.999999999999901
 20
-425.0
 30
0.0
 11
-65.503112792968651
 21
-428.35019897575108
 31
0.0
  0
LINE
  5
1BA
  8
DIMNSIONS
  6
CONTINUOUS
 62
     7
 10
-52.999999999999901
 20
-425.0
 30
0.0
 11
-65.503112792968651
 21
-421.6498010242488
 31
0.0
  0
TEXT
  5
1BB
  8
DIMNSIONS
 62
     7
 10
-164.7291666666666
 20
-420.53055555555551
 30
0.0
 40
13.57367621527778
  1
197
 41
0.7
 11
-164.7291666666666
 21
-406.95687934027779
 31
0.0
 73
     3
  0
LINE
  5
1BC
  8
DIMNSIONS
  6
CONTINUOUS
 62
     7
 10
-260.0
 20
-200.0
 30
0.0
 11
-310.0
 21
-200.0
 31
0.0
  0
LINE
  5
1BD
  8
DIMNSIONS
  6
CONTINUOUS
 62
     7
 10
-260.0
 20
-50.0
 30
0.0
 11
-310.0
 21
-50.0
 31
0.0
  0
LINE
  5
1BE
  8
DIMNSIONS
  6
CONTINUOUS
 62
     7
 10
-300.0
 20
-200.0
 30
0.0
 11
-300.0
 21
-50.0
 31
0.0
  0
LINE
  5
1BF
  8
DIMNSIONS
  6
CONTINUOUS
 62
     7
 10
-300.0
 20
-200.0
 30
0.0
 11
-303.3501989757512
 21
-187.49688720703119
 31
0.0
  0
LINE
  5
1C0
  8
DIMNSIONS
  6
CONTINUOUS
 62
     7
 10
-300.0
 20
-200.0
 30
0.0
 11
-296.6498010242488
 21
-187.49688720703119
 31
0.0
  0
LINE
  5
1C1
  8
DIMNSIONS
  6
CONTINUOUS
 62
     7
 10
-300.0
 20
-50.0
 30
0.0
 11
-296.6498010242488
 21
-62.50311279296875
 31
0.0
  0
LINE
  5
1C2
  8
DIMNSIONS
  6
CONTINUOUS
 62
     7
 10
-300.0
 20
-50.0
 30
0.0
 11
-303.3501989757512
 21
-62.50311279296875
 31
0.0
  0
TEXT
  5
1C3
  8
DIMNSIONS
 62
     7
 10
-304.46944444444449
 20
-138.22916666666671
 30
0.0
 40
13.57367621527778
  1
150
 50
90.0
 41
0.7
 11
-318.04312065972232
 21
-138.22916666666671
 31
0.0
 73
     3
  0
LINE
  5
1C4
  8
DIMNSIONS
  6
CONTINUOUS
 62
     7
 10
-158.4999999999998
 20
-210.0
 30
0.0
 11
-310.0
 21
-210.0
 31
0.0
  0
LINE
  5
1C5
  8
DIMNSIONS
  6
CONTINUOUS
 62
     7
 10
-260.0
 20
-200.0
 30
0.0
 11
-310.0
 21
-200.0
 31
0.0
  0
LINE
  5
1C6
  8
DIMNSIONS
  6
CONTINUOUS
 62
     7
 10
-300.0
 20
-200.0
 30
0.0
 11
-300.0
 21
-210.0
 31
0.0
  0
LINE
  5
1C7
  8
DIMNSIONS
  6
CONTINUOUS
 62
     7
 10
-300.0
 20
-210.0
 30
0.0
 11
-300.0
 21
-246.0277777777778
 31
0.0
  0
LINE
  5
1C8
  8
DIMNSIONS
  6
CONTINUOUS
 62
     7
 10
-300.0
 20
-210.0
 30
0.0
 11
-296.6498010242488
 21
-222.50311279296881
 31
0.0
  0
LINE
  5
1C9
  8
DIMNSIONS
  6
CONTINUOUS
 62
     7
 10
-300.0
 20
-210.0
 30
0.0
 11
-303.3501989757512
 21
-222.50311279296881
 31
0.0
  0
LINE
  5
1CA
  8
DIMNSIONS
  6
CONTINUOUS
 62
     7
 10
-300.0
 20
-200.0
 30
0.0
 11
-300.0
 21
-175.0
 31
0.0
  0
LINE
  5
1CB
  8
DIMNSIONS
  6
CONTINUOUS
 62
     7
 10
-300.0
 20
-200.0
 30
0.0
 11
-303.3501989757512
 21
-187.49688720703119
 31
0.0
  0
LINE
  5
1CC
  8
DIMNSIONS
  6
CONTINUOUS
 62
     7
 10
-300.0
 20
-200.0
 30
0.0
 11
-296.6498010242488
 21
-187.49688720703119
 31
0.0
  0
TEXT
  5
1CD
  8
DIMNSIONS
 62
     7
 10
-304.46944444444449
 20
-246.02777777777791
 30
0.0
 40
13.57367621527778
  1
10
 50
90.0
 41
0.7
 11
-318.04312065972232
 21
-246.02777777777791
 31
0.0
 73
     3
  0
LINE
  5
1CE
  8
DIMNSIONS
  6
CONTINUOUS
 62
     7
 10
240.0
 20
-365.99999999994242
 30
0.0
 11
215.0
 21
-365.99999999994242
 31
0.0
  0
LINE
  5
1CF
  8
DIMNSIONS
  6
CONTINUOUS
 62
     7
 10
277.11561431117991
 20
-87.999999999905853
 30
0.0
 11
215.0
 21
-87.999999999905853
 31
0.0
  0
LINE
  5
1D0
  8
DIMNSIONS
  6
CONTINUOUS
 62
     7
 10
225.0
 20
-365.99999999994242
 30
0.0
 11
225.0
 21
-87.999999999905853
 31
0.0
  0
LINE
  5
1D1
  8
DIMNSIONS
  6
CONTINUOUS
 62
     7
 10
225.0
 20
-365.99999999994242
 30
0.0
 11
221.6498010242488
 21
-353.49688720697361
 31
0.0
  0
LINE
  5
1D2
  8
DIMNSIONS
  6
CONTINUOUS
 62
     7
 10
225.0
 20
-365.99999999994242
 30
0.0
 11
228.35019897575131
 21
-353.49688720697361
 31
0.0
  0
LINE
  5
1D3
  8
DIMNSIONS
  6
CONTINUOUS
 62
     7
 10
225.0
 20
-87.999999999905853
 30
0.0
 11
228.35019897575131
 21
-100.5031127928746
 31
0.0
  0
LINE
  5
1D4
  8
DIMNSIONS
  6
CONTINUOUS
 62
     7
 10
225.0
 20
-87.999999999905853
 30
0.0
 11
221.6498010242488
 21
-100.5031127928746
 31
0.0
  0
TEXT
  5
1D5
  8
DIMNSIONS
 62
     7
 10
220.53055555555551
 20
-240.2291666665908
 30
0.0
 40
13.57367621527778
  1
278
 50
90.0
 41
0.7
 11
206.95687934027771
 21
-240.2291666665908
 31
0.0
 73
     3
  0
LINE
  5
1D6
  8
DIMNSIONS
  6
CONTINUOUS
 62
     7
 10
-260.0
 20
-333.0
 30
0.0
 11
-310.0
 21
-333.0
 31
0.0
  0
LINE
  5
1D7
  8
DIMNSIONS
  6
CONTINUOUS
 62
     7
 10
-260.0
 20
-375.0
 30
0.0
 11
-310.0
 21
-375.0
 31
0.0
  0
LINE
  5
1D8
  8
DIMNSIONS
  6
CONTINUOUS
 62
     7
 10
-300.0
 20
-333.0
 30
0.0
 11
-300.0
 21
-375.0
 31
0.0
  0
LINE
  5
1D9
  8
DIMNSIONS
  6
CONTINUOUS
 62
     7
 10
-300.0
 20
-333.0
 30
0.0
 11
-296.6498010242488
 21
-345.50311279296881
 31
0.0
  0
LINE
  5
1DA
  8
DIMNSIONS
  6
CONTINUOUS
 62
     7
 10
-300.0
 20
-333.0
 30
0.0
 11
-303.3501989757512
 21
-345.50311279296881
 31
0.0
  0
LINE
  5
1DB
  8
DIMNSIONS
  6
CONTINUOUS
 62
     7
 10
-300.0
 20
-375.0
 30
0.0
 11
-303.3501989757512
 21
-362.49688720703119
 31
0.0
  0
LINE
  5
1DC
  8
DIMNSIONS
  6
CONTINUOUS
 62
     7
 10
-300.0
 20
-375.0
 30
0.0
 11
-296.6498010242488
 21
-362.49688720703119
 31
0.0
  0
TEXT
  5
1DD
  8
DIMNSIONS
 62
     7
 10
-304.46944444444449
 20
-362.81944444444451
 30
0.0
 40
13.57367621527778
  1
42
 50
90.0
 41
0.7
 11
-318.04312065972232
 21
-362.81944444444451
 31
0.0
 73
     3
  0
TEXT
  5
1DE
  8
DIMNSIONS
 62
     7
 10
-100.0
 20
-591.32078947432933
 30
0.0
 40
12.21630859375
  1
(単位：mm)
 41
0.7
 11
-100.0
 21
-579.10448088057933
 31
0.0
 73
     3
  0
LINE
  5
1DF
  8
DATA
  6
CONTINUOUS
 62
     7
 10
-250.0
 20
-375.0
 30
0.0
 11
-250.0
 21
-333.0
 31
0.0
  0
LINE
  5
1E0
  8
DATA
  6
CONTINUOUS
 62
     7
 10
-52.999999999999901
 20
-375.0
 30
0.0
 11
-250.0
 21
-375.0
 31
0.0
  0
LINE
  5
1E1
  8
DATA
  6
CONTINUOUS
 62
     7
 10
-52.999999999999901
 20
-333.0
 30
0.0
 11
-52.999999999999901
 21
-375.0
 31
0.0
  0
LINE
  5
1E2
  8
DATA
  6
CONTINUOUS
 62
     7
 10
-250.0
 20
-333.0
 30
0.0
 11
-52.999999999999901
 21
-333.0
 31
0.0
  0
LINE
  5
1E3
  8
DATA
  6
CONTINUOUS
 62
     7
 10
-250.0
 20
-200.0
 30
0.0
 11
-250.0
 21
-50.0
 31
0.0
  0
LINE
  5
1E4
  8
DATA
  6
CONTINUOUS
 62
     7
 10
-52.999999999999822
 20
-200.0
 30
0.0
 11
-250.0
 21
-200.0
 31
0.0
  0
LINE
  5
1E5
  8
DATA
  6
CONTINUOUS
 62
     7
 10
-52.999999999999822
 20
-50.0
 30
0.0
 11
-52.999999999999822
 21
-200.0
 31
0.0
  0
LINE
  5
1E6
  8
DATA
  6
CONTINUOUS
 62
     7
 10
-250.0
 20
-50.0
 30
0.0
 11
-52.999999999999822
 21
-50.0
 31
0.0
  0
LINE
  5
1E7
  8
DATA
  6
CONTINUOUS
 62
     7
 10
-250.0
 20
-338.13803354455138
 30
0.0
 11
-250.0633608245071
 21
-338.02356706314379
 31
0.0
  0
LINE
  5
1E8
  8
DATA
  6
CONTINUOUS
 62
     7
 10
-236.17505747241691
 20
-332.94621378776083
 30
0.0
 11
-236.13739596115519
 21
-333.0
 31
0.0
  0
LINE
  5
1E9
  8
DATA
  6
CONTINUOUS
 62
     7
 10
-52.999999999999901
 20
-338.13803354455121
 30
0.0
 11
-52.936639175492921
 21
-338.02356706314379
 31
0.0
  0
LINE
  5
1EA
  8
DATA
  6
CONTINUOUS
 62
     7
 10
-52.999999999999822
 20
-196.0
 30
0.0
 11
-63.499999999999829
 21
-196.0
 31
0.0
  0
LINE
  5
1EB
  8
DATA
  6
CONTINUOUS
 62
     7
 10
-239.5
 20
-196.0
 30
0.0
 11
-250.0
 21
-196.0
 31
0.0
  0
LINE
  5
1EC
  8
DATA
  6
CONTINUOUS
 62
     7
 10
-239.5
 20
-196.0
 30
0.0
 11
-239.5
 21
-50.0
 31
0.0
  0
LINE
  5
1ED
  8
DATA
  6
CONTINUOUS
 62
     7
 10
-63.499999999999829
 20
-196.0
 30
0.0
 11
-63.499999999999829
 21
-50.0
 31
0.0
  0
LINE
  5
1EE
  8
DATA
  6
CONTINUOUS
 62
     7
 10
-52.999999999999822
 20
-186.0
 30
0.0
 11
-250.0
 21
-186.0
 31
0.0
  0
CIRCLE
  5
1EF
  8
DATA
  6
CONTINUOUS
 62
     7
 10
-245.0
 20
-164.5
 30
0.0
 40
2.5
  0
CIRCLE
  5
1F0
  8
DATA
  6
CONTINUOUS
 62
     7
 10
-245.0
 20
-164.5
 30
0.0
 40
1.25
  0
CIRCLE
  5
1F1
  8
DATA
  6
CONTINUOUS
 62
     7
 10
-245.0
 20
-64.5
 30
0.0
 40
2.5
  0
CIRCLE
  5
1F2
  8
DATA
  6
CONTINUOUS
 62
     7
 10
-245.0
 20
-64.5
 30
0.0
 40
1.25
  0
CIRCLE
  5
1F3
  8
DATA
  6
CONTINUOUS
 62
     7
 10
-57.999999999999929
 20
-164.5
 30
0.0
 40
2.5
  0
CIRCLE
  5
1F4
  8
DATA
  6
CONTINUOUS
 62
     7
 10
-57.999999999999929
 20
-164.5
 30
0.0
 40
1.25
  0
CIRCLE
  5
1F5
  8
DATA
  6
CONTINUOUS
 62
     7
 10
-57.999999999999929
 20
-64.5
 30
0.0
 40
2.5
  0
CIRCLE
  5
1F6
  8
DATA
  6
CONTINUOUS
 62
     7
 10
-57.999999999999929
 20
-64.5
 30
0.0
 40
1.25
  0
LINE
  5
1F7
  8
DATA
  6
CONTINUOUS
 62
     7
 10
-55.499999999999901
 20
-371.5
 30
0.0
 11
-247.5
 21
-371.5
 31
0.0
  0
TEXT
  5
1F8
  8
DATA
 62
     7
 10
-119.2002604166665
 20
-363.45967716161459
 30
0.0
 40
3.078125
  1
sync
 41
0.7
 72
     1
 11
-115.2499999999998
 21
-361.92061466161459
 31
0.0
 73
     2
  0
LINE
  5
1F9
  8
DATA
  6
CONTINUOUS
 62
     7
 10
-213.75
 20
-365.5
 30
0.0
 11
-213.75
 21
-344.5
 31
0.0
  0
TEXT
  5
1FA
  8
DATA
 62
     7
 10
-246.635875
 20
-338.17770655780538
 30
0.0
 40
3.6937500000000001
  1
S H U R E
 41
0.7
 72
     1
 11
-237.5
 21
-336.33083155780542
 31
0.0
 73
     2
  0
TEXT
  5
1FB
  8
DATA
 62
     7
 10
-226.2955729166666
 20
-346.72000000000008
 30
0.0
 40
1.5390625
  1
CLIP
 41
0.7
 72
     1
 11
-224.5
 21
-345.18093750000008
 31
0.0
 73
     3
  0
TEXT
  5
1FC
  8
DATA
 62
     7
 10
-162.68406756365721
 20
-351.85736762152783
 30
0.0
 40
2.7147352430555549
  1
enter
 41
0.7
 72
     1
 11
-158.2499999999998
 21
-350.5
 31
0.0
 73
     2
  0
TEXT
  5
1FD
  8
DATA
 62
     7
 10
-161.10047200520819
 20
-361.85736762152783
 30
0.0
 40
2.7147352430555549
  1
exit
 41
0.7
 72
     1
 11
-158.2499999999998
 21
-360.5
 31
0.0
 73
     2
  0
LINE
  5
1FE
  8
DATA
  6
CONTINUOUS
 62
     7
 10
0.0000000000001137
 20
-333.0
 30
0.0
 11
150.00000000000011
 21
-333.0
 31
0.0
  0
LINE
  5
1FF
  8
DATA
  6
CONTINUOUS
 62
     7
 10
0.0000000000001137
 20
-333.0
 30
0.0
 11
0.0000000000001137
 21
-375.0
 31
0.0
  0
LINE
  5
200
  8
DATA
  6
CONTINUOUS
 62
     7
 10
150.00000000000011
 20
-333.0
 30
0.0
 11
150.00000000000011
 21
-375.0
 31
0.0
  0
LINE
  5
201
  8
DATA
  6
CONTINUOUS
 62
     7
 10
-52.999999999999822
 20
-185.69999999999999
 30
0.0
 11
-250.0
 21
-185.69999999999999
 31
0.0
  0
LINE
  5
202
  8
DATA
  6
CONTINUOUS
 62
     7
 10
-9.9999999999998863
 20
-346.5
 30
0.0
 11
-9.9999999999998863
 21
-364.5
 31
0.0
  0
LINE
  5
203
  8
DATA
  6
CONTINUOUS
 62
     7
 10
0.0000000000001137
 20
-365.5
 30
0.0
 11
-9.9999999999998863
 21
-364.5
 31
0.0
  0
LINE
  5
204
  8
DATA
  6
CONTINUOUS
 62
     7
 10
-8.4999999999998295
 20
-346.40250000000009
 30
0.0
 11
-9.9999999999998863
 21
-346.5
 31
0.0
  0
LINE
  5
205
  8
DATA
  6
CONTINUOUS
 62
     7
 10
4.0000000000001128
 20
-333.0
 30
0.0
 11
4.0000000000001128
 21
-375.0
 31
0.0
  0
LINE
  5
206
  8
DATA
  6
CONTINUOUS
 62
     7
 10
4.0000000000001128
 20
-335.5
 30
0.0
 11
150.00000000000011
 21
-335.5
 31
0.0
  0
LINE
  5
207
  8
DATA
  6
CONTINUOUS
 62
     7
 10
14.00000000000011
 20
-333.0
 30
0.0
 11
14.00000000000011
 21
-375.0
 31
0.0
  0
LINE
  5
208
  8
DATA
  6
CONTINUOUS
 62
     7
 10
14.30000000000007
 20
-333.0
 30
0.0
 11
14.30000000000007
 21
-375.0
 31
0.0
  0
CIRCLE
  5
209
  8
DATA
  6
CONTINUOUS
 62
     7
 10
35.500000000000121
 20
-356.0
 30
0.0
 40
5.0
  0
CIRCLE
  5
20A
  8
DATA
  6
CONTINUOUS
 62
     7
 10
35.500000000000121
 20
-356.0
 30
0.0
 40
3.0
  0
LINE
  5
20B
  8
DATA
  6
CONTINUOUS
 62
     7
 10
33.700000000000038
 20
-356.0
 30
0.0
 11
37.300000000000068
 21
-356.0
 31
0.0
  0
LINE
  5
20C
  8
DATA
  6
CONTINUOUS
 62
     7
 10
35.500000000000121
 20
-357.7999999999999
 30
0.0
 11
35.500000000000121
 21
-354.2000000000001
 31
0.0
  0
CIRCLE
  5
20D
  8
DATA
  6
CONTINUOUS
 62
     7
 10
135.50000000000011
 20
-356.0
 30
0.0
 40
5.0
  0
CIRCLE
  5
20E
  8
DATA
  6
CONTINUOUS
 62
     7
 10
135.50000000000011
 20
-356.0
 30
0.0
 40
3.0
  0
LINE
  5
20F
  8
DATA
  6
CONTINUOUS
 62
     7
 10
-0.2999999999999545
 20
-352.90395890427789
 30
0.0
 11
-0.2999999999999545
 21
-346.10395890427799
 31
0.0
  0
LINE
  5
210
  8
DATA
  6
CONTINUOUS
 62
     7
 10
-0.2999999999999545
 20
-364.903958904278
 30
0.0
 11
-0.2999999999999545
 21
-363.48336190714173
 31
0.0
  0
LINE
  5
211
  8
DATA
  6
CONTINUOUS
 62
     7
 10
-0.2999999999999545
 20
-346.10395890427799
 30
0.0
 11
0.0000000000001137
 21
-346.10395890427799
 31
0.0
  0
LINE
  5
212
  8
DATA
  6
CONTINUOUS
 62
     7
 10
-0.2999999999999545
 20
-352.90395890427789
 30
0.0
 11
0.0000000000001137
 21
-352.90395890427789
 31
0.0
  0
LINE
  5
213
  8
DATA
  6
CONTINUOUS
 62
     7
 10
-0.2999999999999545
 20
-364.903958904278
 30
0.0
 11
0.0000000000001137
 21
-364.903958904278
 31
0.0
  0
LINE
  5
214
  8
DATA
  6
CONTINUOUS
 62
     7
 10
297.96125985477403
 20
-333.99999999990553
 30
0.0
 11
297.96125985477403
 21
-334.06566084103292
 31
0.0
  0
LINE
  5
215
  8
DATA
  6
CONTINUOUS
 62
     7
 10
287.11561431118002
 20
-100.999999999906
 30
0.0
 11
287.11561431117991
 21
-87.999999999905853
 31
0.0
  0
LINE
  5
216
  8
DATA
  6
CONTINUOUS
 62
     7
 10
294.11561431117991
 20
-100.999999999906
 30
0.0
 11
287.11561431118002
 21
-100.999999999906
 31
0.0
  0
LINE
  5
217
  8
DATA
  6
CONTINUOUS
 62
     7
 10
294.11561431118002
 20
-87.999999999905853
 30
0.0
 11
294.11561431117991
 21
-100.999999999906
 31
0.0
  0
LINE
  5
218
  8
DATA
  6
CONTINUOUS
 62
     7
 10
287.11561431117991
 20
-87.999999999905853
 30
0.0
 11
294.11561431118002
 21
-87.999999999905853
 31
0.0
  0
LINE
  5
219
  8
DATA
  6
CONTINUOUS
 62
     7
 10
287.91561431118009
 20
-197.9999999999057
 30
0.0
 11
287.91561431117998
 21
-100.999999999906
 31
0.0
  0
LINE
  5
21A
  8
DATA
  6
CONTINUOUS
 62
     7
 10
293.31561431118013
 20
-100.999999999906
 30
0.0
 11
293.31561431118018
 21
-197.9999999999057
 31
0.0
  0
LINE
  5
21B
  8
DATA
  6
CONTINUOUS
 62
     7
 10
297.11561431118002
 20
-215.9999999999059
 30
0.0
 11
297.1156143111802
 21
-321.78351798182268
 31
0.0
  0
LINE
  5
21C
  8
DATA
  6
CONTINUOUS
 62
     7
 10
297.11561431118002
 20
-215.9999999999059
 30
0.0
 11
293.31561431118018
 21
-197.9999999999057
 31
0.0
  0
LINE
  5
21D
  8
DATA
  6
CONTINUOUS
 62
     7
 10
297.96125985477403
 20
-333.99999999990553
 30
0.0
 11
297.55885104794652
 21
-330.19312077135862
 31
0.0
  0
ARC
  5
21E
  8
DATA
  6
CONTINUOUS
 62
     7
 10
377.1156143111802
 20
-321.78351798182331
 30
0.0
 40
79.999999999999872
 50
179.9999999999996
 51
186.03408232418101
  0
LINE
  5
21F
  8
DATA
  6
CONTINUOUS
 62
     7
 10
297.96089006485897
 20
-333.69454742302918
 30
0.0
 11
298.0006053150658
 21
-366.49999999994242
 31
0.0
  0
LINE
  5
220
  8
DATA
  6
CONTINUOUS
 62
     7
 10
265.23752389487129
 20
-366.49999999994242
 30
0.0
 11
281.00000000019151
 21
-366.49999999994242
 31
0.0
  0
LINE
  5
221
  8
DATA
  6
CONTINUOUS
 62
     7
 10
265.23752389487129
 20
-351.49999999994242
 30
0.0
 11
265.23752389487129
 21
-366.49999999994242
 31
0.0
  0
LINE
  5
222
  8
DATA
  6
CONTINUOUS
 62
     7
 10
281.00000000019151
 20
-351.49999999994242
 30
0.0
 11
265.23752389487129
 21
-351.49999999994242
 31
0.0
  0
LINE
  5
223
  8
DATA
  6
CONTINUOUS
 62
     7
 10
283.26996876758591
 20
-333.99999999990553
 30
0.0
 11
283.26996876758591
 21
-334.06566084103292
 31
0.0
  0
LINE
  5
224
  8
DATA
  6
CONTINUOUS
 62
     7
 10
284.11561431117991
 20
-215.9999999999059
 30
0.0
 11
284.11561431117968
 21
-321.78351798182268
 31
0.0
  0
LINE
  5
225
  8
DATA
  6
CONTINUOUS
 62
     7
 10
284.11561431117991
 20
-215.9999999999059
 30
0.0
 11
287.91561431117981
 21
-197.9999999999057
 31
0.0
  0
LINE
  5
226
  8
DATA
  6
CONTINUOUS
 62
     7
 10
283.26996876758591
 20
-333.99999999990553
 30
0.0
 11
283.67237757441347
 21
-330.19312077135862
 31
0.0
  0
ARC
  5
227
  8
DATA
  6
CONTINUOUS
 62
     7
 10
204.1156143111798
 20
-321.78351798182331
 30
0.0
 40
79.99999999999973
 50
353.96591767581913
 51
0.0000000000004547
  0
LINE
  5
228
  8
DATA
  6
CONTINUOUS
 62
     7
 10
283.27033855750079
 20
-333.69454742302918
 30
0.0
 11
283.23479397720979
 21
-363.05495776993479
 31
0.0
  0
LINE
  5
229
  8
DATA
  6
CONTINUOUS
 62
     7
 10
281.00000000019151
 20
-366.49999999994242
 30
0.0
 11
281.00000000019151
 21
-351.49999999994242
 31
0.0
  0
LINE
  5
22A
  8
DATA
  6
CONTINUOUS
 62
     7
 10
283.24785019187101
 20
-352.27030883361959
 30
0.0
 11
297.98337843048893
 21
-352.27030883361959
 31
0.0
  0
LINE
  5
22B
  8
DATA
  6
CONTINUOUS
 62
     7
 10
283.24724487709722
 20
-352.77030883361948
 30
0.0
 11
297.98398374526261
 21
-352.77030883361948
 31
0.0
  0
LINE
  5
22C
  8
DATA
  6
CONTINUOUS
 62
     7
 10
288.17846096960392
 20
-366.49999999994242
 30
0.0
 11
298.0006053150658
 21
-366.49999999994242
 31
0.0
  0
LINE
  5
22D
  8
DATA
  6
CONTINUOUS
 62
     7
 10
281.00000000019151
 20
-363.05495776993479
 30
0.0
 11
283.23479397720979
 21
-363.05495776993479
 31
0.0
  0
LINE
  5
22E
  8
DATA
  6
CONTINUOUS
 62
     7
 10
281.00000000019151
 20
-354.94504222994999
 30
0.0
 11
283.24461208058977
 21
-354.94504222994999
 31
0.0
  0
ARC
  5
22F
  8
DATA
  6
CONTINUOUS
 62
     7
 10
297.83914077223818
 20
-347.36721174574609
 30
0.0
 40
21.433439309380621
 50
227.0483152748786
 51
243.2095131717621
  0
LINE
  5
230
  8
DATA
  6
CONTINUOUS
 62
     7
 10
250.0
 20
-363.74999999994242
 30
0.0
 11
250.0
 21
-354.24999999994242
 31
0.0
  0
LINE
  5
231
  8
DATA
  6
CONTINUOUS
 62
     7
 10
250.0
 20
-365.99999999994242
 30
0.0
 11
250.0
 21
-351.99999999994242
 31
0.0
  0
LINE
  5
232
  8
DATA
  6
CONTINUOUS
 62
     7
 10
250.0
 20
-365.99999999994242
 30
0.0
 11
252.0
 21
-365.99999999994242
 31
0.0
  0
LINE
  5
233
  8
DATA
  6
CONTINUOUS
 62
     7
 10
252.0
 20
-365.99999999994242
 30
0.0
 11
252.0
 21
-351.99999999994242
 31
0.0
  0
LINE
  5
234
  8
DATA
  6
CONTINUOUS
 62
     7
 10
252.0
 20
-351.99999999994242
 30
0.0
 11
250.0
 21
-351.99999999994242
 31
0.0
  0
LINE
  5
235
  8
DATA
  6
CONTINUOUS
 62
     7
 10
252.0
 20
-364.49999999994242
 30
0.0
 11
258.0
 21
-364.49999999994242
 31
0.0
  0
LINE
  5
236
  8
DATA
  6
CONTINUOUS
 62
     7
 10
258.0
 20
-353.49999999994242
 30
0.0
 11
252.0
 21
-353.49999999994242
 31
0.0
  0
LINE
  5
237
  8
DATA
  6
CONTINUOUS
 62
     7
 10
258.0
 20
-365.74999999994242
 30
0.0
 11
258.0
 21
-352.24999999994242
 31
0.0
  0
LINE
  5
238
  8
DATA
  6
CONTINUOUS
 62
     7
 10
258.5
 20
-366.24999999994242
 30
0.0
 11
258.5
 21
-351.74999999994242
 31
0.0
  0
LINE
  5
239
  8
DATA
  6
CONTINUOUS
 62
     7
 10
258.5
 20
-366.24999999994242
 30
0.0
 11
262.5
 21
-366.24999999994242
 31
0.0
  0
LINE
  5
23A
  8
DATA
  6
CONTINUOUS
 62
     7
 10
262.5
 20
-366.24999999994242
 30
0.0
 11
262.5
 21
-351.74999999994242
 31
0.0
  0
LINE
  5
23B
  8
DATA
  6
CONTINUOUS
 62
     7
 10
262.5
 20
-351.74999999994242
 30
0.0
 11
258.5
 21
-351.74999999994242
 31
0.0
  0
LINE
  5
23C
  8
DATA
  6
CONTINUOUS
 62
     7
 10
264.0
 20
-364.74999999994242
 30
0.0
 11
264.0
 21
-353.24999999994242
 31
0.0
  0
LINE
  5
23D
  8
DATA
  6
CONTINUOUS
 62
     7
 10
264.0
 20
-364.49999999994242
 30
0.0
 11
265.23752389487129
 21
-364.49999999994242
 31
0.0
  0
LINE
  5
23E
  8
DATA
  6
CONTINUOUS
 62
     7
 10
264.0
 20
-353.49999999994242
 30
0.0
 11
265.23752389487129
 21
-353.49999999994242
 31
0.0
  0
ARC
  5
23F
  8
DATA
  6
CONTINUOUS
 62
     7
 10
262.5
 20
-364.74999999994242
 30
0.0
 40
1.5
 50
270.0
 51
0.0
  0
ARC
  5
240
  8
DATA
  6
CONTINUOUS
 62
     7
 10
262.5
 20
-353.24999999994242
 30
0.0
 40
1.5
 50
0.0
 51
90.0
  0
ARC
  5
241
  8
DATA
  6
CONTINUOUS
 62
     7
 10
258.5
 20
-365.74999999994242
 30
0.0
 40
0.5
 50
180.0
 51
270.0
  0
ARC
  5
242
  8
DATA
  6
CONTINUOUS
 62
     7
 10
258.5
 20
-352.24999999994242
 30
0.0
 40
0.5
 50
90.0
 51
180.0
  0
LINE
  5
243
  8
DATA
  6
CONTINUOUS
 62
     7
 10
258.5
 20
-365.74999999994242
 30
0.0
 11
262.5
 21
-365.74999999994242
 31
0.0
  0
LINE
  5
244
  8
DATA
  6
CONTINUOUS
 62
     7
 10
258.5
 20
-365.24999999994242
 30
0.0
 11
262.5
 21
-365.24999999994242
 31
0.0
  0
LINE
  5
245
  8
DATA
  6
CONTINUOUS
 62
     7
 10
258.5
 20
-364.74999999994242
 30
0.0
 11
262.5
 21
-364.74999999994242
 31
0.0
  0
LINE
  5
246
  8
DATA
  6
CONTINUOUS
 62
     7
 10
258.5
 20
-364.24999999994242
 30
0.0
 11
262.5
 21
-364.24999999994242
 31
0.0
  0
LINE
  5
247
  8
DATA
  6
CONTINUOUS
 62
     7
 10
258.5
 20
-363.74999999994242
 30
0.0
 11
262.5
 21
-363.74999999994242
 31
0.0
  0
LINE
  5
248
  8
DATA
  6
CONTINUOUS
 62
     7
 10
258.5
 20
-363.24999999994242
 30
0.0
 11
262.5
 21
-363.24999999994242
 31
0.0
  0
LINE
  5
249
  8
DATA
  6
CONTINUOUS
 62
     7
 10
258.5
 20
-362.74999999994242
 30
0.0
 11
262.5
 21
-362.74999999994242
 31
0.0
  0
LINE
  5
24A
  8
DATA
  6
CONTINUOUS
 62
     7
 10
258.5
 20
-362.24999999994242
 30
0.0
 11
262.5
 21
-362.24999999994242
 31
0.0
  0
LINE
  5
24B
  8
DATA
  6
CONTINUOUS
 62
     7
 10
258.5
 20
-361.74999999994242
 30
0.0
 11
262.5
 21
-361.74999999994242
 31
0.0
  0
LINE
  5
24C
  8
DATA
  6
CONTINUOUS
 62
     7
 10
258.5
 20
-361.24999999994242
 30
0.0
 11
262.5
 21
-361.24999999994242
 31
0.0
  0
LINE
  5
24D
  8
DATA
  6
CONTINUOUS
 62
     7
 10
258.5
 20
-360.74999999994242
 30
0.0
 11
262.5
 21
-360.74999999994242
 31
0.0
  0
LINE
  5
24E
  8
DATA
  6
CONTINUOUS
 62
     7
 10
258.5
 20
-360.24999999994242
 30
0.0
 11
262.5
 21
-360.24999999994242
 31
0.0
  0
LINE
  5
24F
  8
DATA
  6
CONTINUOUS
 62
     7
 10
258.5
 20
-359.74999999994242
 30
0.0
 11
262.5
 21
-359.74999999994242
 31
0.0
  0
LINE
  5
250
  8
DATA
  6
CONTINUOUS
 62
     7
 10
258.5
 20
-359.24999999994242
 30
0.0
 11
262.5
 21
-359.24999999994242
 31
0.0
  0
LINE
  5
251
  8
DATA
  6
CONTINUOUS
 62
     7
 10
258.5
 20
-358.74999999994242
 30
0.0
 11
262.5
 21
-358.74999999994242
 31
0.0
  0
LINE
  5
252
  8
DATA
  6
CONTINUOUS
 62
     7
 10
258.5
 20
-358.24999999994242
 30
0.0
 11
262.5
 21
-358.24999999994242
 31
0.0
  0
LINE
  5
253
  8
DATA
  6
CONTINUOUS
 62
     7
 10
258.5
 20
-357.74999999994242
 30
0.0
 11
262.5
 21
-357.74999999994242
 31
0.0
  0
LINE
  5
254
  8
DATA
  6
CONTINUOUS
 62
     7
 10
258.5
 20
-357.24999999994242
 30
0.0
 11
262.5
 21
-357.24999999994242
 31
0.0
  0
LINE
  5
255
  8
DATA
  6
CONTINUOUS
 62
     7
 10
258.5
 20
-356.74999999994242
 30
0.0
 11
262.5
 21
-356.74999999994242
 31
0.0
  0
LINE
  5
256
  8
DATA
  6
CONTINUOUS
 62
     7
 10
258.5
 20
-356.24999999994242
 30
0.0
 11
262.5
 21
-356.24999999994242
 31
0.0
  0
LINE
  5
257
  8
DATA
  6
CONTINUOUS
 62
     7
 10
258.5
 20
-355.74999999994242
 30
0.0
 11
262.5
 21
-355.74999999994242
 31
0.0
  0
LINE
  5
258
  8
DATA
  6
CONTINUOUS
 62
     7
 10
258.5
 20
-355.24999999994242
 30
0.0
 11
262.5
 21
-355.24999999994242
 31
0.0
  0
LINE
  5
259
  8
DATA
  6
CONTINUOUS
 62
     7
 10
258.5
 20
-354.74999999994242
 30
0.0
 11
262.5
 21
-354.74999999994242
 31
0.0
  0
LINE
  5
25A
  8
DATA
  6
CONTINUOUS
 62
     7
 10
258.5
 20
-354.24999999994242
 30
0.0
 11
262.5
 21
-354.24999999994242
 31
0.0
  0
LINE
  5
25B
  8
DATA
  6
CONTINUOUS
 62
     7
 10
258.5
 20
-353.74999999994242
 30
0.0
 11
262.5
 21
-353.74999999994242
 31
0.0
  0
LINE
  5
25C
  8
DATA
  6
CONTINUOUS
 62
     7
 10
258.5
 20
-353.24999999994242
 30
0.0
 11
262.5
 21
-353.24999999994242
 31
0.0
  0
LINE
  5
25D
  8
DATA
  6
CONTINUOUS
 62
     7
 10
258.5
 20
-352.74999999994242
 30
0.0
 11
262.5
 21
-352.74999999994242
 31
0.0
  0
LINE
  5
25E
  8
DATA
  6
CONTINUOUS
 62
     7
 10
258.5
 20
-352.24999999994242
 30
0.0
 11
262.5
 21
-352.24999999994242
 31
0.0
  0
LINE
  5
25F
  8
DATA
  6
CONTINUOUS
 62
     7
 10
258.5
 20
-351.74999999994242
 30
0.0
 11
262.5
 21
-351.74999999994242
 31
0.0
  0
ARC
  5
260
  8
DATA
  6
CONTINUOUS
 62
     7
 10
256.0
 20
-358.99999999994219
 30
0.0
 40
1.500000000000052
 50
329.48976259376201
 51
233.117458885856
  0
LINE
  5
261
  8
DATA
  6
CONTINUOUS
 62
     7
 10
256.0
 20
-364.49999999994242
 30
0.0
 11
257.29230769230691
 21
-359.76153846148389
 31
0.0
  0
LINE
  5
262
  8
DATA
  6
CONTINUOUS
 62
     7
 10
253.92695377254691
 20
-364.49999999994242
 30
0.0
 11
255.0997352177335
 21
-360.19980136759187
 31
0.0
  0
CIRCLE
  5
263
  8
DATA
  6
CONTINUOUS
 62
     7
 10
255.5
 20
-358.99999999994242
 30
0.0
 40
1.0
  0
LINE
  5
264
  8
DATA
  6
CONTINUOUS
 62
     7
 10
-232.0
 20
-50.0
 30
0.0
 11
-214.0
 21
-50.0
 31
0.0
  0
INSERT
  5
265
  8
DATA
 62
     7
  2
____
 10
0.0
 20
0.0
 30
0.0
  0
INSERT
  5
266
  8
DATA
 62
     7
  2
____-1
 10
0.0
 20
0.0
 30
0.0
  0
INSERT
  5
267
  8
DATA
 62
     7
  2
____-2
 10
0.0
 20
0.0
 30
0.0
  0
INSERT
  5
268
  8
DATA
 62
     7
  2
____-3
 10
0.0
 20
0.0
 30
0.0
  0
LINE
  5
269
  8
DATA
  6
CONTINUOUS
 62
     7
 10
-85.299999999999898
 20
-47.699999999999982
 30
0.0
 11
-85.299999999999898
 21
-50.0
 31
0.0
  0
LINE
  5
26A
  8
DATA
  6
CONTINUOUS
 62
     7
 10
-74.699999999999875
 20
-47.699999999999982
 30
0.0
 11
-74.699999999999875
 21
-50.0
 31
0.0
  0
LINE
  5
26B
  8
DATA
  6
CONTINUOUS
 62
     7
 10
-83.949999999999875
 20
-45.699999999999989
 30
0.0
 11
-83.949999999999875
 21
-47.699999999999982
 31
0.0
  0
LINE
  5
26C
  8
DATA
  6
CONTINUOUS
 62
     7
 10
-76.049999999999883
 20
-45.699999999999989
 30
0.0
 11
-76.049999999999883
 21
-47.699999999999982
 31
0.0
  0
LINE
  5
26D
  8
DATA
  6
CONTINUOUS
 62
     7
 10
-85.299999999999898
 20
-47.699999999999982
 30
0.0
 11
-74.699999999999875
 21
-47.699999999999982
 31
0.0
  0
LINE
  5
26E
  8
DATA
  6
CONTINUOUS
 62
     7
 10
-83.949999999999875
 20
-45.699999999999989
 30
0.0
 11
-76.049999999999883
 21
-45.699999999999989
 31
0.0
  0
LINE
  5
26F
  8
DATA
  6
CONTINUOUS
 62
     7
 10
-234.5
 20
-347.0
 30
0.0
 11
-234.5
 21
-354.0
 31
0.0
  0
LINE
  5
270
  8
DATA
  6
CONTINUOUS
 62
     7
 10
-244.5
 20
-347.0
 30
0.0
 11
-244.5
 21
-354.0
 31
0.0
  0
INSERT
  5
271
  8
DATA
 62
     7
  2
____-4
 10
0.0
 20
0.0
 30
0.0
  0
INSERT
  5
272
  8
DATA
 62
     7
  2
____-5
 10
0.0
 20
0.0
 30
0.0
  0
LINE
  5
273
  8
DATA
  6
CONTINUOUS
 62
     7
 10
-241.75
 20
-351.85000000000002
 30
0.0
 11
-237.25
 21
-351.85000000000002
 31
0.0
  0
LINE
  5
274
  8
DATA
  6
CONTINUOUS
 62
     7
 10
-241.75
 20
-351.85000000000002
 30
0.0
 11
-239.5
 21
-349.35000000000002
 31
0.0
  0
LINE
  5
275
  8
DATA
  6
CONTINUOUS
 62
     7
 10
-237.25
 20
-351.85000000000002
 30
0.0
 11
-239.5
 21
-349.35000000000002
 31
0.0
  0
LINE
  5
276
  8
DATA
  6
CONTINUOUS
 62
     7
 10
-241.75
 20
-359.14999999999998
 30
0.0
 11
-237.25
 21
-359.14999999999998
 31
0.0
  0
LINE
  5
277
  8
DATA
  6
CONTINUOUS
 62
     7
 10
-241.75
 20
-359.14999999999998
 30
0.0
 11
-239.5
 21
-361.64999999999998
 31
0.0
  0
LINE
  5
278
  8
DATA
  6
CONTINUOUS
 62
     7
 10
-237.25
 20
-359.14999999999998
 30
0.0
 11
-239.5
 21
-361.64999999999998
 31
0.0
  0
LINE
  5
279
  8
DATA
  6
CONTINUOUS
 62
     7
 10
-55.499999999999901
 20
-371.5
 30
0.0
 11
-247.5
 21
-371.5
 31
0.0
  0
CIRCLE
  5
27A
  8
DATA
  6
CONTINUOUS
 62
     7
 10
-228.0
 20
-364.0
 30
0.0
 40
1.25
  0
CIRCLE
  5
27B
  8
DATA
  6
CONTINUOUS
 62
     7
 10
-228.0
 20
-367.0
 30
0.0
 40
1.25
  0
CIRCLE
  5
27C
  8
DATA
  6
CONTINUOUS
 62
     7
 10
-228.0
 20
-361.0
 30
0.0
 40
1.25
  0
CIRCLE
  5
27D
  8
DATA
  6
CONTINUOUS
 62
     7
 10
-228.0
 20
-358.0
 30
0.0
 40
1.25
  0
CIRCLE
  5
27E
  8
DATA
  6
CONTINUOUS
 62
     7
 10
-228.0
 20
-355.0
 30
0.0
 40
1.25
  0
CIRCLE
  5
27F
  8
DATA
  6
CONTINUOUS
 62
     7
 10
-228.0
 20
-352.0
 30
0.0
 40
1.25
  0
CIRCLE
  5
280
  8
DATA
  6
CONTINUOUS
 62
     7
 10
-228.0
 20
-349.0
 30
0.0
 40
1.25
  0
CIRCLE
  5
281
  8
DATA
  6
CONTINUOUS
 62
     7
 10
-228.0
 20
-346.0
 30
0.0
 40
1.25
  0
CIRCLE
  5
282
  8
DATA
  6
CONTINUOUS
 62
     7
 10
-221.0
 20
-364.0
 30
0.0
 40
1.25
  0
CIRCLE
  5
283
  8
DATA
  6
CONTINUOUS
 62
     7
 10
-221.0
 20
-367.0
 30
0.0
 40
1.25
  0
CIRCLE
  5
284
  8
DATA
  6
CONTINUOUS
 62
     7
 10
-221.0
 20
-361.0
 30
0.0
 40
1.25
  0
CIRCLE
  5
285
  8
DATA
  6
CONTINUOUS
 62
     7
 10
-221.0
 20
-358.0
 30
0.0
 40
1.25
  0
CIRCLE
  5
286
  8
DATA
  6
CONTINUOUS
 62
     7
 10
-221.0
 20
-355.0
 30
0.0
 40
1.25
  0
CIRCLE
  5
287
  8
DATA
  6
CONTINUOUS
 62
     7
 10
-221.0
 20
-352.0
 30
0.0
 40
1.25
  0
CIRCLE
  5
288
  8
DATA
  6
CONTINUOUS
 62
     7
 10
-221.0
 20
-349.0
 30
0.0
 40
1.25
  0
CIRCLE
  5
289
  8
DATA
  6
CONTINUOUS
 62
     7
 10
-221.0
 20
-346.0
 30
0.0
 40
1.25
  0
LINE
  5
28A
  8
DATA
  6
CONTINUOUS
 62
     7
 10
-167.7499999999998
 20
-365.5
 30
0.0
 11
-167.7499999999998
 21
-344.5
 31
0.0
  0
LINE
  5
28B
  8
DATA
  6
CONTINUOUS
 62
     7
 10
-167.7499999999998
 20
-365.5
 30
0.0
 11
-213.75
 21
-365.5
 31
0.0
  0
LINE
  5
28C
  8
DATA
  6
CONTINUOUS
 62
     7
 10
-167.7499999999998
 20
-344.5
 30
0.0
 11
-213.75
 21
-344.5
 31
0.0
  0
LINE
  5
28D
  8
DATA
  6
CONTINUOUS
 62
     7
 10
-163.2499999999998
 20
-347.0
 30
0.0
 11
-163.2499999999998
 21
-354.0
 31
0.0
  0
LINE
  5
28E
  8
DATA
  6
CONTINUOUS
 62
     7
 10
-153.2499999999998
 20
-347.0
 30
0.0
 11
-153.2499999999998
 21
-354.0
 31
0.0
  0
INSERT
  5
28F
  8
DATA
 62
     7
  2
____-6
 10
0.0
 20
0.0
 30
0.0
  0
INSERT
  5
290
  8
DATA
 62
     7
  2
____-7
 10
0.0
 20
0.0
 30
0.0
  0
LINE
  5
291
  8
DATA
  6
CONTINUOUS
 62
     7
 10
-55.499999999999901
 20
-342.5
 30
0.0
 11
-247.5
 21
-342.5
 31
0.0
  0
TEXT
  5
292
  8
DATA
 62
     7
 10
-241.47513026396419
 20
-342.22000000000008
 30
0.0
 40
1.5390625
  1
level
 41
0.7
 72
     1
 11
-239.50000005563089
 21
-340.68093750000008
 31
0.0
 73
     3
  0
TEXT
  5
293
  8
DATA
 62
     7
 10
-228.35911458333331
 20
-342.22000000000008
 30
0.0
 40
1.5390625
  1
L
 41
0.7
 72
     1
 11
-228.0
 21
-340.68093750000008
 31
0.0
 73
     3
  0
TEXT
  5
294
  8
DATA
 62
     7
 10
-221.35911458333331
 20
-342.22000000000008
 30
0.0
 40
1.5390625
  1
R
 41
0.7
 72
     1
 11
-221.0
 21
-340.68093750000008
 31
0.0
 73
     3
  0
LINE
  5
295
  8
DATA
  6
CONTINUOUS
 62
     7
 10
-247.5
 20
-339.5
 30
0.0
 11
-55.499999999999901
 21
-339.5
 31
0.0
  0
TEXT
  5
296
  8
DATA
 62
     7
 10
-216.2904695468184
 20
-337.83494266891648
 30
0.0
 40
2.9242187500000001
  1
PSM900 Transmitter P9T
 41
0.7
 11
-216.2904695468184
 21
-334.91072391891652
 31
0.0
 73
     3
  0
CIRCLE
  5
297
  8
DATA
  6
CONTINUOUS
 62
     7
 10
-139.7499999999998
 20
-355.5
 30
0.0
 40
9.5499999999999527
  0
CIRCLE
  5
298
  8
DATA
  6
CONTINUOUS
 62
     7
 10
-139.7499999999998
 20
-355.5
 30
0.0
 40
8.75
  0
TEXT
  5
299
  8
DATA
 62
     7
 10
-141.72513020833321
 20
-342.22000000000008
 30
0.0
 40
1.5390625
  1
menu
 41
0.7
 72
     1
 11
-139.7499999999998
 21
-340.68093750000008
 31
0.0
 73
     3
  0
TEXT
  5
29A
  8
DATA
 62
     7
 10
-117.2251302083332
 20
-342.22000000000008
 30
0.0
 40
1.5390625
  1
sync
 41
0.7
 72
     1
 11
-115.2499999999998
 21
-340.68093750000008
 31
0.0
 73
     3
  0
LINE
  5
29B
  8
DATA
  6
CONTINUOUS
 62
     7
 10
-121.7499999999998
 20
-367.0
 30
0.0
 11
-108.7499999999999
 21
-367.0
 31
0.0
  0
LINE
  5
29C
  8
DATA
  6
CONTINUOUS
 62
     7
 10
-121.7499999999998
 20
-357.7000000000001
 30
0.0
 11
-108.7499999999999
 21
-357.7000000000001
 31
0.0
  0
LINE
  5
29D
  8
DATA
  6
CONTINUOUS
 62
     7
 10
-121.7499999999998
 20
-357.7000000000001
 30
0.0
 11
-121.7499999999998
 21
-367.0
 31
0.0
  0
LINE
  5
29E
  8
DATA
  6
CONTINUOUS
 62
     7
 10
-108.7499999999999
 20
-357.7000000000001
 30
0.0
 11
-108.7499999999999
 21
-367.0
 31
0.0
  0
LINE
  5
29F
  8
DATA
  6
CONTINUOUS
 62
     7
 10
-121.4999999999998
 20
-366.5
 30
0.0
 11
-108.9999999999998
 21
-366.5
 31
0.0
  0
LINE
  5
2A0
  8
DATA
  6
CONTINUOUS
 62
     7
 10
-121.4999999999998
 20
-358.2000000000001
 30
0.0
 11
-108.9999999999998
 21
-358.2000000000001
 31
0.0
  0
LINE
  5
2A1
  8
DATA
  6
CONTINUOUS
 62
     7
 10
-121.4999999999998
 20
-358.2000000000001
 30
0.0
 11
-121.4999999999998
 21
-366.5
 31
0.0
  0
LINE
  5
2A2
  8
DATA
  6
CONTINUOUS
 62
     7
 10
-108.9999999999998
 20
-358.2000000000001
 30
0.0
 11
-108.9999999999998
 21
-366.5
 31
0.0
  0
LINE
  5
2A3
  8
DATA
  6
CONTINUOUS
 62
     7
 10
-110.4999999999998
 20
-359.7000000000001
 30
0.0
 11
-110.4999999999998
 21
-365.0
 31
0.0
  0
LINE
  5
2A4
  8
DATA
  6
CONTINUOUS
 62
     7
 10
-119.9999999999999
 20
-359.7000000000001
 30
0.0
 11
-110.4999999999998
 21
-359.7000000000001
 31
0.0
  0
LINE
  5
2A5
  8
DATA
  6
CONTINUOUS
 62
     7
 10
-119.9999999999999
 20
-365.0
 30
0.0
 11
-110.4999999999998
 21
-365.0
 31
0.0
  0
LINE
  5
2A6
  8
DATA
  6
CONTINUOUS
 62
     7
 10
-119.9999999999999
 20
-359.7000000000001
 30
0.0
 11
-119.9999999999999
 21
-365.0
 31
0.0
  0
CIRCLE
  5
2A7
  8
DATA
  6
CONTINUOUS
 62
     7
 10
-97.249999999999872
 20
-350.0
 30
0.0
 40
7.5
  0
CIRCLE
  5
2A8
  8
DATA
  6
CONTINUOUS
 62
     7
 10
-97.249999999999872
 20
-350.0
 30
0.0
 40
6.25
  0
LINE
  5
2A9
  8
DATA
  6
CONTINUOUS
 62
     7
 10
-98.999999999999872
 20
-353.03108891324541
 30
0.0
 11
-100.3749999999999
 21
-355.41265877365282
 31
0.0
  0
CIRCLE
  5
2AA
  8
DATA
  6
CONTINUOUS
 62
     7
 10
-97.249999999999872
 20
-350.0
 30
0.0
 40
3.5
  0
TEXT
  5
2AB
  8
DATA
 62
     7
 10
-100.03313802083321
 20
-342.22000000000008
 30
0.0
 40
1.5390625
  1
volume
 41
0.7
 72
     1
 11
-97.249999999999872
 21
-340.68093750000008
 31
0.0
 73
     3
  0
LINE
  5
2AC
  8
DATA
  6
CONTINUOUS
 62
     7
 10
-247.5
 20
-371.5
 30
0.0
 11
-247.5
 21
-339.5
 31
0.0
  0
LINE
  5
2AD
  8
DATA
  6
CONTINUOUS
 62
     7
 10
-55.499999999999901
 20
-371.5
 30
0.0
 11
-55.499999999999901
 21
-339.5
 31
0.0
  0
INSERT
  5
2AE
  8
DATA
 62
     7
  2
____-8
 10
0.0
 20
0.0
 30
0.0
  0
LINE
  5
2AF
  8
DATA
  6
CONTINUOUS
 62
     7
 10
-74.999999999999872
 20
-345.0
 30
0.0
 11
-74.999999999999872
 21
-368.0
 31
0.0
  0
LINE
  5
2B0
  8
DATA
  6
CONTINUOUS
 62
     7
 10
-84.799999999999955
 20
-345.0
 30
0.0
 11
-84.799999999999955
 21
-368.0
 31
0.0
  0
LINE
  5
2B1
  8
DATA
  6
CONTINUOUS
 62
     7
 10
-74.999999999999872
 20
-345.0
 30
0.0
 11
-84.799999999999955
 21
-345.0
 31
0.0
  0
LINE
  5
2B2
  8
DATA
  6
CONTINUOUS
 62
     7
 10
-74.999999999999872
 20
-368.0
 30
0.0
 11
-84.799999999999955
 21
-368.0
 31
0.0
  0
POLYLINE
  5
2B3
  8
DATA
  6
CONTINUOUS
 62
     7
 66
     1
 10
0.0
 20
0.0
 30
0.0
 70
     1
  0
VERTEX
  5
4A8
  8
DATA
  6
CONTINUOUS
 62
     7
 10
-82.049999999999955
 20
-349.0
 30
0.0
  0
VERTEX
  5
4A9
  8
DATA
  6
CONTINUOUS
 62
     7
 10
-77.749999999999872
 20
-349.0
 30
0.0
  0
VERTEX
  5
4AA
  8
DATA
  6
CONTINUOUS
 62
     7
 10
-77.749999999999872
 20
-364.0
 30
0.0
  0
VERTEX
  5
4AB
  8
DATA
  6
CONTINUOUS
 62
     7
 10
-82.049999999999955
 20
-364.0
 30
0.0
  0
SEQEND
  5
4AC
  8
DATA
  6
CONTINUOUS
 62
     7
  0
LINE
  5
2BA
  8
DATA
  6
CONTINUOUS
 62
     7
 10
-82.049999999999955
 20
-360.5557460476104
 30
0.0
 11
-77.749999999999872
 21
-360.5557460476104
 31
0.0
  0
CIRCLE
  5
2BB
  8
DATA
  6
CONTINUOUS
 62
     7
 10
-79.899999999999977
 20
-351.1749999999999
 30
0.0
 40
0.75
  0
TEXT
  5
2BC
  8
DATA
 62
     7
 10
-65.913802083333323
 20
-342.22000000000008
 30
0.0
 40
1.5390625
  1
power
 41
0.7
 72
     1
 11
-63.399999999999977
 21
-340.68093750000008
 31
0.0
 73
     3
  0
CIRCLE
  5
2BD
  8
DATA
  6
CONTINUOUS
 62
     7
 10
-97.249999999999872
 20
-362.0
 30
0.0
 40
4.25
  0
CIRCLE
  5
2BE
  8
DATA
  6
CONTINUOUS
 62
     7
 10
-97.249999999999872
 20
-362.0
 30
0.0
 40
3.25
  0
CIRCLE
  5
2BF
  8
DATA
  6
CONTINUOUS
 62
     7
 10
-97.249999999999872
 20
-362.0
 30
0.0
 40
1.7999999999999541
  0
INSERT
  5
2C0
  8
DATA
 62
     7
  2
____-9
 10
0.0
 20
0.0
 30
0.0
  0
LINE
  5
2C1
  8
DATA
  6
CONTINUOUS
 62
     7
 10
-148.4999999999998
 20
-210.0
 30
0.0
 11
-149.2999999999999
 21
-200.0
 31
0.0
  0
LINE
  5
2C2
  8
DATA
  6
CONTINUOUS
 62
     7
 10
-130.9999999999998
 20
-210.0
 30
0.0
 11
-130.19999999999979
 21
-200.0
 31
0.0
  0
LINE
  5
2C3
  8
DATA
  6
CONTINUOUS
 62
     7
 10
-148.4999999999998
 20
-210.0
 30
0.0
 11
-130.9999999999998
 21
-210.0
 31
0.0
  0
LINE
  5
2C4
  8
DATA
  6
CONTINUOUS
 62
     7
 10
-102.7499999999998
 20
-208.5
 30
0.0
 11
-103.4194813396264
 21
-200.0
 31
0.0
  0
LINE
  5
2C5
  8
DATA
  6
CONTINUOUS
 62
     7
 10
-91.749999999999844
 20
-208.5
 30
0.0
 11
-90.999999999999844
 21
-200.0
 31
0.0
  0
CIRCLE
  5
2C6
  8
DATA
  6
CONTINUOUS
 62
     7
 10
-97.249999999999872
 20
-350.0
 30
0.0
 40
5.5
  0
LINE
  5
2C7
  8
DATA
  6
CONTINUOUS
 62
     7
 10
-102.7499999999998
 20
-208.5
 30
0.0
 11
-91.749999999999844
 21
-208.5
 31
0.0
  0
LINE
  5
2C8
  8
DATA
  6
CONTINUOUS
 62
     7
 10
0.0000000000001137
 20
-375.0
 30
0.0
 11
150.00000000000011
 21
-375.0
 31
0.0
  0
POLYLINE
  5
2C9
  8
DATA
  6
CONTINUOUS
 62
     7
 66
     1
 10
0.0
 20
0.0
 30
0.0
 70
     1
  0
VERTEX
  5
4AD
  8
DATA
  6
CONTINUOUS
 62
     7
 10
0.0000000000001137
 20
-343.7902593301867
 30
0.0
  0
VERTEX
  5
4AE
  8
DATA
  6
CONTINUOUS
 62
     7
 10
0.0000000000001137
 20
-356.2097406698133
 30
0.0
  0
VERTEX
  5
4AF
  8
DATA
  6
CONTINUOUS
 62
     7
 10
-8.4999999999998863
 20
-355.4597406698133
 30
0.0
  0
VERTEX
  5
4B0
  8
DATA
  6
CONTINUOUS
 62
     7
 10
-8.4999999999998863
 20
-344.4597406698133
 30
0.0
  0
SEQEND
  5
4B1
  8
DATA
  6
CONTINUOUS
 62
     7
  0
LINE
  5
2D0
  8
DATA
  6
CONTINUOUS
 62
     7
 10
-1.9999999999998861
 20
-360.5557460476104
 30
0.0
 11
0.0000000000001137
 21
-364.0
 31
0.0
  0
LINE
  5
2D1
  8
DATA
  6
CONTINUOUS
 62
     7
 10
-1.9999999999998861
 20
-360.5557460476104
 30
0.0
 11
0.0000000000001137
 21
-356.2097406698133
 31
0.0
  0
INSERT
  5
2D2
  8
DATA
 62
     7
  2
____-10
 10
0.0
 20
0.0
 30
0.0
  0
POLYLINE
  5
2D3
  8
DATA
  6
CONTINUOUS
 62
     7
 66
     1
 10
0.0
 20
0.0
 30
0.0
  0
VERTEX
  5
4B2
  8
DATA
  6
CONTINUOUS
 62
     7
 10
151.7000000000001
 20
-343.00000000000068
 30
0.0
  0
VERTEX
  5
4B3
  8
DATA
  6
CONTINUOUS
 62
     7
 10
151.7000000000001
 20
-364.99999999999932
 30
0.0
  0
VERTEX
  5
4B4
  8
DATA
  6
CONTINUOUS
 62
     7
 10
150.00000000000011
 20
-364.99999999999932
 30
0.0
  0
VERTEX
  5
4B5
  8
DATA
  6
CONTINUOUS
 62
     7
 10
150.00000000000011
 20
-343.00000000000068
 30
0.0
  0
VERTEX
  5
4B6
  8
DATA
  6
CONTINUOUS
 62
     7
 10
151.7000000000001
 20
-343.00000000000068
 30
0.0
  0
VERTEX
  5
4B7
  8
DATA
  6
CONTINUOUS
 62
     7
 10
155.00000000000011
 20
-343.00000000000068
 30
0.0
  0
VERTEX
  5
4B8
  8
DATA
  6
CONTINUOUS
 62
     7
 10
155.00000000000011
 20
-337.00000000000068
 30
0.0
  0
VERTEX
  5
4B9
  8
DATA
  6
CONTINUOUS
 62
     7
 10
155.50000000000011
 20
-337.00000000000068
 30
0.0
  0
VERTEX
  5
4BA
  8
DATA
  6
CONTINUOUS
 62
     7
 10
155.50000000000011
 20
-343.50000000000068
 30
0.0
  0
VERTEX
  5
4BB
  8
DATA
  6
CONTINUOUS
 62
     7
 10
151.7000000000001
 20
-343.50000000000068
 30
0.0
  0
SEQEND
  5
4BC
  8
DATA
  6
CONTINUOUS
 62
     7
  0
POLYLINE
  5
2E0
  8
DATA
  6
CONTINUOUS
 62
     7
 66
     1
 10
0.0
 20
0.0
 30
0.0
  0
VERTEX
  5
4BD
  8
DATA
  6
CONTINUOUS
 62
     7
 10
151.7000000000001
 20
-346.25
 30
0.0
  0
VERTEX
  5
4BE
  8
DATA
  6
CONTINUOUS
 62
     7
 10
154.00000000000011
 20
-346.25
 30
0.0
  0
VERTEX
  5
4BF
  8
DATA
  6
CONTINUOUS
 62
     7
 10
154.00000000000011
 20
-361.75
 30
0.0
  0
VERTEX
  5
4C0
  8
DATA
  6
CONTINUOUS
 62
     7
 10
151.7000000000001
 20
-361.75
 30
0.0
  0
SEQEND
  5
4C1
  8
DATA
  6
CONTINUOUS
 62
     7
  0
LINE
  5
2E7
  8
DATA
  6
CONTINUOUS
 62
     7
 10
151.7000000000001
 20
-346.25
 30
0.0
 11
151.7000000000001
 21
-361.75
 31
0.0
  0
INSERT
  5
2E8
  8
DATA
 62
     7
  2
____-11
 10
0.0
 20
0.0
 30
0.0
  0
INSERT
  5
2E9
  8
DATA
 62
     7
  2
____-12
 10
0.0
 20
0.0
 30
0.0
  0
LINE
  5
2EA
  8
DATA
  6
CONTINUOUS
 62
     7
 10
133.7000000000001
 20
-356.0
 30
0.0
 11
137.3000000000001
 21
-356.0
 31
0.0
  0
LINE
  5
2EB
  8
DATA
  6
CONTINUOUS
 62
     7
 10
135.50000000000011
 20
-357.7999999999999
 30
0.0
 11
135.50000000000011
 21
-354.2000000000001
 31
0.0
  0
LINE
  5
2EC
  8
DATA
  6
CONTINUOUS
 62
     7
 10
-106.2499999999998
 20
-371.5
 30
0.0
 11
-106.2499999999998
 21
-342.5
 31
0.0
  0
LINE
  5
2ED
  8
DATA
  6
CONTINUOUS
 62
     7
 10
-124.2499999999999
 20
-371.5
 30
0.0
 11
-124.2499999999999
 21
-342.5
 31
0.0
  0
POLYLINE
  5
2EE
  8
DATA
  6
CONTINUOUS
 62
     7
 66
     1
 10
0.0
 20
0.0
 30
0.0
  0
VERTEX
  5
4C2
  8
DATA
  6
CONTINUOUS
 62
     7
 10
-79.774999999999977
 20
-341.1022045960745
 30
0.0
  0
VERTEX
  5
4C3
  8
DATA
  6
CONTINUOUS
 62
     7
 10
-79.424999999999955
 20
-342.24220459607449
 30
0.0
  0
VERTEX
  5
4C4
  8
DATA
  6
CONTINUOUS
 62
     7
 10
-80.374999999999872
 20
-342.24220459607449
 30
0.0
  0
VERTEX
  5
4C5
  8
DATA
  6
CONTINUOUS
 62
     7
 10
-80.024999999999963
 20
-341.1022045960745
 30
0.0
  0
SEQEND
  5
4C6
  8
DATA
  6
CONTINUOUS
 62
     7
  0
CIRCLE
  5
2F5
  8
DATA
  6
CONTINUOUS
 62
     7
 10
-79.899999999999977
 20
-341.00840654577638
 30
0.0
 40
0.150000000000091
  0
LINE
  5
2F6
  8
DATA
  6
CONTINUOUS
 62
     7
 10
-52.999999999999929
 20
40.279883533184091
 30
0.0
 11
-250.0
 21
40.279883533184091
 31
0.0
  0
LINE
  5
2F7
  8
DATA
  6
CONTINUOUS
 62
     7
 10
-250.0
 20
40.279883533184091
 30
0.0
 11
-250.0
 21
-1.720116466815909
 31
0.0
  0
LINE
  5
2F8
  8
DATA
  6
CONTINUOUS
 62
     7
 10
-52.999999999999822
 20
40.279883533184091
 30
0.0
 11
-66.999999999999829
 21
40.279883533184091
 31
0.0
  0
LINE
  5
2F9
  8
DATA
  6
CONTINUOUS
 62
     7
 10
-236.0
 20
40.279883533184091
 30
0.0
 11
-250.0
 21
40.279883533184091
 31
0.0
  0
LINE
  5
2FA
  8
DATA
  6
CONTINUOUS
 62
     7
 10
-52.999999999999822
 20
-1.720116466815909
 30
0.0
 11
-52.999999999999822
 21
40.279883533184091
 31
0.0
  0
LINE
  5
2FB
  8
DATA
  6
CONTINUOUS
 62
     7
 10
-52.999999999999822
 20
3.4179170777351819
 30
0.0
 11
-52.936639175492871
 21
3.3034505963278198
 31
0.0
  0
LINE
  5
2FC
  8
DATA
  6
CONTINUOUS
 62
     7
 10
-52.999999999999822
 20
-1.720116466815909
 30
0.0
 11
-250.0
 21
-1.720116466815909
 31
0.0
  0
LINE
  5
2FD
  8
DATA
  6
CONTINUOUS
 62
     7
 10
-52.999999999999822
 20
38.279883533184098
 30
0.0
 11
-250.0
 21
38.279883533184098
 31
0.0
  0
LINE
  5
2FE
  8
DATA
  6
CONTINUOUS
 62
     7
 10
-236.0
 20
38.279883533184098
 30
0.0
 11
-236.0
 21
40.279883533184091
 31
0.0
  0
LINE
  5
2FF
  8
DATA
  6
CONTINUOUS
 62
     7
 10
-66.999999999999829
 20
38.279883533184098
 30
0.0
 11
-66.999999999999829
 21
40.279883533184091
 31
0.0
  0
LINE
  5
300
  8
DATA
  6
CONTINUOUS
 62
     7
 10
-243.59999999999991
 20
38.279883533184098
 30
0.0
 11
-243.59999999999991
 21
6.7798835331840897
 31
0.0
  0
LINE
  5
301
  8
DATA
  6
CONTINUOUS
 62
     7
 10
-59.3999999999998
 20
38.279883533184098
 30
0.0
 11
-59.3999999999998
 21
6.7798835331840897
 31
0.0
  0
LINE
  5
302
  8
DATA
  6
CONTINUOUS
 62
     7
 10
-63.499999999999829
 20
-1.720116466815909
 30
0.0
 11
-63.499999999999829
 21
6.7798835331840897
 31
0.0
  0
LINE
  5
303
  8
DATA
  6
CONTINUOUS
 62
     7
 10
-52.999999999999822
 20
0.7798835331840907
 30
0.0
 11
-63.499999999999829
 21
0.7798835331840907
 31
0.0
  0
ARC
  5
304
  8
DATA
  6
CONTINUOUS
 62
     7
 10
-167.99999999999969
 20
19.279883533183462
 30
0.0
 40
10.9999999999994
 50
282.33553805094078
 51
257.66446194905802
  0
CIRCLE
  5
305
  8
DATA
  6
CONTINUOUS
 62
     7
 10
-167.99999999999969
 20
19.27988353318408
 30
0.0
 40
7.7499999999999423
  0
ARC
  5
306
  8
DATA
  6
CONTINUOUS
 62
     7
 10
-167.99999999999969
 20
23.37988353318406
 30
0.0
 40
1.0
 50
0.0
 51
180.0
  0
ARC
  5
307
  8
DATA
  6
CONTINUOUS
 62
     7
 10
-172.09999999999991
 20
18.921336610618599
 30
0.0
 40
1.0
 50
90.0
 51
270.0
  0
ARC
  5
308
  8
DATA
  6
CONTINUOUS
 62
     7
 10
-163.89999999999981
 20
18.921336610618599
 30
0.0
 40
0.9999999999999431
 50
270.0
 51
90.0
  0
CIRCLE
  5
309
  8
DATA
  6
CONTINUOUS
 62
     7
 10
-177.89949493661149
 20
29.179378469795779
 30
0.0
 40
2.2999999999999541
  0
LINE
  5
30A
  8
DATA
  6
CONTINUOUS
 62
     7
 10
-176.48265961864601
 20
29.179378469795779
 30
0.0
 11
-179.316330254577
 21
29.179378469795779
 31
0.0
  0
LINE
  5
30B
  8
DATA
  6
CONTINUOUS
 62
     7
 10
-177.89949493661149
 20
27.76254315183149
 30
0.0
 11
-177.89949493661149
 21
30.596213787760071
 31
0.0
  0
CIRCLE
  5
30C
  8
DATA
  6
CONTINUOUS
 62
     7
 10
-158.1005050633882
 20
9.3803885965724021
 30
0.0
 40
2.2999999999999541
  0
LINE
  5
30D
  8
DATA
  6
CONTINUOUS
 62
     7
 10
-156.6836697454228
 20
9.3803885965724021
 30
0.0
 11
-159.5173403813537
 21
9.3803885965724021
 31
0.0
  0
LINE
  5
30E
  8
DATA
  6
CONTINUOUS
 62
     7
 10
-158.1005050633882
 20
7.9635532786081731
 30
0.0
 11
-158.1005050633882
 21
10.79722391453674
 31
0.0
  0
LINE
  5
30F
  8
DATA
  6
CONTINUOUS
 62
     7
 10
-230.5
 20
3.2798835331840901
 30
0.0
 11
-204.25
 21
3.2798835331840901
 31
0.0
  0
LINE
  5
310
  8
DATA
  6
CONTINUOUS
 62
     7
 10
-191.75
 20
3.2798835331840901
 30
0.0
 11
-174.24999999999969
 21
3.2798835331840901
 31
0.0
  0
LINE
  5
311
  8
DATA
  6
CONTINUOUS
 62
     7
 10
-161.7499999999998
 20
3.2798835331840901
 30
0.0
 11
-72.499999999999844
 21
3.2798835331840901
 31
0.0
  0
TEXT
  5
312
  8
DATA
 62
     7
 10
-73.600000360276837
 20
35.83188353318409
 30
0.0
 40
2.4624999999999999
  1
DC INPUT
 50
180.0
 41
0.7
 11
-73.600000360276837
 21
33.369383533184092
 31
0.0
 73
     3
  0
TEXT
  5
313
  8
DATA
 62
     7
 10
-131.12018229166651
 20
32.631883533184052
 30
0.0
 40
1.5390625
  1
BALANCED
 50
180.0
 41
0.7
 72
     1
 11
-135.2499999999998
 21
31.092821033184059
 31
0.0
 73
     3
  0
TEXT
  5
314
  8
DATA
 62
     7
 10
-129.1809635416665
 20
35.831883533184048
 30
0.0
 40
1.5390625
  1
L-LOOP OUT-R
 50
180.0
 41
0.7
 72
     1
 11
-135.2499999999998
 21
34.292821033184048
 31
0.0
 73
     3
  0
CIRCLE
  5
315
  8
DATA
  6
CONTINUOUS
 62
     7
 10
-223.0
 20
24.27988353318387
 30
0.0
 40
4.75
  0
POLYLINE
  5
316
  8
DATA
  6
CONTINUOUS
 62
     7
 66
     1
 10
0.0
 20
0.0
 30
0.0
 70
     1
  0
VERTEX
  5
4C7
  8
DATA
  6
CONTINUOUS
 62
     7
 10
-227.04145188432719
 20
31.27988353318381
 30
0.0
  0
VERTEX
  5
4C8
  8
DATA
  6
CONTINUOUS
 62
     7
 10
-231.0829037686546
 20
24.27988353318387
 30
0.0
  0
VERTEX
  5
4C9
  8
DATA
  6
CONTINUOUS
 62
     7
 10
-227.04145188432719
 20
17.27988353318387
 30
0.0
  0
VERTEX
  5
4CA
  8
DATA
  6
CONTINUOUS
 62
     7
 10
-218.95854811567261
 20
17.27988353318387
 30
0.0
  0
VERTEX
  5
4CB
  8
DATA
  6
CONTINUOUS
 62
     7
 10
-214.91709623134511
 20
24.27988353318387
 30
0.0
  0
VERTEX
  5
4CC
  8
DATA
  6
CONTINUOUS
 62
     7
 10
-218.95854811567261
 20
31.27988353318381
 30
0.0
  0
SEQEND
  5
4CD
  8
DATA
  6
CONTINUOUS
 62
     7
  0
CIRCLE
  5
31F
  8
DATA
  6
CONTINUOUS
 62
     7
 10
-223.0
 20
24.27988353318387
 30
0.0
 40
8.0829037686548872
  0
POLYLINE
  5
320
  8
DATA
  6
CONTINUOUS
 62
     7
 66
     1
 10
0.0
 20
0.0
 30
0.0
  0
VERTEX
  5
4CE
  8
DATA
  6
CONTINUOUS
 62
     7
 10
-223.59999999999991
 20
28.99183641919581
 30
0.0
  0
VERTEX
  5
4CF
  8
DATA
  6
CONTINUOUS
 62
     7
 10
-223.59999999999991
 20
29.879883533183829
 30
0.0
  0
VERTEX
  5
4D0
  8
DATA
  6
CONTINUOUS
 62
     7
 10
-222.39999999999981
 20
29.879883533183829
 30
0.0
  0
VERTEX
  5
4D1
  8
DATA
  6
CONTINUOUS
 62
     7
 10
-222.39999999999981
 20
28.99183641919581
 30
0.0
  0
SEQEND
  5
4D2
  8
DATA
  6
CONTINUOUS
 62
     7
  0
POLYLINE
  5
327
  8
DATA
  6
CONTINUOUS
 62
     7
 66
     1
 10
0.0
 20
0.0
 30
0.0
  0
VERTEX
  5
4D3
  8
DATA
  6
CONTINUOUS
 62
     7
 10
-222.39999999999981
 20
19.56793064717186
 30
0.0
  0
VERTEX
  5
4D4
  8
DATA
  6
CONTINUOUS
 62
     7
 10
-222.39999999999981
 20
18.67988353318384
 30
0.0
  0
VERTEX
  5
4D5
  8
DATA
  6
CONTINUOUS
 62
     7
 10
-223.59999999999991
 20
18.67988353318384
 30
0.0
  0
VERTEX
  5
4D6
  8
DATA
  6
CONTINUOUS
 62
     7
 10
-223.59999999999991
 20
19.56793064717186
 30
0.0
  0
SEQEND
  5
4D7
  8
DATA
  6
CONTINUOUS
 62
     7
  0
CIRCLE
  5
32E
  8
DATA
  6
CONTINUOUS
 62
     7
 10
-223.0
 20
24.27988353318387
 30
0.0
 40
0.75
  0
CIRCLE
  5
32F
  8
DATA
  6
CONTINUOUS
 62
     7
 10
-223.0
 20
24.27988353318387
 30
0.0
 40
3.0
  0
ARC
  5
330
  8
DATA
  6
CONTINUOUS
 62
     7
 10
-167.99999999999969
 20
18.92133661061871
 30
0.0
 40
3.2499999999998872
 50
107.9202131393929
 51
162.07978686060801
  0
ARC
  5
331
  8
DATA
  6
CONTINUOUS
 62
     7
 10
-167.99999999999969
 20
18.92133661061871
 30
0.0
 40
3.2499999999999032
 50
197.92021313939699
 51
342.07978686060181
  0
ARC
  5
332
  8
DATA
  6
CONTINUOUS
 62
     7
 10
-167.99999999999969
 20
18.92133661061871
 30
0.0
 40
3.249999999999833
 50
17.92021313939323
 51
72.079786860607044
  0
LINE
  5
333
  8
DATA
  6
CONTINUOUS
 62
     7
 10
-172.09999999999991
 20
19.921336610618599
 30
0.0
 11
-171.09232921921259
 21
19.921336610618599
 31
0.0
  0
LINE
  5
334
  8
DATA
  6
CONTINUOUS
 62
     7
 10
-164.9076707807871
 20
19.921336610618599
 30
0.0
 11
-163.89999999999981
 21
19.921336610618599
 31
0.0
  0
LINE
  5
335
  8
DATA
  6
CONTINUOUS
 62
     7
 10
-172.09999999999991
 20
17.921336610618589
 30
0.0
 11
-171.09232921921259
 21
17.921336610618589
 31
0.0
  0
LINE
  5
336
  8
DATA
  6
CONTINUOUS
 62
     7
 10
-164.9076707807871
 20
17.921336610618589
 30
0.0
 11
-163.89999999999981
 21
17.921336610618589
 31
0.0
  0
LINE
  5
337
  8
DATA
  6
CONTINUOUS
 62
     7
 10
-166.99999999999969
 20
23.37988353318406
 30
0.0
 11
-166.99999999999969
 21
22.01366582983195
 31
0.0
  0
LINE
  5
338
  8
DATA
  6
CONTINUOUS
 62
     7
 10
-168.99999999999969
 20
23.37988353318406
 30
0.0
 11
-168.99999999999969
 21
22.01366582983195
 31
0.0
  0
CIRCLE
  5
339
  8
DATA
  6
CONTINUOUS
 62
     7
 10
-167.99999999999969
 20
19.27988353318408
 30
0.0
 40
10.49999999999994
  0
INSERT
  5
33A
  8
DATA
 62
     7
  2
____-13
 10
0.0
 20
0.0
 30
0.0
  0
INSERT
  5
33B
  8
DATA
 62
     7
  2
____-14
 10
0.0
 20
0.0
 30
0.0
  0
ARC
  5
33C
  8
DATA
  6
CONTINUOUS
 62
     7
 10
-198.0
 20
19.279883533183462
 30
0.0
 40
10.999999999999449
 50
282.33553805094198
 51
257.66446194905922
  0
CIRCLE
  5
33D
  8
DATA
  6
CONTINUOUS
 62
     7
 10
-198.0
 20
19.27988353318408
 30
0.0
 40
7.75
  0
ARC
  5
33E
  8
DATA
  6
CONTINUOUS
 62
     7
 10
-198.0
 20
23.37988353318406
 30
0.0
 40
1.0
 50
0.0
 51
180.0
  0
ARC
  5
33F
  8
DATA
  6
CONTINUOUS
 62
     7
 10
-202.09999999999991
 20
18.921336610618599
 30
0.0
 40
1.0
 50
90.0
 51
270.0
  0
ARC
  5
340
  8
DATA
  6
CONTINUOUS
 62
     7
 10
-193.89999999999981
 20
18.921336610618599
 30
0.0
 40
0.9999999999999431
 50
270.0
 51
90.0
  0
CIRCLE
  5
341
  8
DATA
  6
CONTINUOUS
 62
     7
 10
-207.89949493661149
 20
29.179378469795779
 30
0.0
 40
2.2999999999999541
  0
LINE
  5
342
  8
DATA
  6
CONTINUOUS
 62
     7
 10
-206.4826596186463
 20
29.179378469795779
 30
0.0
 11
-209.316330254577
 21
29.179378469795779
 31
0.0
  0
LINE
  5
343
  8
DATA
  6
CONTINUOUS
 62
     7
 10
-207.89949493661149
 20
27.76254315183149
 30
0.0
 11
-207.89949493661149
 21
30.596213787760071
 31
0.0
  0
CIRCLE
  5
344
  8
DATA
  6
CONTINUOUS
 62
     7
 10
-188.1005050633882
 20
9.3803885965724021
 30
0.0
 40
2.2999999999999541
  0
LINE
  5
345
  8
DATA
  6
CONTINUOUS
 62
     7
 10
-186.6836697454228
 20
9.3803885965724021
 30
0.0
 11
-189.5173403813537
 21
9.3803885965724021
 31
0.0
  0
LINE
  5
346
  8
DATA
  6
CONTINUOUS
 62
     7
 10
-188.1005050633882
 20
7.9635532786081731
 30
0.0
 11
-188.1005050633882
 21
10.79722391453674
 31
0.0
  0
ARC
  5
347
  8
DATA
  6
CONTINUOUS
 62
     7
 10
-198.0
 20
18.92133661061871
 30
0.0
 40
3.2499999999998872
 50
107.9202131393929
 51
162.0797868606067
  0
ARC
  5
348
  8
DATA
  6
CONTINUOUS
 62
     7
 10
-198.0
 20
18.92133661061871
 30
0.0
 40
3.249999999999686
 50
197.92021313939819
 51
342.07978686060301
  0
ARC
  5
349
  8
DATA
  6
CONTINUOUS
 62
     7
 10
-198.0
 20
18.92133661061871
 30
0.0
 40
3.2500000000000488
 50
17.920213139392001
 51
72.079786860607044
  0
LINE
  5
34A
  8
DATA
  6
CONTINUOUS
 62
     7
 10
-202.09999999999991
 20
19.921336610618599
 30
0.0
 11
-201.09232921921259
 21
19.921336610618599
 31
0.0
  0
LINE
  5
34B
  8
DATA
  6
CONTINUOUS
 62
     7
 10
-194.90767078078721
 20
19.921336610618599
 30
0.0
 11
-193.89999999999981
 21
19.921336610618599
 31
0.0
  0
LINE
  5
34C
  8
DATA
  6
CONTINUOUS
 62
     7
 10
-202.09999999999991
 20
17.921336610618589
 30
0.0
 11
-201.09232921921259
 21
17.921336610618589
 31
0.0
  0
LINE
  5
34D
  8
DATA
  6
CONTINUOUS
 62
     7
 10
-194.90767078078721
 20
17.921336610618589
 30
0.0
 11
-193.89999999999981
 21
17.921336610618589
 31
0.0
  0
LINE
  5
34E
  8
DATA
  6
CONTINUOUS
 62
     7
 10
-197.0
 20
23.37988353318406
 30
0.0
 11
-197.0
 21
22.01366582983195
 31
0.0
  0
LINE
  5
34F
  8
DATA
  6
CONTINUOUS
 62
     7
 10
-199.0
 20
23.37988353318406
 30
0.0
 11
-199.0
 21
22.01366582983195
 31
0.0
  0
CIRCLE
  5
350
  8
DATA
  6
CONTINUOUS
 62
     7
 10
-198.0
 20
19.27988353318408
 30
0.0
 40
10.5
  0
INSERT
  5
351
  8
DATA
 62
     7
  2
____-15
 10
0.0
 20
0.0
 30
0.0
  0
LINE
  5
352
  8
DATA
  6
CONTINUOUS
 62
     7
 10
-59.3999999999998
 20
36.279883533184098
 30
0.0
 11
-243.59999999999991
 21
36.279883533184098
 31
0.0
  0
LINE
  5
353
  8
DATA
  6
CONTINUOUS
 62
     7
 10
-174.24999999999969
 20
0.2798835331840905
 30
0.0
 11
-161.7499999999998
 21
0.2798835331840905
 31
0.0
  0
LINE
  5
354
  8
DATA
  6
CONTINUOUS
 62
     7
 10
-161.7499999999998
 20
0.2798835331840905
 30
0.0
 11
-161.7499999999998
 21
3.2798835331840901
 31
0.0
  0
LINE
  5
355
  8
DATA
  6
CONTINUOUS
 62
     7
 10
-174.24999999999969
 20
0.2798835331840905
 30
0.0
 11
-174.24999999999969
 21
3.2798835331840901
 31
0.0
  0
LINE
  5
356
  8
DATA
  6
CONTINUOUS
 62
     7
 10
-204.25
 20
0.2798835331840905
 30
0.0
 11
-191.75
 21
0.2798835331840905
 31
0.0
  0
LINE
  5
357
  8
DATA
  6
CONTINUOUS
 62
     7
 10
-191.75
 20
0.2798835331840905
 30
0.0
 11
-191.75
 21
3.2798835331840901
 31
0.0
  0
LINE
  5
358
  8
DATA
  6
CONTINUOUS
 62
     7
 10
-204.25
 20
0.2798835331840905
 30
0.0
 11
-204.25
 21
3.2798835331840901
 31
0.0
  0
INSERT
  5
359
  8
DATA
 62
     7
  2
____-16
 10
0.0
 20
0.0
 30
0.0
  0
ARC
  5
35A
  8
DATA
  6
CONTINUOUS
 62
     7
 10
-167.99999999999969
 20
19.279883533182559
 30
0.0
 40
11.749999999999069
 50
281.41289500175861
 51
258.58710499824019
  0
ARC
  5
35B
  8
DATA
  6
CONTINUOUS
 62
     7
 10
-198.0
 20
19.279883533183352
 30
0.0
 40
11.74999999999989
 50
281.41289500175901
 51
258.58710499824213
  0
LINE
  5
35C
  8
DATA
  6
CONTINUOUS
 62
     7
 10
-59.3999999999998
 20
6.7798835331840897
 30
0.0
 11
-72.499999999999844
 21
6.7798835331840897
 31
0.0
  0
LINE
  5
35D
  8
DATA
  6
CONTINUOUS
 62
     7
 10
-243.59999999999991
 20
6.7798835331840897
 30
0.0
 11
-230.5
 21
6.7798835331840897
 31
0.0
  0
TEXT
  5
35E
  8
DATA
 62
     7
 10
-76.037600212626842
 20
15.20251553318408
 30
0.0
 40
1.5245953124999989
  1
15V550mA
 50
180.0
 41
0.7
 11
-76.037600212626842
 21
13.677920220684079
 31
0.0
 73
     3
  0
INSERT
  5
35F
  8
DATA
 62
     7
  2
____-17
 10
0.0
 20
0.0
 30
0.0
  0
INSERT
  5
360
  8
DATA
 62
     7
  2
____-18
 10
0.0
 20
0.0
 30
0.0
  0
TEXT
  5
361
  8
DATA
 62
     7
 10
-159.95583333333309
 20
35.83188353318409
 30
0.0
 40
2.4624999999999999
  1
LEFT/CH.1IN
 50
180.0
 41
0.7
 72
     1
 11
-167.99999999999969
 21
33.369383533184092
 31
0.0
 73
     3
  0
TEXT
  5
362
  8
DATA
 62
     7
 10
-189.09395833333329
 20
35.83188353318409
 30
0.0
 40
2.4624999999999999
  1
RIGHT/CH.2IN
 50
180.0
 41
0.7
 72
     1
 11
-198.0
 21
33.369383533184092
 31
0.0
 73
     3
  0
LINE
  5
363
  8
DATA
  6
CONTINUOUS
 62
     7
 10
-230.5
 20
3.2798835331840901
 30
0.0
 11
-230.5
 21
6.7798835331840897
 31
0.0
  0
LINE
  5
364
  8
DATA
  6
CONTINUOUS
 62
     7
 10
-72.499999999999844
 20
3.2798835331840901
 30
0.0
 11
-72.499999999999844
 21
6.7798835331840897
 31
0.0
  0
LINE
  5
365
  8
DATA
  6
CONTINUOUS
 62
     7
 10
-59.3999999999998
 20
6.7798835331840897
 30
0.0
 11
-52.999999999999822
 21
0.7798835331840907
 31
0.0
  0
TEXT
  5
366
  8
DATA
 62
     7
 10
-178.8701822916662
 20
35.312042144513697
 30
0.0
 40
1.5390625
  1
BALANCED
 50
180.0
 41
0.7
 72
     1
 11
-182.9999999999996
 21
33.772979644513697
 31
0.0
 73
     3
  0
POLYLINE
  5
367
  8
DATA
  6
CONTINUOUS
 62
     7
 66
     1
 10
0.0
 20
0.0
 30
0.0
 70
     1
  0
VERTEX
  5
4D8
  8
DATA
  6
CONTINUOUS
 62
     7
 10
-237.34999999999991
 20
34.903852456487982
 30
0.0
  0
VERTEX
  5
4D9
  8
DATA
  6
CONTINUOUS
 62
     7
 10
-237.59999999999991
 20
31.903852456487989
 30
0.0
  0
VERTEX
  5
4DA
  8
DATA
  6
CONTINUOUS
 62
     7
 10
-238.59999999999991
 20
31.903852456487989
 30
0.0
  0
VERTEX
  5
4DB
  8
DATA
  6
CONTINUOUS
 62
     7
 10
-238.84999999999999
 20
34.903852456487982
 30
0.0
  0
SEQEND
  5
4DC
  8
DATA
  6
CONTINUOUS
 62
     7
  0
ARC
  5
36E
  8
DATA
  6
CONTINUOUS
 62
     7
 10
-238.09999999999991
 20
31.903852456487989
 30
0.0
 40
1.5000000000000011
 50
336.25050550713348
 51
29.248826336550231
  0
ARC
  5
36F
  8
DATA
  6
CONTINUOUS
 62
     7
 10
-238.09999999999991
 20
31.903852456487989
 30
0.0
 40
1.4999999999999221
 50
150.7511736634516
 51
203.74949449286649
  0
ARC
  5
370
  8
DATA
  6
CONTINUOUS
 62
     7
 10
-238.09999999999991
 20
31.903852456487989
 30
0.0
 40
2.499999999999956
 50
336.25050550713593
 51
29.248826336547111
  0
ARC
  5
371
  8
DATA
  6
CONTINUOUS
 62
     7
 10
-238.09999999999991
 20
31.903852456487989
 30
0.0
 40
2.4999999999999818
 50
150.7511736634506
 51
203.74949449286771
  0
ARC
  5
372
  8
DATA
  6
CONTINUOUS
 62
     7
 10
-238.09999999999991
 20
31.903852456487929
 30
0.0
 40
3.49999999999998
 50
336.25050550713439
 51
29.248826336549879
  0
ARC
  5
373
  8
DATA
  6
CONTINUOUS
 62
     7
 10
-238.09999999999991
 20
31.903852456487929
 30
0.0
 40
3.49999999999996
 50
150.75117366345259
 51
203.74949449286561
  0
LINE
  5
374
  8
DATA
  6
CONTINUOUS
 62
     7
 10
-214.12147442226961
 20
-49.0
 30
0.0
 11
-232.12147442226961
 21
-49.0
 31
0.0
  0
LINE
  5
375
  8
DATA
  6
CONTINUOUS
 62
     7
 10
-232.12147442226961
 20
-49.0
 30
0.0
 11
-232.12147442226961
 21
-50.0
 31
0.0
  0
LINE
  5
376
  8
DATA
  6
CONTINUOUS
 62
     7
 10
-216.5
 20
-43.999327211935046
 30
0.0
 11
-229.5
 21
-43.999327211935046
 31
0.0
  0
LINE
  5
377
  8
DATA
  6
CONTINUOUS
 62
     7
 10
-227.87100835824049
 20
-32.000000000283528
 30
0.0
 11
-227.87100835824049
 21
-43.999327211935046
 31
0.0
  0
LINE
  5
378
  8
DATA
  6
CONTINUOUS
 62
     7
 10
-218.37194048641339
 20
-32.000000000283528
 30
0.0
 11
-218.37194048641339
 21
-43.999327211935046
 31
0.0
  0
LINE
  5
379
  8
DATA
  6
CONTINUOUS
 62
     7
 10
-214.12147442226961
 20
-49.0
 30
0.0
 11
-232.12147442226961
 21
-49.0
 31
0.0
  0
LINE
  5
37A
  8
DATA
  6
CONTINUOUS
 62
     7
 10
-214.12147442226961
 20
-49.0
 30
0.0
 11
-214.12147442226961
 21
-50.0
 31
0.0
  0
LINE
  5
37B
  8
DATA
  6
CONTINUOUS
 62
     7
 10
-232.12147442226961
 20
-49.0
 30
0.0
 11
-232.12147442226961
 21
-50.0
 31
0.0
  0
LINE
  5
37C
  8
DATA
  6
CONTINUOUS
 62
     7
 10
-216.5
 20
-43.999327211935046
 30
0.0
 11
-216.5
 21
-49.0
 31
0.0
  0
LINE
  5
37D
  8
DATA
  6
CONTINUOUS
 62
     7
 10
-229.5
 20
-43.999327211935046
 30
0.0
 11
-229.5
 21
-49.0
 31
0.0
  0
LINE
  5
37E
  8
DATA
  6
CONTINUOUS
 62
     7
 10
-227.87100835824049
 20
-32.000000000283528
 30
0.0
 11
-218.37194048641339
 21
-32.000000000283528
 31
0.0
  0
LINE
  5
37F
  8
DATA
  6
CONTINUOUS
 62
     7
 10
-232.12147442226961
 20
-50.0
 30
0.0
 11
-214.12147442226961
 21
-50.0
 31
0.0
  0
CIRCLE
  5
380
  8
DATA
  6
CONTINUOUS
 62
     7
 10
-223.12147442232691
 20
-36.75
 30
0.0
 40
0.5999999999999091
  0
TEXT
  5
381
  8
DATA
 62
     7
 10
250.0
 20
-578.14856447432931
 30
0.0
 40
8.1442057291666661
  1
送信機
 41
0.7
 11
250.0
 21
-570.00435874516256
 31
0.0
 73
     3
  0
TEXT
  5
382
  8
DATA
 62
     7
 10
249.99999999999969
 20
-597.01378947432943
 30
0.0
 40
12.21630859375
  1
P9T-A24
 41
0.7
 11
249.99999999999969
 21
-584.79748088057943
 31
0.0
 73
     3
  0
TEXT
  5
383
  8
DATA
 62
     7
 10
249.99999999999969
 20
-560.76378947432943
 30
0.0
 40
12.21630859375
  1
SHURE
 41
0.7
 11
249.99999999999969
 21
-548.54748088057943
 31
0.0
 73
     3
  0
TEXT
  5
384
  8
DATA
 62
     7
 10
-437.5
 20
-613.28685058544056
 30
0.0
 40
9.5015733506944464
  1
※仕様及び外観は予告なく変更されることがあります。
 41
0.7
 11
-437.5
 21
-603.78527723474622
 31
0.0
 73
     3
  0
TEXT
  5
385
  8
DATA
 62
     7
 10
-437.5
 20
-625.63407280766285
 30
0.0
 40
9.5015733506944464
  1
　また、同一商品でも若干の個体差があることがあります。ご了承ください。
 41
0.7
 11
-437.5
 21
-616.13249945696828
 31
0.0
 73
     3
  0
ENDSEC
  0
EOF
