  0
SECTION
  2
HEADER
  9
$ACADVER
  1
AC1009
  9
$INSBASE
 10
0.0
 20
0.0
 30
0.0
  9
$EXTMIN
 10
-89.999999999999957
 20
-137.5519002719906
 30
0.0
  9
$EXTMAX
 10
90.0
 20
130.0
 30
0.0
  9
$LIMMIN
 10
0.0
 20
0.0
  9
$LIMMAX
 10
0.0
 20
0.0
  9
$ORTHOMODE
 70
     0
  9
$REGENMODE
 70
     1
  9
$FILLMODE
 70
     1
  9
$QTEXTMODE
 70
     0
  9
$MIRRTEXT
 70
     1
  9
$DRAGMODE
 70
     2
  9
$LTSCALE
 40
5.0800000000000001
  9
$OSMODE
 70
   231
  9
$ATTMODE
 70
     1
  9
$TEXTSIZE
 40
0.0
  9
$TRACEWID
 40
1.0
  9
$TEXTSTYLE
  7
STANDARD
  9
$CLAYER
  8
DATA
  9
$CELTYPE
  6
BYLAYER
  9
$CECOLOR
 62
   256
  9
$DIMSCALE
 40
1.0
  9
$DIMASZ
 40
0.18
  9
$DIMEXO
 40
0.0625
  9
$DIMDLI
 40
0.38
  9
$DIMRND
 40
0.0
  9
$DIMDLE
 40
0.0
  9
$DIMEXE
 40
0.18
  9
$DIMTP
 40
0.0
  9
$DIMTM
 40
0.0
  9
$DIMTXT
 40
0.18
  9
$DIMCEN
 40
0.09
  9
$DIMTSZ
 40
0.0
  9
$DIMTOL
 70
     0
  9
$DIMLIM
 70
     0
  9
$DIMTIH
 70
     1
  9
$DIMTOH
 70
     1
  9
$DIMSE1
 70
     0
  9
$DIMSE2
 70
     0
  9
$DIMTAD
 70
     0
  9
$DIMZIN
 70
     0
  9
$DIMBLK
  1

  9
$DIMASO
 70
     1
  9
$DIMSHO
 70
     1
  9
$DIMPOST
  1

  9
$DIMAPOST
  1

  9
$DIMALT
 70
     0
  9
$DIMALTD
 70
     2
  9
$DIMALTF
 40
25.399999999999999
  9
$DIMLFAC
 40
1.0
  9
$DIMTOFL
 70
     0
  9
$DIMTVP
 40
0.0
  9
$DIMTIX
 70
     0
  9
$DIMSOXD
 70
     0
  9
$DIMSAH
 70
     0
  9
$DIMBLK1
  1

  9
$DIMBLK2
  1

  9
$DIMSTYLE
  2
STANDARD
  9
$DIMCLRD
 70
     0
  9
$DIMCLRE
 70
     0
  9
$DIMCLRT
 70
     0
  9
$DIMTFAC
 40
1.0
  9
$DIMGAP
 40
0.09
  9
$LUNITS
 70
     2
  9
$LUPREC
 70
     4
  9
$SKETCHINC
 40
0.1
  9
$FILLETRAD
 40
0.0
  9
$AUNITS
 70
     0
  9
$AUPREC
 70
     0
  9
$MENU
  1
acad
  9
$ELEVATION
 40
0.0
  9
$PELEVATION
 40
0.0
  9
$THICKNESS
 40
0.0
  9
$LIMCHECK
 70
     0
  9
$BLIPMODE
 70
     0
  9
$CHAMFERA
 40
0.0
  9
$CHAMFERB
 40
0.0
  9
$SKPOLY
 70
     0
  9
$TDCREATE
 40
2456289.631932871
  9
$TDUPDATE
 40
2456289.6338068522
  9
$TDINDWG
 40
0.000946331
  9
$TDUSRTIMER
 40
0.0009462037
  9
$USRTIMER
 70
     1
  9
$ANGBASE
 50
0.0
  9
$ANGDIR
 70
     0
  9
$PDMODE
 70
     1
  9
$PDSIZE
 40
-2.0
  9
$PLINEWID
 40
0.0
  9
$COORDS
 70
     2
  9
$SPLFRAME
 70
     0
  9
$SPLINETYPE
 70
     6
  9
$SPLINESEGS
 70
     8
  9
$ATTDIA
 70
     0
  9
$ATTREQ
 70
     1
  9
$HANDLING
 70
     1
  9
$HANDSEED
  5
619
  9
$SURFTAB1
 70
     6
  9
$SURFTAB2
 70
     6
  9
$SURFTYPE
 70
     6
  9
$SURFU
 70
     6
  9
$SURFV
 70
     6
  9
$UCSNAME
  2

  9
$UCSORG
 10
0.0
 20
0.0
 30
0.0
  9
$UCSXDIR
 10
1.0
 20
0.0
 30
0.0
  9
$UCSYDIR
 10
0.0
 20
1.0
 30
0.0
  9
$PUCSNAME
  2

  9
$PUCSORG
 10
0.0
 20
0.0
 30
0.0
  9
$PUCSXDIR
 10
1.0
 20
0.0
 30
0.0
  9
$PUCSYDIR
 10
0.0
 20
1.0
 30
0.0
  9
$USERI1
 70
     0
  9
$USERI2
 70
     0
  9
$USERI3
 70
     0
  9
$USERI4
 70
     0
  9
$USERI5
 70
     0
  9
$USERR1
 40
0.0
  9
$USERR2
 40
0.0
  9
$USERR3
 40
0.0
  9
$USERR4
 40
0.0
  9
$USERR5
 40
0.0
  9
$WORLDVIEW
 70
     1
  9
$SHADEDGE
 70
     3
  9
$SHADEDIF
 70
    70
  9
$TILEMODE
 70
     1
  9
$MAXACTVP
 70
    64
  9
$PLIMCHECK
 70
     0
  9
$PEXTMIN
 10
1.0000000000000000E+020
 20
1.0000000000000000E+020
 30
1.0000000000000000E+020
  9
$PEXTMAX
 10
-1.0000000000000000E+020
 20
-1.0000000000000000E+020
 30
-1.0000000000000000E+020
  9
$PLIMMIN
 10
0.0
 20
0.0
  9
$PLIMMAX
 10
12.0
 20
9.0
  9
$UNITMODE
 70
     0
  9
$VISRETAIN
 70
     0
  9
$PLINEGEN
 70
     1
  9
$PSLTSCALE
 70
     0
  0
ENDSEC
  0
SECTION
  2
TABLES
  0
TABLE
  2
VPORT
 70
     1
  0
VPORT
  2
*ACTIVE
 70
     0
 10
0.0
 20
0.0
 11
1.0
 21
1.0
 12
78.810763273417706
 22
-25.00868903177718
 13
0.0
 23
0.0
 14
1.0
 24
1.0
 15
0.0
 25
0.0
 16
0.0
 26
0.0
 36
1.0
 17
0.0
 27
0.0
 37
0.0
 40
432.982117398561
 41
2.5684380032206122
 42
50.0
 43
0.0
 44
0.0
 50
0.0
 51
0.0
 71
     0
 72
  2000
 73
     1
 74
     1
 75
     0
 76
     0
 77
     0
 78
     0
  0
ENDTAB
  0
TABLE
  2
LTYPE
 70
    12
  0
LTYPE
  2
CONTINUOUS
 70
     0
  3
Solid line
 72
    65
 73
     0
 40
0.0
  0
LTYPE
  2
PHANTOM2
 70
     0
  3
___ _ _ ___ _ _ ___ _ _ ___ _ _
 72
    65
 73
     6
 40
1.25
 49
0.625
 49
-0.125
 49
0.125
 49
-0.125
 49
0.125
 49
-0.125
  0
ENDTAB
  0
TABLE
  2
LAYER
 70
     5
  0
LAYER
  2
0
 70
     0
 62
     7
  6
CONTINUOUS
  0
LAYER
  2
DATA
 70
     0
 62
     7
  6
CONTINUOUS
  0
LAYER
  2
HIBINO-BASE
 70
     0
 62
     7
  6
CONTINUOUS
  0
LAYER
  2
SPEC
 70
     0
 62
     7
  6
CONTINUOUS
  0
LAYER
  2
DIMNSIONS
 70
     0
 62
     7
  6
CONTINUOUS
  0
ENDTAB
  0
TABLE
  2
STYLE
 70
     3
  0
STYLE
  2
STANDARD
 70
     0
 40
0.0
 41
1.0
 50
0.0
 71
     0
 42
0.0
  3
txt
  4
BIGFONT.SHX
  0
ENDTAB
  0
TABLE
  2
VIEW
 70
     0
  0
ENDTAB
  0
TABLE
  2
UCS
 70
     0
  0
ENDTAB
  0
TABLE
  2
APPID
 70
     4
  0
APPID
  2
ACAD
 70
     0
  0
APPID
  2
ACADANNOTATIVE
 70
     0
  0
APPID
  2
ACAD_NAV_VCDISPLAY
 70
     0
  0
APPID
  2
ACAD_MLEADERVER
 70
     0
  0
ENDTAB
  0
TABLE
  2
DIMSTYLE
 70
     2
  0
DIMSTYLE
  2
STANDARD
 70
     0
  3

  4

  5

  6

  7

 40
1.0
 41
0.18
 42
0.0625
 43
0.38
 44
0.18
 45
0.0
 46
0.0
 47
0.0
 48
0.0
140
0.18
141
0.09
142
0.0
143
25.399999999999999
144
1.0
145
0.0
146
1.0
147
0.09
 71
     0
 72
     0
 73
     1
 74
     1
 75
     0
 76
     0
 77
     0
 78
     0
170
     0
171
     2
172
     0
173
     0
174
     0
175
     0
176
     0
177
     0
178
     0
  0
ENDTAB
  0
ENDSEC
  0
SECTION
  2
BLOCKS
  0
BLOCK
  8
0
  2
$MODEL_SPACE
 70
     0
 10
0.0
 20
0.0
 30
0.0
  3
$MODEL_SPACE
  1

  0
ENDBLK
  5
51C
  8
0
  0
BLOCK
 67
     1
  8
0
  2
$PAPER_SPACE
 70
     0
 10
0.0
 20
0.0
 30
0.0
  3
$PAPER_SPACE
  1

  0
ENDBLK
  5
518
 67
     1
  8
0
  0
BLOCK
  8
DATA
  2
____
 70
     0
 10
0.0
 20
0.0
 30
0.0
  3
____
  1

  0
LINE
  5
31
  8
0
  6
CONTINUOUS
 62
     7
 10
-17.775466967844871
 20
24.749999999999989
 30
0.0
 11
-4.4999999999999947
 21
24.749999999999989
 31
0.0
  0
LINE
  5
32
  8
0
  6
CONTINUOUS
 62
     7
 10
-17.775466967844871
 20
35.249999999999993
 30
0.0
 11
-4.4999999999999947
 21
35.249999999999993
 31
0.0
  0
LINE
  5
33
  8
0
  6
CONTINUOUS
 62
     7
 10
-3.999999999999996
 20
24.749999999999989
 30
0.0
 11
-3.999999999999996
 21
35.249999999999993
 31
0.0
  0
LINE
  5
34
  8
0
  6
CONTINUOUS
 62
     7
 10
4.5000000000000044
 20
24.749999999999989
 30
0.0
 11
4.5000000000000044
 21
35.249999999999993
 31
0.0
  0
LINE
  5
35
  8
0
  6
CONTINUOUS
 62
     7
 10
-3.8806779104645588
 20
24.749999999999989
 30
0.0
 11
-3.8806779104645588
 21
35.249999999999993
 31
0.0
  0
LINE
  5
36
  8
0
  6
CONTINUOUS
 62
     7
 10
4.3806779104645663
 20
24.749999999999989
 30
0.0
 11
4.3806779104645663
 21
35.249999999999993
 31
0.0
  0
LINE
  5
37
  8
0
  6
CONTINUOUS
 62
     7
 10
10.5
 20
25.249999999999989
 30
0.0
 11
10.5
 21
34.75
 31
0.0
  0
LINE
  5
38
  8
0
  6
CONTINUOUS
 62
     7
 10
-20.0
 20
27.190099661174511
 30
0.0
 11
-20.0
 21
32.809900338825457
 31
0.0
  0
LINE
  5
39
  8
0
  6
CONTINUOUS
 62
     7
 10
-19.873704659341829
 20
33.142082258240421
 30
0.0
 11
-18.1491716271867
 21
35.082181919414943
 31
0.0
  0
LINE
  5
3A
  8
0
  6
CONTINUOUS
 62
     7
 10
-19.873704659341829
 20
26.85791774175955
 30
0.0
 11
-18.1491716271867
 21
24.917818080585018
 31
0.0
  0
ARC
  5
3B
  8
0
  6
CONTINUOUS
 62
     7
 10
10.0
 20
34.75
 30
0.0
 40
0.5
 50
0.0
 51
90.0
  0
ARC
  5
3C
  8
0
  6
CONTINUOUS
 62
     7
 10
10.0
 20
25.249999999999989
 30
0.0
 40
0.5
 50
270.0
 51
0.0
  0
ARC
  5
3D
  8
0
  6
CONTINUOUS
 62
     7
 10
-17.77546696784486
 20
34.75
 30
0.0
 40
0.5
 50
90.00000000000081
 51
138.36646066343141
  0
ARC
  5
3E
  8
0
  6
CONTINUOUS
 62
     7
 10
-17.775466967844871
 20
25.249999999999989
 30
0.0
 40
0.5000000000000049
 50
221.63353933657029
 51
270.0
  0
ARC
  5
3F
  8
0
  6
CONTINUOUS
 62
     7
 10
-19.5
 20
27.190099661174511
 30
0.0
 40
0.4999999999999929
 50
180.0
 51
221.6335393365697
  0
ARC
  5
40
  8
0
  6
CONTINUOUS
 62
     7
 10
-19.5
 20
32.809900338825457
 30
0.0
 40
0.5000000000000049
 50
138.36646066342971
 51
180.0
  0
ARC
  5
41
  8
0
  6
CONTINUOUS
 62
     7
 10
-4.4999999999999947
 20
34.75
 30
0.0
 40
0.5
 50
0.0
 51
90.0
  0
ARC
  5
42
  8
0
  6
CONTINUOUS
 62
     7
 10
-4.4999999999999947
 20
25.249999999999989
 30
0.0
 40
0.5
 50
270.0
 51
0.0
  0
LINE
  5
43
  8
0
  6
CONTINUOUS
 62
     7
 10
-4.7499999999999947
 20
24.749999999999989
 30
0.0
 11
-4.4999999999999947
 21
24.749999999999989
 31
0.0
  0
LINE
  5
44
  8
0
  6
CONTINUOUS
 62
     7
 10
-3.999999999999996
 20
24.749999999999989
 30
0.0
 11
4.5000000000000044
 21
24.749999999999989
 31
0.0
  0
LINE
  5
45
  8
0
  6
CONTINUOUS
 62
     7
 10
4.5000000000000044
 20
35.249999999999993
 30
0.0
 11
-3.999999999999996
 21
35.249999999999993
 31
0.0
  0
LINE
  5
46
  8
0
  6
CONTINUOUS
 62
     7
 10
5.0000000000000044
 20
35.249999999999993
 30
0.0
 11
10.0
 21
35.249999999999993
 31
0.0
  0
LINE
  5
47
  8
0
  6
CONTINUOUS
 62
     7
 10
5.0000000000000044
 20
24.749999999999989
 30
0.0
 11
10.0
 21
24.749999999999989
 31
0.0
  0
ARC
  5
48
  8
0
  6
CONTINUOUS
 62
     7
 10
5.0000000000000044
 20
34.75
 30
0.0
 40
0.5
 50
90.0
 51
180.0
  0
ARC
  5
49
  8
0
  6
CONTINUOUS
 62
     7
 10
5.0000000000000044
 20
25.249999999999989
 30
0.0
 40
0.5
 50
180.0
 51
270.0
  0
LINE
  5
4A
  8
0
  6
CONTINUOUS
 62
     7
 10
12.5
 20
30.999999999999989
 30
0.0
 11
12.5
 21
28.999999999999979
 31
0.0
  0
LINE
  5
4B
  8
0
  6
CONTINUOUS
 62
     7
 10
12.5
 20
30.999999999999989
 30
0.0
 11
10.5
 21
31.499999999999989
 31
0.0
  0
LINE
  5
4C
  8
0
  6
CONTINUOUS
 62
     7
 10
12.5
 20
28.999999999999979
 30
0.0
 11
10.5
 21
28.499999999999989
 31
0.0
  0
ENDBLK
  5
4D
  8
DATA
  0
BLOCK
  8
DATA
  2
____-1
 70
     0
 10
0.0
 20
0.0
 30
0.0
  3
____-1
  1

  0
ARC
  5
4F
  8
0
  6
CONTINUOUS
 62
     7
 10
40.25
 20
-46.524999999999977
 30
0.0
 40
0.375
 50
270.0
 51
90.0
  0
ARC
  5
50
  8
0
  6
CONTINUOUS
 62
     7
 10
40.25
 20
-47.274999999999999
 30
0.0
 40
0.375
 50
90.0
 51
270.0
  0
ENDBLK
  5
51
  8
DATA
  0
BLOCK
  8
DATA
  2
____-2
 70
     0
 10
0.0
 20
0.0
 30
0.0
  3
____-2
  1

  0
ARC
  5
53
  8
0
  6
CONTINUOUS
 62
     7
 10
40.25
 20
26.524999999999981
 30
0.0
 40
0.375
 50
270.0
 51
90.0
  0
ARC
  5
54
  8
0
  6
CONTINUOUS
 62
     7
 10
40.25
 20
27.274999999999981
 30
0.0
 40
0.375
 50
90.0
 51
270.0
  0
ENDBLK
  5
55
  8
DATA
  0
BLOCK
  8
DATA
  2
____-3
 70
     0
 10
0.0
 20
0.0
 30
0.0
  3
____-3
  1

  0
ARC
  5
57
  8
0
  6
CONTINUOUS
 62
     7
 10
49.624999999999993
 20
-60.0
 30
0.0
 40
0.375
 50
0.0
 51
180.0
  0
ARC
  5
58
  8
0
  6
CONTINUOUS
 62
     7
 10
50.374999999999993
 20
-60.0
 30
0.0
 40
0.375
 50
180.0
 51
0.0
  0
ENDBLK
  5
59
  8
DATA
  0
ENDSEC
  0
SECTION
  2
ENTITIES
  0
LINE
  5
5A
  8
HIBINO-BASE
  6
CONTINUOUS
 62
     7
 10
-89.999999999999957
 20
130.0
 30
0.0
 11
90.0
 21
130.0
 31
0.0
  0
LINE
  5
5B
  8
HIBINO-BASE
  6
CONTINUOUS
 62
     7
 10
90.0
 20
-130.0
 30
0.0
 11
-89.999999999999957
 21
-130.0
 31
0.0
  0
LINE
  5
5C
  8
HIBINO-BASE
  6
CONTINUOUS
 62
     7
 10
-89.999999999999957
 20
-130.0
 30
0.0
 11
-89.999999999999957
 21
130.0
 31
0.0
  0
LINE
  5
5D
  8
HIBINO-BASE
  6
CONTINUOUS
 62
     7
 10
90.0
 20
130.0
 30
0.0
 11
90.0
 21
-130.0
 31
0.0
  0
LINE
  5
5E
  8
HIBINO-BASE
  6
CONTINUOUS
 62
     7
 10
0.0000000000000284
 20
-107.4999999999999
 30
0.0
 11
90.0
 21
-107.4999999999999
 31
0.0
  0
LINE
  5
5F
  8
HIBINO-BASE
  6
CONTINUOUS
 62
     7
 10
0.0000000000000284
 20
-130.0
 30
0.0
 11
0.0000000000000284
 21
-107.4999999999999
 31
0.0
  0
TEXT
  5
60
  8
HIBINO-BASE
 62
     7
 10
0.9000000000000339
 20
-110.0086933333332
 30
0.0
 40
1.6288411458333321
  1
NOTE
 41
0.7
 11
0.9000000000000341
 21
-108.37985218749991
 31
0.0
 73
     3
  0
LINE
  5
61
  8
HIBINO-BASE
  6
CONTINUOUS
 62
     7
 10
35.00000000000005
 20
-130.0
 30
0.0
 11
35.00000000000005
 21
-107.4999999999999
 31
0.0
  0
TEXT
  5
62
  8
HIBINO-BASE
 62
     7
 10
35.900000000000027
 20
-110.0086933333332
 30
0.0
 40
1.6288411458333321
  1
TITLE
 41
0.7
 11
35.900000000000027
 21
-108.37985218749991
 31
0.0
 73
     3
  0
LINE
  5
63
  8
HIBINO-BASE
  6
CONTINUOUS
 62
     7
 10
0.0000000000000284
 20
-119.9999999999999
 30
0.0
 11
90.0
 21
-119.9999999999999
 31
0.0
  0
TEXT
  5
64
  8
HIBINO-BASE
 62
     7
 10
48.40000000000002
 20
-122.4523733333332
 30
0.0
 40
1.6288411458333321
  1
DRAWN
 41
0.7
 11
48.40000000000002
 21
-120.82353218749979
 31
0.0
 73
     3
  0
TEXT
  5
65
  8
HIBINO-BASE
 62
     7
 10
23.400000000000031
 20
-122.4523733333332
 30
0.0
 40
1.6288411458333321
  1
DATE
 41
0.7
 11
23.400000000000031
 21
-120.82353218749979
 31
0.0
 73
     3
  0
TEXT
  5
66
  8
HIBINO-BASE
 62
     7
 10
13.400000000000031
 20
-122.4523733333332
 30
0.0
 40
1.6288411458333321
  1
SCALE
 41
0.7
 11
13.400000000000031
 21
-120.82353218749979
 31
0.0
 73
     3
  0
TEXT
  5
67
  8
HIBINO-BASE
 62
     7
 10
35.900000000000027
 20
-122.4523733333332
 30
0.0
 40
1.6288411458333321
  1
DESIGN
 41
0.7
 11
35.900000000000027
 21
-120.82353218749979
 31
0.0
 73
     3
  0
TEXT
  5
68
  8
HIBINO-BASE
 62
     7
 10
73.400000000000034
 20
-122.4523733333332
 30
0.0
 40
1.6288411458333321
  1
DRAWING NO.
 41
0.7
 11
73.400000000000034
 21
-120.82353218749979
 31
0.0
 73
     3
  0
TEXT
  5
69
  8
HIBINO-BASE
 62
     7
 10
60.90000000000002
 20
-122.4523733333332
 30
0.0
 40
1.6288411458333321
  1
CHECK
 41
0.7
 11
60.90000000000002
 21
-120.82353218749979
 31
0.0
 73
     3
  0
LINE
  5
6A
  8
HIBINO-BASE
  6
CONTINUOUS
 62
     7
 10
14.37500000000002
 20
-128.7499999999998
 30
0.0
 11
18.12500000000005
 21
-124.9999999999999
 31
0.0
  0
TEXT
  5
6B
  8
HIBINO-BASE
 62
     7
 10
13.75000000000002
 20
-126.1089433333333
 30
0.0
 40
1.6288411458333321
  1
1
 41
0.7
 11
13.75000000000002
 21
-124.48010218749999
 31
0.0
 73
     3
  0
LINE
  5
6C
  8
HIBINO-BASE
  6
CONTINUOUS
 62
     7
 10
12.50000000000002
 20
-130.0
 30
0.0
 11
12.50000000000002
 21
-119.9999999999999
 31
0.0
  0
LINE
  5
6D
  8
HIBINO-BASE
  6
CONTINUOUS
 62
     7
 10
22.5
 20
-130.0
 30
0.0
 11
22.5
 21
-119.9999999999999
 31
0.0
  0
LINE
  5
6E
  8
HIBINO-BASE
  6
CONTINUOUS
 62
     7
 10
47.5
 20
-119.9999999999999
 30
0.0
 11
47.5
 21
-130.0
 31
0.0
  0
LINE
  5
6F
  8
HIBINO-BASE
  6
CONTINUOUS
 62
     7
 10
72.500000000000028
 20
-119.9999999999999
 30
0.0
 11
72.500000000000028
 21
-130.0
 31
0.0
  0
LINE
  5
70
  8
HIBINO-BASE
  6
CONTINUOUS
 62
     7
 10
60.0
 20
-130.0
 30
0.0
 11
60.0
 21
-119.9999999999999
 31
0.0
  0
TEXT
  5
71
  8
HIBINO-BASE
 62
     7
 10
23.356540000000049
 20
-127.1363533333332
 30
0.0
 40
1.6288411458333321
  1
'12.12.
 41
0.7
 11
23.356540000000049
 21
-125.5075121874999
 31
0.0
 73
     3
  0
TEXT
  5
72
  8
HIBINO-BASE
 62
     7
 10
17.500000000000011
 20
-127.9839433333333
 30
0.0
 40
1.6288411458333321
  1
1
 41
0.7
 11
17.500000000000011
 21
-126.35510218749999
 31
0.0
 73
     3
  0
TEXT
  5
73
  8
HIBINO-BASE
 62
     7
 10
49.005810011034661
 20
-127.1363533333332
 30
0.0
 40
1.6288411458333321
  1
N.Sasaki
 41
0.7
 11
49.005810011034661
 21
-125.5075121874999
 31
0.0
 73
     3
  0
TEXT
  5
74
  8
HIBINO-BASE
 62
     7
 10
3.8833333333333822
 20
-128.024
 30
0.0
 40
3.257682291666665
  1
A4
 41
0.7
 11
3.8833333333333822
 21
-124.7663177083333
 31
0.0
 73
     3
  0
TEXT
  5
75
  8
HIBINO-BASE
 62
     7
 10
0.958333333333371
 20
-122.6194549999999
 30
0.0
 40
1.6288411458333321
  1
PAPER SIZE
 41
0.7
 11
0.9583333333333712
 21
-120.9906138541666
 31
0.0
 73
     3
  0
TEXT
  5
76
  8
HIBINO-BASE
 62
     7
 10
-82.815999999999931
 20
-136.37551499999989
 30
0.0
 40
3.5291558159722221
  1
Hibino-Intersound Corporation
 41
0.7
 11
-82.815999999999931
 21
-132.8463591840277
 31
0.0
 73
     3
  0
TEXT
  5
77
  8
HIBINO-BASE
 62
     7
 10
14.024334167243151
 20
-136.37551499999989
 30
0.0
 40
3.5291558159722221
  1
ヒビノインターサウンド株式会社
 41
0.7
 11
14.024334167243151
 21
-132.8463591840277
 31
0.0
 73
     3
  0
LINE
  5
78
  8
SPEC
  6
CONTINUOUS
 62
     7
 10
-82.499999999999986
 20
120.0
 30
0.0
 11
65.000000000000014
 21
120.0
 31
0.0
  0
LINE
  5
79
  8
SPEC
  6
CONTINUOUS
 62
     7
 10
-82.499999999999986
 20
116.25
 30
0.0
 11
65.000000000000014
 21
116.25
 31
0.0
  0
LINE
  5
7A
  8
SPEC
  6
CONTINUOUS
 62
     7
 10
-82.499999999999986
 20
101.25
 30
0.0
 11
65.000000000000014
 21
101.25
 31
0.0
  0
LINE
  5
7B
  8
SPEC
  6
CONTINUOUS
 62
     7
 10
-82.499999999999986
 20
105.0
 30
0.0
 11
65.000000000000014
 21
105.0
 31
0.0
  0
LINE
  5
7C
  8
SPEC
  6
CONTINUOUS
 62
     7
 10
-82.499999999999986
 20
108.75
 30
0.0
 11
65.000000000000014
 21
108.75
 31
0.0
  0
LINE
  5
7D
  8
SPEC
  6
CONTINUOUS
 62
     7
 10
-82.499999999999986
 20
112.5
 30
0.0
 11
65.000000000000014
 21
112.5
 31
0.0
  0
TEXT
  5
7E
  8
SPEC
 62
     7
 10
-39.099999999999987
 20
117.0379216
 30
0.0
 40
1.9003112499999979
  1
4080
 41
0.7
 11
-39.099999999999987
 21
118.93823285000001
 31
0.0
 73
     3
  0
LINE
  5
7F
  8
SPEC
  6
CONTINUOUS
 62
     7
 10
-82.499999999999986
 20
120.0
 30
0.0
 11
-82.499999999999986
 21
52.500000000000021
 31
0.0
  0
TEXT
  5
80
  8
SPEC
 62
     7
 10
-81.249999999999986
 20
121.39327
 30
0.0
 40
2.4432617187500001
  1
仕様
 41
0.7
 11
-81.249999999999986
 21
123.83653171875
 31
0.0
 73
     3
  0
LINE
  5
81
  8
SPEC
  6
CONTINUOUS
 62
     7
 10
-40.0
 20
120.0
 30
0.0
 11
-40.0
 21
52.500000000000021
 31
0.0
  0
LINE
  5
82
  8
SPEC
  6
CONTINUOUS
 62
     7
 10
65.000000000000014
 20
120.0
 30
0.0
 11
65.000000000000014
 21
52.500000000000021
 31
0.0
  0
TEXT
  5
83
  8
SPEC
 62
     7
 10
-81.59999999999998
 20
53.287921600000018
 30
0.0
 40
1.9003112499999979
  1
付属品
 41
0.7
 11
-81.59999999999998
 21
55.18823285000002
 31
0.0
 73
     3
  0
TEXT
  5
84
  8
SPEC
 62
     7
 10
-81.59999999999998
 20
60.787921600000018
 30
0.0
 40
1.9003112499999979
  1
ケーブル長
 41
0.7
 11
-81.59999999999998
 21
62.68823285000002
 31
0.0
 73
     3
  0
TEXT
  5
85
  8
SPEC
 62
     7
 10
-81.59999999999998
 20
57.037921600000018
 30
0.0
 40
1.9003112499999979
  1
寸法、質量
 41
0.7
 11
-81.59999999999998
 21
58.93823285000002
 31
0.0
 73
     3
  0
TEXT
  5
86
  8
SPEC
 62
     7
 10
-81.59999999999998
 20
117.0379216
 30
0.0
 40
1.9003112499999979
  1
型番
 41
0.7
 11
-81.59999999999998
 21
118.93823285000001
 31
0.0
 73
     3
  0
TEXT
  5
87
  8
SPEC
 62
     7
 10
-81.59999999999998
 20
113.2879216
 30
0.0
 40
1.9003112499999979
  1
指向特性
 41
0.7
 11
-81.59999999999998
 21
115.18823285000001
 31
0.0
 73
     3
  0
TEXT
  5
88
  8
SPEC
 62
     7
 10
-39.099999999999987
 20
53.072052933368859
 30
0.0
 40
2.0934713486843171
  1
ウインドスクリーン(黒、白 各1個)
 41
0.7
 11
-39.099999999999987
 21
55.165524282053177
 31
0.0
 73
     3
  0
TEXT
  5
89
  8
SPEC
 62
     7
 10
-39.099999999999987
 20
60.787921600000018
 30
0.0
 40
1.9003112499999979
  1
1.2ｍ
 41
0.7
 11
-39.099999999999987
 21
62.68823285000002
 31
0.0
 73
     3
  0
TEXT
  5
8A
  8
SPEC
 62
     7
 10
-39.099999999999987
 20
57.037921600000018
 30
0.0
 40
1.9003112499999979
  1
\U+03C610.5X34ｍｍ、15g
 41
0.7
 11
-39.099999999999987
 21
58.93823285000002
 31
0.0
 73
     3
  0
TEXT
  5
8B
  8
SPEC
 62
     7
 10
-39.099999999999987
 20
113.2879216
 30
0.0
 40
1.9003112499999979
  1
カーディオイド
 41
0.7
 11
-39.099999999999987
 21
115.18823285000001
 31
0.0
 73
     3
  0
LINE
  5
8C
  8
SPEC
  6
CONTINUOUS
 62
     7
 10
-82.499999999999986
 20
97.5
 30
0.0
 11
65.000000000000014
 21
97.5
 31
0.0
  0
LINE
  5
8D
  8
SPEC
  6
CONTINUOUS
 62
     7
 10
-40.0
 20
93.75
 30
0.0
 11
65.000000000000014
 21
93.75
 31
0.0
  0
LINE
  5
8E
  8
SPEC
  6
CONTINUOUS
 62
     7
 10
-82.499999999999986
 20
90.000000000000014
 30
0.0
 11
65.000000000000014
 21
90.000000000000014
 31
0.0
  0
LINE
  5
8F
  8
SPEC
  6
CONTINUOUS
 62
     7
 10
-82.499999999999986
 20
86.250000000000014
 30
0.0
 11
65.000000000000014
 21
86.250000000000014
 31
0.0
  0
LINE
  5
90
  8
SPEC
  6
CONTINUOUS
 62
     7
 10
-82.499999999999986
 20
82.500000000000014
 30
0.0
 11
65.000000000000014
 21
82.500000000000014
 31
0.0
  0
LINE
  5
91
  8
SPEC
  6
CONTINUOUS
 62
     7
 10
-82.499999999999986
 20
78.750000000000014
 30
0.0
 11
65.000000000000014
 21
78.750000000000014
 31
0.0
  0
LINE
  5
92
  8
SPEC
  6
CONTINUOUS
 62
     7
 10
-82.499999999999986
 20
75.000000000000014
 30
0.0
 11
65.000000000000014
 21
75.000000000000014
 31
0.0
  0
LINE
  5
93
  8
SPEC
  6
CONTINUOUS
 62
     7
 10
-82.499999999999986
 20
67.500000000000014
 30
0.0
 11
65.000000000000014
 21
67.500000000000014
 31
0.0
  0
LINE
  5
94
  8
SPEC
  6
CONTINUOUS
 62
     7
 10
-82.499999999999986
 20
63.750000000000021
 30
0.0
 11
65.000000000000014
 21
63.750000000000021
 31
0.0
  0
LINE
  5
95
  8
SPEC
  6
CONTINUOUS
 62
     7
 10
-82.499999999999986
 20
60.000000000000021
 30
0.0
 11
65.000000000000014
 21
60.000000000000021
 31
0.0
  0
LINE
  5
96
  8
SPEC
  6
CONTINUOUS
 62
     7
 10
-82.499999999999986
 20
56.250000000000021
 30
0.0
 11
65.000000000000014
 21
56.250000000000021
 31
0.0
  0
LINE
  5
97
  8
SPEC
  6
CONTINUOUS
 62
     7
 10
-82.499999999999986
 20
52.500000000000021
 30
0.0
 11
65.000000000000014
 21
52.500000000000021
 31
0.0
  0
TEXT
  5
98
  8
SPEC
 62
     7
 10
-81.59999999999998
 20
109.5379216
 30
0.0
 40
1.9003112499999979
  1
カートリッジ
 41
0.7
 11
-81.59999999999998
 21
111.43823285000001
 31
0.0
 73
     3
  0
TEXT
  5
99
  8
SPEC
 62
     7
 10
-39.099999999999987
 20
109.3160366405768
 30
0.0
 40
1.9003112499999979
  1
プリポラライズド・コンデンサー型、\U+03C65.4mm
 41
0.7
 11
-39.099999999999987
 21
111.2163478905768
 31
0.0
 73
     3
  0
TEXT
  5
9A
  8
SPEC
 62
     7
 10
-81.59999999999998
 20
105.5660366405768
 30
0.0
 40
1.9003112499999979
  1
周波数レンジ(\U+00B12dB)
 41
0.7
 11
-81.59999999999998
 21
107.4663478905768
 31
0.0
 73
     3
  0
TEXT
  5
9B
  8
SPEC
 62
     7
 10
-39.099999999999987
 20
105.5660366405767
 30
0.0
 40
2.0988547502106361
  1
250Hz～17kHz
 41
0.7
 11
-39.099999999999987
 21
107.6648913907874
 31
0.0
 73
     3
  0
TEXT
  5
9C
  8
SPEC
 62
     7
 10
-81.59999999999998
 20
101.8160366405768
 30
0.0
 40
2.0988547502106361
  1
感度(\U+00B13dB)
 41
0.7
 11
-81.59999999999998
 21
103.9148913907874
 31
0.0
 73
     3
  0
TEXT
  5
9D
  8
SPEC
 62
     7
 10
-39.099999999999987
 20
101.8160366405768
 30
0.0
 40
2.0988547502106361
  1
-34dB re 1V/Pa(\U+00B13dB、1kHz)
 41
0.7
 11
-39.099999999999987
 21
103.9148913907874
 31
0.0
 73
     3
  0
TEXT
  5
9E
  8
SPEC
 62
     7
 10
-81.59999999999998
 20
98.066036640576783
 30
0.0
 40
2.0988547502106361
  1
等価雑音レベル(Aウェイト)
 41
0.7
 11
-81.59999999999998
 21
100.1648913907874
 31
0.0
 73
     3
  0
TEXT
  5
9F
  8
SPEC
 62
     7
 10
-39.099999999999987
 20
98.066036640576783
 30
0.0
 40
2.0988547502106361
  1
23dB SPL
 41
0.7
 11
-39.099999999999987
 21
100.1648913907874
 31
0.0
 73
     3
  0
TEXT
  5
A0
  8
SPEC
 62
     7
 10
-81.59999999999998
 20
92.442542162630346
 30
0.0
 40
2.0975076033876521
  1
全高調波ひずみ(THD)
 41
0.7
 11
-81.59999999999998
 21
94.540049766018015
 31
0.0
 73
     3
  0
TEXT
  5
A1
  8
SPEC
 62
     7
 10
-39.099999999999987
 20
94.317542162630346
 30
0.0
 40
2.0975076033876521
  1
1%%%以下(123dB SPL、ピーク)
 41
0.7
 11
-39.099999999999987
 21
96.415049766018015
 31
0.0
 73
     3
  0
TEXT
  5
A2
  8
SPEC
 62
     7
 10
-39.099999999999987
 20
90.567542162630346
 30
0.0
 40
2.0975076033876521
  1
1%%%以下(120dB SPL、RMS)
 41
0.7
 11
-39.099999999999987
 21
92.665049766018015
 31
0.0
 73
     3
  0
TEXT
  5
A3
  8
SPEC
 62
     7
 10
-81.59999999999998
 20
86.817542162630346
 30
0.0
 40
2.0975076033876521
  1
ダイナミックレンジ(代表値)
 41
0.7
 11
-81.59999999999998
 21
88.915049766018015
 31
0.0
 73
     3
  0
TEXT
  5
A4
  8
SPEC
 62
     7
 10
-39.099999999999987
 20
86.817542162630346
 30
0.0
 40
2.0975076033876521
  1
100dB
 41
0.7
 11
-39.099999999999987
 21
88.915049766018015
 31
0.0
 73
     3
  0
TEXT
  5
A5
  8
SPEC
 62
     7
 10
-81.59999999999998
 20
83.067542162630332
 30
0.0
 40
2.0975076033876521
  1
最大音圧レベル
 41
0.7
 11
-81.59999999999998
 21
85.165049766017987
 31
0.0
 73
     3
  0
TEXT
  5
A6
  8
SPEC
 62
     7
 10
-39.099999999999987
 20
83.067542162630332
 30
0.0
 40
2.0975076033876521
  1
144dB SPL
 41
0.7
 11
-39.099999999999987
 21
85.165049766017987
 31
0.0
 73
     3
  0
TEXT
  5
A7
  8
SPEC
 62
     7
 10
-81.59999999999998
 20
79.537921600000004
 30
0.0
 40
1.9003112499999979
  1
出力インピーダンス
 41
0.7
 11
-81.59999999999998
 21
81.438232850000006
 31
0.0
 73
     3
  0
TEXT
  5
A8
  8
SPEC
 62
     7
 10
-39.099999999999987
 20
79.537921600000004
 30
0.0
 40
1.9003112499999979
  1
30～40\U+03A9
 41
0.7
 11
-39.099999999999987
 21
81.438232850000006
 31
0.0
 73
     3
  0
TEXT
  5
A9
  8
SPEC
 62
     7
 10
-81.59999999999998
 20
75.567542162630346
 30
0.0
 40
2.0975076033876521
  1
ケーブル引き伸ばし可能距離
 41
0.7
 11
-81.59999999999998
 21
77.665049766018001
 31
0.0
 73
     3
  0
TEXT
  5
AA
  8
SPEC
 62
     7
 10
-39.099999999999987
 20
75.787921600000018
 30
0.0
 40
1.9003112499999979
  1
最大300ｍ
 41
0.7
 11
-39.099999999999987
 21
77.68823285000002
 31
0.0
 73
     3
  0
TEXT
  5
AB
  8
SPEC
 62
     7
 10
-81.59999999999998
 20
69.942542162630346
 30
0.0
 40
2.0975076033876521
  1
電源
 41
0.7
 11
-81.59999999999998
 21
72.040049766018001
 31
0.0
 73
     3
  0
TEXT
  5
AC
  8
SPEC
 62
     7
 10
-39.099999999999987
 20
71.817542162630346
 30
0.0
 40
2.0975076033876521
  1
ワイヤレスシステム：5V～50V(DPAアダプタ ー)、ファンタム
 41
0.7
 11
-39.099999999999987
 21
73.915049766018001
 31
0.0
 73
     3
  0
TEXT
  5
AD
  8
SPEC
 62
     7
 10
-39.099999999999987
 20
68.067542162630346
 30
0.0
 40
2.0975076033876521
  1
DC48V\U+00B14V(DAD6001BC/DAD6024/DAD4099)
 41
0.7
 11
-39.099999999999987
 21
70.165049766018001
 31
0.0
 73
     3
  0
TEXT
  5
AE
  8
SPEC
 62
     7
 10
-81.59999999999998
 20
64.537921600000018
 30
0.0
 40
1.9003112499999979
  1
コネクター
 41
0.7
 11
-81.59999999999998
 21
66.43823285000002
 31
0.0
 73
     3
  0
TEXT
  5
AF
  8
SPEC
 62
     7
 10
-39.099999999999987
 20
64.537921600000018
 30
0.0
 40
1.9003112499999979
  1
MicroDot
 41
0.7
 11
-39.099999999999987
 21
66.43823285000002
 31
0.0
 73
     3
  0
TEXT
  5
B0
  8
DIMNSIONS
 62
     7
 10
-20.0
 20
-117.7305099999999
 30
0.0
 40
2.4432617187500001
  1
(単位：mm)
 41
0.7
 11
-20.0
 21
-115.2872482812499
 31
0.0
 73
     3
  0
LINE
  5
B1
  8
DIMNSIONS
  6
CONTINUOUS
 62
     7
 10
-48.680719893275111
 20
-77.36143978655025
 30
0.0
 11
-45.0
 21
-70.0
 31
0.0
  0
LINE
  5
B2
  8
DIMNSIONS
  6
CONTINUOUS
 62
     7
 10
-48.680719893275111
 20
-77.36143978655025
 30
0.0
 11
-48.142470837183851
 21
-74.829177070864986
 31
0.0
  0
LINE
  5
B3
  8
DIMNSIONS
  6
CONTINUOUS
 62
     7
 10
-48.680719893275111
 20
-77.36143978655025
 30
0.0
 11
-46.948451179294452
 21
-75.43756047375625
 31
0.0
  0
LINE
  5
B4
  8
DIMNSIONS
  6
CONTINUOUS
 62
     7
 10
-45.0
 20
-70.0
 30
0.0
 11
-32.416666666666671
 21
-70.0
 31
0.0
  0
TEXT
  5
B5
  8
DIMNSIONS
 62
     7
 10
-43.0
 20
-68.907333333333327
 30
0.0
 40
3.257682291666665
  1
\U+03C65.9
 41
0.7
 11
-43.0
 21
-65.649651041666658
 31
0.0
 73
     3
  0
LINE
  5
B6
  8
DIMNSIONS
  6
CONTINUOUS
 62
     7
 10
-20.0
 20
-54.809900338825493
 30
0.0
 11
-20.0
 21
-67.0
 31
0.0
  0
LINE
  5
B7
  8
DIMNSIONS
  6
CONTINUOUS
 62
     7
 10
13.85
 20
-52.864394487909451
 30
0.0
 11
13.85
 21
-67.0
 31
0.0
  0
LINE
  5
B8
  8
DIMNSIONS
  6
CONTINUOUS
 62
     7
 10
-20.0
 20
-65.0
 30
0.0
 11
13.85
 21
-65.0
 31
0.0
  0
LINE
  5
B9
  8
DIMNSIONS
  6
CONTINUOUS
 62
     7
 10
-20.0
 20
-65.0
 30
0.0
 11
-17.499377441406239
 21
-64.329960204849755
 31
0.0
  0
LINE
  5
BA
  8
DIMNSIONS
  6
CONTINUOUS
 62
     7
 10
-20.0
 20
-65.0
 30
0.0
 11
-17.499377441406239
 21
-65.670039795150245
 31
0.0
  0
LINE
  5
BB
  8
DIMNSIONS
  6
CONTINUOUS
 62
     7
 10
13.85
 20
-65.0
 30
0.0
 11
11.34937744140624
 21
-65.670039795150245
 31
0.0
  0
LINE
  5
BC
  8
DIMNSIONS
  6
CONTINUOUS
 62
     7
 10
13.85
 20
-65.0
 30
0.0
 11
11.34937744140624
 21
-64.329960204849755
 31
0.0
  0
TEXT
  5
BD
  8
DIMNSIONS
 62
     7
 10
-7.30833333333333
 20
-63.907333333333327
 30
0.0
 40
3.257682291666665
  1
33.9
 41
0.7
 11
-7.30833333333333
 21
-60.649651041666658
 31
0.0
 73
     3
  0
LINE
  5
BE
  8
DIMNSIONS
  6
CONTINUOUS
 62
     7
 10
-48.071497556124712
 20
2.2229681878921781
 30
0.0
 11
-45.0
 21
10.0
 31
0.0
  0
LINE
  5
BF
  8
DIMNSIONS
  6
CONTINUOUS
 62
     7
 10
-48.071497556124712
 20
2.2229681878921781
 30
0.0
 11
-47.755997938011468
 21
4.7925063757001212
 31
0.0
  0
LINE
  5
C0
  8
DIMNSIONS
  6
CONTINUOUS
 62
     7
 10
-48.071497556124712
 20
2.2229681878921781
 30
0.0
 11
-46.513497778050379
 21
4.2905037254714644
 31
0.0
  0
LINE
  5
C1
  8
DIMNSIONS
  6
CONTINUOUS
 62
     7
 10
-45.0
 20
10.0
 30
0.0
 11
-30.300000000000001
 21
10.0
 31
0.0
  0
TEXT
  5
C2
  8
DIMNSIONS
 62
     7
 10
-43.0
 20
11.092666666666659
 30
0.0
 40
3.257682291666665
  1
\U+03C610.5
 41
0.7
 11
-43.0
 21
14.350348958333321
 31
0.0
 73
     3
  0
LINE
  5
C3
  8
DIMNSIONS
  6
CONTINUOUS
 62
     7
 10
-51.999999999999972
 20
2.589999999999995
 30
0.0
 11
-67.0
 21
2.589999999999995
 31
0.0
  0
LINE
  5
C4
  8
DIMNSIONS
  6
CONTINUOUS
 62
     7
 10
-52.00472098732164
 20
-31.450000000000131
 30
0.0
 11
-67.0
 21
-31.450000000000131
 31
0.0
  0
LINE
  5
C5
  8
DIMNSIONS
  6
CONTINUOUS
 62
     7
 10
-65.0
 20
2.589999999999995
 30
0.0
 11
-65.0
 21
-31.450000000000131
 31
0.0
  0
LINE
  5
C6
  8
DIMNSIONS
  6
CONTINUOUS
 62
     7
 10
-65.0
 20
2.589999999999995
 30
0.0
 11
-64.329960204849755
 21
0.0893774414062465
 31
0.0
  0
LINE
  5
C7
  8
DIMNSIONS
  6
CONTINUOUS
 62
     7
 10
-65.0
 20
2.589999999999995
 30
0.0
 11
-65.670039795150245
 21
0.0893774414062465
 31
0.0
  0
LINE
  5
C8
  8
DIMNSIONS
  6
CONTINUOUS
 62
     7
 10
-65.0
 20
-31.450000000000131
 30
0.0
 11
-65.670039795150245
 21
-28.94937744140638
 31
0.0
  0
LINE
  5
C9
  8
DIMNSIONS
  6
CONTINUOUS
 62
     7
 10
-65.0
 20
-31.450000000000131
 30
0.0
 11
-64.329960204849755
 21
-28.94937744140638
 31
0.0
  0
TEXT
  5
CA
  8
DIMNSIONS
 62
     7
 10
-66.092666666666645
 20
-16.546666666666731
 30
0.0
 40
3.257682291666665
  1
34
 50
90.0
 41
0.7
 11
-69.350348958333313
 21
-16.546666666666731
 31
0.0
 73
     3
  0
LINE
  5
CB
  8
DIMNSIONS
  6
CONTINUOUS
 62
     7
 10
-22.0
 20
-82.0
 30
0.0
 11
-22.0
 21
-97.0
 31
0.0
  0
LINE
  5
CC
  8
DIMNSIONS
  6
CONTINUOUS
 62
     7
 10
-15.0
 20
-84.950000000000003
 30
0.0
 11
-15.0
 21
-97.0
 31
0.0
  0
LINE
  5
CD
  8
DIMNSIONS
  6
CONTINUOUS
 62
     7
 10
-22.0
 20
-95.0
 30
0.0
 11
-15.0
 21
-95.0
 31
0.0
  0
LINE
  5
CE
  8
DIMNSIONS
  6
CONTINUOUS
 62
     7
 10
-22.0
 20
-95.0
 30
0.0
 11
-19.499377441406239
 21
-94.329960204849755
 31
0.0
  0
LINE
  5
CF
  8
DIMNSIONS
  6
CONTINUOUS
 62
     7
 10
-22.0
 20
-95.0
 30
0.0
 11
-19.499377441406239
 21
-95.670039795150245
 31
0.0
  0
LINE
  5
D0
  8
DIMNSIONS
  6
CONTINUOUS
 62
     7
 10
-15.0
 20
-95.0
 30
0.0
 11
-17.500622558593751
 21
-95.670039795150245
 31
0.0
  0
LINE
  5
D1
  8
DIMNSIONS
  6
CONTINUOUS
 62
     7
 10
-15.0
 20
-95.0
 30
0.0
 11
-17.500622558593751
 21
-94.329960204849755
 31
0.0
  0
TEXT
  5
D2
  8
DIMNSIONS
 62
     7
 10
-19.558333333333319
 20
-93.907333333333312
 30
0.0
 40
3.257682291666665
  1
7
 41
0.7
 11
-19.558333333333319
 21
-90.649651041666644
 31
0.0
 73
     3
  0
TEXT
  5
D3
  8
DATA
 62
     7
 10
50.0
 20
-118.86910999999991
 30
0.0
 40
2.4432617187500001
  1
4080-BM
 41
0.7
 11
50.0
 21
-116.4258482812499
 31
0.0
 73
     3
  0
TEXT
  5
D4
  8
DATA
 62
     7
 10
50.0
 20
-111.61910999999991
 30
0.0
 40
2.4432617187500001
  1
DPA
 41
0.7
 11
50.0
 21
-109.1758482812499
 31
0.0
 73
     3
  0
TEXT
  5
D5
  8
DATA
 62
     7
 10
47.499999999999993
 20
-115.0960662
 30
0.0
 40
1.628843710937498
  1
４０８０ 単一指向性マイクロフォン
 41
0.7
 11
47.499999999999993
 21
-113.46722248906249
 31
0.0
 73
     3
  0
TEXT
  5
D6
  8
DATA
 62
     7
 10
-87.499999999999986
 20
-122.1237222222222
 30
0.0
 40
1.900314670138888
  1
※仕様及び外観は予告なく変更されることがあります。
 41
0.7
 11
-87.499999999999986
 21
-120.2234075520833
 31
0.0
 73
     3
  0
TEXT
  5
D7
  8
DATA
 62
     7
 10
-87.499999999999986
 20
-124.59316666666651
 30
0.0
 40
1.900314670138888
  1
　また、同一商品でも若干の個体差があることがあります。ご了承ください。
 41
0.7
 11
-87.499999999999986
 21
-122.69285199652769
 31
0.0
 73
     3
  0
LINE
  5
D8
  8
DATA
  6
CONTINUOUS
 62
     7
 10
-12.24999999999998
 20
-20.899999999999999
 30
0.0
 11
-5.849999999999989
 21
-20.899999999999999
 31
0.0
  0
LINE
  5
D9
  8
DATA
  6
CONTINUOUS
 62
     7
 10
7.1500000000000092
 20
-20.899999999999999
 30
0.0
 11
13.55000000000001
 21
-20.899999999999999
 31
0.0
  0
LINE
  5
DA
  8
DATA
  6
CONTINUOUS
 62
     7
 10
-11.249999999999989
 20
-20.0
 30
0.0
 11
12.55000000000001
 21
-20.0
 31
0.0
  0
LINE
  5
DB
  8
DATA
  6
CONTINUOUS
 62
     7
 10
-8.2499999999999964
 20
-22.650000000000009
 30
0.0
 11
9.5500000000000078
 21
-22.650000000000009
 31
0.0
  0
LINE
  5
DC
  8
DATA
  6
CONTINUOUS
 62
     7
 10
-8.2499999999999964
 20
-22.650000000000009
 30
0.0
 11
-8.2499999999999964
 21
-20.899999999999999
 31
0.0
  0
LINE
  5
DD
  8
DATA
  6
CONTINUOUS
 62
     7
 10
9.5500000000000078
 20
-22.650000000000009
 30
0.0
 11
9.5500000000000078
 21
-20.899999999999999
 31
0.0
  0
LINE
  5
DE
  8
DATA
  6
CONTINUOUS
 62
     7
 10
-5.849999999999989
 20
-22.479999999999919
 30
0.0
 11
-5.849999999999989
 21
-21.612608695652192
 31
0.0
  0
LINE
  5
DF
  8
DATA
  6
CONTINUOUS
 62
     7
 10
-5.849999999999989
 20
-21.047391304347808
 30
0.0
 11
-5.849999999999989
 21
-20.180000000000021
 31
0.0
  0
LINE
  5
E0
  8
DATA
  6
CONTINUOUS
 62
     7
 10
-12.24999999999998
 20
-46.150000000000013
 30
0.0
 11
-12.24999999999998
 21
-53.850000000000009
 31
0.0
  0
LINE
  5
E1
  8
DATA
  6
CONTINUOUS
 62
     7
 10
13.55000000000001
 20
-46.150000000000013
 30
0.0
 11
13.55000000000001
 21
-48.082040136805297
 31
0.0
  0
LINE
  5
E2
  8
DATA
  6
CONTINUOUS
 62
     7
 10
13.55000000000001
 20
-51.917959863194703
 30
0.0
 11
13.55000000000001
 21
-53.850000000000009
 31
0.0
  0
LINE
  5
E3
  8
DATA
  6
CONTINUOUS
 62
     7
 10
-12.24999999999998
 20
-46.150000000000013
 30
0.0
 11
13.55000000000001
 21
-46.150000000000013
 31
0.0
  0
LINE
  5
E4
  8
DATA
  6
CONTINUOUS
 62
     7
 10
-12.24999999999998
 20
-53.850000000000009
 30
0.0
 11
13.55000000000001
 21
-53.850000000000009
 31
0.0
  0
LINE
  5
E5
  8
DATA
  6
CONTINUOUS
 62
     7
 10
-8.2499999999999964
 20
-46.150000000000013
 30
0.0
 11
-8.2499999999999964
 21
-47.5
 31
0.0
  0
LINE
  5
E6
  8
DATA
  6
CONTINUOUS
 62
     7
 10
-8.2499999999999964
 20
-52.5
 30
0.0
 11
-8.2499999999999964
 21
-53.850000000000009
 31
0.0
  0
LINE
  5
E7
  8
DATA
  6
CONTINUOUS
 62
     7
 10
9.5500000000000078
 20
-46.150000000000013
 30
0.0
 11
9.5500000000000078
 21
-47.135294117647057
 31
0.0
  0
LINE
  5
E8
  8
DATA
  6
CONTINUOUS
 62
     7
 10
9.5500000000000078
 20
-52.864705882352929
 30
0.0
 11
9.5500000000000078
 21
-53.850000000000009
 31
0.0
  0
LINE
  5
E9
  8
DATA
  6
CONTINUOUS
 62
     7
 10
-5.849999999999989
 20
-44.364384241139653
 30
0.0
 11
7.1500000000000092
 21
-44.364384241139653
 31
0.0
  0
LINE
  5
EA
  8
DATA
  6
CONTINUOUS
 62
     7
 10
-5.849999999999989
 20
-55.635615758860332
 30
0.0
 11
7.1500000000000092
 21
-55.635615758860332
 31
0.0
  0
LINE
  5
EB
  8
DATA
  6
CONTINUOUS
 62
     7
 10
-5.849999999999989
 20
-44.364384241139653
 30
0.0
 11
-5.849999999999989
 21
-46.150000000000013
 31
0.0
  0
LINE
  5
EC
  8
DATA
  6
CONTINUOUS
 62
     7
 10
-5.849999999999989
 20
-53.850000000000009
 30
0.0
 11
-5.849999999999989
 21
-55.635615758860332
 31
0.0
  0
LINE
  5
ED
  8
DATA
  6
CONTINUOUS
 62
     7
 10
7.1500000000000092
 20
-44.364384241139653
 30
0.0
 11
7.1500000000000092
 21
-46.150000000000013
 31
0.0
  0
LINE
  5
EE
  8
DATA
  6
CONTINUOUS
 62
     7
 10
7.1500000000000092
 20
-53.850000000000009
 30
0.0
 11
7.1500000000000092
 21
-55.635615758860332
 31
0.0
  0
LINE
  5
EF
  8
DATA
  6
CONTINUOUS
 62
     7
 10
-10.849999999999991
 20
-47.5
 30
0.0
 11
-10.849999999999991
 21
-52.5
 31
0.0
  0
LINE
  5
F0
  8
DATA
  6
CONTINUOUS
 62
     7
 10
-10.849999999999991
 20
-47.5
 30
0.0
 11
1.8499999999999961
 21
-47.5
 31
0.0
  0
LINE
  5
F1
  8
DATA
  6
CONTINUOUS
 62
     7
 10
-10.849999999999991
 20
-52.5
 30
0.0
 11
1.8499999999999961
 21
-52.5
 31
0.0
  0
LINE
  5
F2
  8
DATA
  6
CONTINUOUS
 62
     7
 10
1.8499999999999961
 20
-47.5
 30
0.0
 11
1.8499999999999961
 21
-52.5
 31
0.0
  0
LINE
  5
F3
  8
DATA
  6
CONTINUOUS
 62
     7
 10
-7.8499999999999979
 20
-47.5
 30
0.0
 11
-7.8499999999999979
 21
-52.5
 31
0.0
  0
LINE
  5
F4
  8
DATA
  6
CONTINUOUS
 62
     7
 10
13.85
 20
-49.100000000000001
 30
0.0
 11
13.85
 21
-50.864394487909451
 31
0.0
  0
LINE
  5
F5
  8
DATA
  6
CONTINUOUS
 62
     7
 10
5.3499999999999961
 20
-47.135294117647057
 30
0.0
 11
5.3499999999999961
 21
-52.864705882352929
 31
0.0
  0
LINE
  5
F6
  8
DATA
  6
CONTINUOUS
 62
     7
 10
1.8499999999999961
 20
-48.0
 30
0.0
 11
1.8499999999999961
 21
-52.0
 31
0.0
  0
LINE
  5
F7
  8
DATA
  6
CONTINUOUS
 62
     7
 10
1.8499999999999961
 20
-47.5
 30
0.0
 11
5.3499999999999961
 21
-47.135294117647057
 31
0.0
  0
LINE
  5
F8
  8
DATA
  6
CONTINUOUS
 62
     7
 10
1.8499999999999961
 20
-52.5
 30
0.0
 11
5.3499999999999961
 21
-52.864705882352929
 31
0.0
  0
LINE
  5
F9
  8
DATA
  6
CONTINUOUS
 62
     7
 10
11.85
 20
-47.135294117647057
 30
0.0
 11
11.85
 21
-52.864705882352929
 31
0.0
  0
ARC
  5
FA
  8
DATA
  6
CONTINUOUS
 62
     7
 10
11.85
 20
-49.135605512090549
 30
0.0
 40
2.0
 50
359.99999999999977
 51
91.010997052330367
  0
ARC
  5
FB
  8
DATA
  6
CONTINUOUS
 62
     7
 10
11.85
 20
-50.864394487909451
 30
0.0
 40
1.999999999999992
 50
268.98900294766958
 51
0.0
  0
LINE
  5
FC
  8
DATA
  6
CONTINUOUS
 62
     7
 10
5.849999999999997
 20
-47.135294117647057
 30
0.0
 11
5.849999999999997
 21
-52.864705882352929
 31
0.0
  0
LINE
  5
FD
  8
DATA
  6
CONTINUOUS
 62
     7
 10
6.849999999999997
 20
-47.135294117647057
 30
0.0
 11
6.849999999999997
 21
-52.864705882352929
 31
0.0
  0
LINE
  5
FE
  8
DATA
  6
CONTINUOUS
 62
     7
 10
7.8499999999999979
 20
-47.135294117647057
 30
0.0
 11
7.8499999999999979
 21
-52.864705882352929
 31
0.0
  0
LINE
  5
FF
  8
DATA
  6
CONTINUOUS
 62
     7
 10
8.8499999999999979
 20
-47.135294117647057
 30
0.0
 11
8.8499999999999979
 21
-52.864705882352929
 31
0.0
  0
LINE
  5
100
  8
DATA
  6
CONTINUOUS
 62
     7
 10
9.8499999999999979
 20
-47.135294117647057
 30
0.0
 11
9.8499999999999979
 21
-52.864705882352929
 31
0.0
  0
LINE
  5
101
  8
DATA
  6
CONTINUOUS
 62
     7
 10
10.849999999999991
 20
-47.135294117647057
 30
0.0
 11
10.849999999999991
 21
-52.864705882352929
 31
0.0
  0
LINE
  5
102
  8
DATA
  6
CONTINUOUS
 62
     7
 10
-53.84999999999998
 20
-20.000000000000011
 30
0.0
 11
-46.149999999999977
 21
-20.000000000000011
 31
0.0
  0
LINE
  5
103
  8
DATA
  6
CONTINUOUS
 62
     7
 10
-53.84999999999998
 20
-20.550000000000011
 30
0.0
 11
-46.149999999999977
 21
-20.550000000000011
 31
0.0
  0
LINE
  5
104
  8
DATA
  6
CONTINUOUS
 62
     7
 10
-53.84999999999998
 20
-20.000000000000011
 30
0.0
 11
-53.84999999999998
 21
-22.650000000000009
 31
0.0
  0
LINE
  5
105
  8
DATA
  6
CONTINUOUS
 62
     7
 10
-46.149999999999977
 20
-20.000000000000011
 30
0.0
 11
-46.149999999999977
 21
-22.650000000000009
 31
0.0
  0
LINE
  5
106
  8
DATA
  6
CONTINUOUS
 62
     7
 10
-52.849999999999973
 20
-20.550000000000011
 30
0.0
 11
-52.849999999999973
 21
-21.649999999999999
 31
0.0
  0
LINE
  5
107
  8
DATA
  6
CONTINUOUS
 62
     7
 10
-47.149999999999977
 20
-20.550000000000011
 30
0.0
 11
-47.149999999999977
 21
-21.649999999999999
 31
0.0
  0
LINE
  5
108
  8
DATA
  6
CONTINUOUS
 62
     7
 10
-52.849999999999973
 20
-21.649999999999999
 30
0.0
 11
-50.519337920062753
 21
-21.649999999999999
 31
0.0
  0
LINE
  5
109
  8
DATA
  6
CONTINUOUS
 62
     7
 10
-49.480662079937183
 20
-21.649999999999999
 30
0.0
 11
-47.149999999999977
 21
-21.649999999999999
 31
0.0
  0
LINE
  5
10A
  8
DATA
  6
CONTINUOUS
 62
     7
 10
-52.249999999999972
 20
-21.550000000000011
 30
0.0
 11
-47.749999999999972
 21
-21.550000000000011
 31
0.0
  0
LINE
  5
10B
  8
DATA
  6
CONTINUOUS
 62
     7
 10
-52.249999999999972
 20
-21.550000000000011
 30
0.0
 11
-52.249999999999972
 21
-20.550000000000011
 31
0.0
  0
LINE
  5
10C
  8
DATA
  6
CONTINUOUS
 62
     7
 10
-47.749999999999972
 20
-21.550000000000011
 30
0.0
 11
-47.749999999999972
 21
-20.550000000000011
 31
0.0
  0
POLYLINE
  5
10D
  8
DATA
  6
CONTINUOUS
 62
     7
 66
     1
 10
0.0
 20
0.0
 30
0.0
  0
VERTEX
  5
559
  8
DATA
  6
CONTINUOUS
 62
     7
 10
-50.519337920062753
 20
-21.649999999999999
 30
0.0
  0
VERTEX
  5
55A
  8
DATA
  6
CONTINUOUS
 62
     7
 10
-50.503845338389453
 20
-21.643988307874238
 30
0.0
  0
VERTEX
  5
55B
  8
DATA
  6
CONTINUOUS
 62
     7
 10
-50.48828318561857
 20
-21.638159077200001
 30
0.0
  0
VERTEX
  5
55C
  8
DATA
  6
CONTINUOUS
 62
     7
 10
-50.472653610576202
 20
-21.63251311287901
 30
0.0
  0
VERTEX
  5
55D
  8
DATA
  6
CONTINUOUS
 62
     7
 10
-50.456958771398249
 20
-21.627051194507519
 30
0.0
  0
VERTEX
  5
55E
  8
DATA
  6
CONTINUOUS
 62
     7
 10
-50.441200835232252
 20
-21.621774076268672
 30
0.0
  0
VERTEX
  5
55F
  8
DATA
  6
CONTINUOUS
 62
     7
 10
-50.425381977938223
 20
-21.616682486828331
 30
0.0
  0
VERTEX
  5
560
  8
DATA
  6
CONTINUOUS
 62
     7
 10
-50.409504383788111
 20
-21.611777129234522
 30
0.0
  0
VERTEX
  5
561
  8
DATA
  6
CONTINUOUS
 62
     7
 10
-50.393570245164369
 20
-21.60705868082033
 30
0.0
  0
VERTEX
  5
562
  8
DATA
  6
CONTINUOUS
 62
     7
 10
-50.377581762257051
 20
-21.60252779311033
 30
0.0
  0
VERTEX
  5
563
  8
DATA
  6
CONTINUOUS
 62
     7
 10
-50.361541142760103
 20
-21.59818509173072
 30
0.0
  0
VERTEX
  5
564
  8
DATA
  6
CONTINUOUS
 62
     7
 10
-50.34545060156649
 20
-21.594031176322851
 30
0.0
  0
VERTEX
  5
565
  8
DATA
  6
CONTINUOUS
 62
     7
 10
-50.329312360462438
 20
-21.590066620460469
 30
0.0
  0
VERTEX
  5
566
  8
DATA
  6
CONTINUOUS
 62
     7
 10
-50.313128647820548
 20
-21.586291971570478
 30
0.0
  0
VERTEX
  5
567
  8
DATA
  6
CONTINUOUS
 62
     7
 10
-50.296901698292118
 20
-21.58270775085742
 30
0.0
  0
VERTEX
  5
568
  8
DATA
  6
CONTINUOUS
 62
     7
 10
-50.280633752498638
 20
-21.579314453231412
 30
0.0
  0
VERTEX
  5
569
  8
DATA
  6
CONTINUOUS
 62
     7
 10
-50.264327056722351
 20
-21.576112547239902
 30
0.0
  0
VERTEX
  5
56A
  8
DATA
  6
CONTINUOUS
 62
     7
 10
-50.247983862596151
 20
-21.573102475002919
 30
0.0
  0
VERTEX
  5
56B
  8
DATA
  6
CONTINUOUS
 62
     7
 10
-50.231606426792609
 20
-21.570284652152029
 30
0.0
  0
VERTEX
  5
56C
  8
DATA
  6
CONTINUOUS
 62
     7
 10
-50.215197010712387
 20
-21.567659467772948
 30
0.0
  0
VERTEX
  5
56D
  8
DATA
  6
CONTINUOUS
 62
     7
 10
-50.198757880171968
 20
-21.56522728435186
 30
0.0
  0
VERTEX
  5
56E
  8
DATA
  6
CONTINUOUS
 62
     7
 10
-50.182291305090892
 20
-21.562988437725249
 30
0.0
  0
VERTEX
  5
56F
  8
DATA
  6
CONTINUOUS
 62
     7
 10
-50.165799559178168
 20
-21.56094323703369
 30
0.0
  0
VERTEX
  5
570
  8
DATA
  6
CONTINUOUS
 62
     7
 10
-50.149284919618452
 20
-21.55909196467902
 30
0.0
  0
VERTEX
  5
571
  8
DATA
  6
CONTINUOUS
 62
     7
 10
-50.132749666757533
 20
-21.557434876285431
 30
0.0
  0
VERTEX
  5
572
  8
DATA
  6
CONTINUOUS
 62
     7
 10
-50.116196083787543
 20
-21.555972200664069
 30
0.0
  0
VERTEX
  5
573
  8
DATA
  6
CONTINUOUS
 62
     7
 10
-50.099626456431537
 20
-21.554704139781659
 30
0.0
  0
VERTEX
  5
574
  8
DATA
  6
CONTINUOUS
 62
     7
 10
-50.083043072628072
 20
-21.55363086873232
 30
0.0
  0
VERTEX
  5
575
  8
DATA
  6
CONTINUOUS
 62
     7
 10
-50.066448222215179
 20
-21.552752535713619
 30
0.0
  0
VERTEX
  5
576
  8
DATA
  6
CONTINUOUS
 62
     7
 10
-50.049844196614181
 20
-21.552069262006011
 30
0.0
  0
VERTEX
  5
577
  8
DATA
  6
CONTINUOUS
 62
     7
 10
-50.033233288513287
 20
-21.55158114195611
 30
0.0
  0
VERTEX
  5
578
  8
DATA
  6
CONTINUOUS
 62
     7
 10
-50.01661779155117
 20
-21.551288242963668
 30
0.0
  0
VERTEX
  5
579
  8
DATA
  6
CONTINUOUS
 62
     7
 10
-49.999999999999972
 20
-21.55119060547225
 30
0.0
  0
VERTEX
  5
57A
  8
DATA
  6
CONTINUOUS
 62
     7
 10
-49.983382208448802
 20
-21.551288242963668
 30
0.0
  0
VERTEX
  5
57B
  8
DATA
  6
CONTINUOUS
 62
     7
 10
-49.966766711486663
 20
-21.55158114195611
 30
0.0
  0
VERTEX
  5
57C
  8
DATA
  6
CONTINUOUS
 62
     7
 10
-49.950155803385812
 20
-21.552069262006011
 30
0.0
  0
VERTEX
  5
57D
  8
DATA
  6
CONTINUOUS
 62
     7
 10
-49.933551777784793
 20
-21.552752535713619
 30
0.0
  0
VERTEX
  5
57E
  8
DATA
  6
CONTINUOUS
 62
     7
 10
-49.916956927371899
 20
-21.55363086873232
 30
0.0
  0
VERTEX
  5
57F
  8
DATA
  6
CONTINUOUS
 62
     7
 10
-49.900373543568442
 20
-21.554704139781659
 30
0.0
  0
VERTEX
  5
580
  8
DATA
  6
CONTINUOUS
 62
     7
 10
-49.883803916212422
 20
-21.555972200664069
 30
0.0
  0
VERTEX
  5
581
  8
DATA
  6
CONTINUOUS
 62
     7
 10
-49.867250333242417
 20
-21.557434876285431
 30
0.0
  0
VERTEX
  5
582
  8
DATA
  6
CONTINUOUS
 62
     7
 10
-49.850715080381491
 20
-21.55909196467902
 30
0.0
  0
VERTEX
  5
583
  8
DATA
  6
CONTINUOUS
 62
     7
 10
-49.834200440821803
 20
-21.56094323703369
 30
0.0
  0
VERTEX
  5
584
  8
DATA
  6
CONTINUOUS
 62
     7
 10
-49.817708694909058
 20
-21.562988437725249
 30
0.0
  0
VERTEX
  5
585
  8
DATA
  6
CONTINUOUS
 62
     7
 10
-49.801242119827997
 20
-21.56522728435186
 30
0.0
  0
VERTEX
  5
586
  8
DATA
  6
CONTINUOUS
 62
     7
 10
-49.784802989287577
 20
-21.567659467772948
 30
0.0
  0
VERTEX
  5
587
  8
DATA
  6
CONTINUOUS
 62
     7
 10
-49.768393573207362
 20
-21.570284652152029
 30
0.0
  0
VERTEX
  5
588
  8
DATA
  6
CONTINUOUS
 62
     7
 10
-49.752016137403807
 20
-21.573102475002919
 30
0.0
  0
VERTEX
  5
589
  8
DATA
  6
CONTINUOUS
 62
     7
 10
-49.735672943277613
 20
-21.576112547239902
 30
0.0
  0
VERTEX
  5
58A
  8
DATA
  6
CONTINUOUS
 62
     7
 10
-49.719366247501341
 20
-21.579314453231412
 30
0.0
  0
VERTEX
  5
58B
  8
DATA
  6
CONTINUOUS
 62
     7
 10
-49.703098301707861
 20
-21.58270775085742
 30
0.0
  0
VERTEX
  5
58C
  8
DATA
  6
CONTINUOUS
 62
     7
 10
-49.686871352179423
 20
-21.586291971570478
 30
0.0
  0
VERTEX
  5
58D
  8
DATA
  6
CONTINUOUS
 62
     7
 10
-49.670687639537512
 20
-21.590066620460469
 30
0.0
  0
VERTEX
  5
58E
  8
DATA
  6
CONTINUOUS
 62
     7
 10
-49.65454939843346
 20
-21.594031176322851
 30
0.0
  0
VERTEX
  5
58F
  8
DATA
  6
CONTINUOUS
 62
     7
 10
-49.63845885723984
 20
-21.59818509173072
 30
0.0
  0
VERTEX
  5
590
  8
DATA
  6
CONTINUOUS
 62
     7
 10
-49.62241823774292
 20
-21.60252779311033
 30
0.0
  0
VERTEX
  5
591
  8
DATA
  6
CONTINUOUS
 62
     7
 10
-49.606429754835602
 20
-21.60705868082033
 30
0.0
  0
VERTEX
  5
592
  8
DATA
  6
CONTINUOUS
 62
     7
 10
-49.590495616211861
 20
-21.611777129234522
 30
0.0
  0
VERTEX
  5
593
  8
DATA
  6
CONTINUOUS
 62
     7
 10
-49.574618022061742
 20
-21.616682486828331
 30
0.0
  0
VERTEX
  5
594
  8
DATA
  6
CONTINUOUS
 62
     7
 10
-49.55879916476767
 20
-21.621774076268672
 30
0.0
  0
VERTEX
  5
595
  8
DATA
  6
CONTINUOUS
 62
     7
 10
-49.543041228601702
 20
-21.627051194507519
 30
0.0
  0
VERTEX
  5
596
  8
DATA
  6
CONTINUOUS
 62
     7
 10
-49.527346389423769
 20
-21.63251311287901
 30
0.0
  0
VERTEX
  5
597
  8
DATA
  6
CONTINUOUS
 62
     7
 10
-49.511716814381401
 20
-21.638159077200001
 30
0.0
  0
VERTEX
  5
598
  8
DATA
  6
CONTINUOUS
 62
     7
 10
-49.496154661610518
 20
-21.643988307874238
 30
0.0
  0
VERTEX
  5
599
  8
DATA
  6
CONTINUOUS
 62
     7
 10
-49.480662079937218
 20
-21.649999999999999
 30
0.0
  0
SEQEND
  5
59A
  8
DATA
  6
CONTINUOUS
 62
     7
  0
LINE
  5
151
  8
DATA
  6
CONTINUOUS
 62
     7
 10
-52.34999999999998
 20
-27.150000000000009
 30
0.0
 11
-52.34999999999998
 21
-22.650000000000009
 31
0.0
  0
LINE
  5
152
  8
DATA
  6
CONTINUOUS
 62
     7
 10
-47.649999999999963
 20
-27.150000000000009
 30
0.0
 11
-47.649999999999963
 21
-22.650000000000009
 31
0.0
  0
LINE
  5
153
  8
DATA
  6
CONTINUOUS
 62
     7
 10
-52.34999999999998
 20
-23.45000000000001
 30
0.0
 11
-47.649999999999963
 21
-23.45000000000001
 31
0.0
  0
LINE
  5
154
  8
DATA
  6
CONTINUOUS
 62
     7
 10
-52.34999999999998
 20
-24.250000000000011
 30
0.0
 11
-47.649999999999963
 21
-24.250000000000011
 31
0.0
  0
LINE
  5
155
  8
DATA
  6
CONTINUOUS
 62
     7
 10
-52.34999999999998
 20
-25.750000000000011
 30
0.0
 11
-47.649999999999963
 21
-25.750000000000011
 31
0.0
  0
ARC
  5
156
  8
DATA
  6
CONTINUOUS
 62
     7
 10
-54.599999999999973
 20
-21.329999999999998
 30
0.0
 40
0.6499999999999986
 50
205.77146174055201
 51
154.22853825944691
  0
ARC
  5
157
  8
DATA
  6
CONTINUOUS
 62
     7
 10
-54.59999999999993
 20
-21.329999999999981
 30
0.0
 40
1.1499999999999631
 50
49.294293168958852
 51
154.2285382594504
  0
ARC
  5
158
  8
DATA
  6
CONTINUOUS
 62
     7
 10
-54.59999999999993
 20
-21.329999999999981
 30
0.0
 40
1.149999999999969
 50
205.7714617405521
 51
310.70570683103972
  0
LINE
  5
159
  8
DATA
  6
CONTINUOUS
 62
     7
 10
-55.635615758860332
 20
-21.830000000000009
 30
0.0
 11
-55.185348037616713
 21
-21.612608695652192
 31
0.0
  0
LINE
  5
15A
  8
DATA
  6
CONTINUOUS
 62
     7
 10
-55.635615758860332
 20
-20.830000000000009
 30
0.0
 11
-55.185348037616713
 21
-21.047391304347808
 31
0.0
  0
LINE
  5
15B
  8
DATA
  6
CONTINUOUS
 62
     7
 10
-52.030103098359461
 20
-31.450000000000131
 30
0.0
 11
-47.979338876283883
 21
-31.450000000000131
 31
0.0
  0
ARC
  5
15C
  8
DATA
  6
CONTINUOUS
 62
     7
 10
-50.519308605385781
 20
-29.649999999999999
 30
0.0
 40
2.349999999999993
 50
180.0
 51
229.9922460865194
  0
ARC
  5
15D
  8
DATA
  6
CONTINUOUS
 62
     7
 10
-49.490133369257528
 20
-29.649999999999999
 30
0.0
 40
2.3500000000000121
 50
310.00775391348049
 51
0.0
  0
LINE
  5
15E
  8
DATA
  6
CONTINUOUS
 62
     7
 10
1.8499999999999961
 20
-27.150000000000009
 30
0.0
 11
5.3499999999999961
 21
-30.350000000000009
 31
0.0
  0
ARC
  5
15F
  8
DATA
  6
CONTINUOUS
 62
     7
 10
-9.3499999999999979
 20
-24.20000000000001
 30
0.0
 40
1.5
 50
90.00000000012345
 51
150.0
  0
ARC
  5
160
  8
DATA
  6
CONTINUOUS
 62
     7
 10
-9.3499999999999979
 20
-24.20000000000001
 30
0.0
 40
1.499999999999998
 50
181.91021317170981
 51
291.04931154942381
  0
LINE
  5
161
  8
DATA
  6
CONTINUOUS
 62
     7
 10
5.3499999999999961
 20
-30.350000000000009
 30
0.0
 11
12.54230769230845
 21
-31.450000000000131
 31
0.0
  0
LINE
  5
162
  8
DATA
  6
CONTINUOUS
 62
     7
 10
1.8499999999999961
 20
-27.150000000000009
 30
0.0
 11
2.2675193028801841
 21
-24.179195793775271
 31
0.0
  0
LINE
  5
163
  8
DATA
  6
CONTINUOUS
 62
     7
 10
-8.2499999999999964
 20
-22.650000000000009
 30
0.0
 11
2.2675193028801841
 21
-24.179195793775271
 31
0.0
  0
LINE
  5
164
  8
DATA
  6
CONTINUOUS
 62
     7
 10
-8.8112430474715673
 20
-25.599907477693481
 30
0.0
 11
1.8499999999999961
 21
-27.150000000000009
 31
0.0
  0
LINE
  5
165
  8
DATA
  6
CONTINUOUS
 62
     7
 10
-10.84916643505656
 20
-24.250000000000011
 30
0.0
 11
-10.0983314773549
 21
-24.250000000000011
 31
0.0
  0
LINE
  5
166
  8
DATA
  6
CONTINUOUS
 62
     7
 10
-8.2499999999999964
 20
-22.650000000000009
 30
0.0
 11
-9.3499999999999979
 21
-22.70000000000001
 31
0.0
  0
ARC
  5
167
  8
DATA
  6
CONTINUOUS
 62
     7
 10
-9.3500000000000032
 20
-24.20000000000001
 30
0.0
 40
0.7499999999999929
 50
183.82255372927361
 51
89.999999999999446
  0
LINE
  5
168
  8
DATA
  6
CONTINUOUS
 62
     7
 10
-10.649038105676651
 20
-23.45000000000001
 30
0.0
 11
-9.3499999999999979
 21
-23.45000000000001
 31
0.0
  0
LINE
  5
169
  8
DATA
  6
CONTINUOUS
 62
     7
 10
7.8499999999999979
 20
-29.532352941176491
 30
0.0
 11
7.8499999999999979
 21
-28.150000000000009
 31
0.0
  0
LINE
  5
16A
  8
DATA
  6
CONTINUOUS
 62
     7
 10
2.1310816694047752
 20
-25.150000000000009
 30
0.0
 11
4.8499999999999961
 21
-25.150000000000009
 31
0.0
  0
ARC
  5
16B
  8
DATA
  6
CONTINUOUS
 62
     7
 10
4.8499999999999961
 20
-28.150000000000009
 30
0.0
 40
3.0
 50
0.0
 51
90.0
  0
CIRCLE
  5
16C
  8
DATA
  6
CONTINUOUS
 62
     7
 10
5.849999999999997
 20
-26.650000000000009
 30
0.0
 40
1.0
  0
LINE
  5
16D
  8
DATA
  6
CONTINUOUS
 62
     7
 10
7.8499999999999979
 20
-29.532352941176491
 30
0.0
 11
13.85
 21
-30.45000000000001
 31
0.0
  0
POLYLINE
  5
16E
  8
DATA
  6
CONTINUOUS
 62
     7
 66
     1
 10
0.0
 20
0.0
 30
0.0
  0
VERTEX
  5
59B
  8
DATA
  6
CONTINUOUS
 62
     7
 10
13.85
 20
-30.45000000000001
 30
0.0
  0
VERTEX
  5
59C
  8
DATA
  6
CONTINUOUS
 62
     7
 10
13.844078901295379
 20
-30.469326036038169
 30
0.0
  0
VERTEX
  5
59D
  8
DATA
  6
CONTINUOUS
 62
     7
 10
13.837640980840829
 20
-30.488606889824212
 30
0.0
  0
VERTEX
  5
59E
  8
DATA
  6
CONTINUOUS
 62
     7
 10
13.830687498849979
 20
-30.507838787158789
 30
0.0
  0
VERTEX
  5
59F
  8
DATA
  6
CONTINUOUS
 62
     7
 10
13.82321981645692
 20
-30.527017963425688
 30
0.0
  0
VERTEX
  5
5A0
  8
DATA
  6
CONTINUOUS
 62
     7
 10
13.81523939544971
 20
-30.546140664328881
 30
0.0
  0
VERTEX
  5
5A1
  8
DATA
  6
CONTINUOUS
 62
     7
 10
13.80674779798426
 20
-30.565203146627152
 30
0.0
  0
VERTEX
  5
5A2
  8
DATA
  6
CONTINUOUS
 62
     7
 10
13.79774668627854
 20
-30.584201678867089
 30
0.0
  0
VERTEX
  5
5A3
  8
DATA
  6
CONTINUOUS
 62
     7
 10
13.78823782228719
 20
-30.603132542113411
 30
0.0
  0
VERTEX
  5
5A4
  8
DATA
  6
CONTINUOUS
 62
     7
 10
13.77822306735662
 20
-30.621992030676889
 30
0.0
  0
VERTEX
  5
5A5
  8
DATA
  6
CONTINUOUS
 62
     7
 10
13.767704381860691
 20
-30.640776452839841
 30
0.0
  0
VERTEX
  5
5A6
  8
DATA
  6
CONTINUOUS
 62
     7
 10
13.756683824816911
 20
-30.659482131578709
 30
0.0
  0
VERTEX
  5
5A7
  8
DATA
  6
CONTINUOUS
 62
     7
 10
13.74516355348344
 20
-30.67810540528383
 30
0.0
  0
VERTEX
  5
5A8
  8
DATA
  6
CONTINUOUS
 62
     7
 10
13.73314582293678
 20
-30.696642628476209
 30
0.0
  0
VERTEX
  5
5A9
  8
DATA
  6
CONTINUOUS
 62
     7
 10
13.720632985630401
 20
-30.715090172521158
 30
0.0
  0
VERTEX
  5
5AA
  8
DATA
  6
CONTINUOUS
 62
     7
 10
13.70762749093412
 20
-30.73344442633849
 30
0.0
  0
VERTEX
  5
5AB
  8
DATA
  6
CONTINUOUS
 62
     7
 10
13.694131884654819
 20
-30.751701797109479
 30
0.0
  0
VERTEX
  5
5AC
  8
DATA
  6
CONTINUOUS
 62
     7
 10
13.68014880853795
 20
-30.769858710980131
 30
0.0
  0
VERTEX
  5
5AD
  8
DATA
  6
CONTINUOUS
 62
     7
 10
13.665680999750521
 20
-30.787911613760709
 30
0.0
  0
VERTEX
  5
5AE
  8
DATA
  6
CONTINUOUS
 62
     7
 10
13.650731290345229
 20
-30.805856971621509
 30
0.0
  0
VERTEX
  5
5AF
  8
DATA
  6
CONTINUOUS
 62
     7
 10
13.635302606706169
 20
-30.823691271784611
 30
0.0
  0
VERTEX
  5
5B0
  8
DATA
  6
CONTINUOUS
 62
     7
 10
13.61939796897591
 20
-30.841411023211471
 30
0.0
  0
VERTEX
  5
5B1
  8
DATA
  6
CONTINUOUS
 62
     7
 10
13.60302049046436
 20
-30.859012757286251
 30
0.0
  0
VERTEX
  5
5B2
  8
DATA
  6
CONTINUOUS
 62
     7
 10
13.58617337703935
 20
-30.87649302849492
 30
0.0
  0
VERTEX
  5
5B3
  8
DATA
  6
CONTINUOUS
 62
     7
 10
13.56885992649903
 20
-30.893848415099558
 30
0.0
  0
VERTEX
  5
5B4
  8
DATA
  6
CONTINUOUS
 62
     7
 10
13.551083527926391
 20
-30.91107551980825
 30
0.0
  0
VERTEX
  5
5B5
  8
DATA
  6
CONTINUOUS
 62
     7
 10
13.532847661025841
 20
-30.92817097044011
 30
0.0
  0
VERTEX
  5
5B6
  8
DATA
  6
CONTINUOUS
 62
     7
 10
13.514155895442039
 20
-30.94513142058528
 30
0.0
  0
VERTEX
  5
5B7
  8
DATA
  6
CONTINUOUS
 62
     7
 10
13.49501189006115
 20
-30.961953550260109
 30
0.0
  0
VERTEX
  5
5B8
  8
DATA
  6
CONTINUOUS
 62
     7
 10
13.47541939229464
 20
-30.97863406655696
 30
0.0
  0
VERTEX
  5
5B9
  8
DATA
  6
CONTINUOUS
 62
     7
 10
13.455382237345701
 20
-30.995169704288799
 30
0.0
  0
VERTEX
  5
5BA
  8
DATA
  6
CONTINUOUS
 62
     7
 10
13.434904347458559
 20
-31.011557226628391
 30
0.0
  0
VERTEX
  5
5BB
  8
DATA
  6
CONTINUOUS
 62
     7
 10
13.413989731150609
 20
-31.027793425741841
 30
0.0
  0
VERTEX
  5
5BC
  8
DATA
  6
CONTINUOUS
 62
     7
 10
13.392642482427849
 20
-31.043875123416591
 30
0.0
  0
VERTEX
  5
5BD
  8
DATA
  6
CONTINUOUS
 62
     7
 10
13.37086677998348
 20
-31.05979917168349
 30
0.0
  0
VERTEX
  5
5BE
  8
DATA
  6
CONTINUOUS
 62
     7
 10
13.34866688637984
 20
-31.075562453433051
 30
0.0
  0
VERTEX
  5
5BF
  8
DATA
  6
CONTINUOUS
 62
     7
 10
13.32604714721411
 20
-31.091161883025581
 30
0.0
  0
VERTEX
  5
5C0
  8
DATA
  6
CONTINUOUS
 62
     7
 10
13.303011990267629
 20
-31.10659440689524
 30
0.0
  0
VERTEX
  5
5C1
  8
DATA
  6
CONTINUOUS
 62
     7
 10
13.27956592463917
 20
-31.121857004147682
 30
0.0
  0
VERTEX
  5
5C2
  8
DATA
  6
CONTINUOUS
 62
     7
 10
13.25571353986229
 20
-31.13694668715155
 30
0.0
  0
VERTEX
  5
5C3
  8
DATA
  6
CONTINUOUS
 62
     7
 10
13.23145950500693
 20
-31.1518605021231
 30
0.0
  0
VERTEX
  5
5C4
  8
DATA
  6
CONTINUOUS
 62
     7
 10
13.206808567765441
 20
-31.16659552970458
 30
0.0
  0
VERTEX
  5
5C5
  8
DATA
  6
CONTINUOUS
 62
     7
 10
13.18176555352326
 20
-31.18114888553556
 30
0.0
  0
VERTEX
  5
5C6
  8
DATA
  6
CONTINUOUS
 62
     7
 10
13.156335364414341
 20
-31.19551772081762
 30
0.0
  0
VERTEX
  5
5C7
  8
DATA
  6
CONTINUOUS
 62
     7
 10
13.13052297836153
 20
-31.209699222871961
 30
0.0
  0
VERTEX
  5
5C8
  8
DATA
  6
CONTINUOUS
 62
     7
 10
13.10433344810221
 20
-31.22369061569
 30
0.0
  0
VERTEX
  5
5C9
  8
DATA
  6
CONTINUOUS
 62
     7
 10
13.077771900199171
 20
-31.237489160476759
 30
0.0
  0
VERTEX
  5
5CA
  8
DATA
  6
CONTINUOUS
 62
     7
 10
13.05084353403713
 20
-31.251092156186981
 30
0.0
  0
VERTEX
  5
5CB
  8
DATA
  6
CONTINUOUS
 62
     7
 10
13.02355362080495
 20
-31.26449694005386
 30
0.0
  0
VERTEX
  5
5CC
  8
DATA
  6
CONTINUOUS
 62
     7
 10
12.995907502463821
 20
-31.277700888110282
 30
0.0
  0
VERTEX
  5
5CD
  8
DATA
  6
CONTINUOUS
 62
     7
 10
12.967910590701541
 20
-31.290701415702451
 30
0.0
  0
VERTEX
  5
5CE
  8
DATA
  6
CONTINUOUS
 62
     7
 10
12.93956836587326
 20
-31.303495977995809
 30
0.0
  0
VERTEX
  5
5CF
  8
DATA
  6
CONTINUOUS
 62
     7
 10
12.910886375928611
 20
-31.316082070473261
 30
0.0
  0
VERTEX
  5
5D0
  8
DATA
  6
CONTINUOUS
 62
     7
 10
12.881870235325801
 20
-31.328457229425322
 30
0.0
  0
VERTEX
  5
5D1
  8
DATA
  6
CONTINUOUS
 62
     7
 10
12.852525623932531
 20
-31.34061903243245
 30
0.0
  0
VERTEX
  5
5D2
  8
DATA
  6
CONTINUOUS
 62
     7
 10
12.822858285914171
 20
-31.352565098839278
 30
0.0
  0
VERTEX
  5
5D3
  8
DATA
  6
CONTINUOUS
 62
     7
 10
12.792874028609379
 20
-31.364293090220489
 30
0.0
  0
VERTEX
  5
5D4
  8
DATA
  6
CONTINUOUS
 62
     7
 10
12.76257872139332
 20
-31.375800710838689
 30
0.0
  0
VERTEX
  5
5D5
  8
DATA
  6
CONTINUOUS
 62
     7
 10
12.731978294528711
 20
-31.387085708093739
 30
0.0
  0
VERTEX
  5
5D6
  8
DATA
  6
CONTINUOUS
 62
     7
 10
12.701078738004989
 20
-31.398145872963671
 30
0.0
  0
VERTEX
  5
5D7
  8
DATA
  6
CONTINUOUS
 62
     7
 10
12.669886100365821
 20
-31.40897904043717
 30
0.0
  0
VERTEX
  5
5D8
  8
DATA
  6
CONTINUOUS
 62
     7
 10
12.63840648752506
 20
-31.419583089937291
 30
0.0
  0
VERTEX
  5
5D9
  8
DATA
  6
CONTINUOUS
 62
     7
 10
12.60664606157154
 20
-31.429955945736669
 30
0.0
  0
VERTEX
  5
5DA
  8
DATA
  6
CONTINUOUS
 62
     7
 10
12.574611039562861
 20
-31.44009557736371
 30
0.0
  0
VERTEX
  5
5DB
  8
DATA
  6
CONTINUOUS
 62
     7
 10
12.54230769230845
 20
-31.450000000000131
 30
0.0
  0
SEQEND
  5
5DC
  8
DATA
  6
CONTINUOUS
 62
     7
  0
LINE
  5
1B2
  8
DATA
  6
CONTINUOUS
 62
     7
 10
-47.246809941840247
 20
-30.350000000000009
 30
0.0
 11
-52.762632032803289
 21
-30.350000000000009
 31
0.0
  0
LINE
  5
1B3
  8
DATA
  6
CONTINUOUS
 62
     7
 10
-47.331732625274753
 20
-30.579411764705888
 30
0.0
 11
-52.677709349368811
 21
-30.579411764705888
 31
0.0
  0
LINE
  5
1B4
  8
DATA
  6
CONTINUOUS
 62
     7
 10
-47.404225386932808
 20
-30.73235294117649
 30
0.0
 11
-52.605216587710771
 21
-30.73235294117649
 31
0.0
  0
LINE
  5
1B5
  8
DATA
  6
CONTINUOUS
 62
     7
 10
-47.490996444755837
 20
-30.885294117647071
 30
0.0
 11
-52.518445529887742
 21
-30.885294117647071
 31
0.0
  0
LINE
  5
1B6
  8
DATA
  6
CONTINUOUS
 62
     7
 10
-47.594005006470702
 20
-31.038235294117658
 30
0.0
 11
-52.415436968172877
 21
-31.038235294117658
 31
0.0
  0
LINE
  5
1B7
  8
DATA
  6
CONTINUOUS
 62
     7
 10
-47.716077257827102
 20
-31.19117647058825
 30
0.0
 11
-52.29336471681647
 21
-31.19117647058825
 31
0.0
  0
LINE
  5
1B8
  8
DATA
  6
CONTINUOUS
 62
     7
 10
-52.000155804511138
 20
-27.150000000000009
 30
0.0
 11
-48.000155804511131
 21
-27.150000000000009
 31
0.0
  0
LINE
  5
1B9
  8
DATA
  6
CONTINUOUS
 62
     7
 10
-52.34999999999998
 20
-27.150000000000009
 30
0.0
 11
-52.869308605385768
 21
-29.649999999999999
 31
0.0
  0
LINE
  5
1BA
  8
DATA
  6
CONTINUOUS
 62
     7
 10
-47.649999999999963
 20
-27.150000000000009
 30
0.0
 11
-47.14013336925747
 21
-29.649999999999999
 31
0.0
  0
LINE
  5
1BB
  8
DATA
  6
CONTINUOUS
 62
     7
 10
-47.649999999999963
 20
-27.150000000000009
 30
0.0
 11
-52.34999999999998
 21
-27.150000000000009
 31
0.0
  0
ARC
  5
1BC
  8
DATA
  6
CONTINUOUS
 62
     7
 10
-11.249999999999989
 20
-21.0
 30
0.0
 40
1.0
 50
90.0
 51
174.26082952273231
  0
ARC
  5
1BD
  8
DATA
  6
CONTINUOUS
 62
     7
 10
12.55000000000001
 20
-21.0
 30
0.0
 40
0.9999999999999996
 50
5.7391704772668701
 51
90.0
  0
LINE
  5
1BE
  8
DATA
  6
CONTINUOUS
 62
     7
 10
11.55000000000001
 20
-23.728510347099061
 30
0.0
 11
11.55000000000001
 21
-22.399999999999999
 31
0.0
  0
LINE
  5
1BF
  8
DATA
  6
CONTINUOUS
 62
     7
 10
12.55000000000001
 20
-23.732062629117681
 30
0.0
 11
12.55000000000001
 21
-21.649999999999999
 31
0.0
  0
LINE
  5
1C0
  8
DATA
  6
CONTINUOUS
 62
     7
 10
9.5500000000000078
 20
-21.899999999999999
 30
0.0
 11
11.05000000000001
 21
-21.899999999999999
 31
0.0
  0
ARC
  5
1C1
  8
DATA
  6
CONTINUOUS
 62
     7
 10
11.05000000000001
 20
-22.399999999999999
 30
0.0
 40
0.5
 50
0.0
 51
90.0
  0
LINE
  5
1C2
  8
DATA
  6
CONTINUOUS
 62
     7
 10
7.0449346539680953
 20
-26.104942087663701
 30
0.0
 11
11.257502589961581
 21
-24.183419871245611
 31
0.0
  0
LINE
  5
1C3
  8
DATA
  6
CONTINUOUS
 62
     7
 10
7.6000232682521851
 20
-26.951095490011181
 30
0.0
 11
11.671586231303539
 21
-25.097211176732149
 31
0.0
  0
ARC
  5
1C4
  8
DATA
  6
CONTINUOUS
 62
     7
 10
11.05000000000001
 20
-23.728510347099061
 30
0.0
 40
0.4999999999999992
 50
294.5196426881908
 51
0.0
  0
LINE
  5
1C5
  8
DATA
  6
CONTINUOUS
 62
     7
 10
11.85
 20
-47.135294117647057
 30
0.0
 11
5.3499999999999961
 21
-47.135294117647057
 31
0.0
  0
LINE
  5
1C6
  8
DATA
  6
CONTINUOUS
 62
     7
 10
11.85
 20
-52.864705882352929
 30
0.0
 11
5.3499999999999961
 21
-52.864705882352929
 31
0.0
  0
LINE
  5
1C7
  8
DATA
  6
CONTINUOUS
 62
     7
 10
4.8499999999999961
 20
-47.135294117647057
 30
0.0
 11
4.8499999999999961
 21
-47.187394957983201
 31
0.0
  0
LINE
  5
1C8
  8
DATA
  6
CONTINUOUS
 62
     7
 10
6.349999999999997
 20
-46.635294117647057
 30
0.0
 11
5.3499999999999961
 21
-46.635294117647057
 31
0.0
  0
ARC
  5
1C9
  8
DATA
  6
CONTINUOUS
 62
     7
 10
5.3499999999999961
 20
-47.135294117647057
 30
0.0
 40
0.5
 50
90.0
 51
180.0
  0
ARC
  5
1CA
  8
DATA
  6
CONTINUOUS
 62
     7
 10
6.349999999999997
 20
-47.135294117647057
 30
0.0
 40
0.5
 50
0.0
 51
90.0
  0
LINE
  5
1CB
  8
DATA
  6
CONTINUOUS
 62
     7
 10
-46.149999999999977
 20
-22.650000000000009
 30
0.0
 11
-53.84999999999998
 21
-22.650000000000009
 31
0.0
  0
LINE
  5
1CC
  8
DATA
  6
CONTINUOUS
 62
     7
 10
-8.2499999999999964
 20
-22.650000000000009
 30
0.0
 11
-5.849999999999989
 21
-22.650000000000009
 31
0.0
  0
LINE
  5
1CD
  8
DATA
  6
CONTINUOUS
 62
     7
 10
7.1500000000000092
 20
-22.650000000000009
 30
0.0
 11
9.5500000000000078
 21
-22.650000000000009
 31
0.0
  0
LINE
  5
1CE
  8
DATA
  6
CONTINUOUS
 62
     7
 10
-52.34999999999998
 20
-22.650000000000009
 30
0.0
 11
-47.649999999999963
 21
-22.650000000000009
 31
0.0
  0
ARC
  5
1CF
  8
DATA
  6
CONTINUOUS
 62
     7
 10
-45.399999999999977
 20
-21.329999999999998
 30
0.0
 40
0.6500000000000048
 50
25.771461740553061
 51
334.22853825944799
  0
ARC
  5
1D0
  8
DATA
  6
CONTINUOUS
 62
     7
 10
-45.400000000000013
 20
-21.329999999999981
 30
0.0
 40
1.1499999999999451
 50
25.771461740549611
 51
130.7057068310412
  0
ARC
  5
1D1
  8
DATA
  6
CONTINUOUS
 62
     7
 10
-45.400000000000013
 20
-21.329999999999981
 30
0.0
 40
1.1499999999999551
 50
229.29429316896039
 51
334.22853825944787
  0
LINE
  5
1D2
  8
DATA
  6
CONTINUOUS
 62
     7
 10
-44.364384241139618
 20
-21.830000000000009
 30
0.0
 11
-44.814651962383238
 21
-21.612608695652192
 31
0.0
  0
LINE
  5
1D3
  8
DATA
  6
CONTINUOUS
 62
     7
 10
-44.364384241139618
 20
-20.830000000000009
 30
0.0
 11
-44.814651962383238
 21
-21.047391304347808
 31
0.0
  0
LINE
  5
1D4
  8
DATA
  6
CONTINUOUS
 62
     7
 10
-5.849999999999989
 20
-20.180000000000021
 30
0.0
 11
7.1500000000000092
 21
-20.180000000000021
 31
0.0
  0
LINE
  5
1D5
  8
DATA
  6
CONTINUOUS
 62
     7
 10
-5.849999999999989
 20
-22.479999999999919
 30
0.0
 11
7.1500000000000092
 21
-22.479999999999919
 31
0.0
  0
LINE
  5
1D6
  8
DATA
  6
CONTINUOUS
 62
     7
 10
7.1500000000000092
 20
-20.180000000000021
 30
0.0
 11
7.1500000000000092
 21
-21.047391304347808
 31
0.0
  0
LINE
  5
1D7
  8
DATA
  6
CONTINUOUS
 62
     7
 10
7.1500000000000092
 20
-21.612608695652192
 30
0.0
 11
7.1500000000000092
 21
-22.479999999999919
 31
0.0
  0
LINE
  5
1D8
  8
DATA
  6
CONTINUOUS
 62
     7
 10
-5.849999999999989
 20
-20.830000000000009
 30
0.0
 11
7.1500000000000092
 21
-20.830000000000009
 31
0.0
  0
LINE
  5
1D9
  8
DATA
  6
CONTINUOUS
 62
     7
 10
-5.849999999999989
 20
-21.047391304347808
 30
0.0
 11
7.1500000000000092
 21
-21.047391304347808
 31
0.0
  0
LINE
  5
1DA
  8
DATA
  6
CONTINUOUS
 62
     7
 10
-5.849999999999989
 20
-21.612608695652192
 30
0.0
 11
7.1500000000000092
 21
-21.612608695652192
 31
0.0
  0
LINE
  5
1DB
  8
DATA
  6
CONTINUOUS
 62
     7
 10
-5.849999999999989
 20
-21.830000000000009
 30
0.0
 11
7.1500000000000092
 21
-21.830000000000009
 31
0.0
  0
LINE
  5
1DC
  8
DATA
  6
CONTINUOUS
 62
     7
 10
-8.2499999999999964
 20
-22.650000000000009
 30
0.0
 11
9.5500000000000078
 21
-22.650000000000009
 31
0.0
  0
LINE
  5
1DD
  8
DATA
  6
CONTINUOUS
 62
     7
 10
-2.249999999999988
 20
-19.0
 30
0.0
 11
2.7500000000000102
 21
-19.0
 31
0.0
  0
LINE
  5
1DE
  8
DATA
  6
CONTINUOUS
 62
     7
 10
-1.249999999999988
 20
-20.0
 30
0.0
 11
-2.249999999999988
 21
-19.0
 31
0.0
  0
LINE
  5
1DF
  8
DATA
  6
CONTINUOUS
 62
     7
 10
2.7500000000000102
 20
-19.0
 30
0.0
 11
1.75000000000001
 21
-20.0
 31
0.0
  0
LINE
  5
1E0
  8
DATA
  6
CONTINUOUS
 62
     7
 10
-5.4999999999999867
 20
-18.0
 30
0.0
 11
6.0000000000000089
 21
-18.0
 31
0.0
  0
LINE
  5
1E1
  8
DATA
  6
CONTINUOUS
 62
     7
 10
-5.4999999999999867
 20
-18.0
 30
0.0
 11
-2.249999999999988
 21
-19.0
 31
0.0
  0
LINE
  5
1E2
  8
DATA
  6
CONTINUOUS
 62
     7
 10
2.7500000000000102
 20
-19.0
 30
0.0
 11
6.0000000000000089
 21
-18.0
 31
0.0
  0
LINE
  5
1E3
  8
DATA
  6
CONTINUOUS
 62
     7
 10
-5.4999999999999867
 20
-16.0
 30
0.0
 11
6.0000000000000089
 21
-16.0
 31
0.0
  0
LINE
  5
1E4
  8
DATA
  6
CONTINUOUS
 62
     7
 10
-5.4999999999999867
 20
-16.5
 30
0.0
 11
-5.4999999999999867
 21
-17.5
 31
0.0
  0
ARC
  5
1E5
  8
DATA
  6
CONTINUOUS
 62
     7
 10
-4.9999999999999867
 20
-17.5
 30
0.0
 40
0.5
 50
180.0
 51
270.0
  0
ARC
  5
1E6
  8
DATA
  6
CONTINUOUS
 62
     7
 10
-4.9999999999999867
 20
-16.5
 30
0.0
 40
0.5
 50
90.0
 51
180.0
  0
ARC
  5
1E7
  8
DATA
  6
CONTINUOUS
 62
     7
 10
0.2500000000000107
 20
-16.0
 30
0.0
 40
5.75
 50
0.0
 51
44.079209847887732
  0
ARC
  5
1E8
  8
DATA
  6
CONTINUOUS
 62
     7
 10
0.2500000000000107
 20
-16.0
 30
0.0
 40
5.75
 50
135.9207901521122
 51
180.0
  0
ARC
  5
1E9
  8
DATA
  6
CONTINUOUS
 62
     7
 10
0.2500000000000107
 20
-10.25
 30
0.0
 40
4.4860896112315771
 50
208.8135809723841
 51
331.1864190276159
  0
LINE
  5
1EA
  8
DATA
  6
CONTINUOUS
 62
     7
 10
-3.8806779104645521
 20
-7.6000000000000014
 30
0.0
 11
-3.880677910464545
 21
-12.000000000000011
 31
0.0
  0
LINE
  5
1EB
  8
DATA
  6
CONTINUOUS
 62
     7
 10
4.3806779104645708
 20
-7.6000000000000014
 30
0.0
 11
4.3806779104645708
 21
-11.99999999999998
 31
0.0
  0
LINE
  5
1EC
  8
DATA
  6
CONTINUOUS
 62
     7
 10
-17.77546696784486
 20
-7.9100000000000019
 30
0.0
 11
-4.4999999999999867
 21
-7.9100000000000019
 31
0.0
  0
LINE
  5
1ED
  8
DATA
  6
CONTINUOUS
 62
     7
 10
-3.680677910464548
 20
-7.9100000000000019
 30
0.0
 11
-3.680677910464548
 21
-13.0
 31
0.0
  0
LINE
  5
1EE
  8
DATA
  6
CONTINUOUS
 62
     7
 10
4.1806779104645688
 20
-7.9100000000000019
 30
0.0
 11
4.1806779104645688
 21
-13.0
 31
0.0
  0
LINE
  5
1EF
  8
DATA
  6
CONTINUOUS
 62
     7
 10
-3.8806779104645521
 20
-11.99999999999998
 30
0.0
 11
-4.2499999999999867
 21
-14.000000000000011
 31
0.0
  0
LINE
  5
1F0
  8
DATA
  6
CONTINUOUS
 62
     7
 10
4.3806779104645663
 20
-12.000000000000011
 30
0.0
 11
4.7500000000000089
 21
-14.000000000000011
 31
0.0
  0
LINE
  5
1F1
  8
DATA
  6
CONTINUOUS
 62
     7
 10
-17.77546696784486
 20
2.589999999999995
 30
0.0
 11
-4.4999999999999867
 21
2.589999999999995
 31
0.0
  0
LINE
  5
1F2
  8
DATA
  6
CONTINUOUS
 62
     7
 10
-3.9999999999999871
 20
-7.9100000000000019
 30
0.0
 11
-3.9999999999999871
 21
2.589999999999995
 31
0.0
  0
LINE
  5
1F3
  8
DATA
  6
CONTINUOUS
 62
     7
 10
4.5000000000000089
 20
-7.9100000000000019
 30
0.0
 11
4.5000000000000089
 21
2.589999999999995
 31
0.0
  0
LINE
  5
1F4
  8
DATA
  6
CONTINUOUS
 62
     7
 10
-3.8806779104645521
 20
-7.9100000000000019
 30
0.0
 11
-3.8806779104645521
 21
2.589999999999995
 31
0.0
  0
LINE
  5
1F5
  8
DATA
  6
CONTINUOUS
 62
     7
 10
4.3806779104645708
 20
-7.9100000000000019
 30
0.0
 11
4.3806779104645708
 21
2.589999999999995
 31
0.0
  0
LINE
  5
1F6
  8
DATA
  6
CONTINUOUS
 62
     7
 10
10.500000000000011
 20
-7.4100000000000019
 30
0.0
 11
10.500000000000011
 21
2.089999999999995
 31
0.0
  0
LINE
  5
1F7
  8
DATA
  6
CONTINUOUS
 62
     7
 10
-19.999999999999989
 20
-5.4699003388254814
 30
0.0
 11
-19.999999999999989
 21
0.1499003388254749
 31
0.0
  0
LINE
  5
1F8
  8
DATA
  6
CONTINUOUS
 62
     7
 10
-19.873704659341819
 20
0.482082258240432
 30
0.0
 11
-18.149171627186679
 21
2.422181919414951
 31
0.0
  0
LINE
  5
1F9
  8
DATA
  6
CONTINUOUS
 62
     7
 10
-19.873704659341819
 20
-5.8020822582404392
 30
0.0
 11
-18.149171627186679
 21
-7.7421819194149588
 31
0.0
  0
ARC
  5
1FA
  8
DATA
  6
CONTINUOUS
 62
     7
 10
10.000000000000011
 20
2.089999999999995
 30
0.0
 40
0.5
 50
0.0
 51
90.0
  0
ARC
  5
1FB
  8
DATA
  6
CONTINUOUS
 62
     7
 10
10.000000000000011
 20
-7.4100000000000019
 30
0.0
 40
0.5
 50
270.0
 51
0.0
  0
ARC
  5
1FC
  8
DATA
  6
CONTINUOUS
 62
     7
 10
-17.775466967844849
 20
2.090000000000003
 30
0.0
 40
0.4999999999999929
 50
90.00000000000081
 51
138.36646066343141
  0
ARC
  5
1FD
  8
DATA
  6
CONTINUOUS
 62
     7
 10
-17.77546696784486
 20
-7.4100000000000019
 30
0.0
 40
0.5000000000000001
 50
221.6335393365697
 51
270.0
  0
ARC
  5
1FE
  8
DATA
  6
CONTINUOUS
 62
     7
 10
-19.5
 20
-5.4699003388254752
 30
0.0
 40
0.4999999999999929
 50
180.0000000000008
 51
221.63353933657089
  0
ARC
  5
1FF
  8
DATA
  6
CONTINUOUS
 62
     7
 10
-19.499999999999989
 20
0.1499003388254749
 30
0.0
 40
0.5000000000000001
 50
138.3664606634303
 51
180.0
  0
ARC
  5
200
  8
DATA
  6
CONTINUOUS
 62
     7
 10
-4.4999999999999867
 20
2.089999999999995
 30
0.0
 40
0.5
 50
0.0
 51
90.0
  0
ARC
  5
201
  8
DATA
  6
CONTINUOUS
 62
     7
 10
-4.4999999999999867
 20
-7.4100000000000019
 30
0.0
 40
0.5
 50
270.0
 51
0.0
  0
LINE
  5
202
  8
DATA
  6
CONTINUOUS
 62
     7
 10
-4.7499999999999867
 20
-7.9100000000000019
 30
0.0
 11
-4.4999999999999867
 21
-7.9100000000000019
 31
0.0
  0
LINE
  5
203
  8
DATA
  6
CONTINUOUS
 62
     7
 10
-3.9999999999999871
 20
-7.9100000000000019
 30
0.0
 11
4.5000000000000089
 21
-7.9100000000000019
 31
0.0
  0
LINE
  5
204
  8
DATA
  6
CONTINUOUS
 62
     7
 10
4.5000000000000089
 20
2.589999999999995
 30
0.0
 11
-3.9999999999999871
 21
2.589999999999995
 31
0.0
  0
LINE
  5
205
  8
DATA
  6
CONTINUOUS
 62
     7
 10
5.0000000000000089
 20
2.589999999999995
 30
0.0
 11
10.000000000000011
 21
2.589999999999995
 31
0.0
  0
LINE
  5
206
  8
DATA
  6
CONTINUOUS
 62
     7
 10
5.0000000000000089
 20
-7.9100000000000019
 30
0.0
 11
10.000000000000011
 21
-7.9100000000000019
 31
0.0
  0
ARC
  5
207
  8
DATA
  6
CONTINUOUS
 62
     7
 10
5.0000000000000089
 20
2.089999999999995
 30
0.0
 40
0.5
 50
90.0
 51
180.0
  0
ARC
  5
208
  8
DATA
  6
CONTINUOUS
 62
     7
 10
5.0000000000000089
 20
-7.4100000000000019
 30
0.0
 40
0.5
 50
180.0
 51
270.0
  0
LINE
  5
209
  8
DATA
  6
CONTINUOUS
 62
     7
 10
3.5000000000000102
 20
-16.0
 30
0.0
 11
3.5000000000000102
 21
-18.0
 31
0.0
  0
LINE
  5
20A
  8
DATA
  6
CONTINUOUS
 62
     7
 10
40.25
 20
-16.25
 30
0.0
 11
3.5000000000000102
 21
-16.25
 31
0.0
  0
LINE
  5
20B
  8
DATA
  6
CONTINUOUS
 62
     7
 10
40.25
 20
-17.75
 30
0.0
 11
3.5000000000000102
 21
-17.75
 31
0.0
  0
LINE
  5
20C
  8
DATA
  6
CONTINUOUS
 62
     7
 10
6.0000000000000089
 20
-16.0
 30
0.0
 11
6.0000000000000089
 21
-16.25
 31
0.0
  0
LINE
  5
20D
  8
DATA
  6
CONTINUOUS
 62
     7
 10
6.0000000000000089
 20
-17.75
 30
0.0
 11
6.0000000000000089
 21
-18.0
 31
0.0
  0
LINE
  5
20E
  8
DATA
  6
CONTINUOUS
 62
     7
 10
12.500000000000011
 20
-1.659999999999995
 30
0.0
 11
12.500000000000011
 21
-3.6599999999999961
 31
0.0
  0
LINE
  5
20F
  8
DATA
  6
CONTINUOUS
 62
     7
 10
12.500000000000011
 20
-1.659999999999995
 30
0.0
 11
10.500000000000011
 21
-1.159999999999995
 31
0.0
  0
LINE
  5
210
  8
DATA
  6
CONTINUOUS
 62
     7
 10
12.500000000000011
 20
-3.6599999999999961
 30
0.0
 11
10.500000000000011
 21
-4.1599999999999948
 31
0.0
  0
LINE
  5
211
  8
DATA
  6
CONTINUOUS
 62
     7
 10
13.55000000000001
 20
33.849999999999973
 30
0.0
 11
13.55000000000001
 21
30.749999999999989
 31
0.0
  0
LINE
  5
212
  8
DATA
  6
CONTINUOUS
 62
     7
 10
13.55000000000001
 20
29.249999999999989
 30
0.0
 11
13.55000000000001
 21
26.149999999999981
 31
0.0
  0
LINE
  5
213
  8
DATA
  6
CONTINUOUS
 62
     7
 10
10.5
 20
33.849999999999973
 30
0.0
 11
13.55000000000001
 21
33.849999999999973
 31
0.0
  0
LINE
  5
214
  8
DATA
  6
CONTINUOUS
 62
     7
 10
10.5
 20
26.149999999999981
 30
0.0
 11
13.55000000000001
 21
26.149999999999981
 31
0.0
  0
LINE
  5
215
  8
DATA
  6
CONTINUOUS
 62
     7
 10
-6.249999999999992
 20
35.635615758860332
 30
0.0
 11
6.7500000000000071
 21
35.635615758860332
 31
0.0
  0
LINE
  5
216
  8
DATA
  6
CONTINUOUS
 62
     7
 10
-6.249999999999992
 20
24.364384241139629
 30
0.0
 11
6.7500000000000071
 21
24.364384241139629
 31
0.0
  0
LINE
  5
217
  8
DATA
  6
CONTINUOUS
 62
     7
 10
-6.249999999999992
 20
35.635615758860332
 30
0.0
 11
-6.249999999999992
 21
35.249999999999993
 31
0.0
  0
LINE
  5
218
  8
DATA
  6
CONTINUOUS
 62
     7
 10
-6.249999999999992
 20
24.749999999999989
 30
0.0
 11
-6.249999999999992
 21
24.364384241139629
 31
0.0
  0
LINE
  5
219
  8
DATA
  6
CONTINUOUS
 62
     7
 10
6.7500000000000071
 20
35.635615758860332
 30
0.0
 11
6.7500000000000071
 21
35.249999999999993
 31
0.0
  0
LINE
  5
21A
  8
DATA
  6
CONTINUOUS
 62
     7
 10
6.7500000000000071
 20
24.749999999999989
 30
0.0
 11
6.7500000000000071
 21
24.364384241139629
 31
0.0
  0
LINE
  5
21B
  8
DATA
  6
CONTINUOUS
 62
     7
 10
13.85
 20
30.899999999999981
 30
0.0
 11
13.85
 21
30.749999999999989
 31
0.0
  0
LINE
  5
21C
  8
DATA
  6
CONTINUOUS
 62
     7
 10
13.85
 20
29.249999999999989
 30
0.0
 11
13.85
 21
29.135605512090532
 31
0.0
  0
ARC
  5
21D
  8
DATA
  6
CONTINUOUS
 62
     7
 10
11.85
 20
30.86439448790944
 30
0.0
 40
2.0
 50
0.0
 51
31.788330617047741
  0
ARC
  5
21E
  8
DATA
  6
CONTINUOUS
 62
     7
 10
11.85
 20
29.135605512090532
 30
0.0
 40
1.9999999999999949
 50
328.21166938295221
 51
0.0
  0
ARC
  5
21F
  8
DATA
  6
CONTINUOUS
 62
     7
 10
0.2500000000000018
 20
30.0
 30
0.0
 40
5.750000000000016
 50
258.55253315992479
 51
281.44746684007498
  0
ARC
  5
220
  8
DATA
  6
CONTINUOUS
 62
     7
 10
0.2500000000000018
 20
30.0
 30
0.0
 40
5.7500000000000142
 50
78.552533159923485
 51
101.4474668400765
  0
INSERT
  5
221
  8
DATA
 62
     7
  2
____
 10
0.0
 20
0.0
 30
0.0
  0
LINE
  5
222
  8
DATA
  6
CONTINUOUS
 62
     7
 10
0.2500000000000036
 20
35.249999999999993
 30
0.0
 11
0.2500000000000036
 21
24.749999999999989
 31
0.0
  0
LINE
  5
223
  8
DATA
  6
CONTINUOUS
 62
     7
 10
12.5
 20
30.749999999999989
 30
0.0
 11
19.818457101577721
 21
30.749999999999989
 31
0.0
  0
LINE
  5
224
  8
DATA
  6
CONTINUOUS
 62
     7
 10
12.5
 20
29.249999999999989
 30
0.0
 11
19.818457101577721
 21
29.249999999999989
 31
0.0
  0
ARC
  5
225
  8
DATA
  6
CONTINUOUS
 62
     7
 10
19.818457101577721
 20
29.999999999999989
 30
0.0
 40
0.75
 50
270.0
 51
90.0
  0
LINE
  5
226
  8
DATA
  6
CONTINUOUS
 62
     7
 10
-17.775466967844871
 20
-55.25
 30
0.0
 11
-5.849999999999989
 21
-55.25
 31
0.0
  0
LINE
  5
227
  8
DATA
  6
CONTINUOUS
 62
     7
 10
-17.775466967844871
 20
-44.75
 30
0.0
 11
-5.849999999999989
 21
-44.75
 31
0.0
  0
LINE
  5
228
  8
DATA
  6
CONTINUOUS
 62
     7
 10
10.5
 20
-54.75
 30
0.0
 11
10.5
 21
-53.850000000000009
 31
0.0
  0
LINE
  5
229
  8
DATA
  6
CONTINUOUS
 62
     7
 10
10.5
 20
-46.150000000000013
 30
0.0
 11
10.5
 21
-45.25
 31
0.0
  0
LINE
  5
22A
  8
DATA
  6
CONTINUOUS
 62
     7
 10
-20.0
 20
-52.809900338825493
 30
0.0
 11
-20.0
 21
-47.190099661174528
 31
0.0
  0
LINE
  5
22B
  8
DATA
  6
CONTINUOUS
 62
     7
 10
-19.873704659341829
 20
-46.857917741759557
 30
0.0
 11
-18.1491716271867
 21
-44.91781808058505
 31
0.0
  0
LINE
  5
22C
  8
DATA
  6
CONTINUOUS
 62
     7
 10
-19.873704659341829
 20
-53.142082258240421
 30
0.0
 11
-18.1491716271867
 21
-55.082181919414943
 31
0.0
  0
ARC
  5
22D
  8
DATA
  6
CONTINUOUS
 62
     7
 10
10.0
 20
-45.25
 30
0.0
 40
0.5
 50
0.0
 51
90.0
  0
ARC
  5
22E
  8
DATA
  6
CONTINUOUS
 62
     7
 10
10.0
 20
-54.75
 30
0.0
 40
0.5
 50
270.0
 51
0.0
  0
ARC
  5
22F
  8
DATA
  6
CONTINUOUS
 62
     7
 10
-17.77546696784486
 20
-45.25
 30
0.0
 40
0.5
 50
90.00000000000081
 51
138.36646066343141
  0
ARC
  5
230
  8
DATA
  6
CONTINUOUS
 62
     7
 10
-17.775466967844871
 20
-54.75
 30
0.0
 40
0.5000000000000049
 50
221.63353933657029
 51
270.0
  0
ARC
  5
231
  8
DATA
  6
CONTINUOUS
 62
     7
 10
-19.5
 20
-52.809900338825493
 30
0.0
 40
0.4999999999999929
 50
180.0
 51
221.6335393365697
  0
ARC
  5
232
  8
DATA
  6
CONTINUOUS
 62
     7
 10
-19.5
 20
-47.190099661174528
 30
0.0
 40
0.5000000000000049
 50
138.36646066342971
 51
180.0
  0
LINE
  5
233
  8
DATA
  6
CONTINUOUS
 62
     7
 10
7.1500000000000092
 20
-44.75
 30
0.0
 11
10.0
 21
-44.75
 31
0.0
  0
LINE
  5
234
  8
DATA
  6
CONTINUOUS
 62
     7
 10
7.1500000000000092
 20
-55.25
 30
0.0
 11
10.0
 21
-55.25
 31
0.0
  0
LINE
  5
235
  8
DATA
  6
CONTINUOUS
 62
     7
 10
13.85
 20
-49.232197243954722
 30
0.0
 11
13.85
 21
-50.732197243954708
 31
0.0
  0
LINE
  5
236
  8
DATA
  6
CONTINUOUS
 62
     7
 10
-52.499999999999972
 20
-19.0
 30
0.0
 11
-47.499999999999972
 21
-19.0
 31
0.0
  0
LINE
  5
237
  8
DATA
  6
CONTINUOUS
 62
     7
 10
-51.499999999999972
 20
-20.000000000000011
 30
0.0
 11
-52.499999999999972
 21
-19.0
 31
0.0
  0
LINE
  5
238
  8
DATA
  6
CONTINUOUS
 62
     7
 10
-48.499999999999972
 20
-20.000000000000011
 30
0.0
 11
-47.499999999999972
 21
-19.0
 31
0.0
  0
LINE
  5
239
  8
DATA
  6
CONTINUOUS
 62
     7
 10
-55.749999999999972
 20
-18.000000000000021
 30
0.0
 11
-44.249999999999972
 21
-18.000000000000021
 31
0.0
  0
LINE
  5
23A
  8
DATA
  6
CONTINUOUS
 62
     7
 10
-47.499999999999972
 20
-19.0
 30
0.0
 11
-44.249999999999972
 21
-18.000000000000021
 31
0.0
  0
LINE
  5
23B
  8
DATA
  6
CONTINUOUS
 62
     7
 10
-52.499999999999972
 20
-19.0
 30
0.0
 11
-55.749999999999972
 21
-18.000000000000021
 31
0.0
  0
LINE
  5
23C
  8
DATA
  6
CONTINUOUS
 62
     7
 10
-55.749999999999972
 20
-16.000000000000021
 30
0.0
 11
-44.249999999999972
 21
-16.000000000000021
 31
0.0
  0
ARC
  5
23D
  8
DATA
  6
CONTINUOUS
 62
     7
 10
-49.999999999999972
 20
-16.000000000000021
 30
0.0
 40
5.75
 50
0.0
 51
58.551018610620417
  0
ARC
  5
23E
  8
DATA
  6
CONTINUOUS
 62
     7
 10
-49.999999999999972
 20
-16.000000000000021
 30
0.0
 40
5.75
 50
121.4489813893796
 51
180.0
  0
LINE
  5
23F
  8
DATA
  6
CONTINUOUS
 62
     7
 10
-55.749999999999972
 20
-16.500000000000021
 30
0.0
 11
-55.749999999999972
 21
-17.500000000000011
 31
0.0
  0
LINE
  5
240
  8
DATA
  6
CONTINUOUS
 62
     7
 10
-44.249999999999972
 20
-16.500000000000021
 30
0.0
 11
-44.249999999999972
 21
-17.500000000000011
 31
0.0
  0
ARC
  5
241
  8
DATA
  6
CONTINUOUS
 62
     7
 10
-55.249999999999972
 20
-17.500000000000011
 30
0.0
 40
0.5
 50
180.0
 51
270.0
  0
ARC
  5
242
  8
DATA
  6
CONTINUOUS
 62
     7
 10
-55.249999999999972
 20
-16.500000000000021
 30
0.0
 40
0.5
 50
90.0
 51
180.0
  0
ARC
  5
243
  8
DATA
  6
CONTINUOUS
 62
     7
 10
-44.749999999999957
 20
-16.500000000000021
 30
0.0
 40
0.5
 50
0.0
 51
90.0
  0
ARC
  5
244
  8
DATA
  6
CONTINUOUS
 62
     7
 10
-44.749999999999957
 20
-17.500000000000011
 30
0.0
 40
0.5
 50
270.0
 51
0.0
  0
LINE
  5
245
  8
DATA
  6
CONTINUOUS
 62
     7
 10
-52.999999999999972
 20
-16.000000000000021
 30
0.0
 11
-46.999999999999972
 21
-16.000000000000021
 31
0.0
  0
LINE
  5
246
  8
DATA
  6
CONTINUOUS
 62
     7
 10
-52.999999999999972
 20
-14.73608961123157
 30
0.0
 11
-52.999999999999972
 21
-6.9684219849035269
 31
0.0
  0
LINE
  5
247
  8
DATA
  6
CONTINUOUS
 62
     7
 10
-46.999999999999972
 20
-14.73608961123157
 30
0.0
 11
-46.999999999999972
 21
-6.9684219849035269
 31
0.0
  0
LINE
  5
248
  8
DATA
  6
CONTINUOUS
 62
     7
 10
-47.499999999999972
 20
-13.0
 30
0.0
 11
-52.499999999999972
 21
-13.0
 31
0.0
  0
LINE
  5
249
  8
DATA
  6
CONTINUOUS
 62
     7
 10
-52.499999999999972
 20
-8.6000000000000014
 30
0.0
 11
-47.499999999999972
 21
-8.6000000000000014
 31
0.0
  0
LINE
  5
24A
  8
DATA
  6
CONTINUOUS
 62
     7
 10
-47.499999999999972
 20
-13.0
 30
0.0
 11
-47.499999999999972
 21
-8.6000000000000014
 31
0.0
  0
LINE
  5
24B
  8
DATA
  6
CONTINUOUS
 62
     7
 10
-52.499999999999972
 20
-13.0
 30
0.0
 11
-52.499999999999972
 21
-8.6000000000000014
 31
0.0
  0
ARC
  5
24C
  8
DATA
  6
CONTINUOUS
 62
     7
 10
-49.999999999999972
 20
-15.918797087948979
 30
0.0
 40
2.578636726588134
 50
27.300422348660359
 51
152.69957765133961
  0
CIRCLE
  5
24D
  8
DATA
  6
CONTINUOUS
 62
     7
 10
-49.999999999999972
 20
-2.6600000000000041
 30
0.0
 40
5.25
  0
CIRCLE
  5
24E
  8
DATA
  6
CONTINUOUS
 62
     7
 10
-49.999999999999972
 20
-2.6600000000000041
 30
0.0
 40
2.7999999999999949
  0
ARC
  5
24F
  8
DATA
  6
CONTINUOUS
 62
     7
 10
0.25
 20
-49.999999999999979
 30
0.0
 40
5.750000000000016
 50
258.55253315992479
 51
281.44746684007498
  0
ARC
  5
250
  8
DATA
  6
CONTINUOUS
 62
     7
 10
0.25
 20
-49.999999999999979
 30
0.0
 40
5.7500000000000142
 50
78.552533159923485
 51
101.4474668400765
  0
ARC
  5
251
  8
DATA
  6
CONTINUOUS
 62
     7
 10
12.500000000000011
 20
-9.8299999999999983
 30
0.0
 40
7.919999999999999
 50
306.49682746942312
 51
89.999999999999957
  0
ARC
  5
252
  8
DATA
  6
CONTINUOUS
 62
     7
 10
12.500000000000011
 20
-9.8299999999999983
 30
0.0
 40
6.419999999999999
 50
276.66322962212053
 51
90.0
  0
ARC
  5
253
  8
DATA
  6
CONTINUOUS
 62
     7
 10
40.25
 20
-16.625
 30
0.0
 40
0.375
 50
270.0
 51
90.0
  0
ARC
  5
254
  8
DATA
  6
CONTINUOUS
 62
     7
 10
40.25
 20
-17.375
 30
0.0
 40
0.375
 50
90.0
 51
270.0
  0
LINE
  5
255
  8
DATA
  6
CONTINUOUS
 62
     7
 10
63.84999999999998
 20
-20.000000000000011
 30
0.0
 11
56.149999999999991
 21
-20.000000000000011
 31
0.0
  0
LINE
  5
256
  8
DATA
  6
CONTINUOUS
 62
     7
 10
63.84999999999998
 20
-20.550000000000011
 30
0.0
 11
56.149999999999991
 21
-20.550000000000011
 31
0.0
  0
LINE
  5
257
  8
DATA
  6
CONTINUOUS
 62
     7
 10
63.84999999999998
 20
-20.000000000000011
 30
0.0
 11
63.84999999999998
 21
-22.650000000000009
 31
0.0
  0
LINE
  5
258
  8
DATA
  6
CONTINUOUS
 62
     7
 10
56.149999999999991
 20
-20.000000000000011
 30
0.0
 11
56.149999999999991
 21
-22.650000000000009
 31
0.0
  0
LINE
  5
259
  8
DATA
  6
CONTINUOUS
 62
     7
 10
62.84999999999998
 20
-20.550000000000011
 30
0.0
 11
62.84999999999998
 21
-21.649999999999999
 31
0.0
  0
LINE
  5
25A
  8
DATA
  6
CONTINUOUS
 62
     7
 10
57.149999999999991
 20
-20.550000000000011
 30
0.0
 11
57.149999999999991
 21
-21.649999999999999
 31
0.0
  0
LINE
  5
25B
  8
DATA
  6
CONTINUOUS
 62
     7
 10
62.84999999999998
 20
-21.649999999999999
 30
0.0
 11
60.519337920062767
 21
-21.649999999999999
 31
0.0
  0
LINE
  5
25C
  8
DATA
  6
CONTINUOUS
 62
     7
 10
59.480662079937183
 20
-21.649999999999999
 30
0.0
 11
57.149999999999991
 21
-21.649999999999999
 31
0.0
  0
LINE
  5
25D
  8
DATA
  6
CONTINUOUS
 62
     7
 10
62.249999999999993
 20
-27.150000000000009
 30
0.0
 11
62.249999999999993
 21
-20.550000000000011
 31
0.0
  0
LINE
  5
25E
  8
DATA
  6
CONTINUOUS
 62
     7
 10
57.749999999999993
 20
-27.150000000000009
 30
0.0
 11
57.749999999999993
 21
-20.550000000000011
 31
0.0
  0
LINE
  5
25F
  8
DATA
  6
CONTINUOUS
 62
     7
 10
62.350000000000001
 20
-27.150000000000009
 30
0.0
 11
62.350000000000001
 21
-22.650000000000009
 31
0.0
  0
LINE
  5
260
  8
DATA
  6
CONTINUOUS
 62
     7
 10
57.649999999999977
 20
-27.150000000000031
 30
0.0
 11
57.649999999999977
 21
-22.650000000000009
 31
0.0
  0
ARC
  5
261
  8
DATA
  6
CONTINUOUS
 62
     7
 10
64.59999999999998
 20
-21.329999999999998
 30
0.0
 40
0.6500000000000048
 50
25.771461740553061
 51
334.22853825944799
  0
ARC
  5
262
  8
DATA
  6
CONTINUOUS
 62
     7
 10
64.599999999999952
 20
-21.329999999999981
 30
0.0
 40
1.1499999999999451
 50
25.771461740549611
 51
130.7057068310412
  0
ARC
  5
263
  8
DATA
  6
CONTINUOUS
 62
     7
 10
64.599999999999952
 20
-21.329999999999981
 30
0.0
 40
1.1499999999999551
 50
229.29429316896039
 51
334.22853825944787
  0
LINE
  5
264
  8
DATA
  6
CONTINUOUS
 62
     7
 10
65.635615758860325
 20
-21.830000000000009
 30
0.0
 11
65.18534803761672
 21
-21.612608695652192
 31
0.0
  0
LINE
  5
265
  8
DATA
  6
CONTINUOUS
 62
     7
 10
65.635615758860325
 20
-20.830000000000009
 30
0.0
 11
65.18534803761672
 21
-21.047391304347808
 31
0.0
  0
LINE
  5
266
  8
DATA
  6
CONTINUOUS
 62
     7
 10
62.030103098359461
 20
-31.450000000000131
 30
0.0
 11
57.97933887628389
 21
-31.450000000000131
 31
0.0
  0
ARC
  5
267
  8
DATA
  6
CONTINUOUS
 62
     7
 10
60.519308605385781
 20
-29.649999999999999
 30
0.0
 40
2.3500000000000121
 50
310.00775391348049
 51
0.0
  0
ARC
  5
268
  8
DATA
  6
CONTINUOUS
 62
     7
 10
59.490133369257563
 20
-29.649999999999999
 30
0.0
 40
2.35000000000008
 50
180.0
 51
229.9922460865194
  0
LINE
  5
269
  8
DATA
  6
CONTINUOUS
 62
     7
 10
62.350000000000001
 20
-27.150000000000009
 30
0.0
 11
62.869308605385783
 21
-29.649999999999999
 31
0.0
  0
LINE
  5
26A
  8
DATA
  6
CONTINUOUS
 62
     7
 10
57.649999999999977
 20
-27.150000000000031
 30
0.0
 11
57.140133369257491
 21
-29.649999999999999
 31
0.0
  0
LINE
  5
26B
  8
DATA
  6
CONTINUOUS
 62
     7
 10
56.149999999999991
 20
-22.650000000000009
 30
0.0
 11
57.749999999999993
 21
-22.650000000000009
 31
0.0
  0
LINE
  5
26C
  8
DATA
  6
CONTINUOUS
 62
     7
 10
62.249999999999993
 20
-22.650000000000009
 30
0.0
 11
63.84999999999998
 21
-22.650000000000009
 31
0.0
  0
LINE
  5
26D
  8
DATA
  6
CONTINUOUS
 62
     7
 10
62.350000000000001
 20
-22.650000000000009
 30
0.0
 11
62.249999999999993
 21
-22.650000000000009
 31
0.0
  0
LINE
  5
26E
  8
DATA
  6
CONTINUOUS
 62
     7
 10
57.749999999999993
 20
-22.650000000000009
 30
0.0
 11
57.649999999999977
 21
-22.650000000000009
 31
0.0
  0
ARC
  5
26F
  8
DATA
  6
CONTINUOUS
 62
     7
 10
55.399999999999991
 20
-21.329999999999998
 30
0.0
 40
0.6499999999999986
 50
205.77146174055201
 51
154.22853825944691
  0
ARC
  5
270
  8
DATA
  6
CONTINUOUS
 62
     7
 10
55.40000000000002
 20
-21.329999999999981
 30
0.0
 40
1.1499999999999631
 50
49.294293168958852
 51
154.2285382594504
  0
ARC
  5
271
  8
DATA
  6
CONTINUOUS
 62
     7
 10
55.40000000000002
 20
-21.329999999999981
 30
0.0
 40
1.149999999999969
 50
205.7714617405521
 51
310.70570683103972
  0
LINE
  5
272
  8
DATA
  6
CONTINUOUS
 62
     7
 10
54.364384241139632
 20
-21.830000000000009
 30
0.0
 11
54.814651962383252
 21
-21.612608695652192
 31
0.0
  0
LINE
  5
273
  8
DATA
  6
CONTINUOUS
 62
     7
 10
54.364384241139632
 20
-20.830000000000009
 30
0.0
 11
54.814651962383252
 21
-21.047391304347808
 31
0.0
  0
LINE
  5
274
  8
DATA
  6
CONTINUOUS
 62
     7
 10
62.5
 20
-19.0
 30
0.0
 11
57.5
 21
-19.0
 31
0.0
  0
LINE
  5
275
  8
DATA
  6
CONTINUOUS
 62
     7
 10
61.499999999999993
 20
-20.000000000000011
 30
0.0
 11
62.5
 21
-19.0
 31
0.0
  0
LINE
  5
276
  8
DATA
  6
CONTINUOUS
 62
     7
 10
58.499999999999993
 20
-20.000000000000011
 30
0.0
 11
57.5
 21
-19.0
 31
0.0
  0
LINE
  5
277
  8
DATA
  6
CONTINUOUS
 62
     7
 10
65.749999999999986
 20
-18.000000000000021
 30
0.0
 11
54.249999999999993
 21
-18.000000000000021
 31
0.0
  0
LINE
  5
278
  8
DATA
  6
CONTINUOUS
 62
     7
 10
57.5
 20
-19.0
 30
0.0
 11
54.249999999999993
 21
-18.000000000000021
 31
0.0
  0
LINE
  5
279
  8
DATA
  6
CONTINUOUS
 62
     7
 10
62.5
 20
-19.0
 30
0.0
 11
65.749999999999986
 21
-18.000000000000021
 31
0.0
  0
LINE
  5
27A
  8
DATA
  6
CONTINUOUS
 62
     7
 10
65.749999999999986
 20
-16.000000000000021
 30
0.0
 11
62.785191325367748
 21
-16.000000000000021
 31
0.0
  0
LINE
  5
27B
  8
DATA
  6
CONTINUOUS
 62
     7
 10
60.087568599160612
 20
-16.000000000000021
 30
0.0
 11
54.249999999999993
 21
-16.000000000000021
 31
0.0
  0
ARC
  5
27C
  8
DATA
  6
CONTINUOUS
 62
     7
 10
60.0
 20
-16.000000000000021
 30
0.0
 40
5.75
 50
121.4489813893796
 51
180.0
  0
ARC
  5
27D
  8
DATA
  6
CONTINUOUS
 62
     7
 10
60.0
 20
-16.000000000000021
 30
0.0
 40
5.75
 50
0.0000000000000568
 51
58.551018610620417
  0
LINE
  5
27E
  8
DATA
  6
CONTINUOUS
 62
     7
 10
65.749999999999986
 20
-16.500000000000021
 30
0.0
 11
65.749999999999986
 21
-17.500000000000011
 31
0.0
  0
LINE
  5
27F
  8
DATA
  6
CONTINUOUS
 62
     7
 10
54.249999999999993
 20
-16.500000000000021
 30
0.0
 11
54.249999999999993
 21
-17.500000000000011
 31
0.0
  0
ARC
  5
280
  8
DATA
  6
CONTINUOUS
 62
     7
 10
65.249999999999986
 20
-17.500000000000011
 30
0.0
 40
0.5
 50
270.0
 51
0.0
  0
ARC
  5
281
  8
DATA
  6
CONTINUOUS
 62
     7
 10
65.249999999999986
 20
-16.500000000000021
 30
0.0
 40
0.5
 50
0.0
 51
90.0
  0
ARC
  5
282
  8
DATA
  6
CONTINUOUS
 62
     7
 10
54.749999999999993
 20
-16.500000000000021
 30
0.0
 40
0.5
 50
90.0
 51
180.0
  0
ARC
  5
283
  8
DATA
  6
CONTINUOUS
 62
     7
 10
54.749999999999993
 20
-17.500000000000011
 30
0.0
 40
0.5
 50
180.0
 51
270.0
  0
LINE
  5
284
  8
DATA
  6
CONTINUOUS
 62
     7
 10
62.999999999999993
 20
-16.000000000000021
 30
0.0
 11
62.785191325367748
 21
-16.000000000000021
 31
0.0
  0
LINE
  5
285
  8
DATA
  6
CONTINUOUS
 62
     7
 10
60.087568599160612
 20
-16.000000000000021
 30
0.0
 11
56.999999999999993
 21
-16.000000000000021
 31
0.0
  0
LINE
  5
286
  8
DATA
  6
CONTINUOUS
 62
     7
 10
62.999999999999993
 20
-14.73608961123157
 30
0.0
 11
62.999999999999993
 21
-6.9684219849035269
 31
0.0
  0
LINE
  5
287
  8
DATA
  6
CONTINUOUS
 62
     7
 10
56.999999999999993
 20
-14.73608961123157
 30
0.0
 11
56.999999999999993
 21
-6.9684219849035269
 31
0.0
  0
LINE
  5
288
  8
DATA
  6
CONTINUOUS
 62
     7
 10
57.5
 20
-13.0
 30
0.0
 11
59.249999999999993
 21
-13.0
 31
0.0
  0
LINE
  5
289
  8
DATA
  6
CONTINUOUS
 62
     7
 10
60.749999999999993
 20
-13.0
 30
0.0
 11
62.5
 21
-13.0
 31
0.0
  0
LINE
  5
28A
  8
DATA
  6
CONTINUOUS
 62
     7
 10
62.5
 20
-8.6000000000000014
 30
0.0
 11
60.749999999999993
 21
-8.6000000000000014
 31
0.0
  0
LINE
  5
28B
  8
DATA
  6
CONTINUOUS
 62
     7
 10
59.249999999999993
 20
-8.6000000000000014
 30
0.0
 11
57.5
 21
-8.6000000000000014
 31
0.0
  0
LINE
  5
28C
  8
DATA
  6
CONTINUOUS
 62
     7
 10
57.5
 20
-13.0
 30
0.0
 11
57.5
 21
-8.6000000000000014
 31
0.0
  0
LINE
  5
28D
  8
DATA
  6
CONTINUOUS
 62
     7
 10
62.5
 20
-13.0
 30
0.0
 11
62.5
 21
-8.6000000000000014
 31
0.0
  0
ARC
  5
28E
  8
DATA
  6
CONTINUOUS
 62
     7
 10
60.0
 20
-15.918797087948979
 30
0.0
 40
2.578636726588134
 50
27.300422348660359
 51
73.091067400298186
  0
ARC
  5
28F
  8
DATA
  6
CONTINUOUS
 62
     7
 10
60.0
 20
-15.918797087948979
 30
0.0
 40
2.5786367265881349
 50
106.9089325997018
 51
152.69957765133961
  0
ARC
  5
290
  8
DATA
  6
CONTINUOUS
 62
     7
 10
60.0
 20
-2.6599999999999961
 30
0.0
 40
5.2500000000000071
 50
278.21321070173809
 51
261.78678929826179
  0
ARC
  5
291
  8
DATA
  6
CONTINUOUS
 62
     7
 10
60.0
 20
-2.660000000000009
 30
0.0
 40
1.499999999999992
 50
300.0
 51
239.99999999999989
  0
ARC
  5
292
  8
DATA
  6
CONTINUOUS
 62
     7
 10
60.0
 20
-2.6600000000000041
 30
0.0
 40
0.75
 50
0.0
 51
180.0
  0
LINE
  5
293
  8
DATA
  6
CONTINUOUS
 62
     7
 10
56.149999999999991
 20
-18.000000000000021
 30
0.0
 11
56.149999999999991
 21
-16.000000000000021
 31
0.0
  0
CIRCLE
  5
294
  8
DATA
  6
CONTINUOUS
 62
     7
 10
56.899999999999991
 20
-17.000000000000021
 30
0.0
 40
0.75
  0
LINE
  5
295
  8
DATA
  6
CONTINUOUS
 62
     7
 10
63.84999999999998
 20
-18.000000000000021
 30
0.0
 11
63.84999999999998
 21
-16.000000000000021
 31
0.0
  0
ARC
  5
296
  8
DATA
  6
CONTINUOUS
 62
     7
 10
63.09999999999998
 20
-17.000000000000021
 30
0.0
 40
0.7500000000000006
 50
233.93029402212159
 51
68.058264622089837
  0
LINE
  5
297
  8
DATA
  6
CONTINUOUS
 62
     7
 10
60.749999999999993
 20
-2.6600000000000041
 30
0.0
 11
60.749999999999993
 21
-13.73852632902514
 31
0.0
  0
LINE
  5
298
  8
DATA
  6
CONTINUOUS
 62
     7
 10
59.249999999999993
 20
-2.6600000000000041
 30
0.0
 11
59.249999999999993
 21
-14.372500925240701
 31
0.0
  0
LINE
  5
299
  8
DATA
  6
CONTINUOUS
 62
     7
 10
62.75
 20
-17.66332495807114
 30
0.0
 11
60.249999999999993
 21
-16.104551732809579
 31
0.0
  0
LINE
  5
29A
  8
DATA
  6
CONTINUOUS
 62
     7
 10
63.5
 20
-16.365571122977521
 30
0.0
 11
61.749999999999993
 21
-15.47057713659402
 31
0.0
  0
ARC
  5
29B
  8
DATA
  6
CONTINUOUS
 62
     7
 10
62.749999999999993
 20
-13.73852632902514
 30
0.0
 40
2.0
 50
180.00000000000011
 51
240.00000000000011
  0
ARC
  5
29C
  8
DATA
  6
CONTINUOUS
 62
     7
 10
61.25
 20
-14.372500925240701
 30
0.0
 40
2.0
 50
180.0
 51
240.0
  0
LINE
  5
29D
  8
DATA
  6
CONTINUOUS
 62
     7
 10
13.55000000000001
 20
-46.150000000000013
 30
0.0
 11
40.25
 21
-46.150000000000013
 31
0.0
  0
LINE
  5
29E
  8
DATA
  6
CONTINUOUS
 62
     7
 10
13.55000000000001
 20
-47.650000000000013
 30
0.0
 11
40.25
 21
-47.650000000000013
 31
0.0
  0
INSERT
  5
29F
  8
DATA
 62
     7
  2
____-1
 10
0.0
 20
0.0
 30
0.0
  0
LINE
  5
2A0
  8
DATA
  6
CONTINUOUS
 62
     7
 10
13.55000000000001
 20
32.159231850043128
 30
0.0
 11
16.504857716787718
 21
30.749999999999989
 31
0.0
  0
LINE
  5
2A1
  8
DATA
  6
CONTINUOUS
 62
     7
 10
13.55000000000001
 20
33.849999999999973
 30
0.0
 11
20.268457101577741
 21
30.599999999999969
 31
0.0
  0
LINE
  5
2A2
  8
DATA
  6
CONTINUOUS
 62
     7
 10
13.55000000000001
 20
33.849999999999973
 30
0.0
 11
13.55000000000001
 21
32.349999999999973
 31
0.0
  0
LINE
  5
2A3
  8
DATA
  6
CONTINUOUS
 62
     7
 10
13.85
 20
-50.750000000000021
 30
0.0
 11
19.818457101577721
 21
-50.750000000000021
 31
0.0
  0
LINE
  5
2A4
  8
DATA
  6
CONTINUOUS
 62
     7
 10
13.85
 20
-49.250000000000021
 30
0.0
 11
19.818457101577721
 21
-49.250000000000021
 31
0.0
  0
ARC
  5
2A5
  8
DATA
  6
CONTINUOUS
 62
     7
 10
19.818457101577721
 20
-50.000000000000021
 30
0.0
 40
0.75
 50
270.0
 51
90.0
  0
LINE
  5
2A6
  8
DATA
  6
CONTINUOUS
 62
     7
 10
13.55000000000001
 20
-52.159231850043142
 30
0.0
 11
16.504857716787718
 21
-50.750000000000021
 31
0.0
  0
LINE
  5
2A7
  8
DATA
  6
CONTINUOUS
 62
     7
 10
13.55000000000001
 20
-53.850000000000001
 30
0.0
 11
20.268457101577741
 21
-50.600000000000001
 31
0.0
  0
LINE
  5
2A8
  8
DATA
  6
CONTINUOUS
 62
     7
 10
13.55000000000001
 20
26.149999999999981
 30
0.0
 11
40.25
 21
26.149999999999981
 31
0.0
  0
LINE
  5
2A9
  8
DATA
  6
CONTINUOUS
 62
     7
 10
13.55000000000001
 20
27.649999999999981
 30
0.0
 11
40.25
 21
27.649999999999981
 31
0.0
  0
INSERT
  5
2AA
  8
DATA
 62
     7
  2
____-2
 10
0.0
 20
0.0
 30
0.0
  0
ARC
  5
2AB
  8
DATA
  6
CONTINUOUS
 62
     7
 10
11.05000000000001
 20
-23.732062629117681
 30
0.0
 40
1.5000000000000011
 50
294.48095943100782
 51
0.0
  0
ARC
  5
2AC
  8
DATA
  6
CONTINUOUS
 62
     7
 10
11.80000000000001
 20
-21.649999999999999
 30
0.0
 40
0.75
 50
0.0
 51
90.0
  0
LINE
  5
2AD
  8
DATA
  6
CONTINUOUS
 62
     7
 10
57.749999999999993
 20
-21.649999999999999
 30
0.0
 11
62.249999999999993
 21
-21.649999999999999
 31
0.0
  0
LINE
  5
2AE
  8
DATA
  6
CONTINUOUS
 62
     7
 10
57.749999999999993
 20
-23.732062629117681
 30
0.0
 11
62.249999999999993
 21
-23.732062629117681
 31
0.0
  0
LINE
  5
2AF
  8
DATA
  6
CONTINUOUS
 62
     7
 10
57.749999999999993
 20
-26.951095490011181
 30
0.0
 11
62.249999999999993
 21
-26.951095490011181
 31
0.0
  0
LINE
  5
2B0
  8
DATA
  6
CONTINUOUS
 62
     7
 10
57.151375443640092
 20
-26.150000000000009
 30
0.0
 11
57.151375443640092
 21
-27.150000000000009
 31
0.0
  0
ARC
  5
2B1
  8
DATA
  6
CONTINUOUS
 62
     7
 10
57.651375443640092
 20
-27.150000000000009
 30
0.0
 40
0.5
 50
180.0
 51
258.31836878573762
  0
ARC
  5
2B2
  8
DATA
  6
CONTINUOUS
 62
     7
 10
57.651375443640092
 20
-26.150000000000009
 30
0.0
 40
0.5
 50
90.0
 51
180.0
  0
LINE
  5
2B3
  8
DATA
  6
CONTINUOUS
 62
     7
 10
57.748550155216371
 20
-27.150000000000031
 30
0.0
 11
57.238683524473892
 21
-29.649999999999999
 31
0.0
  0
LINE
  5
2B4
  8
DATA
  6
CONTINUOUS
 62
     7
 10
62.25973404436192
 20
-27.150000000000009
 30
0.0
 11
62.779042649747723
 21
-29.649999999999999
 31
0.0
  0
CIRCLE
  5
2B5
  8
DATA
  6
CONTINUOUS
 62
     7
 10
-50.0
 20
-80.0
 30
0.0
 40
2.9499999999999962
  0
CIRCLE
  5
2B6
  8
DATA
  6
CONTINUOUS
 62
     7
 10
-50.0
 20
-80.0
 30
0.0
 40
2.25
  0
CIRCLE
  5
2B7
  8
DATA
  6
CONTINUOUS
 62
     7
 10
-50.0
 20
-80.0
 30
0.0
 40
0.3000000000000043
  0
CIRCLE
  5
2B8
  8
DATA
  6
CONTINUOUS
 62
     7
 10
-50.0
 20
-80.0
 30
0.0
 40
1.0
  0
LINE
  5
2B9
  8
DATA
  6
CONTINUOUS
 62
     7
 10
-52.247776679298923
 20
-79.899999999999977
 30
0.0
 11
-50.994987437106609
 21
-79.899999999999977
 31
0.0
  0
LINE
  5
2BA
  8
DATA
  6
CONTINUOUS
 62
     7
 10
-52.247776679298923
 20
-80.09999999999998
 30
0.0
 11
-50.994987437106609
 21
-80.09999999999998
 31
0.0
  0
LINE
  5
2BB
  8
DATA
  6
CONTINUOUS
 62
     7
 10
-47.75222332070107
 20
-79.899999999999977
 30
0.0
 11
-49.00501256289337
 21
-79.899999999999977
 31
0.0
  0
LINE
  5
2BC
  8
DATA
  6
CONTINUOUS
 62
     7
 10
-47.75222332070107
 20
-80.09999999999998
 30
0.0
 11
-49.00501256289337
 21
-80.09999999999998
 31
0.0
  0
LINE
  5
2BD
  8
DATA
  6
CONTINUOUS
 62
     7
 10
-20.0
 20
-77.049999999999983
 30
0.0
 11
-15.0
 21
-77.049999999999983
 31
0.0
  0
LINE
  5
2BE
  8
DATA
  6
CONTINUOUS
 62
     7
 10
-20.0
 20
-82.949999999999989
 30
0.0
 11
-15.0
 21
-82.949999999999989
 31
0.0
  0
LINE
  5
2BF
  8
DATA
  6
CONTINUOUS
 62
     7
 10
-20.0
 20
-77.049999999999983
 30
0.0
 11
-20.0
 21
-82.949999999999989
 31
0.0
  0
LINE
  5
2C0
  8
DATA
  6
CONTINUOUS
 62
     7
 10
-15.0
 20
-77.049999999999983
 30
0.0
 11
-15.0
 21
-82.949999999999989
 31
0.0
  0
LINE
  5
2C1
  8
DATA
  6
CONTINUOUS
 62
     7
 10
-20.0
 20
-80.299999999999983
 30
0.0
 11
-20.0
 21
-79.700000000000003
 31
0.0
  0
LINE
  5
2C2
  8
DATA
  6
CONTINUOUS
 62
     7
 10
-20.0
 20
-79.700000000000003
 30
0.0
 11
-21.5
 21
-79.700000000000003
 31
0.0
  0
LINE
  5
2C3
  8
DATA
  6
CONTINUOUS
 62
     7
 10
-20.0
 20
-80.299999999999983
 30
0.0
 11
-21.5
 21
-80.299999999999983
 31
0.0
  0
LINE
  5
2C4
  8
DATA
  6
CONTINUOUS
 62
     7
 10
-21.5
 20
-79.700000000000003
 30
0.0
 11
-22.0
 21
-80.0
 31
0.0
  0
LINE
  5
2C5
  8
DATA
  6
CONTINUOUS
 62
     7
 10
-21.5
 20
-80.299999999999983
 30
0.0
 11
-22.0
 21
-80.0
 31
0.0
  0
LINE
  5
2C6
  8
DATA
  6
CONTINUOUS
 62
     7
 10
-12.21213203435595
 20
-77.799999999999983
 30
0.0
 11
-15.0
 21
-77.799999999999983
 31
0.0
  0
LINE
  5
2C7
  8
DATA
  6
CONTINUOUS
 62
     7
 10
-12.21213203435595
 20
-82.200000000000003
 30
0.0
 11
-15.0
 21
-82.200000000000003
 31
0.0
  0
LINE
  5
2C8
  8
DATA
  6
CONTINUOUS
 62
     7
 10
-11.787867965644031
 20
-77.499999999999986
 30
0.0
 11
-9.6499999999999986
 21
-77.499999999999986
 31
0.0
  0
LINE
  5
2C9
  8
DATA
  6
CONTINUOUS
 62
     7
 10
-11.787867965644031
 20
-82.499999999999986
 30
0.0
 11
-9.6500000000000004
 21
-82.499999999999986
 31
0.0
  0
LINE
  5
2CA
  8
DATA
  6
CONTINUOUS
 62
     7
 10
-11.893933982822
 20
-77.543933982821983
 30
0.0
 11
-12.106066017177961
 21
-77.756066017177972
 31
0.0
  0
ARC
  5
2CB
  8
DATA
  6
CONTINUOUS
 62
     7
 10
-12.21213203435595
 20
-77.649999999999963
 30
0.0
 40
0.1500000000000057
 50
269.99999999999733
 51
314.99999999999471
  0
ARC
  5
2CC
  8
DATA
  6
CONTINUOUS
 62
     7
 10
-11.787867965644031
 20
-77.649999999999963
 30
0.0
 40
0.1499999999999915
 50
90.000000000002728
 51
135.0000000000062
  0
LINE
  5
2CD
  8
DATA
  6
CONTINUOUS
 62
     7
 10
-11.893933982822
 20
-82.456066017177974
 30
0.0
 11
-12.106066017177961
 21
-82.243933982822014
 31
0.0
  0
ARC
  5
2CE
  8
DATA
  6
CONTINUOUS
 62
     7
 10
-12.21213203435595
 20
-82.349999999999966
 30
0.0
 40
0.1500000000000035
 50
45.000000000005272
 51
90.000000000002728
  0
ARC
  5
2CF
  8
DATA
  6
CONTINUOUS
 62
     7
 10
-11.787867965644031
 20
-82.349999999999966
 30
0.0
 40
0.1499999999999934
 50
224.9999999999938
 51
269.99999999999733
  0
LINE
  5
2D0
  8
DATA
  6
CONTINUOUS
 62
     7
 10
-6.5
 20
-77.799999999999983
 30
0.0
 11
-9.2257359312880727
 21
-77.799999999999983
 31
0.0
  0
LINE
  5
2D1
  8
DATA
  6
CONTINUOUS
 62
     7
 10
-6.5
 20
-82.200000000000003
 30
0.0
 11
-9.2257359312880727
 21
-82.200000000000003
 31
0.0
  0
LINE
  5
2D2
  8
DATA
  6
CONTINUOUS
 62
     7
 10
-9.5439339828220167
 20
-77.543933982821983
 30
0.0
 11
-9.3318019484660528
 21
-77.756066017177972
 31
0.0
  0
ARC
  5
2D3
  8
DATA
  6
CONTINUOUS
 62
     7
 10
-9.2257359312880727
 20
-77.649999999999963
 30
0.0
 40
0.1500000000000035
 50
225.00000000000529
 51
270.00000000000267
  0
ARC
  5
2D4
  8
DATA
  6
CONTINUOUS
 62
     7
 10
-9.6499999999999986
 20
-77.649999999999963
 30
0.0
 40
0.1499999999999934
 50
44.999999999993769
 51
89.999999999997286
  0
LINE
  5
2D5
  8
DATA
  6
CONTINUOUS
 62
     7
 10
-9.5439339828220167
 20
-82.456066017177974
 30
0.0
 11
-9.3318019484660528
 21
-82.243933982822014
 31
0.0
  0
ARC
  5
2D6
  8
DATA
  6
CONTINUOUS
 62
     7
 10
-9.2257359312880727
 20
-82.349999999999966
 30
0.0
 40
0.1500000000000057
 50
89.999999999997286
 51
134.99999999999471
  0
ARC
  5
2D7
  8
DATA
  6
CONTINUOUS
 62
     7
 10
-9.6499999999999986
 20
-82.349999999999966
 30
0.0
 40
0.1499999999999915
 50
270.00000000000267
 51
315.0000000000062
  0
LINE
  5
2D8
  8
DATA
  6
CONTINUOUS
 62
     7
 10
7.5
 20
-79.050000000000026
 30
0.0
 11
7.5
 21
-80.950000000000003
 31
0.0
  0
LINE
  5
2D9
  8
DATA
  6
CONTINUOUS
 62
     7
 10
5.1725327812284334
 20
-78.842190426895414
 30
0.0
 11
3.361973775017252
 21
-78.680533372769389
 31
0.0
  0
LINE
  5
2DA
  8
DATA
  6
CONTINUOUS
 62
     7
 10
7.5
 20
-79.050000000000026
 30
0.0
 11
5.3274672187715666
 21
-78.856023858818901
 31
0.0
  0
LINE
  5
2DB
  8
DATA
  6
CONTINUOUS
 62
     7
 10
3.1380262249827471
 20
-78.660538055802036
 30
0.0
 11
1.396480331262939
 21
-78.505042886719906
 31
0.0
  0
LINE
  5
2DC
  8
DATA
  6
CONTINUOUS
 62
     7
 10
1.1035196687370601
 20
-78.478885684708672
 30
0.0
 11
-0.5690131124913727
 21
-78.329552400670408
 31
0.0
  0
LINE
  5
2DD
  8
DATA
  6
CONTINUOUS
 62
     7
 10
-0.9309868875086255
 20
-78.297233313615294
 30
0.0
 11
-2.5345065562456841
 21
-78.154061914620911
 31
0.0
  0
LINE
  5
2DE
  8
DATA
  6
CONTINUOUS
 62
     7
 10
-2.9654934437543101
 20
-78.11558094252193
 30
0.0
 11
-4.5
 21
-77.978571428571428
 31
0.0
  0
LINE
  5
2DF
  8
DATA
  6
CONTINUOUS
 62
     7
 10
-5.0
 20
-77.933928571428567
 30
0.0
 11
-6.5
 21
-77.799999999999983
 31
0.0
  0
LINE
  5
2E0
  8
DATA
  6
CONTINUOUS
 62
     7
 10
7.5
 20
-79.25
 30
0.0
 11
7.5
 21
-80.750000000000014
 31
0.0
  0
LINE
  5
2E1
  8
DATA
  6
CONTINUOUS
 62
     7
 10
7.5
 20
-79.25
 30
0.0
 11
34.249999999999993
 21
-79.25
 31
0.0
  0
LINE
  5
2E2
  8
DATA
  6
CONTINUOUS
 62
     7
 10
7.5
 20
-80.750000000000014
 30
0.0
 11
35.749999999999993
 21
-80.750000000000014
 31
0.0
  0
LINE
  5
2E3
  8
DATA
  6
CONTINUOUS
 62
     7
 10
-4.75
 20
-79.25
 30
0.0
 11
-5.0
 21
-77.933928571428567
 31
0.0
  0
LINE
  5
2E4
  8
DATA
  6
CONTINUOUS
 62
     7
 10
-4.5
 20
-77.978571428571428
 30
0.0
 11
-4.75
 21
-79.25
 31
0.0
  0
LINE
  5
2E5
  8
DATA
  6
CONTINUOUS
 62
     7
 10
-2.75
 20
-79.25
 30
0.0
 11
-2.965493443754311
 21
-78.11558094252193
 31
0.0
  0
LINE
  5
2E6
  8
DATA
  6
CONTINUOUS
 62
     7
 10
-2.534506556245685
 20
-78.154061914620911
 30
0.0
 11
-2.75
 21
-79.25
 31
0.0
  0
LINE
  5
2E7
  8
DATA
  6
CONTINUOUS
 62
     7
 10
-0.75
 20
-79.25
 30
0.0
 11
-0.9309868875086259
 21
-78.297233313615294
 31
0.0
  0
LINE
  5
2E8
  8
DATA
  6
CONTINUOUS
 62
     7
 10
-0.5690131124913727
 20
-78.329552400670408
 30
0.0
 11
-0.75
 21
-79.25
 31
0.0
  0
LINE
  5
2E9
  8
DATA
  6
CONTINUOUS
 62
     7
 10
1.25
 20
-79.25
 30
0.0
 11
1.1035196687370601
 21
-78.478885684708672
 31
0.0
  0
LINE
  5
2EA
  8
DATA
  6
CONTINUOUS
 62
     7
 10
1.396480331262939
 20
-78.505042886719906
 30
0.0
 11
1.25
 21
-79.25
 31
0.0
  0
LINE
  5
2EB
  8
DATA
  6
CONTINUOUS
 62
     7
 10
3.25
 20
-79.25
 30
0.0
 11
3.1380262249827471
 21
-78.660538055802036
 31
0.0
  0
LINE
  5
2EC
  8
DATA
  6
CONTINUOUS
 62
     7
 10
3.361973775017252
 20
-78.680533372769389
 30
0.0
 11
3.25
 21
-79.25
 31
0.0
  0
LINE
  5
2ED
  8
DATA
  6
CONTINUOUS
 62
     7
 10
5.25
 20
-79.25
 30
0.0
 11
5.1725327812284334
 21
-78.842190426895414
 31
0.0
  0
LINE
  5
2EE
  8
DATA
  6
CONTINUOUS
 62
     7
 10
5.3274672187715639
 20
-78.856023858818901
 30
0.0
 11
5.25
 21
-79.25
 31
0.0
  0
LINE
  5
2EF
  8
DATA
  6
CONTINUOUS
 62
     7
 10
5.1725327812284334
 20
-81.157809573104615
 30
0.0
 11
3.361973775017252
 21
-81.319466627230611
 31
0.0
  0
LINE
  5
2F0
  8
DATA
  6
CONTINUOUS
 62
     7
 10
3.1380262249827471
 20
-81.33946194419795
 30
0.0
 11
1.396480331262939
 21
-81.494957113280094
 31
0.0
  0
LINE
  5
2F1
  8
DATA
  6
CONTINUOUS
 62
     7
 10
1.1035196687370601
 20
-81.521114315291328
 30
0.0
 11
-0.5690131124913727
 21
-81.670447599329563
 31
0.0
  0
LINE
  5
2F2
  8
DATA
  6
CONTINUOUS
 62
     7
 10
-0.9309868875086255
 20
-81.702766686384706
 30
0.0
 11
-2.5345065562456841
 21
-81.845938085379089
 31
0.0
  0
LINE
  5
2F3
  8
DATA
  6
CONTINUOUS
 62
     7
 10
-2.9654934437543101
 20
-81.884419057478041
 30
0.0
 11
-4.5
 21
-82.021428571428586
 31
0.0
  0
LINE
  5
2F4
  8
DATA
  6
CONTINUOUS
 62
     7
 10
-4.75
 20
-80.750000000000014
 30
0.0
 11
-5.0
 21
-82.066071428571419
 31
0.0
  0
LINE
  5
2F5
  8
DATA
  6
CONTINUOUS
 62
     7
 10
-4.5
 20
-82.021428571428586
 30
0.0
 11
-4.75
 21
-80.750000000000014
 31
0.0
  0
LINE
  5
2F6
  8
DATA
  6
CONTINUOUS
 62
     7
 10
-2.75
 20
-80.750000000000014
 30
0.0
 11
-2.965493443754311
 21
-81.884419057478041
 31
0.0
  0
LINE
  5
2F7
  8
DATA
  6
CONTINUOUS
 62
     7
 10
-2.534506556245685
 20
-81.845938085379089
 30
0.0
 11
-2.75
 21
-80.750000000000014
 31
0.0
  0
LINE
  5
2F8
  8
DATA
  6
CONTINUOUS
 62
     7
 10
-0.75
 20
-80.750000000000014
 30
0.0
 11
-0.9309868875086259
 21
-81.702766686384706
 31
0.0
  0
LINE
  5
2F9
  8
DATA
  6
CONTINUOUS
 62
     7
 10
-0.5690131124913727
 20
-81.670447599329563
 30
0.0
 11
-0.75
 21
-80.750000000000014
 31
0.0
  0
LINE
  5
2FA
  8
DATA
  6
CONTINUOUS
 62
     7
 10
1.25
 20
-80.750000000000014
 30
0.0
 11
1.1035196687370601
 21
-81.521114315291328
 31
0.0
  0
LINE
  5
2FB
  8
DATA
  6
CONTINUOUS
 62
     7
 10
1.396480331262939
 20
-81.494957113280094
 30
0.0
 11
1.25
 21
-80.750000000000014
 31
0.0
  0
LINE
  5
2FC
  8
DATA
  6
CONTINUOUS
 62
     7
 10
3.25
 20
-80.750000000000014
 30
0.0
 11
3.1380262249827471
 21
-81.33946194419795
 31
0.0
  0
LINE
  5
2FD
  8
DATA
  6
CONTINUOUS
 62
     7
 10
3.361973775017252
 20
-81.319466627230611
 30
0.0
 11
3.25
 21
-80.750000000000014
 31
0.0
  0
LINE
  5
2FE
  8
DATA
  6
CONTINUOUS
 62
     7
 10
5.25
 20
-80.750000000000014
 30
0.0
 11
5.1725327812284334
 21
-81.157809573104615
 31
0.0
  0
LINE
  5
2FF
  8
DATA
  6
CONTINUOUS
 62
     7
 10
5.3274672187715639
 20
-81.143976141181085
 30
0.0
 11
5.25
 21
-80.750000000000014
 31
0.0
  0
LINE
  5
300
  8
DATA
  6
CONTINUOUS
 62
     7
 10
-6.5
 20
-82.200000000000003
 30
0.0
 11
-5.0
 21
-82.066071428571419
 31
0.0
  0
LINE
  5
301
  8
DATA
  6
CONTINUOUS
 62
     7
 10
5.3274672187715639
 20
-81.143976141181085
 30
0.0
 11
7.5
 21
-80.950000000000003
 31
0.0
  0
LINE
  5
302
  8
DATA
  6
CONTINUOUS
 62
     7
 10
-3.5
 20
-80.0
 30
0.0
 11
-3.6163733609385762
 21
-78.057466664201911
 31
0.0
  0
LINE
  5
303
  8
DATA
  6
CONTINUOUS
 62
     7
 10
-3.8663733609385762
 20
-78.03514523563048
 30
0.0
 11
-4.0
 21
-80.0
 31
0.0
  0
LINE
  5
304
  8
DATA
  6
CONTINUOUS
 62
     7
 10
-6.5
 20
-77.799999999999983
 30
0.0
 11
-5.5
 21
-77.889285714285705
 31
0.0
  0
LINE
  5
305
  8
DATA
  6
CONTINUOUS
 62
     7
 10
-3.5
 20
-80.0
 30
0.0
 11
-3.6163733609385762
 21
-81.942533335798075
 31
0.0
  0
LINE
  5
306
  8
DATA
  6
CONTINUOUS
 62
     7
 10
-3.8663733609385762
 20
-81.964854764369491
 30
0.0
 11
-4.0
 21
-80.0
 31
0.0
  0
LINE
  5
307
  8
DATA
  6
CONTINUOUS
 62
     7
 10
-1.5
 20
-80.0
 30
0.0
 11
-1.6056179671364901
 21
-78.236998395791375
 31
0.0
  0
LINE
  5
308
  8
DATA
  6
CONTINUOUS
 62
     7
 10
-1.87844442137773
 20
-78.212638890948426
 30
0.0
 11
-2.0
 21
-80.0
 31
0.0
  0
LINE
  5
309
  8
DATA
  6
CONTINUOUS
 62
     7
 10
0.5
 20
-80.0
 30
0.0
 11
0.4051374266655959
 21
-78.416530127380852
 31
0.0
  0
LINE
  5
30A
  8
DATA
  6
CONTINUOUS
 62
     7
 10
0.1094845181831166
 20
-78.390132546266344
 30
0.0
 11
0.0
 21
-80.0
 31
0.0
  0
LINE
  5
30B
  8
DATA
  6
CONTINUOUS
 62
     7
 10
2.5
 20
-80.0
 30
0.0
 11
2.4158928204676822
 21
-78.59606185897033
 31
0.0
  0
LINE
  5
30C
  8
DATA
  6
CONTINUOUS
 62
     7
 10
2.0974134577439631
 20
-78.567626201584304
 30
0.0
 11
2.0
 21
-80.0
 31
0.0
  0
LINE
  5
30D
  8
DATA
  6
CONTINUOUS
 62
     7
 10
4.5
 20
-80.0
 30
0.0
 11
4.4266482142697692
 21
-78.775593590559794
 31
0.0
  0
LINE
  5
30E
  8
DATA
  6
CONTINUOUS
 62
     7
 10
4.0853423973048084
 20
-78.745119856902221
 30
0.0
 11
4.0
 21
-80.0
 31
0.0
  0
LINE
  5
30F
  8
DATA
  6
CONTINUOUS
 62
     7
 10
-1.5
 20
-80.0
 30
0.0
 11
-1.6056179671364901
 21
-81.763001604208597
 31
0.0
  0
LINE
  5
310
  8
DATA
  6
CONTINUOUS
 62
     7
 10
-1.87844442137773
 20
-81.787361109051545
 30
0.0
 11
-2.0
 21
-80.0
 31
0.0
  0
LINE
  5
311
  8
DATA
  6
CONTINUOUS
 62
     7
 10
0.5
 20
-80.0
 30
0.0
 11
0.4051374266655959
 21
-81.583469872619133
 31
0.0
  0
LINE
  5
312
  8
DATA
  6
CONTINUOUS
 62
     7
 10
0.1094845181831166
 20
-81.609867453733614
 30
0.0
 11
0.0
 21
-80.0
 31
0.0
  0
LINE
  5
313
  8
DATA
  6
CONTINUOUS
 62
     7
 10
2.5
 20
-80.0
 30
0.0
 11
2.4158928204676822
 21
-81.403938141029656
 31
0.0
  0
LINE
  5
314
  8
DATA
  6
CONTINUOUS
 62
     7
 10
2.0974134577439631
 20
-81.432373798415696
 30
0.0
 11
2.0
 21
-80.0
 31
0.0
  0
LINE
  5
315
  8
DATA
  6
CONTINUOUS
 62
     7
 10
4.5
 20
-80.0
 30
0.0
 11
4.4266482142697692
 21
-81.224406409440178
 31
0.0
  0
LINE
  5
316
  8
DATA
  6
CONTINUOUS
 62
     7
 10
4.0853423973048084
 20
-81.254880143097793
 30
0.0
 11
4.0
 21
-80.0
 31
0.0
  0
LINE
  5
317
  8
DATA
  6
CONTINUOUS
 62
     7
 10
-5.5
 20
-80.0
 30
0.0
 11
-5.6271287547406628
 21
-77.877934932612462
 31
0.0
  0
LINE
  5
318
  8
DATA
  6
CONTINUOUS
 62
     7
 10
-5.8663733609385771
 20
-77.85657380705905
 30
0.0
 11
-6.0
 21
-80.0
 31
0.0
  0
LINE
  5
319
  8
DATA
  6
CONTINUOUS
 62
     7
 10
-5.5
 20
-80.0
 30
0.0
 11
-5.6271287547406654
 21
-82.122065067387538
 31
0.0
  0
LINE
  5
31A
  8
DATA
  6
CONTINUOUS
 62
     7
 10
-5.8543023004994241
 20
-82.142348419687423
 30
0.0
 11
-6.0
 21
-80.0
 31
0.0
  0
TEXT
  5
31B
  8
DATA
 62
     7
 10
-6.5635416666666666
 20
-79.23046875
 30
0.0
 40
1.5390625
  1
DPA
 50
180.0
 41
0.7
 72
     1
 11
-8.0
 21
-80.0
 31
0.0
 73
     2
  0
LINE
  5
31C
  8
DATA
  6
CONTINUOUS
 62
     7
 10
-15.0
 20
-78.726186376263911
 30
0.0
 11
-20.0
 21
-81.273813623736061
 31
0.0
  0
LINE
  5
31D
  8
DATA
  6
CONTINUOUS
 62
     7
 10
-15.0
 20
-78.226186376263911
 30
0.0
 11
-20.0
 21
-80.773813623736032
 31
0.0
  0
LINE
  5
31E
  8
DATA
  6
CONTINUOUS
 62
     7
 10
-15.0
 20
-77.726186376263911
 30
0.0
 11
-20.0
 21
-80.273813623736061
 31
0.0
  0
LINE
  5
31F
  8
DATA
  6
CONTINUOUS
 62
     7
 10
-15.0
 20
-77.226186376263911
 30
0.0
 11
-20.0
 21
-79.773813623736061
 31
0.0
  0
LINE
  5
320
  8
DATA
  6
CONTINUOUS
 62
     7
 10
-15.635520019770111
 20
-77.049999999999983
 30
0.0
 11
-20.0
 21
-79.273813623736061
 31
0.0
  0
LINE
  5
321
  8
DATA
  6
CONTINUOUS
 62
     7
 10
-16.616825272522679
 20
-77.049999999999983
 30
0.0
 11
-20.0
 21
-78.773813623736061
 31
0.0
  0
LINE
  5
322
  8
DATA
  6
CONTINUOUS
 62
     7
 10
-17.598130525275248
 20
-77.049999999999983
 30
0.0
 11
-20.0
 21
-78.273813623736061
 31
0.0
  0
LINE
  5
323
  8
DATA
  6
CONTINUOUS
 62
     7
 10
-18.579435778027811
 20
-77.049999999999983
 30
0.0
 11
-20.0
 21
-77.773813623736061
 31
0.0
  0
LINE
  5
324
  8
DATA
  6
CONTINUOUS
 62
     7
 10
-19.560741030780392
 20
-77.049999999999983
 30
0.0
 11
-20.0
 21
-77.273813623736061
 31
0.0
  0
LINE
  5
325
  8
DATA
  6
CONTINUOUS
 62
     7
 10
-15.0
 20
-79.226186376263911
 30
0.0
 11
-20.0
 21
-81.773813623736075
 31
0.0
  0
LINE
  5
326
  8
DATA
  6
CONTINUOUS
 62
     7
 10
-15.0
 20
-79.726186376263911
 30
0.0
 11
-20.0
 21
-82.273813623736061
 31
0.0
  0
LINE
  5
327
  8
DATA
  6
CONTINUOUS
 62
     7
 10
-15.0
 20
-80.226186376263925
 30
0.0
 11
-20.0
 21
-82.773813623736061
 31
0.0
  0
LINE
  5
328
  8
DATA
  6
CONTINUOUS
 62
     7
 10
-15.0
 20
-80.726186376263911
 30
0.0
 11
-19.364479980229849
 21
-82.949999999999989
 31
0.0
  0
LINE
  5
329
  8
DATA
  6
CONTINUOUS
 62
     7
 10
-15.0
 20
-81.226186376263911
 30
0.0
 11
-18.383174727477289
 21
-82.949999999999989
 31
0.0
  0
LINE
  5
32A
  8
DATA
  6
CONTINUOUS
 62
     7
 10
-15.0
 20
-81.726186376263897
 30
0.0
 11
-17.40186947472472
 21
-82.949999999999989
 31
0.0
  0
LINE
  5
32B
  8
DATA
  6
CONTINUOUS
 62
     7
 10
-15.0
 20
-82.226186376263911
 30
0.0
 11
-16.42056422197215
 21
-82.949999999999989
 31
0.0
  0
LINE
  5
32C
  8
DATA
  6
CONTINUOUS
 62
     7
 10
-15.0
 20
-82.726186376263925
 30
0.0
 11
-15.43925896921958
 21
-82.949999999999989
 31
0.0
  0
LINE
  5
32D
  8
DATA
  6
CONTINUOUS
 62
     7
 10
-20.0
 20
-78.726186376263911
 30
0.0
 11
-15.0
 21
-81.273813623736061
 31
0.0
  0
LINE
  5
32E
  8
DATA
  6
CONTINUOUS
 62
     7
 10
-20.0
 20
-79.226186376263911
 30
0.0
 11
-15.0
 21
-81.773813623736075
 31
0.0
  0
LINE
  5
32F
  8
DATA
  6
CONTINUOUS
 62
     7
 10
-20.0
 20
-79.726186376263911
 30
0.0
 11
-15.0
 21
-82.273813623736061
 31
0.0
  0
LINE
  5
330
  8
DATA
  6
CONTINUOUS
 62
     7
 10
-20.0
 20
-80.226186376263925
 30
0.0
 11
-15.0
 21
-82.773813623736061
 31
0.0
  0
LINE
  5
331
  8
DATA
  6
CONTINUOUS
 62
     7
 10
-20.0
 20
-80.726186376263911
 30
0.0
 11
-15.63552001977013
 21
-82.949999999999989
 31
0.0
  0
LINE
  5
332
  8
DATA
  6
CONTINUOUS
 62
     7
 10
-20.0
 20
-81.226186376263911
 30
0.0
 11
-16.616825272522711
 21
-82.949999999999989
 31
0.0
  0
LINE
  5
333
  8
DATA
  6
CONTINUOUS
 62
     7
 10
-20.0
 20
-81.726186376263897
 30
0.0
 11
-17.59813052527528
 21
-82.949999999999989
 31
0.0
  0
LINE
  5
334
  8
DATA
  6
CONTINUOUS
 62
     7
 10
-20.0
 20
-82.226186376263911
 30
0.0
 11
-18.57943577802785
 21
-82.949999999999989
 31
0.0
  0
LINE
  5
335
  8
DATA
  6
CONTINUOUS
 62
     7
 10
-20.0
 20
-82.726186376263925
 30
0.0
 11
-19.560741030780399
 21
-82.949999999999989
 31
0.0
  0
LINE
  5
336
  8
DATA
  6
CONTINUOUS
 62
     7
 10
-20.0
 20
-78.226186376263911
 30
0.0
 11
-15.0
 21
-80.773813623736032
 31
0.0
  0
LINE
  5
337
  8
DATA
  6
CONTINUOUS
 62
     7
 10
-20.0
 20
-77.726186376263911
 30
0.0
 11
-15.0
 21
-80.273813623736061
 31
0.0
  0
LINE
  5
338
  8
DATA
  6
CONTINUOUS
 62
     7
 10
-20.0
 20
-77.226186376263911
 30
0.0
 11
-15.0
 21
-79.773813623736061
 31
0.0
  0
LINE
  5
339
  8
DATA
  6
CONTINUOUS
 62
     7
 10
-19.364479980229881
 20
-77.049999999999983
 30
0.0
 11
-15.0
 21
-79.273813623736061
 31
0.0
  0
LINE
  5
33A
  8
DATA
  6
CONTINUOUS
 62
     7
 10
-18.383174727477321
 20
-77.049999999999983
 30
0.0
 11
-15.0
 21
-78.773813623736061
 31
0.0
  0
LINE
  5
33B
  8
DATA
  6
CONTINUOUS
 62
     7
 10
-17.401869474724752
 20
-77.049999999999983
 30
0.0
 11
-15.0
 21
-78.273813623736061
 31
0.0
  0
LINE
  5
33C
  8
DATA
  6
CONTINUOUS
 62
     7
 10
-16.420564221972171
 20
-77.049999999999983
 30
0.0
 11
-15.0
 21
-77.773813623736061
 31
0.0
  0
LINE
  5
33D
  8
DATA
  6
CONTINUOUS
 62
     7
 10
-15.439258969219599
 20
-77.049999999999983
 30
0.0
 11
-15.0
 21
-77.273813623736061
 31
0.0
  0
LINE
  5
33E
  8
DATA
  6
CONTINUOUS
 62
     7
 10
50.749999999999993
 20
-60.0
 30
0.0
 11
50.749999999999993
 21
-65.75
 31
0.0
  0
LINE
  5
33F
  8
DATA
  6
CONTINUOUS
 62
     7
 10
49.249999999999993
 20
-60.0
 30
0.0
 11
49.249999999999993
 21
-64.25
 31
0.0
  0
INSERT
  5
340
  8
DATA
 62
     7
  2
____-3
 10
0.0
 20
0.0
 30
0.0
  0
ARC
  5
341
  8
DATA
  6
CONTINUOUS
 62
     7
 10
34.249999999999993
 20
-64.25
 30
0.0
 40
15.0
 50
270.0
 51
0.0
  0
ARC
  5
342
  8
DATA
  6
CONTINUOUS
 62
     7
 10
35.749999999999993
 20
-65.75
 30
0.0
 40
15.0
 50
270.0
 51
0.0
  0
ENDSEC
  0
EOF
