  0
SECTION
  2
HEADER
  9
$ACADVER
  1
AC1009
  9
$INSBASE
 10
0.0
 20
0.0
 30
0.0
  9
$EXTMIN
 10
-270.01647823492112
 20
-405.63813026041657
 30
-0.0015258207003583
  9
$EXTMAX
 10
270.0164807494923
 20
397.04201860939071
 30
0.0000000349246037
  9
$LIMMIN
 10
0.0
 20
0.0
  9
$LIMMAX
 10
0.0
 20
0.0
  9
$ORTHOMODE
 70
     0
  9
$REGENMODE
 70
     1
  9
$FILLMODE
 70
     1
  9
$QTEXTMODE
 70
     0
  9
$MIRRTEXT
 70
     1
  9
$DRAGMODE
 70
     2
  9
$LTSCALE
 40
15.24
  9
$OSMODE
 70
   231
  9
$ATTMODE
 70
     1
  9
$TEXTSIZE
 40
0.0
  9
$TRACEWID
 40
1.0
  9
$TEXTSTYLE
  7
STANDARD
  9
$CLAYER
  8
DATA
  9
$CELTYPE
  6
BYLAYER
  9
$CECOLOR
 62
   256
  9
$DIMSCALE
 40
1.0
  9
$DIMASZ
 40
0.18
  9
$DIMEXO
 40
0.0625
  9
$DIMDLI
 40
0.38
  9
$DIMRND
 40
0.0
  9
$DIMDLE
 40
0.0
  9
$DIMEXE
 40
0.18
  9
$DIMTP
 40
0.0
  9
$DIMTM
 40
0.0
  9
$DIMTXT
 40
0.18
  9
$DIMCEN
 40
0.09
  9
$DIMTSZ
 40
0.0
  9
$DIMTOL
 70
     0
  9
$DIMLIM
 70
     0
  9
$DIMTIH
 70
     1
  9
$DIMTOH
 70
     1
  9
$DIMSE1
 70
     0
  9
$DIMSE2
 70
     0
  9
$DIMTAD
 70
     0
  9
$DIMZIN
 70
     0
  9
$DIMBLK
  1

  9
$DIMASO
 70
     1
  9
$DIMSHO
 70
     1
  9
$DIMPOST
  1

  9
$DIMAPOST
  1

  9
$DIMALT
 70
     0
  9
$DIMALTD
 70
     2
  9
$DIMALTF
 40
25.399999999999999
  9
$DIMLFAC
 40
1.0
  9
$DIMTOFL
 70
     0
  9
$DIMTVP
 40
0.0
  9
$DIMTIX
 70
     0
  9
$DIMSOXD
 70
     0
  9
$DIMSAH
 70
     0
  9
$DIMBLK1
  1

  9
$DIMBLK2
  1

  9
$DIMSTYLE
  2
STANDARD
  9
$DIMCLRD
 70
     0
  9
$DIMCLRE
 70
     0
  9
$DIMCLRT
 70
     0
  9
$DIMTFAC
 40
1.0
  9
$DIMGAP
 40
0.09
  9
$LUNITS
 70
     2
  9
$LUPREC
 70
     4
  9
$SKETCHINC
 40
0.1
  9
$FILLETRAD
 40
0.0
  9
$AUNITS
 70
     0
  9
$AUPREC
 70
     0
  9
$MENU
  1
acad
  9
$ELEVATION
 40
0.0
  9
$PELEVATION
 40
0.0
  9
$THICKNESS
 40
0.0
  9
$LIMCHECK
 70
     0
  9
$BLIPMODE
 70
     0
  9
$CHAMFERA
 40
0.0
  9
$CHAMFERB
 40
0.0
  9
$SKPOLY
 70
     0
  9
$TDCREATE
 40
2456303.609340278
  9
$TDUPDATE
 40
2456303.612034074
  9
$TDINDWG
 40
0.0003948264
  9
$TDUSRTIMER
 40
0.0003948264
  9
$USRTIMER
 70
     1
  9
$ANGBASE
 50
0.0
  9
$ANGDIR
 70
     0
  9
$PDMODE
 70
     1
  9
$PDSIZE
 40
-2.0
  9
$PLINEWID
 40
0.0
  9
$COORDS
 70
     2
  9
$SPLFRAME
 70
     0
  9
$SPLINETYPE
 70
     6
  9
$SPLINESEGS
 70
     8
  9
$ATTDIA
 70
     0
  9
$ATTREQ
 70
     1
  9
$HANDLING
 70
     1
  9
$HANDSEED
  5
2E9
  9
$SURFTAB1
 70
     6
  9
$SURFTAB2
 70
     6
  9
$SURFTYPE
 70
     6
  9
$SURFU
 70
     6
  9
$SURFV
 70
     6
  9
$UCSNAME
  2

  9
$UCSORG
 10
0.0
 20
0.0
 30
0.0
  9
$UCSXDIR
 10
1.0
 20
0.0
 30
0.0
  9
$UCSYDIR
 10
0.0
 20
1.0
 30
0.0
  9
$PUCSNAME
  2

  9
$PUCSORG
 10
0.0
 20
0.0
 30
0.0
  9
$PUCSXDIR
 10
1.0
 20
0.0
 30
0.0
  9
$PUCSYDIR
 10
0.0
 20
1.0
 30
0.0
  9
$USERI1
 70
     0
  9
$USERI2
 70
     0
  9
$USERI3
 70
     0
  9
$USERI4
 70
     0
  9
$USERI5
 70
     0
  9
$USERR1
 40
0.0
  9
$USERR2
 40
0.0
  9
$USERR3
 40
0.0
  9
$USERR4
 40
0.0
  9
$USERR5
 40
0.0
  9
$WORLDVIEW
 70
     1
  9
$SHADEDGE
 70
     3
  9
$SHADEDIF
 70
    70
  9
$TILEMODE
 70
     1
  9
$MAXACTVP
 70
    64
  9
$PLIMCHECK
 70
     0
  9
$PEXTMIN
 10
1.0000000000000000E+020
 20
1.0000000000000000E+020
 30
1.0000000000000000E+020
  9
$PEXTMAX
 10
-1.0000000000000000E+020
 20
-1.0000000000000000E+020
 30
-1.0000000000000000E+020
  9
$PLIMMIN
 10
0.0
 20
0.0
  9
$PLIMMAX
 10
12.0
 20
9.0
  9
$UNITMODE
 70
     0
  9
$VISRETAIN
 70
     0
  9
$PLINEGEN
 70
     1
  9
$PSLTSCALE
 70
     0
  0
ENDSEC
  0
SECTION
  2
TABLES
  0
TABLE
  2
VPORT
 70
     1
  0
VPORT
  2
*ACTIVE
 70
     0
 10
0.0
 20
0.0
 11
1.0
 21
1.0
 12
0.0000012572857031
 22
-3.5087834126817361
 13
0.0
 23
0.0
 14
1.0
 24
1.0
 15
0.0
 25
0.0
 16
0.0
 26
0.0
 36
1.0
 17
0.0
 27
0.0
 37
0.0
 40
807.50188317099537
 41
2.2333333333333329
 42
50.0
 43
0.0
 44
0.0
 50
0.0
 51
0.0
 71
     0
 72
  2000
 73
     1
 74
     1
 75
     0
 76
     0
 77
     0
 78
     0
  0
ENDTAB
  0
TABLE
  2
LTYPE
 70
    12
  0
LTYPE
  2
CONTINUOUS
 70
     0
  3
Solid line
 72
    65
 73
     0
 40
0.0
  0
LTYPE
  2
PHANTOM2
 70
     0
  3
___ _ _ ___ _ _ ___ _ _ ___ _ _
 72
    65
 73
     6
 40
1.25
 49
0.625
 49
-0.125
 49
0.125
 49
-0.125
 49
0.125
 49
-0.125
  0
ENDTAB
  0
TABLE
  2
LAYER
 70
     6
  0
LAYER
  2
0
 70
     0
 62
     7
  6
CONTINUOUS
  0
LAYER
  2
DATA
 70
     0
 62
     7
  6
CONTINUOUS
  0
LAYER
  2
HIBINO-BASE
 70
     0
 62
     7
  6
CONTINUOUS
  0
LAYER
  2
SPEC
 70
     0
 62
     7
  6
CONTINUOUS
  0
LAYER
  2
DIMNSIONS
 70
     0
 62
     7
  6
CONTINUOUS
  0
ENDTAB
  0
TABLE
  2
STYLE
 70
     3
  0
STYLE
  2
STANDARD
 70
     0
 40
0.0
 41
1.0
 50
0.0
 71
     0
 42
0.0
  3
txt
  4
BIGFONT.SHX
  0
ENDTAB
  0
TABLE
  2
VIEW
 70
     0
  0
ENDTAB
  0
TABLE
  2
UCS
 70
     0
  0
ENDTAB
  0
TABLE
  2
APPID
 70
     4
  0
APPID
  2
ACAD
 70
     0
  0
APPID
  2
ACADANNOTATIVE
 70
     0
  0
APPID
  2
ACAD_NAV_VCDISPLAY
 70
     0
  0
APPID
  2
ACAD_MLEADERVER
 70
     0
  0
ENDTAB
  0
TABLE
  2
DIMSTYLE
 70
     2
  0
DIMSTYLE
  2
STANDARD
 70
     0
  3

  4

  5

  6

  7

 40
1.0
 41
0.18
 42
0.0625
 43
0.38
 44
0.18
 45
0.0
 46
0.0
 47
0.0
 48
0.0
140
0.18
141
0.09
142
0.0
143
25.399999999999999
144
1.0
145
0.0
146
1.0
147
0.09
 71
     0
 72
     0
 73
     1
 74
     1
 75
     0
 76
     0
 77
     0
 78
     0
170
     0
171
     2
172
     0
173
     0
174
     0
175
     0
176
     0
177
     0
178
     0
  0
ENDTAB
  0
ENDSEC
  0
SECTION
  2
BLOCKS
  0
BLOCK
  8
0
  2
$MODEL_SPACE
 70
     0
 10
0.0
 20
0.0
 30
0.0
  3
$MODEL_SPACE
  1

  0
ENDBLK
  5
255
  8
0
  0
BLOCK
 67
     1
  8
0
  2
$PAPER_SPACE
 70
     0
 10
0.0
 20
0.0
 30
0.0
  3
$PAPER_SPACE
  1

  0
ENDBLK
  5
251
 67
     1
  8
0
  0
ENDSEC
  0
SECTION
  2
ENTITIES
  0
LINE
  5
2D
  8
HIBINO-BASE
  6
CONTINUOUS
 62
     7
 10
-269.99999999999989
 20
397.01757055555572
 30
0.0
 11
269.99999999999989
 21
397.01757055555572
 31
0.0
  0
LINE
  5
2E
  8
HIBINO-BASE
  6
CONTINUOUS
 62
     7
 10
269.99999999999989
 20
-382.98242944444428
 30
0.0
 11
-269.99999999999989
 21
-382.98242944444428
 31
0.0
  0
LINE
  5
2F
  8
HIBINO-BASE
  6
CONTINUOUS
 62
     7
 10
-269.99999999999989
 20
-382.98242944444428
 30
0.0
 11
-269.99999999999989
 21
397.01757055555572
 31
0.0
  0
LINE
  5
30
  8
HIBINO-BASE
  6
CONTINUOUS
 62
     7
 10
269.99999999999989
 20
397.01757055555572
 30
0.0
 11
269.99999999999989
 21
-382.98242944444428
 31
0.0
  0
LINE
  5
31
  8
HIBINO-BASE
  6
CONTINUOUS
 62
     7
 10
0.0
 20
-315.48242944444439
 30
0.0
 11
269.99999999999989
 21
-315.48242944444439
 31
0.0
  0
LINE
  5
32
  8
HIBINO-BASE
  6
CONTINUOUS
 62
     7
 10
0.0
 20
-382.98242944444428
 30
0.0
 11
0.0
 21
-315.48242944444439
 31
0.0
  0
TEXT
  5
33
  8
HIBINO-BASE
 62
     7
 10
2.6999999999999988
 20
-323.00850944444443
 30
0.0
 40
4.8865234374999993
  1
NOTE
 41
0.7
 11
2.7000000000000002
 21
-318.12198600694438
 31
0.0
 73
     3
  0
LINE
  5
34
  8
HIBINO-BASE
  6
CONTINUOUS
 62
     7
 10
105.0
 20
-382.98242944444428
 30
0.0
 11
105.0
 21
-315.48242944444439
 31
0.0
  0
TEXT
  5
35
  8
HIBINO-BASE
 62
     7
 10
107.7
 20
-323.00850944444443
 30
0.0
 40
4.8865234374999993
  1
TITLE
 41
0.7
 11
107.7
 21
-318.12198600694438
 31
0.0
 73
     3
  0
LINE
  5
36
  8
HIBINO-BASE
  6
CONTINUOUS
 62
     7
 10
0.0
 20
-352.98242944444439
 30
0.0
 11
269.99999999999989
 21
-352.98242944444439
 31
0.0
  0
TEXT
  5
37
  8
HIBINO-BASE
 62
     7
 10
145.19999999999999
 20
-360.33954944444429
 30
0.0
 40
4.8865234374999993
  1
DRAWN
 41
0.7
 11
145.19999999999999
 21
-355.4530260069443
 31
0.0
 73
     3
  0
TEXT
  5
38
  8
HIBINO-BASE
 62
     7
 10
70.199999999999989
 20
-360.33954944444429
 30
0.0
 40
4.8865234374999993
  1
DATE
 41
0.7
 11
70.199999999999989
 21
-355.4530260069443
 31
0.0
 73
     3
  0
TEXT
  5
39
  8
HIBINO-BASE
 62
     7
 10
40.200000000000003
 20
-360.33954944444429
 30
0.0
 40
4.8865234374999993
  1
SCALE
 41
0.7
 11
40.200000000000003
 21
-355.4530260069443
 31
0.0
 73
     3
  0
TEXT
  5
3A
  8
HIBINO-BASE
 62
     7
 10
107.7
 20
-360.33954944444429
 30
0.0
 40
4.8865234374999993
  1
DESIGN
 41
0.7
 11
107.7
 21
-355.4530260069443
 31
0.0
 73
     3
  0
TEXT
  5
3B
  8
HIBINO-BASE
 62
     7
 10
220.19999999999999
 20
-360.33954944444429
 30
0.0
 40
4.8865234374999993
  1
DRAWING NO.
 41
0.7
 11
220.19999999999999
 21
-355.4530260069443
 31
0.0
 73
     3
  0
TEXT
  5
3C
  8
HIBINO-BASE
 62
     7
 10
182.69999999999999
 20
-360.33954944444429
 30
0.0
 40
4.8865234374999993
  1
CHECK
 41
0.7
 11
182.69999999999999
 21
-355.4530260069443
 31
0.0
 73
     3
  0
LINE
  5
3D
  8
HIBINO-BASE
  6
CONTINUOUS
 62
     7
 10
43.124999999999993
 20
-379.23242944444428
 30
0.0
 11
54.375
 21
-367.98242944444428
 31
0.0
  0
TEXT
  5
3E
  8
HIBINO-BASE
 62
     7
 10
41.249999999999993
 20
-371.30925944444448
 30
0.0
 40
4.8865234374999993
  1
1
 41
0.7
 11
41.249999999999993
 21
-366.42273600694449
 31
0.0
 73
     3
  0
LINE
  5
3F
  8
HIBINO-BASE
  6
CONTINUOUS
 62
     7
 10
37.5
 20
-382.98242944444428
 30
0.0
 11
37.5
 21
-352.98242944444439
 31
0.0
  0
LINE
  5
40
  8
HIBINO-BASE
  6
CONTINUOUS
 62
     7
 10
67.499999999999986
 20
-382.98242944444428
 30
0.0
 11
67.499999999999986
 21
-352.98242944444439
 31
0.0
  0
LINE
  5
41
  8
HIBINO-BASE
  6
CONTINUOUS
 62
     7
 10
142.5
 20
-352.98242944444439
 30
0.0
 11
142.5
 21
-382.98242944444428
 31
0.0
  0
LINE
  5
42
  8
HIBINO-BASE
  6
CONTINUOUS
 62
     7
 10
217.5
 20
-352.98242944444439
 30
0.0
 11
217.5
 21
-382.98242944444428
 31
0.0
  0
LINE
  5
43
  8
HIBINO-BASE
  6
CONTINUOUS
 62
     7
 10
180.0
 20
-382.98242944444428
 30
0.0
 11
180.0
 21
-352.98242944444439
 31
0.0
  0
TEXT
  5
44
  8
HIBINO-BASE
 62
     7
 10
70.06962
 20
-374.39148944444452
 30
0.0
 40
4.8865234374999993
  1
'12.11.
 41
0.7
 11
70.06962
 21
-369.50496600694453
 31
0.0
 73
     3
  0
TEXT
  5
45
  8
HIBINO-BASE
 62
     7
 10
52.5
 20
-376.93425944444448
 30
0.0
 40
4.8865234374999993
  1
3
 41
0.7
 11
52.5
 21
-372.04773600694449
 31
0.0
 73
     3
  0
TEXT
  5
46
  8
HIBINO-BASE
 62
     7
 10
147.01743003310381
 20
-374.39148944444452
 30
0.0
 40
4.8865234374999993
  1
Ootake
 41
0.7
 11
147.01743003310381
 21
-369.50496600694453
 31
0.0
 73
     3
  0
TEXT
  5
47
  8
HIBINO-BASE
 62
     7
 10
11.65000000000005
 20
-377.05442944444439
 30
0.0
 40
9.7730468749999986
  1
A4
 41
0.7
 11
11.65000000000005
 21
-367.28138256944442
 31
0.0
 73
     3
  0
TEXT
  5
48
  8
HIBINO-BASE
 62
     7
 10
2.874999999999996
 20
-360.8407944444445
 30
0.0
 40
4.8865234374999993
  1
PAPER SIZE
 41
0.7
 11
2.874999999999996
 21
-355.95427100694451
 31
0.0
 73
     3
  0
TEXT
  5
49
  8
HIBINO-BASE
 62
     7
 10
-248.44800000000001
 20
-402.1089744444443
 30
0.0
 40
10.58746744791666
  1
Hibino-Intersound Corporation
 41
0.7
 11
-248.44800000000001
 21
-391.52150699652782
 31
0.0
 73
     3
  0
TEXT
  5
4A
  8
HIBINO-BASE
 62
     7
 10
42.07300250172937
 20
-402.1089744444443
 30
0.0
 40
10.58746744791666
  1
ヒビノインターサウンド株式会社
 41
0.7
 11
42.07300250172937
 21
-391.52150699652782
 31
0.0
 73
     3
  0
LINE
  5
4B
  8
SPEC
  6
CONTINUOUS
 62
     7
 10
-247.5
 20
367.01757055555538
 30
0.0
 11
195.0
 21
367.01757055555538
 31
0.0
  0
LINE
  5
4C
  8
SPEC
  6
CONTINUOUS
 62
     7
 10
-247.5
 20
355.76757055555549
 30
0.0
 11
195.0
 21
355.76757055555549
 31
0.0
  0
LINE
  5
4D
  8
SPEC
  6
CONTINUOUS
 62
     7
 10
-247.5
 20
310.76757055555549
 30
0.0
 11
195.0
 21
310.76757055555549
 31
0.0
  0
LINE
  5
4E
  8
SPEC
  6
CONTINUOUS
 62
     7
 10
-247.5
 20
322.01757055555549
 30
0.0
 11
195.0
 21
322.01757055555549
 31
0.0
  0
LINE
  5
4F
  8
SPEC
  6
CONTINUOUS
 62
     7
 10
-247.5
 20
333.26757055555549
 30
0.0
 11
195.0
 21
333.26757055555549
 31
0.0
  0
LINE
  5
50
  8
SPEC
  6
CONTINUOUS
 62
     7
 10
-247.5
 20
299.51757055555549
 30
0.0
 11
195.0
 21
299.51757055555549
 31
0.0
  0
LINE
  5
51
  8
SPEC
  6
CONTINUOUS
 62
     7
 10
-247.5
 20
288.26757055555549
 30
0.0
 11
195.0
 21
288.26757055555549
 31
0.0
  0
LINE
  5
52
  8
SPEC
  6
CONTINUOUS
 62
     7
 10
-247.5
 20
344.51757055555549
 30
0.0
 11
195.0
 21
344.51757055555549
 31
0.0
  0
TEXT
  5
53
  8
SPEC
 62
     7
 10
-142.36339578868311
 20
358.81768073261321
 30
0.0
 40
5.700933749999999
  1
225MHz
 41
0.7
 11
-142.36339578868311
 21
364.5186144826132
 31
0.0
 73
     3
  0
LINE
  5
54
  8
SPEC
  6
CONTINUOUS
 62
     7
 10
-247.5
 20
367.01757055555538
 30
0.0
 11
-247.5
 21
288.26757055555549
 31
0.0
  0
TEXT
  5
55
  8
SPEC
 62
     7
 10
-243.75
 20
371.19738055555553
 30
0.0
 40
7.3297851562499989
  1
仕様
 41
0.7
 11
-243.75
 21
378.52716571180548
 31
0.0
 73
     3
  0
LINE
  5
56
  8
SPEC
  6
CONTINUOUS
 62
     7
 10
-145.0
 20
367.01757055555538
 30
0.0
 11
-145.0
 21
288.26757055555549
 31
0.0
  0
LINE
  5
57
  8
SPEC
  6
CONTINUOUS
 62
     7
 10
195.0
 20
367.01757055555538
 30
0.0
 11
195.0
 21
288.26757055555549
 31
0.0
  0
TEXT
  5
58
  8
SPEC
 62
     7
 10
-245.0543572175101
 20
302.4021293605781
 30
0.0
 40
5.700933749999999
  1
寸法
 41
0.7
 11
-245.0543572175101
 21
308.10306311057809
 31
0.0
 73
     3
  0
TEXT
  5
59
  8
SPEC
 62
     7
 10
-244.99076791313249
 20
291.2330434507349
 30
0.0
 40
5.700933749999999
  1
重量
 41
0.7
 11
-244.99076791313249
 21
296.93397720073489
 31
0.0
 73
     3
  0
TEXT
  5
5A
  8
SPEC
 62
     7
 10
-245.03712676186771
 20
313.8082657257691
 30
0.0
 40
5.700933749999999
  1
電源
 41
0.7
 11
-245.03712676186771
 21
319.50919947576909
 31
0.0
 73
     3
  0
TEXT
  5
5B
  8
SPEC
 62
     7
 10
-244.7360608775798
 20
358.80433571148887
 30
0.0
 40
5.700933749999999
  1
最大ピクセルクロック
 41
0.7
 11
-244.7360608775798
 21
364.50526946148892
 31
0.0
 73
     3
  0
TEXT
  5
5C
  8
SPEC
 62
     7
 10
-246.27942563273831
 20
324.8213521945998
 30
0.0
 40
5.700933749999999
  1
リンク端子(送信機/受信機）
 41
0.7
 11
-246.27942563273831
 21
330.52228594459979
 31
0.0
 73
     3
  0
TEXT
  5
5D
  8
SPEC
 62
     7
 10
-246.10326935526999
 20
347.38210073625021
 30
0.0
 40
5.700933749999999
  1
ビデオ入力端子(送信機)
 41
0.7
 11
-246.10326935526999
 21
353.0830344862502
 31
0.0
 73
     3
  0
TEXT
  5
5E
  8
SPEC
 62
     7
 10
-246.07878244840421
 20
336.13163246092989
 30
0.0
 40
5.700933749999999
  1
ビデオ出力端子(受信機)
 41
0.7
 11
-246.07878244840421
 21
341.83256621093
 31
0.0
 73
     3
  0
TEXT
  5
5F
  8
SPEC
 62
     7
 10
-142.2999999999999
 20
302.26900569556892
 30
0.0
 40
5.700933749999999
  1
85(W)\U+00D729(H)\U+00D783(D)mm(送信機、受信機）
 41
0.7
 11
-142.2999999999999
 21
307.96993944556891
 31
0.0
 73
     3
  0
TEXT
  5
60
  8
SPEC
 62
     7
 10
-142.5546841099158
 20
290.85164551089463
 30
0.0
 40
5.700933749999999
  1
150g(送信機）、155g(受信機）
 41
0.7
 11
-142.5546841099158
 21
296.55257926089462
 31
0.0
 73
     3
  0
TEXT
  5
61
  8
SPEC
 62
     7
 10
-142.2999999999999
 20
313.7382769463668
 30
0.0
 40
5.700933749999999
  1
DC5V(ロック式)、最大10W(送信機、受信機共）
 41
0.7
 11
-142.2999999999999
 21
319.43921069636679
 31
0.0
 73
     3
  0
TEXT
  5
62
  8
SPEC
 62
     7
 10
-142.34566496940241
 20
324.63834822127802
 30
0.0
 40
5.700933749999999
  1
RJ-45(シールド）
 41
0.7
 11
-142.34566496940241
 21
330.33928197127801
 31
0.0
 73
     3
  0
TEXT
  5
63
  8
SPEC
 62
     7
 10
-142.32497632419589
 20
347.33371187470368
 30
0.0
 40
5.700933749999999
  1
HDMI Type A(19ピン、メス）
 41
0.7
 11
-142.32497632419589
 21
353.03464562470373
 31
0.0
 73
     3
  0
TEXT
  5
64
  8
SPEC
 62
     7
 10
-142.2999999999999
 20
335.90991433027
 30
0.0
 40
5.700933749999999
  1
HDMI Type A(19ピン、メス）
 41
0.7
 11
-142.2999999999999
 21
341.61084808026999
 31
0.0
 73
     3
  0
TEXT
  5
65
  8
DIMNSIONS
 62
     7
 10
-60.0
 20
-346.17395944444439
 30
0.0
 40
7.3297851562499989
  1
(単位：mm)
 41
0.7
 11
-60.0
 21
-338.84417428819449
 31
0.0
 73
     3
  0
LINE
  5
66
  8
DIMNSIONS
  6
CONTINUOUS
 62
     7
 10
-126.0
 20
-280.0
 30
0.0
 11
-146.0
 21
-280.0
 31
0.0
  0
LINE
  5
67
  8
DIMNSIONS
  6
CONTINUOUS
 62
     7
 10
-126.0
 20
-251.0
 30
0.0
 11
-146.0
 21
-251.0
 31
0.0
  0
LINE
  5
68
  8
DIMNSIONS
  6
CONTINUOUS
 62
     7
 10
-140.0
 20
-280.0
 30
0.0
 11
-140.0
 21
-251.0
 31
0.0
  0
LINE
  5
69
  8
DIMNSIONS
  6
CONTINUOUS
 62
     7
 10
-140.0
 20
-280.0
 30
0.0
 11
-142.01011938545071
 21
-272.49813232421877
 31
0.0
  0
LINE
  5
6A
  8
DIMNSIONS
  6
CONTINUOUS
 62
     7
 10
-140.0
 20
-280.0
 30
0.0
 11
-137.98988061454921
 21
-272.49813232421877
 31
0.0
  0
LINE
  5
6B
  8
DIMNSIONS
  6
CONTINUOUS
 62
     7
 10
-140.0
 20
-251.0
 30
0.0
 11
-137.98988061454921
 21
-258.50186767578123
 31
0.0
  0
LINE
  5
6C
  8
DIMNSIONS
  6
CONTINUOUS
 62
     7
 10
-140.0
 20
-251.0
 30
0.0
 11
-142.01011938545071
 21
-258.50186767578123
 31
0.0
  0
TEXT
  5
6D
  8
DIMNSIONS
 62
     7
 10
-142.98166668874521
 20
-270.79166666666657
 30
0.0
 40
8.1442058505247932
  1
29
 50
90.0
 41
0.7
 11
-151.12587253927001
 21
-270.79166666666657
 31
0.0
 73
     3
  0
LINE
  5
6E
  8
DIMNSIONS
  6
CONTINUOUS
 62
     7
 10
-120.0
 20
-286.0
 30
0.0
 11
-120.0
 21
-306.0
 31
0.0
  0
LINE
  5
6F
  8
DIMNSIONS
  6
CONTINUOUS
 62
     7
 10
-37.0
 20
-286.0
 30
0.0
 11
-37.0
 21
-306.0
 31
0.0
  0
LINE
  5
70
  8
DIMNSIONS
  6
CONTINUOUS
 62
     7
 10
-120.0
 20
-300.0
 30
0.0
 11
-37.0
 21
-300.0
 31
0.0
  0
LINE
  5
71
  8
DIMNSIONS
  6
CONTINUOUS
 62
     7
 10
-120.0
 20
-300.0
 30
0.0
 11
-112.4981323242187
 21
-297.98988061454918
 31
0.0
  0
LINE
  5
72
  8
DIMNSIONS
  6
CONTINUOUS
 62
     7
 10
-120.0
 20
-300.0
 30
0.0
 11
-112.4981323242187
 21
-302.01011938545082
 31
0.0
  0
LINE
  5
73
  8
DIMNSIONS
  6
CONTINUOUS
 62
     7
 10
-37.0
 20
-300.0
 30
0.0
 11
-44.501867675781249
 21
-302.01011938545082
 31
0.0
  0
LINE
  5
74
  8
DIMNSIONS
  6
CONTINUOUS
 62
     7
 10
-37.0
 20
-300.0
 30
0.0
 11
-44.501867675781249
 21
-297.98988061454918
 31
0.0
  0
TEXT
  5
75
  8
DIMNSIONS
 62
     7
 10
-83.791666666666686
 20
-297.01833331125482
 30
0.0
 40
8.1442058505247932
  1
83
 41
0.7
 11
-83.791666666666686
 21
-288.87412746072999
 31
0.0
 73
     3
  0
LINE
  5
76
  8
DIMNSIONS
  6
CONTINUOUS
 62
     7
 10
-126.0
 20
-220.0
 30
0.0
 11
-146.0
 21
-220.0
 31
0.0
  0
LINE
  5
77
  8
DIMNSIONS
  6
CONTINUOUS
 62
     7
 10
-126.0
 20
-135.0
 30
0.0
 11
-146.0
 21
-135.0
 31
0.0
  0
LINE
  5
78
  8
DIMNSIONS
  6
CONTINUOUS
 62
     7
 10
-140.0
 20
-220.0
 30
0.0
 11
-140.0
 21
-135.0
 31
0.0
  0
LINE
  5
79
  8
DIMNSIONS
  6
CONTINUOUS
 62
     7
 10
-140.0
 20
-220.0
 30
0.0
 11
-142.01011938545071
 21
-212.4981323242188
 31
0.0
  0
LINE
  5
7A
  8
DIMNSIONS
  6
CONTINUOUS
 62
     7
 10
-140.0
 20
-220.0
 30
0.0
 11
-137.98988061454921
 21
-212.4981323242188
 31
0.0
  0
LINE
  5
7B
  8
DIMNSIONS
  6
CONTINUOUS
 62
     7
 10
-140.0
 20
-135.0
 30
0.0
 11
-137.98988061454921
 21
-142.5018676757812
 31
0.0
  0
LINE
  5
7C
  8
DIMNSIONS
  6
CONTINUOUS
 62
     7
 10
-140.0
 20
-135.0
 30
0.0
 11
-142.01011938545071
 21
-142.5018676757812
 31
0.0
  0
TEXT
  5
7D
  8
DIMNSIONS
 62
     7
 10
-142.98166668874521
 20
-182.79166666666671
 30
0.0
 40
8.1442058505247932
  1
85
 50
90.0
 41
0.7
 11
-151.12587253927001
 21
-182.79166666666671
 31
0.0
 73
     3
  0
LINE
  5
7E
  8
DIMNSIONS
  6
CONTINUOUS
 62
     7
 10
-64.5
 20
-227.0
 30
0.0
 11
-146.0
 21
-227.0
 31
0.0
  0
LINE
  5
7F
  8
DIMNSIONS
  6
CONTINUOUS
 62
     7
 10
-126.0
 20
-220.0
 30
0.0
 11
-146.0
 21
-220.0
 31
0.0
  0
LINE
  5
80
  8
DIMNSIONS
  6
CONTINUOUS
 62
     7
 10
-140.0
 20
-220.0
 30
0.0
 11
-140.0
 21
-227.0
 31
0.0
  0
LINE
  5
81
  8
DIMNSIONS
  6
CONTINUOUS
 62
     7
 10
-140.0
 20
-227.0
 30
0.0
 11
-140.0
 21
-242.0
 31
0.0
  0
LINE
  5
82
  8
DIMNSIONS
  6
CONTINUOUS
 62
     7
 10
-140.0
 20
-227.0
 30
0.0
 11
-137.98988061454921
 21
-234.50186767578131
 31
0.0
  0
LINE
  5
83
  8
DIMNSIONS
  6
CONTINUOUS
 62
     7
 10
-140.0
 20
-227.0
 30
0.0
 11
-142.01011938545071
 21
-234.50186767578131
 31
0.0
  0
LINE
  5
84
  8
DIMNSIONS
  6
CONTINUOUS
 62
     7
 10
-140.0
 20
-220.0
 30
0.0
 11
-140.0
 21
-205.0
 31
0.0
  0
LINE
  5
85
  8
DIMNSIONS
  6
CONTINUOUS
 62
     7
 10
-140.0
 20
-220.0
 30
0.0
 11
-142.01011938545071
 21
-212.4981323242188
 31
0.0
  0
LINE
  5
86
  8
DIMNSIONS
  6
CONTINUOUS
 62
     7
 10
-140.0
 20
-220.0
 30
0.0
 11
-137.98988061454921
 21
-212.4981323242188
 31
0.0
  0
TEXT
  5
87
  8
DIMNSIONS
 62
     7
 10
-142.98166668874521
 20
-231.4375
 30
0.0
 40
8.1442058505247932
  1
7.0
 50
90.0
 41
0.7
 11
-151.12587253927001
 21
-231.4375
 31
0.0
 73
     3
  0
LINE
  5
88
  8
DIMNSIONS
  6
CONTINUOUS
 62
     7
 10
-126.0
 20
-18.0
 30
0.0
 11
-146.0
 21
-18.0
 31
0.0
  0
LINE
  5
89
  8
DIMNSIONS
  6
CONTINUOUS
 62
     7
 10
-126.0
 20
11.0
 30
0.0
 11
-146.0
 21
11.0
 31
0.0
  0
LINE
  5
8A
  8
DIMNSIONS
  6
CONTINUOUS
 62
     7
 10
-140.0
 20
-18.0
 30
0.0
 11
-140.0
 21
11.0
 31
0.0
  0
LINE
  5
8B
  8
DIMNSIONS
  6
CONTINUOUS
 62
     7
 10
-140.0
 20
-18.0
 30
0.0
 11
-142.01011938545071
 21
-10.49813232421875
 31
0.0
  0
LINE
  5
8C
  8
DIMNSIONS
  6
CONTINUOUS
 62
     7
 10
-140.0
 20
-18.0
 30
0.0
 11
-137.98988061454921
 21
-10.49813232421875
 31
0.0
  0
LINE
  5
8D
  8
DIMNSIONS
  6
CONTINUOUS
 62
     7
 10
-140.0
 20
11.0
 30
0.0
 11
-137.98988061454921
 21
3.498132324218751
 31
0.0
  0
LINE
  5
8E
  8
DIMNSIONS
  6
CONTINUOUS
 62
     7
 10
-140.0
 20
11.0
 30
0.0
 11
-142.01011938545071
 21
3.498132324218751
 31
0.0
  0
TEXT
  5
8F
  8
DIMNSIONS
 62
     7
 10
-142.98166668874521
 20
-8.7916666666666661
 30
0.0
 40
8.1442058505247932
  1
29
 50
90.0
 41
0.7
 11
-151.12587253927001
 21
-8.7916666666666643
 31
0.0
 73
     3
  0
LINE
  5
90
  8
DIMNSIONS
  6
CONTINUOUS
 62
     7
 10
-120.0
 20
-24.0
 30
0.0
 11
-120.0
 21
-44.0
 31
0.0
  0
LINE
  5
91
  8
DIMNSIONS
  6
CONTINUOUS
 62
     7
 10
-37.0
 20
-24.0
 30
0.0
 11
-37.0
 21
-44.0
 31
0.0
  0
LINE
  5
92
  8
DIMNSIONS
  6
CONTINUOUS
 62
     7
 10
-120.0
 20
-38.0
 30
0.0
 11
-37.0
 21
-38.0
 31
0.0
  0
LINE
  5
93
  8
DIMNSIONS
  6
CONTINUOUS
 62
     7
 10
-120.0
 20
-38.0
 30
0.0
 11
-112.4981323242187
 21
-35.989880614549271
 31
0.0
  0
LINE
  5
94
  8
DIMNSIONS
  6
CONTINUOUS
 62
     7
 10
-120.0
 20
-38.0
 30
0.0
 11
-112.4981323242187
 21
-40.010119385450722
 31
0.0
  0
LINE
  5
95
  8
DIMNSIONS
  6
CONTINUOUS
 62
     7
 10
-37.0
 20
-38.0
 30
0.0
 11
-44.501867675781249
 21
-40.010119385450722
 31
0.0
  0
LINE
  5
96
  8
DIMNSIONS
  6
CONTINUOUS
 62
     7
 10
-37.0
 20
-38.0
 30
0.0
 11
-44.501867675781249
 21
-35.989880614549271
 31
0.0
  0
TEXT
  5
97
  8
DIMNSIONS
 62
     7
 10
-83.791666666666686
 20
-35.018333311254793
 30
0.0
 40
8.1442058505247932
  1
83
 41
0.7
 11
-83.791666666666686
 21
-26.874127460729991
 31
0.0
 73
     3
  0
LINE
  5
98
  8
DIMNSIONS
  6
CONTINUOUS
 62
     7
 10
-126.0
 20
42.0
 30
0.0
 11
-146.0
 21
42.0
 31
0.0
  0
LINE
  5
99
  8
DIMNSIONS
  6
CONTINUOUS
 62
     7
 10
-126.0
 20
127.0
 30
0.0
 11
-146.0
 21
127.0
 31
0.0
  0
LINE
  5
9A
  8
DIMNSIONS
  6
CONTINUOUS
 62
     7
 10
-140.0
 20
42.0
 30
0.0
 11
-140.0
 21
127.0
 31
0.0
  0
LINE
  5
9B
  8
DIMNSIONS
  6
CONTINUOUS
 62
     7
 10
-140.0
 20
42.0
 30
0.0
 11
-142.01011938545071
 21
49.501867675781249
 31
0.0
  0
LINE
  5
9C
  8
DIMNSIONS
  6
CONTINUOUS
 62
     7
 10
-140.0
 20
42.0
 30
0.0
 11
-137.98988061454921
 21
49.501867675781249
 31
0.0
  0
LINE
  5
9D
  8
DIMNSIONS
  6
CONTINUOUS
 62
     7
 10
-140.0
 20
127.0
 30
0.0
 11
-137.98988061454921
 21
119.4981323242187
 31
0.0
  0
LINE
  5
9E
  8
DIMNSIONS
  6
CONTINUOUS
 62
     7
 10
-140.0
 20
127.0
 30
0.0
 11
-142.01011938545071
 21
119.4981323242187
 31
0.0
  0
TEXT
  5
9F
  8
DIMNSIONS
 62
     7
 10
-142.98166668874521
 20
79.208333333333329
 30
0.0
 40
8.1442058505247932
  1
85
 50
90.0
 41
0.7
 11
-151.12587253927001
 21
79.208333333333329
 31
0.0
 73
     3
  0
LINE
  5
A0
  8
DIMNSIONS
  6
CONTINUOUS
 62
     7
 10
-114.0
 20
35.0
 30
0.0
 11
-146.0
 21
35.0
 31
0.0
  0
LINE
  5
A1
  8
DIMNSIONS
  6
CONTINUOUS
 62
     7
 10
-126.0
 20
42.0
 30
0.0
 11
-146.0
 21
42.0
 31
0.0
  0
LINE
  5
A2
  8
DIMNSIONS
  6
CONTINUOUS
 62
     7
 10
-140.0
 20
42.0
 30
0.0
 11
-140.0
 21
35.0
 31
0.0
  0
LINE
  5
A3
  8
DIMNSIONS
  6
CONTINUOUS
 62
     7
 10
-140.0
 20
35.0
 30
0.0
 11
-140.0
 21
20.0
 31
0.0
  0
LINE
  5
A4
  8
DIMNSIONS
  6
CONTINUOUS
 62
     7
 10
-140.0
 20
35.0
 30
0.0
 11
-137.98988061454921
 21
27.498132324218751
 31
0.0
  0
LINE
  5
A5
  8
DIMNSIONS
  6
CONTINUOUS
 62
     7
 10
-140.0
 20
35.0
 30
0.0
 11
-142.01011938545071
 21
27.498132324218751
 31
0.0
  0
LINE
  5
A6
  8
DIMNSIONS
  6
CONTINUOUS
 62
     7
 10
-140.0
 20
42.0
 30
0.0
 11
-140.0
 21
57.0
 31
0.0
  0
LINE
  5
A7
  8
DIMNSIONS
  6
CONTINUOUS
 62
     7
 10
-140.0
 20
42.0
 30
0.0
 11
-142.01011938545071
 21
49.501867675781249
 31
0.0
  0
LINE
  5
A8
  8
DIMNSIONS
  6
CONTINUOUS
 62
     7
 10
-140.0
 20
42.0
 30
0.0
 11
-137.98988061454921
 21
49.501867675781249
 31
0.0
  0
TEXT
  5
A9
  8
DIMNSIONS
 62
     7
 10
-142.9816666666666
 20
30.5625
 30
0.0
 40
8.1442057291666661
  1
7.0
 50
90.0
 41
0.7
 11
-151.12587239583331
 21
30.5625
 31
0.0
 73
     3
  0
TEXT
  5
AA
  8
DATA
 62
     7
 10
150.0
 20
-349.5897594444445
 30
0.0
 40
7.3297851562499989
  1
GTV-HDBT-CAT5
 41
0.7
 11
150.0
 21
-342.25997428819443
 31
0.0
 73
     3
  0
TEXT
  5
AB
  8
DATA
 62
     7
 10
150.0
 20
-327.83975944444438
 30
0.0
 40
7.3297851562499989
  1
Gefen
 41
0.7
 11
150.0
 21
-320.50997428819443
 31
0.0
 73
     3
  0
TEXT
  5
AC
  8
DATA
 62
     7
 10
146.72110796105039
 20
-337.06459719843002
 30
0.0
 40
4.8865311328124994
  1
HDMI延長器
 41
0.7
 11
146.72110796105039
 21
-332.17806606561749
 31
0.0
 73
     3
  0
TEXT
  5
AD
  8
DATA
 62
     7
 10
-262.5
 20
-359.35359611111102
 30
0.0
 40
5.7009440104166673
  1
※仕様及び外観は予告なく変更されることがあります。
 41
0.7
 11
-262.5
 21
-353.65265210069441
 31
0.0
 73
     3
  0
TEXT
  5
AE
  8
DATA
 62
     7
 10
-262.5
 20
-366.76192944444438
 30
0.0
 40
5.7009440104166673
  1
　また、同一製品でも若干の個体差があることがあります。ご了承ください。
 41
0.7
 11
-262.5
 21
-361.06098543402771
 31
0.0
 73
     3
  0
LINE
  5
AF
  8
DATA
  6
CONTINUOUS
 62
     7
 10
-120.0
 20
-278.5
 30
0.0
 11
-120.0
 21
-252.5
 31
0.0
  0
LINE
  5
B0
  8
DATA
  6
CONTINUOUS
 62
     7
 10
-38.5
 20
-280.0
 30
0.0
 11
-49.0
 21
-280.0
 31
0.0
  0
LINE
  5
B1
  8
DATA
  6
CONTINUOUS
 62
     7
 10
-108.0
 20
-280.0
 30
0.0
 11
-118.5
 21
-280.0
 31
0.0
  0
LINE
  5
B2
  8
DATA
  6
CONTINUOUS
 62
     7
 10
-37.0
 20
-252.5
 30
0.0
 11
-37.0
 21
-278.5
 31
0.0
  0
LINE
  5
B3
  8
DATA
  6
CONTINUOUS
 62
     7
 10
-118.5
 20
-251.0
 30
0.0
 11
-38.5
 21
-251.0
 31
0.0
  0
LINE
  5
B4
  8
DATA
  6
CONTINUOUS
 62
     7
 10
-108.0
 20
-280.0
 30
0.0
 11
-108.0
 21
-278.5
 31
0.0
  0
LINE
  5
B5
  8
DATA
  6
CONTINUOUS
 62
     7
 10
-49.0
 20
-278.5
 30
0.0
 11
-49.0
 21
-280.0
 31
0.0
  0
LINE
  5
B6
  8
DATA
  6
CONTINUOUS
 62
     7
 10
-40.0
 20
-278.5
 30
0.0
 11
-49.0
 21
-278.5
 31
0.0
  0
LINE
  5
B7
  8
DATA
  6
CONTINUOUS
 62
     7
 10
-108.0
 20
-278.5
 30
0.0
 11
-117.0
 21
-278.5
 31
0.0
  0
LINE
  5
B8
  8
DATA
  6
CONTINUOUS
 62
     7
 10
-118.5
 20
-277.0
 30
0.0
 11
-118.5
 21
-254.0
 31
0.0
  0
LINE
  5
B9
  8
DATA
  6
CONTINUOUS
 62
     7
 10
-38.5
 20
-254.0
 30
0.0
 11
-38.5
 21
-277.0
 31
0.0
  0
LINE
  5
BA
  8
DATA
  6
CONTINUOUS
 62
     7
 10
-117.0
 20
-252.5
 30
0.0
 11
-40.0
 21
-252.5
 31
0.0
  0
ARC
  5
BB
  8
DATA
  6
CONTINUOUS
 62
     7
 10
-117.0
 20
-277.0
 30
0.0
 40
1.5
 50
180.0
 51
270.0
  0
ARC
  5
BC
  8
DATA
  6
CONTINUOUS
 62
     7
 10
-118.5
 20
-278.5
 30
0.0
 40
1.5
 50
180.0
 51
270.0
  0
ARC
  5
BD
  8
DATA
  6
CONTINUOUS
 62
     7
 10
-118.5
 20
-252.5
 30
0.0
 40
1.5
 50
90.0
 51
180.0
  0
ARC
  5
BE
  8
DATA
  6
CONTINUOUS
 62
     7
 10
-117.0
 20
-254.0
 30
0.0
 40
1.5
 50
90.0
 51
180.0
  0
ARC
  5
BF
  8
DATA
  6
CONTINUOUS
 62
     7
 10
-40.0
 20
-277.0
 30
0.0
 40
1.5
 50
270.0
 51
0.0
  0
ARC
  5
C0
  8
DATA
  6
CONTINUOUS
 62
     7
 10
-38.5
 20
-278.5
 30
0.0
 40
1.5
 50
270.0
 51
0.0
  0
ARC
  5
C1
  8
DATA
  6
CONTINUOUS
 62
     7
 10
-40.0
 20
-254.0
 30
0.0
 40
1.5
 50
0.0
 51
90.0
  0
ARC
  5
C2
  8
DATA
  6
CONTINUOUS
 62
     7
 10
-38.5
 20
-252.5
 30
0.0
 40
1.5
 50
0.0
 51
90.0
  0
LINE
  5
C3
  8
DATA
  6
CONTINUOUS
 62
     7
 10
-108.0
 20
-278.5
 30
0.0
 11
-49.0
 21
-278.5
 31
0.0
  0
TEXT
  5
C4
  8
DATA
 62
     7
 10
-96.138901439968606
 20
-316.60484683596428
 30
0.0
 40
8.1442057291666661
  1
受信機
 41
0.7
 11
-96.138901439968606
 21
-308.4606411067976
 31
0.0
 73
     3
  0
POLYLINE
  5
C5
  8
DATA
  6
CONTINUOUS
 62
     7
 66
     1
 10
0.0
 20
0.0
 30
0.0
 70
     1
  0
VERTEX
  5
286
  8
DATA
  6
CONTINUOUS
 62
     7
 10
-89.866752971549204
 20
-260.42029422484001
 30
0.0
  0
VERTEX
  5
287
  8
DATA
  6
CONTINUOUS
 62
     7
 10
-87.078365292423285
 20
-259.6731479980333
 30
0.0
  0
VERTEX
  5
288
  8
DATA
  6
CONTINUOUS
 62
     7
 10
-86.331219065616665
 20
-256.8847603189073
 30
0.0
  0
VERTEX
  5
289
  8
DATA
  6
CONTINUOUS
 62
     7
 10
-88.372460517935792
 20
-254.843518866588
 30
0.0
  0
VERTEX
  5
28A
  8
DATA
  6
CONTINUOUS
 62
     7
 10
-91.16084819706181
 20
-255.59066509339459
 30
0.0
  0
VERTEX
  5
28B
  8
DATA
  6
CONTINUOUS
 62
     7
 10
-91.907994423868587
 20
-258.37905277252071
 30
0.0
  0
SEQEND
  5
28C
  8
DATA
  6
CONTINUOUS
 62
     7
  0
CIRCLE
  5
CE
  8
DATA
  6
CONTINUOUS
 62
     7
 10
-89.119606744742512
 20
-257.63190654571389
 30
0.0
 40
1.275000000000019
  0
LINE
  5
CF
  8
DATA
  6
CONTINUOUS
 62
     7
 10
-81.269606744743143
 20
-264.69475721447822
 30
0.0
 11
-96.969606744742464
 21
-264.69475721447822
 31
0.0
  0
LINE
  5
D0
  8
DATA
  6
CONTINUOUS
 62
     7
 10
-81.269606744743143
 20
-264.69475721447822
 30
0.0
 11
-81.269606744743143
 21
-268.9947572144784
 31
0.0
  0
LINE
  5
D1
  8
DATA
  6
CONTINUOUS
 62
     7
 10
-96.969606744742464
 20
-264.69475721447822
 30
0.0
 11
-96.969606744742464
 21
-268.9947572144784
 31
0.0
  0
LINE
  5
D2
  8
DATA
  6
CONTINUOUS
 62
     7
 10
-81.269606744743143
 20
-268.9947572144784
 30
0.0
 11
-83.869606744742853
 21
-270.69475721447839
 31
0.0
  0
LINE
  5
D3
  8
DATA
  6
CONTINUOUS
 62
     7
 10
-96.969606744742464
 20
-268.9947572144784
 30
0.0
 11
-94.369606744742512
 21
-270.69475721447839
 31
0.0
  0
LINE
  5
D4
  8
DATA
  6
CONTINUOUS
 62
     7
 10
-83.869606744742853
 20
-270.69475721447839
 30
0.0
 11
-94.369606744742512
 21
-270.69475721447839
 31
0.0
  0
POLYLINE
  5
D5
  8
DATA
  6
CONTINUOUS
 62
     7
 66
     1
 10
0.0
 20
0.0
 30
0.0
 70
     1
  0
VERTEX
  5
28D
  8
DATA
  6
CONTINUOUS
 62
     7
 10
-94.119606744742512
 20
-266.98092038897107
 30
0.0
  0
VERTEX
  5
28E
  8
DATA
  6
CONTINUOUS
 62
     7
 10
-84.119606744742484
 20
-266.98092038897107
 30
0.0
  0
VERTEX
  5
28F
  8
DATA
  6
CONTINUOUS
 62
     7
 10
-84.119606744742484
 20
-267.48092038897107
 30
0.0
  0
VERTEX
  5
290
  8
DATA
  6
CONTINUOUS
 62
     7
 10
-94.119606744742512
 20
-267.48092038897107
 30
0.0
  0
SEQEND
  5
291
  8
DATA
  6
CONTINUOUS
 62
     7
  0
TEXT
  5
DC
  8
DATA
 62
     7
 10
-94.402733748039225
 20
-277.60181173954737
 30
0.0
 40
1.9790419921874991
  1
HDMI Out
 41
0.7
 11
-94.402733748039225
 21
-275.62276974735988
 31
0.0
 73
     3
  0
TEXT
  5
DD
  8
DATA
 62
     7
 10
-76.307958931090141
 20
-277.59008471657188
 30
0.0
 40
1.9790419921874991
  1
Power
 41
0.7
 11
-76.307958931090141
 21
-275.61104272438439
 31
0.0
 73
     3
  0
TEXT
  5
DE
  8
DATA
 62
     7
 10
-57.595802010260464
 20
-277.66210993787899
 30
0.0
 40
1.9790419921874991
  1
5V DC
 41
0.7
 11
-57.595802010260464
 21
-275.6830679456915
 31
0.0
 73
     3
  0
CIRCLE
  5
DF
  8
DATA
  6
CONTINUOUS
 62
     7
 10
-54.5
 20
-262.5
 30
0.0
 40
4.0
  0
POLYLINE
  5
E0
  8
DATA
  6
CONTINUOUS
 62
     7
 66
     1
 10
0.0
 20
0.0
 30
0.0
 70
     1
  0
VERTEX
  5
292
  8
DATA
  6
CONTINUOUS
 62
     7
 10
-57.386751345948142
 20
-257.5
 30
0.0
  0
VERTEX
  5
293
  8
DATA
  6
CONTINUOUS
 62
     7
 10
-60.27350269189629
 20
-262.5
 30
0.0
  0
VERTEX
  5
294
  8
DATA
  6
CONTINUOUS
 62
     7
 10
-57.386751345948142
 20
-267.5
 30
0.0
  0
VERTEX
  5
295
  8
DATA
  6
CONTINUOUS
 62
     7
 10
-51.613248654051858
 20
-267.5
 30
0.0
  0
VERTEX
  5
296
  8
DATA
  6
CONTINUOUS
 62
     7
 10
-48.726497308103717
 20
-262.5
 30
0.0
  0
VERTEX
  5
297
  8
DATA
  6
CONTINUOUS
 62
     7
 10
-51.613248654051858
 20
-257.5
 30
0.0
  0
SEQEND
  5
298
  8
DATA
  6
CONTINUOUS
 62
     7
  0
CIRCLE
  5
E9
  8
DATA
  6
CONTINUOUS
 62
     7
 10
-54.5
 20
-262.5
 30
0.0
 40
2.8999999999999768
  0
CIRCLE
  5
EA
  8
DATA
  6
CONTINUOUS
 62
     7
 10
-54.5
 20
-262.5
 30
0.0
 40
0.75
  0
LINE
  5
EB
  8
DATA
  6
CONTINUOUS
 62
     7
 10
-74.55499887639553
 20
-251.0
 30
0.0
 11
-71.55499887639553
 21
-251.0
 31
0.0
  0
CIRCLE
  5
EC
  8
DATA
  6
CONTINUOUS
 62
     7
 10
-73.05499887639553
 20
-266.0
 30
0.0
 40
1.5
  0
LINE
  5
ED
  8
DATA
  6
CONTINUOUS
 62
     7
 10
-120.0
 20
-220.0
 30
0.0
 11
-120.0
 21
-135.0
 31
0.0
  0
LINE
  5
EE
  8
DATA
  6
CONTINUOUS
 62
     7
 10
-37.0
 20
-220.0
 30
0.0
 11
-37.0
 21
-135.0
 31
0.0
  0
LINE
  5
EF
  8
DATA
  6
CONTINUOUS
 62
     7
 10
-120.0
 20
-220.0
 30
0.0
 11
-37.0
 21
-220.0
 31
0.0
  0
LINE
  5
F0
  8
DATA
  6
CONTINUOUS
 62
     7
 10
-120.0
 20
-135.0
 30
0.0
 11
-37.0
 21
-135.0
 31
0.0
  0
LINE
  5
F1
  8
DATA
  6
CONTINUOUS
 62
     7
 10
-91.907994423868587
 20
-226.0
 30
0.0
 11
-91.907994423868587
 21
-220.0
 31
0.0
  0
LINE
  5
F2
  8
DATA
  6
CONTINUOUS
 62
     7
 10
-86.331219065616665
 20
-226.0
 30
0.0
 11
-86.331219065616665
 21
-220.0
 31
0.0
  0
LINE
  5
F3
  8
DATA
  6
CONTINUOUS
 62
     7
 10
-91.907994423868587
 20
-226.0
 30
0.0
 11
-86.331219065616665
 21
-226.0
 31
0.0
  0
LINE
  5
F4
  8
DATA
  6
CONTINUOUS
 62
     7
 10
-88.372460517935792
 20
-226.0
 30
0.0
 11
-88.372460517935792
 21
-220.0
 31
0.0
  0
ARC
  5
F5
  8
DATA
  6
CONTINUOUS
 62
     7
 10
-73.05499887639553
 20
-220.0
 30
0.0
 40
1.5
 50
180.0
 51
0.0
  0
LINE
  5
F6
  8
DATA
  6
CONTINUOUS
 62
     7
 10
-60.27350269189629
 20
-222.5
 30
0.0
 11
-60.27350269189629
 21
-220.0
 31
0.0
  0
LINE
  5
F7
  8
DATA
  6
CONTINUOUS
 62
     7
 10
-48.726497308103717
 20
-222.5
 30
0.0
 11
-48.726497308103717
 21
-220.0
 31
0.0
  0
LINE
  5
F8
  8
DATA
  6
CONTINUOUS
 62
     7
 10
-60.273502691896248
 20
-222.5
 30
0.0
 11
-48.726497308103731
 21
-222.5
 31
0.0
  0
LINE
  5
F9
  8
DATA
  6
CONTINUOUS
 62
     7
 10
-54.499999999999993
 20
-222.5
 30
0.0
 11
-54.499999999999993
 21
-220.0
 31
0.0
  0
LINE
  5
FA
  8
DATA
  6
CONTINUOUS
 62
     7
 10
-58.5
 20
-227.0
 30
0.0
 11
-58.5
 21
-222.5
 31
0.0
  0
LINE
  5
FB
  8
DATA
  6
CONTINUOUS
 62
     7
 10
-50.5
 20
-227.0
 30
0.0
 11
-50.5
 21
-222.5
 31
0.0
  0
LINE
  5
FC
  8
DATA
  6
CONTINUOUS
 62
     7
 10
-58.5
 20
-227.0
 30
0.0
 11
-50.500000000000021
 21
-227.0
 31
0.0
  0
LINE
  5
FD
  8
DATA
  6
CONTINUOUS
 62
     7
 10
-117.5
 20
-280.0
 30
0.0
 11
-116.5
 21
-282.0
 31
0.0
  0
LINE
  5
FE
  8
DATA
  6
CONTINUOUS
 62
     7
 10
-109.5
 20
-280.0
 30
0.0
 11
-110.5
 21
-282.0
 31
0.0
  0
LINE
  5
FF
  8
DATA
  6
CONTINUOUS
 62
     7
 10
-116.5
 20
-282.0
 30
0.0
 11
-110.5
 21
-282.0
 31
0.0
  0
LINE
  5
100
  8
DATA
  6
CONTINUOUS
 62
     7
 10
-39.5
 20
-280.0
 30
0.0
 11
-40.499999999999993
 21
-282.0
 31
0.0
  0
LINE
  5
101
  8
DATA
  6
CONTINUOUS
 62
     7
 10
-47.5
 20
-280.0
 30
0.0
 11
-46.5
 21
-282.0
 31
0.0
  0
LINE
  5
102
  8
DATA
  6
CONTINUOUS
 62
     7
 10
-40.499999999999993
 20
-282.0
 30
0.0
 11
-46.5
 21
-282.0
 31
0.0
  0
LINE
  5
103
  8
DATA
  6
CONTINUOUS
 62
     7
 10
-120.0
 20
-92.5
 30
0.0
 11
-120.0
 21
-118.5
 31
0.0
  0
LINE
  5
104
  8
DATA
  6
CONTINUOUS
 62
     7
 10
-38.5
 20
-91.0
 30
0.0
 11
-49.0
 21
-91.0
 31
0.0
  0
LINE
  5
105
  8
DATA
  6
CONTINUOUS
 62
     7
 10
-108.0
 20
-91.0
 30
0.0
 11
-118.5
 21
-91.0
 31
0.0
  0
LINE
  5
106
  8
DATA
  6
CONTINUOUS
 62
     7
 10
-37.0
 20
-118.5
 30
0.0
 11
-37.0
 21
-92.5
 31
0.0
  0
LINE
  5
107
  8
DATA
  6
CONTINUOUS
 62
     7
 10
-118.5
 20
-120.0
 30
0.0
 11
-38.5
 21
-120.0
 31
0.0
  0
LINE
  5
108
  8
DATA
  6
CONTINUOUS
 62
     7
 10
-108.0
 20
-91.0
 30
0.0
 11
-108.0
 21
-92.5
 31
0.0
  0
LINE
  5
109
  8
DATA
  6
CONTINUOUS
 62
     7
 10
-49.0
 20
-92.5
 30
0.0
 11
-49.0
 21
-91.0
 31
0.0
  0
LINE
  5
10A
  8
DATA
  6
CONTINUOUS
 62
     7
 10
-40.0
 20
-92.5
 30
0.0
 11
-49.0
 21
-92.5
 31
0.0
  0
LINE
  5
10B
  8
DATA
  6
CONTINUOUS
 62
     7
 10
-108.0
 20
-92.5
 30
0.0
 11
-117.0
 21
-92.5
 31
0.0
  0
LINE
  5
10C
  8
DATA
  6
CONTINUOUS
 62
     7
 10
-118.5
 20
-94.0
 30
0.0
 11
-118.5
 21
-118.0
 31
0.0
  0
LINE
  5
10D
  8
DATA
  6
CONTINUOUS
 62
     7
 10
-38.5
 20
-118.0
 30
0.0
 11
-38.5
 21
-94.0
 31
0.0
  0
ARC
  5
10E
  8
DATA
  6
CONTINUOUS
 62
     7
 10
-117.0
 20
-94.0
 30
0.0
 40
1.5
 50
90.0
 51
180.0
  0
ARC
  5
10F
  8
DATA
  6
CONTINUOUS
 62
     7
 10
-118.5
 20
-92.5
 30
0.0
 40
1.5
 50
90.0
 51
180.0
  0
ARC
  5
110
  8
DATA
  6
CONTINUOUS
 62
     7
 10
-118.5
 20
-118.5
 30
0.0
 40
1.5
 50
180.0
 51
270.0
  0
ARC
  5
111
  8
DATA
  6
CONTINUOUS
 62
     7
 10
-40.0
 20
-94.0
 30
0.0
 40
1.5
 50
0.0
 51
90.0
  0
ARC
  5
112
  8
DATA
  6
CONTINUOUS
 62
     7
 10
-38.5
 20
-92.5
 30
0.0
 40
1.5
 50
0.0
 51
90.0
  0
ARC
  5
113
  8
DATA
  6
CONTINUOUS
 62
     7
 10
-38.5
 20
-118.5
 30
0.0
 40
1.5
 50
270.0
 51
0.0
  0
LINE
  5
114
  8
DATA
  6
CONTINUOUS
 62
     7
 10
-108.0
 20
-92.5
 30
0.0
 11
-49.0
 21
-92.5
 31
0.0
  0
LINE
  5
115
  8
DATA
  6
CONTINUOUS
 62
     7
 10
-74.55499887639553
 20
-120.0
 30
0.0
 11
-71.55499887639553
 21
-120.0
 31
0.0
  0
LINE
  5
116
  8
DATA
  6
CONTINUOUS
 62
     7
 10
-117.5
 20
-91.0
 30
0.0
 11
-116.5
 21
-89.0
 31
0.0
  0
LINE
  5
117
  8
DATA
  6
CONTINUOUS
 62
     7
 10
-109.5
 20
-91.0
 30
0.0
 11
-110.5
 21
-89.0
 31
0.0
  0
LINE
  5
118
  8
DATA
  6
CONTINUOUS
 62
     7
 10
-116.5
 20
-89.0
 30
0.0
 11
-110.5
 21
-89.0
 31
0.0
  0
LINE
  5
119
  8
DATA
  6
CONTINUOUS
 62
     7
 10
-39.5
 20
-91.0
 30
0.0
 11
-40.499999999999993
 21
-89.0
 31
0.0
  0
LINE
  5
11A
  8
DATA
  6
CONTINUOUS
 62
     7
 10
-47.5
 20
-91.0
 30
0.0
 11
-46.5
 21
-89.0
 31
0.0
  0
LINE
  5
11B
  8
DATA
  6
CONTINUOUS
 62
     7
 10
-40.499999999999993
 20
-89.0
 30
0.0
 11
-46.5
 21
-89.0
 31
0.0
  0
LINE
  5
11C
  8
DATA
  6
CONTINUOUS
 62
     7
 10
-89.300000000000196
 20
-100.6970739511361
 30
0.0
 11
-89.300000000000196
 21
-113.9970739511361
 31
0.0
  0
LINE
  5
11D
  8
DATA
  6
CONTINUOUS
 62
     7
 10
-105.0
 20
-100.6970739511361
 30
0.0
 11
-105.0
 21
-113.9970739511361
 31
0.0
  0
LINE
  5
11E
  8
DATA
  6
CONTINUOUS
 62
     7
 10
-103.3000000000001
 20
-103.6970739511361
 30
0.0
 11
-103.3000000000001
 21
-110.9970739511361
 31
0.0
  0
LINE
  5
11F
  8
DATA
  6
CONTINUOUS
 62
     7
 10
-91.000000000000128
 20
-103.6970739511361
 30
0.0
 11
-91.000000000000128
 21
-110.9970739511361
 31
0.0
  0
LINE
  5
120
  8
DATA
  6
CONTINUOUS
 62
     7
 10
-103.3000000000001
 20
-103.6970739511361
 30
0.0
 11
-91.000000000000128
 21
-103.6970739511361
 31
0.0
  0
LINE
  5
121
  8
DATA
  6
CONTINUOUS
 62
     7
 10
-99.375
 20
-113.9970739511361
 30
0.0
 11
-99.375
 21
-112.4970739511361
 31
0.0
  0
LINE
  5
122
  8
DATA
  6
CONTINUOUS
 62
     7
 10
-94.925000000000196
 20
-112.4970739511361
 30
0.0
 11
-94.925000000000196
 21
-113.9970739511361
 31
0.0
  0
LINE
  5
123
  8
DATA
  6
CONTINUOUS
 62
     7
 10
-100.5
 20
-112.4970739511361
 30
0.0
 11
-99.375
 21
-112.4970739511361
 31
0.0
  0
LINE
  5
124
  8
DATA
  6
CONTINUOUS
 62
     7
 10
-94.925000000000196
 20
-112.4970739511361
 30
0.0
 11
-93.800000000000196
 21
-112.4970739511361
 31
0.0
  0
LINE
  5
125
  8
DATA
  6
CONTINUOUS
 62
     7
 10
-103.3000000000001
 20
-110.9970739511361
 30
0.0
 11
-100.5
 21
-110.9970739511361
 31
0.0
  0
LINE
  5
126
  8
DATA
  6
CONTINUOUS
 62
     7
 10
-93.800000000000196
 20
-110.9970739511361
 30
0.0
 11
-91.000000000000128
 21
-110.9970739511361
 31
0.0
  0
LINE
  5
127
  8
DATA
  6
CONTINUOUS
 62
     7
 10
-100.5
 20
-112.4970739511361
 30
0.0
 11
-100.5
 21
-110.9970739511361
 31
0.0
  0
LINE
  5
128
  8
DATA
  6
CONTINUOUS
 62
     7
 10
-93.800000000000196
 20
-110.9970739511361
 30
0.0
 11
-93.800000000000196
 21
-112.4970739511361
 31
0.0
  0
LINE
  5
129
  8
DATA
  6
CONTINUOUS
 62
     7
 10
-105.0
 20
-100.6970739511361
 30
0.0
 11
-89.300000000000196
 21
-100.6970739511361
 31
0.0
  0
LINE
  5
12A
  8
DATA
  6
CONTINUOUS
 62
     7
 10
-105.0
 20
-113.9970739511361
 30
0.0
 11
-89.300000000000196
 21
-113.9970739511361
 31
0.0
  0
TEXT
  5
12B
  8
DATA
 62
     7
 10
-94.396748804431454
 20
-94.360045000000014
 30
0.0
 40
1.9790419921874991
  1
LINK
 50
180.0
 41
0.7
 11
-94.396748804431454
 21
-96.339086992187504
 31
0.0
 73
     3
  0
LINE
  5
12C
  8
DATA
  6
CONTINUOUS
 62
     7
 10
-105.0
 20
-134.80000000000001
 30
0.0
 11
-105.0
 21
-135.0
 31
0.0
  0
LINE
  5
12D
  8
DATA
  6
CONTINUOUS
 62
     7
 10
-89.300000000000196
 20
-134.80000000000001
 30
0.0
 11
-89.300000000000196
 21
-135.0
 31
0.0
  0
LINE
  5
12E
  8
DATA
  6
CONTINUOUS
 62
     7
 10
-105.0
 20
-134.80000000000001
 30
0.0
 11
-89.300000000000196
 21
-134.80000000000001
 31
0.0
  0
TEXT
  5
12F
  8
DATA
 62
     7
 10
-105.7656218491483
 20
-206.6930892995556
 30
0.0
 40
5.5054830729166646
  1
Extender for HDMI
 41
0.7
 11
-105.7656218491483
 21
-203.94034776309729
 31
0.0
 73
     2
  0
TEXT
  5
130
  8
DATA
 62
     7
 10
-98.930979001937644
 20
-214.74206527111721
 30
0.0
 40
5.5054830729166646
  1
over one CTA5 R
 41
0.7
 11
-98.930979001937644
 21
-211.9893237346588
 31
0.0
 73
     2
  0
LINE
  5
131
  8
DATA
  6
CONTINUOUS
 62
     7
 10
-120.0
 20
-16.5
 30
0.0
 11
-120.0
 21
9.5
 31
0.0
  0
LINE
  5
132
  8
DATA
  6
CONTINUOUS
 62
     7
 10
-38.5
 20
-18.0
 30
0.0
 11
-49.0
 21
-18.0
 31
0.0
  0
LINE
  5
133
  8
DATA
  6
CONTINUOUS
 62
     7
 10
-108.0
 20
-18.0
 30
0.0
 11
-118.5
 21
-18.0
 31
0.0
  0
LINE
  5
134
  8
DATA
  6
CONTINUOUS
 62
     7
 10
-37.0
 20
9.5
 30
0.0
 11
-37.0
 21
-16.5
 31
0.0
  0
LINE
  5
135
  8
DATA
  6
CONTINUOUS
 62
     7
 10
-118.5
 20
11.0
 30
0.0
 11
-38.5
 21
11.0
 31
0.0
  0
LINE
  5
136
  8
DATA
  6
CONTINUOUS
 62
     7
 10
-108.0
 20
-18.0
 30
0.0
 11
-108.0
 21
-16.5
 31
0.0
  0
LINE
  5
137
  8
DATA
  6
CONTINUOUS
 62
     7
 10
-49.0
 20
-16.5
 30
0.0
 11
-49.0
 21
-18.0
 31
0.0
  0
LINE
  5
138
  8
DATA
  6
CONTINUOUS
 62
     7
 10
-40.0
 20
-16.5
 30
0.0
 11
-49.0
 21
-16.5
 31
0.0
  0
LINE
  5
139
  8
DATA
  6
CONTINUOUS
 62
     7
 10
-108.0
 20
-16.5
 30
0.0
 11
-117.0
 21
-16.5
 31
0.0
  0
LINE
  5
13A
  8
DATA
  6
CONTINUOUS
 62
     7
 10
-118.5
 20
-15.0
 30
0.0
 11
-118.5
 21
8.0
 31
0.0
  0
LINE
  5
13B
  8
DATA
  6
CONTINUOUS
 62
     7
 10
-38.5
 20
8.0
 30
0.0
 11
-38.5
 21
-15.0
 31
0.0
  0
LINE
  5
13C
  8
DATA
  6
CONTINUOUS
 62
     7
 10
-117.0
 20
9.5
 30
0.0
 11
-40.0
 21
9.5
 31
0.0
  0
ARC
  5
13D
  8
DATA
  6
CONTINUOUS
 62
     7
 10
-117.0
 20
-15.0
 30
0.0
 40
1.5
 50
180.0
 51
270.0
  0
ARC
  5
13E
  8
DATA
  6
CONTINUOUS
 62
     7
 10
-118.5
 20
-16.5
 30
0.0
 40
1.5
 50
180.0
 51
270.0
  0
ARC
  5
13F
  8
DATA
  6
CONTINUOUS
 62
     7
 10
-118.5
 20
9.5
 30
0.0
 40
1.5
 50
90.0
 51
180.0
  0
ARC
  5
140
  8
DATA
  6
CONTINUOUS
 62
     7
 10
-117.0
 20
8.0
 30
0.0
 40
1.5
 50
90.0
 51
180.0
  0
ARC
  5
141
  8
DATA
  6
CONTINUOUS
 62
     7
 10
-40.0
 20
-15.0
 30
0.0
 40
1.5
 50
270.0
 51
0.0
  0
ARC
  5
142
  8
DATA
  6
CONTINUOUS
 62
     7
 10
-38.5
 20
-16.5
 30
0.0
 40
1.5
 50
270.0
 51
0.0
  0
ARC
  5
143
  8
DATA
  6
CONTINUOUS
 62
     7
 10
-40.0
 20
8.0
 30
0.0
 40
1.5
 50
0.0
 51
90.0
  0
ARC
  5
144
  8
DATA
  6
CONTINUOUS
 62
     7
 10
-38.5
 20
9.5
 30
0.0
 40
1.5
 50
0.0
 51
90.0
  0
LINE
  5
145
  8
DATA
  6
CONTINUOUS
 62
     7
 10
-108.0
 20
-16.5
 30
0.0
 11
-49.0
 21
-16.5
 31
0.0
  0
POLYLINE
  5
146
  8
DATA
  6
CONTINUOUS
 62
     7
 66
     1
 10
0.0
 20
0.0
 30
0.0
 70
     1
  0
VERTEX
  5
299
  8
DATA
  6
CONTINUOUS
 62
     7
 10
-69.746752971549199
 20
1.579705775159993
 30
0.0
  0
VERTEX
  5
29A
  8
DATA
  6
CONTINUOUS
 62
     7
 10
-66.958365292423281
 20
2.3268520019666989
 30
0.0
  0
VERTEX
  5
29B
  8
DATA
  6
CONTINUOUS
 62
     7
 10
-66.21121906561666
 20
5.1152396810927021
 30
0.0
  0
VERTEX
  5
29C
  8
DATA
  6
CONTINUOUS
 62
     7
 10
-68.252460517935788
 20
7.1564811334120568
 30
0.0
  0
VERTEX
  5
29D
  8
DATA
  6
CONTINUOUS
 62
     7
 10
-71.040848197061791
 20
6.4093349066053511
 30
0.0
  0
VERTEX
  5
29E
  8
DATA
  6
CONTINUOUS
 62
     7
 10
-71.787994423868554
 20
3.6209472274792911
 30
0.0
  0
SEQEND
  5
29F
  8
DATA
  6
CONTINUOUS
 62
     7
  0
CIRCLE
  5
14F
  8
DATA
  6
CONTINUOUS
 62
     7
 10
-68.999606744742493
 20
4.3680934542860541
 30
0.0
 40
1.275000000000005
  0
LINE
  5
150
  8
DATA
  6
CONTINUOUS
 62
     7
 10
-61.149606744743139
 20
-2.694757214478158
 30
0.0
 11
-76.849606744742445
 21
-2.694757214478158
 31
0.0
  0
LINE
  5
151
  8
DATA
  6
CONTINUOUS
 62
     7
 10
-61.149606744743139
 20
-2.694757214478158
 30
0.0
 11
-61.149606744743139
 21
-6.9947572144783399
 31
0.0
  0
LINE
  5
152
  8
DATA
  6
CONTINUOUS
 62
     7
 10
-76.849606744742445
 20
-2.694757214478158
 30
0.0
 11
-76.849606744742445
 21
-6.9947572144783399
 31
0.0
  0
LINE
  5
153
  8
DATA
  6
CONTINUOUS
 62
     7
 10
-61.149606744743139
 20
-6.9947572144783399
 30
0.0
 11
-63.749606744742863
 21
-8.6947572144783862
 31
0.0
  0
LINE
  5
154
  8
DATA
  6
CONTINUOUS
 62
     7
 10
-76.849606744742445
 20
-6.9947572144783399
 30
0.0
 11
-74.249606744742493
 21
-8.6947572144783862
 31
0.0
  0
LINE
  5
155
  8
DATA
  6
CONTINUOUS
 62
     7
 10
-63.749606744742863
 20
-8.6947572144783862
 30
0.0
 11
-74.249606744742493
 21
-8.6947572144783862
 31
0.0
  0
POLYLINE
  5
156
  8
DATA
  6
CONTINUOUS
 62
     7
 66
     1
 10
0.0
 20
0.0
 30
0.0
 70
     1
  0
VERTEX
  5
2A0
  8
DATA
  6
CONTINUOUS
 62
     7
 10
-73.999606744742493
 20
-4.9809203889710707
 30
0.0
  0
VERTEX
  5
2A1
  8
DATA
  6
CONTINUOUS
 62
     7
 10
-63.999606744742479
 20
-4.9809203889710707
 30
0.0
  0
VERTEX
  5
2A2
  8
DATA
  6
CONTINUOUS
 62
     7
 10
-63.999606744742479
 20
-5.4809203889710707
 30
0.0
  0
VERTEX
  5
2A3
  8
DATA
  6
CONTINUOUS
 62
     7
 10
-73.999606744742493
 20
-5.4809203889710707
 30
0.0
  0
SEQEND
  5
2A4
  8
DATA
  6
CONTINUOUS
 62
     7
  0
TEXT
  5
15D
  8
DATA
 62
     7
 10
-73.52733711980278
 20
-15.601811739547371
 30
0.0
 40
1.9790419921874991
  1
HDMI In
 41
0.7
 11
-73.52733711980278
 21
-13.62276974735987
 31
0.0
 73
     3
  0
TEXT
  5
15E
  8
DATA
 62
     7
 10
-107.0958020102604
 20
-15.66210993787894
 30
0.0
 40
1.9790419921874991
  1
5V DC
 41
0.7
 11
-107.0958020102604
 21
-13.683067945691439
 31
0.0
 73
     3
  0
CIRCLE
  5
15F
  8
DATA
  6
CONTINUOUS
 62
     7
 10
-104.0
 20
-0.5
 30
0.0
 40
4.0
  0
POLYLINE
  5
160
  8
DATA
  6
CONTINUOUS
 62
     7
 66
     1
 10
0.0
 20
0.0
 30
0.0
 70
     1
  0
VERTEX
  5
2A5
  8
DATA
  6
CONTINUOUS
 62
     7
 10
-106.8867513459481
 20
4.5
 30
0.0
  0
VERTEX
  5
2A6
  8
DATA
  6
CONTINUOUS
 62
     7
 10
-109.7735026918963
 20
-0.5
 30
0.0
  0
VERTEX
  5
2A7
  8
DATA
  6
CONTINUOUS
 62
     7
 10
-106.8867513459481
 20
-5.5
 30
0.0
  0
VERTEX
  5
2A8
  8
DATA
  6
CONTINUOUS
 62
     7
 10
-101.1132486540518
 20
-5.5
 30
0.0
  0
VERTEX
  5
2A9
  8
DATA
  6
CONTINUOUS
 62
     7
 10
-98.226497308103717
 20
-0.5
 30
0.0
  0
VERTEX
  5
2AA
  8
DATA
  6
CONTINUOUS
 62
     7
 10
-101.1132486540518
 20
4.5
 30
0.0
  0
SEQEND
  5
2AB
  8
DATA
  6
CONTINUOUS
 62
     7
  0
CIRCLE
  5
169
  8
DATA
  6
CONTINUOUS
 62
     7
 10
-104.0
 20
-0.5
 30
0.0
 40
2.8999999999999768
  0
CIRCLE
  5
16A
  8
DATA
  6
CONTINUOUS
 62
     7
 10
-104.0
 20
-0.5
 30
0.0
 40
0.75
  0
LINE
  5
16B
  8
DATA
  6
CONTINUOUS
 62
     7
 10
-120.0
 20
42.0
 30
0.0
 11
-120.0
 21
127.0
 31
0.0
  0
LINE
  5
16C
  8
DATA
  6
CONTINUOUS
 62
     7
 10
-37.0
 20
42.000000000000007
 30
0.0
 11
-37.0
 21
127.0
 31
0.0
  0
LINE
  5
16D
  8
DATA
  6
CONTINUOUS
 62
     7
 10
-120.0
 20
42.0
 30
0.0
 11
-37.0
 21
42.0
 31
0.0
  0
LINE
  5
16E
  8
DATA
  6
CONTINUOUS
 62
     7
 10
-120.0
 20
127.0
 30
0.0
 11
-37.0
 21
127.0
 31
0.0
  0
LINE
  5
16F
  8
DATA
  6
CONTINUOUS
 62
     7
 10
-71.787994423868554
 20
35.999999999999957
 30
0.0
 11
-71.787994423868554
 21
41.999999999999957
 31
0.0
  0
LINE
  5
170
  8
DATA
  6
CONTINUOUS
 62
     7
 10
-66.211219065616646
 20
35.999999999999957
 30
0.0
 11
-66.211219065616646
 21
41.999999999999957
 31
0.0
  0
LINE
  5
171
  8
DATA
  6
CONTINUOUS
 62
     7
 10
-71.787994423868554
 20
36.0
 30
0.0
 11
-66.21121906561666
 21
36.0
 31
0.0
  0
LINE
  5
172
  8
DATA
  6
CONTINUOUS
 62
     7
 10
-68.252460517935788
 20
35.999999999999957
 30
0.0
 11
-68.252460517935788
 21
41.999999999999957
 31
0.0
  0
ARC
  5
173
  8
DATA
  6
CONTINUOUS
 62
     7
 10
-83.374998876395495
 20
42.0
 30
0.0
 40
1.5
 50
180.0
 51
0.0
  0
LINE
  5
174
  8
DATA
  6
CONTINUOUS
 62
     7
 10
-109.7735026918963
 20
39.499999999999972
 30
0.0
 11
-109.7735026918963
 21
41.999999999999957
 31
0.0
  0
LINE
  5
175
  8
DATA
  6
CONTINUOUS
 62
     7
 10
-98.226497308103717
 20
39.499999999999972
 30
0.0
 11
-98.226497308103717
 21
41.999999999999957
 31
0.0
  0
LINE
  5
176
  8
DATA
  6
CONTINUOUS
 62
     7
 10
-109.7735026918963
 20
39.5
 30
0.0
 11
-98.226497308103717
 21
39.5
 31
0.0
  0
LINE
  5
177
  8
DATA
  6
CONTINUOUS
 62
     7
 10
-104.0
 20
39.5
 30
0.0
 11
-104.0
 21
42.0
 31
0.0
  0
LINE
  5
178
  8
DATA
  6
CONTINUOUS
 62
     7
 10
-108.0
 20
35.0
 30
0.0
 11
-108.0
 21
39.499999999999972
 31
0.0
  0
LINE
  5
179
  8
DATA
  6
CONTINUOUS
 62
     7
 10
-100.0
 20
35.0
 30
0.0
 11
-100.0
 21
39.499999999999972
 31
0.0
  0
LINE
  5
17A
  8
DATA
  6
CONTINUOUS
 62
     7
 10
-108.0
 20
35.0
 30
0.0
 11
-100.0
 21
35.0
 31
0.0
  0
LINE
  5
17B
  8
DATA
  6
CONTINUOUS
 62
     7
 10
-117.5
 20
-18.0
 30
0.0
 11
-116.5
 21
-20.0
 31
0.0
  0
LINE
  5
17C
  8
DATA
  6
CONTINUOUS
 62
     7
 10
-109.5
 20
-18.0
 30
0.0
 11
-110.5
 21
-20.0
 31
0.0
  0
LINE
  5
17D
  8
DATA
  6
CONTINUOUS
 62
     7
 10
-116.5
 20
-20.0
 30
0.0
 11
-110.5
 21
-20.0
 31
0.0
  0
LINE
  5
17E
  8
DATA
  6
CONTINUOUS
 62
     7
 10
-39.5
 20
-18.0
 30
0.0
 11
-40.499999999999993
 21
-20.0
 31
0.0
  0
LINE
  5
17F
  8
DATA
  6
CONTINUOUS
 62
     7
 10
-47.5
 20
-18.0
 30
0.0
 11
-46.5
 21
-20.0
 31
0.0
  0
LINE
  5
180
  8
DATA
  6
CONTINUOUS
 62
     7
 10
-40.499999999999993
 20
-20.0
 30
0.0
 11
-46.5
 21
-20.0
 31
0.0
  0
LINE
  5
181
  8
DATA
  6
CONTINUOUS
 62
     7
 10
-120.0
 20
169.5
 30
0.0
 11
-120.0
 21
143.5
 31
0.0
  0
LINE
  5
182
  8
DATA
  6
CONTINUOUS
 62
     7
 10
-38.5
 20
171.0
 30
0.0
 11
-49.0
 21
171.0
 31
0.0
  0
LINE
  5
183
  8
DATA
  6
CONTINUOUS
 62
     7
 10
-108.0
 20
171.0
 30
0.0
 11
-118.5
 21
171.0
 31
0.0
  0
LINE
  5
184
  8
DATA
  6
CONTINUOUS
 62
     7
 10
-37.0
 20
143.5
 30
0.0
 11
-37.0
 21
169.5
 31
0.0
  0
LINE
  5
185
  8
DATA
  6
CONTINUOUS
 62
     7
 10
-118.5
 20
142.0
 30
0.0
 11
-38.5
 21
142.0
 31
0.0
  0
LINE
  5
186
  8
DATA
  6
CONTINUOUS
 62
     7
 10
-108.0
 20
171.0
 30
0.0
 11
-108.0
 21
169.5
 31
0.0
  0
LINE
  5
187
  8
DATA
  6
CONTINUOUS
 62
     7
 10
-49.0
 20
169.5
 30
0.0
 11
-49.0
 21
171.0
 31
0.0
  0
LINE
  5
188
  8
DATA
  6
CONTINUOUS
 62
     7
 10
-40.0
 20
169.5
 30
0.0
 11
-49.0
 21
169.5
 31
0.0
  0
LINE
  5
189
  8
DATA
  6
CONTINUOUS
 62
     7
 10
-108.0
 20
169.5
 30
0.0
 11
-117.0
 21
169.5
 31
0.0
  0
LINE
  5
18A
  8
DATA
  6
CONTINUOUS
 62
     7
 10
-118.5
 20
168.0
 30
0.0
 11
-118.5
 21
144.0
 31
0.0
  0
LINE
  5
18B
  8
DATA
  6
CONTINUOUS
 62
     7
 10
-38.5
 20
144.0
 30
0.0
 11
-38.5
 21
168.0
 31
0.0
  0
ARC
  5
18C
  8
DATA
  6
CONTINUOUS
 62
     7
 10
-117.0
 20
168.0
 30
0.0
 40
1.5
 50
90.0
 51
180.0
  0
ARC
  5
18D
  8
DATA
  6
CONTINUOUS
 62
     7
 10
-118.5
 20
169.5
 30
0.0
 40
1.5
 50
90.0
 51
180.0
  0
ARC
  5
18E
  8
DATA
  6
CONTINUOUS
 62
     7
 10
-118.5
 20
143.5
 30
0.0
 40
1.5
 50
180.0
 51
270.0
  0
ARC
  5
18F
  8
DATA
  6
CONTINUOUS
 62
     7
 10
-40.0
 20
168.0
 30
0.0
 40
1.5
 50
0.0
 51
90.0
  0
ARC
  5
190
  8
DATA
  6
CONTINUOUS
 62
     7
 10
-38.5
 20
169.5
 30
0.0
 40
1.5
 50
0.0
 51
90.0
  0
ARC
  5
191
  8
DATA
  6
CONTINUOUS
 62
     7
 10
-38.5
 20
143.5
 30
0.0
 40
1.5
 50
270.0
 51
0.0
  0
LINE
  5
192
  8
DATA
  6
CONTINUOUS
 62
     7
 10
-108.0
 20
169.5
 30
0.0
 11
-49.0
 21
169.5
 31
0.0
  0
LINE
  5
193
  8
DATA
  6
CONTINUOUS
 62
     7
 10
-74.55499887639553
 20
142.0
 30
0.0
 11
-71.55499887639553
 21
142.0
 31
0.0
  0
LINE
  5
194
  8
DATA
  6
CONTINUOUS
 62
     7
 10
-117.5
 20
171.0
 30
0.0
 11
-116.5
 21
173.0
 31
0.0
  0
LINE
  5
195
  8
DATA
  6
CONTINUOUS
 62
     7
 10
-109.5
 20
171.0
 30
0.0
 11
-110.5
 21
173.0
 31
0.0
  0
LINE
  5
196
  8
DATA
  6
CONTINUOUS
 62
     7
 10
-116.5
 20
173.0
 30
0.0
 11
-110.5
 21
173.0
 31
0.0
  0
LINE
  5
197
  8
DATA
  6
CONTINUOUS
 62
     7
 10
-39.5
 20
171.0
 30
0.0
 11
-40.499999999999993
 21
173.0
 31
0.0
  0
LINE
  5
198
  8
DATA
  6
CONTINUOUS
 62
     7
 10
-47.5
 20
171.0
 30
0.0
 11
-46.5
 21
173.0
 31
0.0
  0
LINE
  5
199
  8
DATA
  6
CONTINUOUS
 62
     7
 10
-40.499999999999993
 20
173.0
 30
0.0
 11
-46.5
 21
173.0
 31
0.0
  0
LINE
  5
19A
  8
DATA
  6
CONTINUOUS
 62
     7
 10
-53.15000000000019
 20
161.30292604886381
 30
0.0
 11
-53.15000000000019
 21
148.0029260488638
 31
0.0
  0
LINE
  5
19B
  8
DATA
  6
CONTINUOUS
 62
     7
 10
-68.849999999999994
 20
161.30292604886381
 30
0.0
 11
-68.849999999999994
 21
148.0029260488638
 31
0.0
  0
LINE
  5
19C
  8
DATA
  6
CONTINUOUS
 62
     7
 10
-67.150000000000063
 20
158.30292604886381
 30
0.0
 11
-67.150000000000063
 21
151.0029260488638
 31
0.0
  0
LINE
  5
19D
  8
DATA
  6
CONTINUOUS
 62
     7
 10
-54.850000000000101
 20
158.30292604886381
 30
0.0
 11
-54.850000000000101
 21
151.0029260488638
 31
0.0
  0
LINE
  5
19E
  8
DATA
  6
CONTINUOUS
 62
     7
 10
-67.150000000000063
 20
158.30292604886381
 30
0.0
 11
-54.850000000000101
 21
158.30292604886381
 31
0.0
  0
LINE
  5
19F
  8
DATA
  6
CONTINUOUS
 62
     7
 10
-63.225000000000001
 20
148.0029260488638
 30
0.0
 11
-63.225000000000001
 21
149.5029260488638
 31
0.0
  0
LINE
  5
1A0
  8
DATA
  6
CONTINUOUS
 62
     7
 10
-58.77500000000019
 20
149.5029260488638
 30
0.0
 11
-58.77500000000019
 21
148.0029260488638
 31
0.0
  0
LINE
  5
1A1
  8
DATA
  6
CONTINUOUS
 62
     7
 10
-64.349999999999994
 20
149.5029260488638
 30
0.0
 11
-63.225000000000001
 21
149.5029260488638
 31
0.0
  0
LINE
  5
1A2
  8
DATA
  6
CONTINUOUS
 62
     7
 10
-58.77500000000019
 20
149.5029260488638
 30
0.0
 11
-57.650000000000183
 21
149.5029260488638
 31
0.0
  0
LINE
  5
1A3
  8
DATA
  6
CONTINUOUS
 62
     7
 10
-67.150000000000063
 20
151.0029260488638
 30
0.0
 11
-64.349999999999994
 21
151.0029260488638
 31
0.0
  0
LINE
  5
1A4
  8
DATA
  6
CONTINUOUS
 62
     7
 10
-57.650000000000183
 20
151.0029260488638
 30
0.0
 11
-54.850000000000101
 21
151.0029260488638
 31
0.0
  0
LINE
  5
1A5
  8
DATA
  6
CONTINUOUS
 62
     7
 10
-64.349999999999994
 20
149.5029260488638
 30
0.0
 11
-64.349999999999994
 21
151.0029260488638
 31
0.0
  0
LINE
  5
1A6
  8
DATA
  6
CONTINUOUS
 62
     7
 10
-57.650000000000183
 20
151.0029260488638
 30
0.0
 11
-57.650000000000183
 21
149.5029260488638
 31
0.0
  0
LINE
  5
1A7
  8
DATA
  6
CONTINUOUS
 62
     7
 10
-68.849999999999994
 20
161.30292604886381
 30
0.0
 11
-53.15000000000019
 21
161.30292604886381
 31
0.0
  0
LINE
  5
1A8
  8
DATA
  6
CONTINUOUS
 62
     7
 10
-68.849999999999994
 20
148.0029260488638
 30
0.0
 11
-53.15000000000019
 21
148.0029260488638
 31
0.0
  0
TEXT
  5
1A9
  8
DATA
 62
     7
 10
-58.246748804431448
 20
167.63995499999999
 30
0.0
 40
1.9790419921874991
  1
LINK
 50
180.0
 41
0.7
 11
-58.246748804431448
 21
165.6609130078125
 31
0.0
 73
     3
  0
LINE
  5
1AA
  8
DATA
  6
CONTINUOUS
 62
     7
 10
-68.849999999999994
 20
127.2
 30
0.0
 11
-68.849999999999994
 21
127.0
 31
0.0
  0
LINE
  5
1AB
  8
DATA
  6
CONTINUOUS
 62
     7
 10
-53.15000000000019
 20
127.2
 30
0.0
 11
-53.15000000000019
 21
127.0
 31
0.0
  0
LINE
  5
1AC
  8
DATA
  6
CONTINUOUS
 62
     7
 10
-68.850000000000023
 20
127.2
 30
0.0
 11
-53.15000000000019
 21
127.2
 31
0.0
  0
TEXT
  5
1AD
  8
DATA
 62
     7
 10
-105.7656218491483
 20
55.306910700444412
 30
0.0
 40
5.5054830729166646
  1
Extender for HDMI
 41
0.7
 11
-105.7656218491483
 21
58.059652236902743
 31
0.0
 73
     2
  0
TEXT
  5
1AE
  8
DATA
 62
     7
 10
-98.930979001937644
 20
47.257934728882887
 30
0.0
 40
5.5054830729166646
  1
over one CTA5 S
 41
0.7
 11
-98.930979001937644
 21
50.010676265341232
 31
0.0
 73
     2
  0
TEXT
  5
1AF
  8
DATA
 62
     7
 10
-86.757958931090144
 20
-15.59008471657188
 30
0.0
 40
1.9790419921874991
  1
Power
 41
0.7
 11
-86.757958931090144
 21
-13.611042724384379
 31
0.0
 73
     3
  0
CIRCLE
  5
1B0
  8
DATA
  6
CONTINUOUS
 62
     7
 10
-83.504998876395547
 20
-4.0
 30
0.0
 40
1.5
  0
LINE
  5
1B1
  8
DATA
  6
CONTINUOUS
 62
     7
 10
19.999999999999979
 20
-280.0
 30
0.0
 11
105.0
 21
-280.0
 31
0.0
  0
LINE
  5
1B2
  8
DATA
  6
CONTINUOUS
 62
     7
 10
20.0
 20
-251.0
 30
0.0
 11
105.0
 21
-251.0
 31
0.0
  0
LINE
  5
1B3
  8
DATA
  6
CONTINUOUS
 62
     7
 10
20.0
 20
-280.0
 30
0.0
 11
20.0
 21
-251.0
 31
0.0
  0
LINE
  5
1B4
  8
DATA
  6
CONTINUOUS
 62
     7
 10
105.0
 20
-280.0
 30
0.0
 11
105.0
 21
-251.0
 31
0.0
  0
LINE
  5
1B5
  8
DATA
  6
CONTINUOUS
 62
     7
 10
31.0
 20
-280.0
 30
0.0
 11
30.0
 21
-282.0
 31
0.0
  0
LINE
  5
1B6
  8
DATA
  6
CONTINUOUS
 62
     7
 10
23.0
 20
-280.0
 30
0.0
 11
24.0
 21
-282.0
 31
0.0
  0
LINE
  5
1B7
  8
DATA
  6
CONTINUOUS
 62
     7
 10
30.0
 20
-282.0
 30
0.0
 11
24.0
 21
-282.0
 31
0.0
  0
LINE
  5
1B8
  8
DATA
  6
CONTINUOUS
 62
     7
 10
102.0
 20
-280.0
 30
0.0
 11
101.0
 21
-282.0
 31
0.0
  0
LINE
  5
1B9
  8
DATA
  6
CONTINUOUS
 62
     7
 10
94.0
 20
-280.0
 30
0.0
 11
95.0
 21
-282.0
 31
0.0
  0
LINE
  5
1BA
  8
DATA
  6
CONTINUOUS
 62
     7
 10
101.0
 20
-282.0
 30
0.0
 11
95.0
 21
-282.0
 31
0.0
  0
LINE
  5
1BB
  8
DATA
  6
CONTINUOUS
 62
     7
 10
17.49999999999628
 20
-256.72649730810372
 30
0.0
 11
19.99999999999628
 21
-256.72649730810372
 31
0.0
  0
LINE
  5
1BC
  8
DATA
  6
CONTINUOUS
 62
     7
 10
17.49999999999628
 20
-268.27350269189628
 30
0.0
 11
19.99999999999628
 21
-268.27350269189628
 31
0.0
  0
LINE
  5
1BD
  8
DATA
  6
CONTINUOUS
 62
     7
 10
17.49999999999628
 20
-256.72649730810372
 30
0.0
 11
17.49999999999628
 21
-268.27350269189628
 31
0.0
  0
LINE
  5
1BE
  8
DATA
  6
CONTINUOUS
 62
     7
 10
17.49999999999628
 20
-262.5
 30
0.0
 11
19.99999999999628
 21
-262.5
 31
0.0
  0
LINE
  5
1BF
  8
DATA
  6
CONTINUOUS
 62
     7
 10
12.99999999999628
 20
-258.5
 30
0.0
 11
17.49999999999628
 21
-258.5
 31
0.0
  0
LINE
  5
1C0
  8
DATA
  6
CONTINUOUS
 62
     7
 10
12.99999999999628
 20
-266.5
 30
0.0
 11
17.49999999999628
 21
-266.5
 31
0.0
  0
LINE
  5
1C1
  8
DATA
  6
CONTINUOUS
 62
     7
 10
12.99999999999628
 20
-258.5
 30
0.0
 11
12.99999999999628
 21
-266.5
 31
0.0
  0
LINE
  5
1C2
  8
DATA
  6
CONTINUOUS
 62
     7
 10
13.99999999912594
 20
-254.84161232087399
 30
0.0
 11
19.999999999125951
 21
-254.84161232087399
 31
0.0
  0
LINE
  5
1C3
  8
DATA
  6
CONTINUOUS
 62
     7
 10
13.99999999912597
 20
-254.84161232087399
 30
0.0
 11
13.99999999912597
 21
-258.5
 31
0.0
  0
LINE
  5
1C4
  8
DATA
  6
CONTINUOUS
 62
     7
 10
105.0
 20
-257.0
 30
0.0
 11
105.2
 21
-257.0
 31
0.0
  0
LINE
  5
1C5
  8
DATA
  6
CONTINUOUS
 62
     7
 10
105.2
 20
-270.30000000000001
 30
0.0
 11
105.2
 21
-257.0
 31
0.0
  0
LINE
  5
1C6
  8
DATA
  6
CONTINUOUS
 62
     7
 10
105.0
 20
-270.30000000000001
 30
0.0
 11
105.2
 21
-270.30000000000001
 31
0.0
  0
LINE
  5
1C7
  8
DATA
  6
CONTINUOUS
 62
     7
 10
-269.99999999999989
 20
-73.0
 30
0.0
 11
269.99999999999977
 21
-73.0
 31
0.0
  0
LINE
  5
1C8
  8
DATA
  6
CONTINUOUS
 62
     7
 10
-112.0
 20
-319.0
 30
0.0
 11
-45.0
 21
-319.0
 31
0.0
  0
LINE
  5
1C9
  8
DATA
  6
CONTINUOUS
 62
     7
 10
-112.0
 20
-57.0
 30
0.0
 11
-45.0
 21
-57.0
 31
0.0
  0
TEXT
  5
1CA
  8
DATA
 62
     7
 10
-94.650106686776851
 20
-54.215851483546871
 30
0.0
 40
8.1442057291666661
  1
送信機
 41
0.7
 11
-94.650106686776851
 21
-46.071645754380199
 31
0.0
 73
     3
  0
LINE
  5
1CB
  8
DATA
  6
CONTINUOUS
 62
     7
 10
19.999999999999979
 20
-18.0
 30
0.0
 11
105.0
 21
-18.0
 31
0.0
  0
LINE
  5
1CC
  8
DATA
  6
CONTINUOUS
 62
     7
 10
20.0
 20
11.0
 30
0.0
 11
105.0
 21
11.0
 31
0.0
  0
LINE
  5
1CD
  8
DATA
  6
CONTINUOUS
 62
     7
 10
20.0
 20
-18.0
 30
0.0
 11
20.0
 21
11.0
 31
0.0
  0
LINE
  5
1CE
  8
DATA
  6
CONTINUOUS
 62
     7
 10
105.0
 20
-18.0
 30
0.0
 11
105.0
 21
11.0
 31
0.0
  0
LINE
  5
1CF
  8
DATA
  6
CONTINUOUS
 62
     7
 10
31.0
 20
-18.0
 30
0.0
 11
30.0
 21
-20.0
 31
0.0
  0
LINE
  5
1D0
  8
DATA
  6
CONTINUOUS
 62
     7
 10
23.0
 20
-18.0
 30
0.0
 11
24.0
 21
-20.0
 31
0.0
  0
LINE
  5
1D1
  8
DATA
  6
CONTINUOUS
 62
     7
 10
30.0
 20
-20.0
 30
0.0
 11
24.0
 21
-20.0
 31
0.0
  0
LINE
  5
1D2
  8
DATA
  6
CONTINUOUS
 62
     7
 10
102.0
 20
-18.0
 30
0.0
 11
101.0
 21
-20.0
 31
0.0
  0
LINE
  5
1D3
  8
DATA
  6
CONTINUOUS
 62
     7
 10
94.0
 20
-18.0
 30
0.0
 11
95.0
 21
-20.0
 31
0.0
  0
LINE
  5
1D4
  8
DATA
  6
CONTINUOUS
 62
     7
 10
101.0
 20
-20.0
 30
0.0
 11
95.0
 21
-20.0
 31
0.0
  0
LINE
  5
1D5
  8
DATA
  6
CONTINUOUS
 62
     7
 10
17.49999999999628
 20
-6.2735026918962831
 30
0.0
 11
19.99999999999628
 21
-6.2735026918962831
 31
0.0
  0
LINE
  5
1D6
  8
DATA
  6
CONTINUOUS
 62
     7
 10
17.49999999999628
 20
1.579705775159993
 30
0.0
 11
17.49999999999628
 21
-6.2735026918962831
 31
0.0
  0
LINE
  5
1D7
  8
DATA
  6
CONTINUOUS
 62
     7
 10
17.49999999999628
 20
-0.5
 30
0.0
 11
19.99999999999628
 21
-0.5
 31
0.0
  0
LINE
  5
1D8
  8
DATA
  6
CONTINUOUS
 62
     7
 10
12.99999999999628
 20
3.5
 30
0.0
 11
13.99999999912597
 21
3.5
 31
0.0
  0
LINE
  5
1D9
  8
DATA
  6
CONTINUOUS
 62
     7
 10
12.99999999999628
 20
-4.5
 30
0.0
 11
17.49999999999628
 21
-4.5
 31
0.0
  0
LINE
  5
1DA
  8
DATA
  6
CONTINUOUS
 62
     7
 10
12.99999999999628
 20
3.5
 30
0.0
 11
12.99999999999628
 21
-4.5
 31
0.0
  0
LINE
  5
1DB
  8
DATA
  6
CONTINUOUS
 62
     7
 10
13.99999999912594
 20
7.1583876791259513
 30
0.0
 11
19.999999999125951
 21
7.1583876791259513
 31
0.0
  0
LINE
  5
1DC
  8
DATA
  6
CONTINUOUS
 62
     7
 10
13.99999999912597
 20
7.1583876791259513
 30
0.0
 11
13.99999999912597
 21
1.5797057751599921
 31
0.0
  0
LINE
  5
1DD
  8
DATA
  6
CONTINUOUS
 62
     7
 10
105.0
 20
5.0
 30
0.0
 11
105.2
 21
5.0
 31
0.0
  0
LINE
  5
1DE
  8
DATA
  6
CONTINUOUS
 62
     7
 10
105.2
 20
-8.3000000000000114
 30
0.0
 11
105.2
 21
5.0
 31
0.0
  0
LINE
  5
1DF
  8
DATA
  6
CONTINUOUS
 62
     7
 10
105.0
 20
-8.3000000000000114
 30
0.0
 11
105.2
 21
-8.3000000000000114
 31
0.0
  0
LINE
  5
1E0
  8
DATA
  6
CONTINUOUS
 62
     7
 10
13.99999999912597
 20
1.579705775159993
 30
0.0
 11
20.0
 21
1.579705775159993
 31
0.0
  0
ARC
  5
1E1
  8
DATA
  6
CONTINUOUS
 62
     7
 10
19.973997242403559
 20
-4.0
 30
0.0
 40
1.5
 50
89.006718070221055
 51
270.99328192977902
  0
ENDSEC
  0
EOF
