  0
SECTION
  2
HEADER
  9
$ACADVER
  1
AC1009
  9
$INSBASE
 10
0.0
 20
0.0
 30
0.0
  9
$EXTMIN
 10
-170.0164782349211
 20
-265.74833863455001
 30
-0.0015258207003583
  9
$EXTMAX
 10
370.0164807494923
 20
537.09174839639525
 30
0.0000000349246037
  9
$LIMMIN
 10
0.0
 20
0.0
  9
$LIMMAX
 10
0.0
 20
0.0
  9
$ORTHOMODE
 70
     0
  9
$REGENMODE
 70
     1
  9
$FILLMODE
 70
     1
  9
$QTEXTMODE
 70
     0
  9
$MIRRTEXT
 70
     1
  9
$DRAGMODE
 70
     2
  9
$LTSCALE
 40
15.24
  9
$OSMODE
 70
   231
  9
$ATTMODE
 70
     1
  9
$TEXTSIZE
 40
0.0
  9
$TRACEWID
 40
1.0
  9
$TEXTSTYLE
  7
STANDARD
  9
$CLAYER
  8
DATA
  9
$CELTYPE
  6
BYLAYER
  9
$CECOLOR
 62
   256
  9
$DIMSCALE
 40
1.0
  9
$DIMASZ
 40
0.18
  9
$DIMEXO
 40
0.0625
  9
$DIMDLI
 40
0.38
  9
$DIMRND
 40
0.0
  9
$DIMDLE
 40
0.0
  9
$DIMEXE
 40
0.18
  9
$DIMTP
 40
0.0
  9
$DIMTM
 40
0.0
  9
$DIMTXT
 40
0.18
  9
$DIMCEN
 40
0.09
  9
$DIMTSZ
 40
0.0
  9
$DIMTOL
 70
     0
  9
$DIMLIM
 70
     0
  9
$DIMTIH
 70
     1
  9
$DIMTOH
 70
     1
  9
$DIMSE1
 70
     0
  9
$DIMSE2
 70
     0
  9
$DIMTAD
 70
     0
  9
$DIMZIN
 70
     0
  9
$DIMBLK
  1

  9
$DIMASO
 70
     1
  9
$DIMSHO
 70
     1
  9
$DIMPOST
  1

  9
$DIMAPOST
  1

  9
$DIMALT
 70
     0
  9
$DIMALTD
 70
     2
  9
$DIMALTF
 40
25.399999999999999
  9
$DIMLFAC
 40
1.0
  9
$DIMTOFL
 70
     0
  9
$DIMTVP
 40
0.0
  9
$DIMTIX
 70
     0
  9
$DIMSOXD
 70
     0
  9
$DIMSAH
 70
     0
  9
$DIMBLK1
  1

  9
$DIMBLK2
  1

  9
$DIMSTYLE
  2
STANDARD
  9
$DIMCLRD
 70
     0
  9
$DIMCLRE
 70
     0
  9
$DIMCLRT
 70
     0
  9
$DIMTFAC
 40
1.0
  9
$DIMGAP
 40
0.09
  9
$LUNITS
 70
     2
  9
$LUPREC
 70
     4
  9
$SKETCHINC
 40
0.1
  9
$FILLETRAD
 40
0.0
  9
$AUNITS
 70
     0
  9
$AUPREC
 70
     0
  9
$MENU
  1
acad
  9
$ELEVATION
 40
0.0
  9
$PELEVATION
 40
0.0
  9
$THICKNESS
 40
0.0
  9
$LIMCHECK
 70
     0
  9
$BLIPMODE
 70
     0
  9
$CHAMFERA
 40
0.0
  9
$CHAMFERB
 40
0.0
  9
$SKPOLY
 70
     0
  9
$TDCREATE
 40
2456422.5249884259
  9
$TDUPDATE
 40
2456422.5385397808
  9
$TDINDWG
 40
0.0004773727
  9
$TDUSRTIMER
 40
0.0004699306
  9
$USRTIMER
 70
     1
  9
$ANGBASE
 50
0.0
  9
$ANGDIR
 70
     0
  9
$PDMODE
 70
     1
  9
$PDSIZE
 40
-2.0
  9
$PLINEWID
 40
0.0
  9
$COORDS
 70
     2
  9
$SPLFRAME
 70
     0
  9
$SPLINETYPE
 70
     6
  9
$SPLINESEGS
 70
     8
  9
$ATTDIA
 70
     0
  9
$ATTREQ
 70
     1
  9
$HANDLING
 70
     1
  9
$HANDSEED
  5
2DC
  9
$SURFTAB1
 70
     6
  9
$SURFTAB2
 70
     6
  9
$SURFTYPE
 70
     6
  9
$SURFU
 70
     6
  9
$SURFV
 70
     6
  9
$UCSNAME
  2

  9
$UCSORG
 10
0.0
 20
0.0
 30
0.0
  9
$UCSXDIR
 10
1.0
 20
0.0
 30
0.0
  9
$UCSYDIR
 10
0.0
 20
1.0
 30
0.0
  9
$PUCSNAME
  2

  9
$PUCSORG
 10
0.0
 20
0.0
 30
0.0
  9
$PUCSXDIR
 10
1.0
 20
0.0
 30
0.0
  9
$PUCSYDIR
 10
0.0
 20
1.0
 30
0.0
  9
$USERI1
 70
     0
  9
$USERI2
 70
     0
  9
$USERI3
 70
     0
  9
$USERI4
 70
     0
  9
$USERI5
 70
     0
  9
$USERR1
 40
0.0
  9
$USERR2
 40
0.0
  9
$USERR3
 40
0.0
  9
$USERR4
 40
0.0
  9
$USERR5
 40
0.0
  9
$WORLDVIEW
 70
     1
  9
$SHADEDGE
 70
     3
  9
$SHADEDIF
 70
    70
  9
$TILEMODE
 70
     1
  9
$MAXACTVP
 70
    64
  9
$PLIMCHECK
 70
     0
  9
$PEXTMIN
 10
1.0000000000000000E+020
 20
1.0000000000000000E+020
 30
1.0000000000000000E+020
  9
$PEXTMAX
 10
-1.0000000000000000E+020
 20
-1.0000000000000000E+020
 30
-1.0000000000000000E+020
  9
$PLIMMIN
 10
0.0
 20
0.0
  9
$PLIMMAX
 10
12.0
 20
9.0
  9
$UNITMODE
 70
     0
  9
$VISRETAIN
 70
     0
  9
$PLINEGEN
 70
     1
  9
$PSLTSCALE
 70
     0
  0
ENDSEC
  0
SECTION
  2
TABLES
  0
TABLE
  2
VPORT
 70
     1
  0
VPORT
  2
*ACTIVE
 70
     0
 10
0.0
 20
0.0
 11
1.0
 21
1.0
 12
100.0000012572856
 22
135.6717048809227
 13
0.0
 23
0.0
 14
1.0
 24
1.0
 15
0.0
 25
0.0
 16
0.0
 26
0.0
 36
1.0
 17
0.0
 27
0.0
 37
0.0
 40
809.03962438253575
 41
2.1585051546391751
 42
50.0
 43
0.0
 44
0.0
 50
0.0
 51
0.0
 71
     0
 72
  2000
 73
     1
 74
     1
 75
     0
 76
     0
 77
     0
 78
     0
  0
ENDTAB
  0
TABLE
  2
LTYPE
 70
    11
  0
LTYPE
  2
CONTINUOUS
 70
     0
  3
Solid line
 72
    65
 73
     0
 40
0.0
  0
ENDTAB
  0
TABLE
  2
LAYER
 70
     6
  0
LAYER
  2
0
 70
     0
 62
     7
  6
CONTINUOUS
  0
LAYER
  2
DATA
 70
     0
 62
     7
  6
CONTINUOUS
  0
LAYER
  2
HIBINO-BASE
 70
     0
 62
     7
  6
CONTINUOUS
  0
LAYER
  2
PATTERN_FILL
 70
     0
 62
     7
  6
CONTINUOUS
  0
LAYER
  2
SPEC
 70
     0
 62
     7
  6
CONTINUOUS
  0
LAYER
  2
DIMNSIONS
 70
     0
 62
     7
  6
CONTINUOUS
  0
ENDTAB
  0
TABLE
  2
STYLE
 70
     3
  0
STYLE
  2
STANDARD
 70
     0
 40
0.0
 41
1.0
 50
0.0
 71
     0
 42
0.0
  3
txt
  4
BIGFONT.SHX
  0
ENDTAB
  0
TABLE
  2
VIEW
 70
     0
  0
ENDTAB
  0
TABLE
  2
UCS
 70
     0
  0
ENDTAB
  0
TABLE
  2
APPID
 70
     4
  0
APPID
  2
ACAD
 70
     0
  0
APPID
  2
ACADANNOTATIVE
 70
     0
  0
APPID
  2
ACAD_NAV_VCDISPLAY
 70
     0
  0
APPID
  2
ACAD_MLEADERVER
 70
     0
  0
ENDTAB
  0
TABLE
  2
DIMSTYLE
 70
     2
  0
DIMSTYLE
  2
STANDARD
 70
     0
  3

  4

  5

  6

  7

 40
1.0
 41
0.18
 42
0.0625
 43
0.38
 44
0.18
 45
0.0
 46
0.0
 47
0.0
 48
0.0
140
0.18
141
0.09
142
0.0
143
25.399999999999999
144
1.0
145
0.0
146
1.0
147
0.09
 71
     0
 72
     0
 73
     1
 74
     1
 75
     0
 76
     0
 77
     0
 78
     0
170
     0
171
     2
172
     0
173
     0
174
     0
175
     0
176
     0
177
     0
178
     0
  0
ENDTAB
  0
ENDSEC
  0
SECTION
  2
BLOCKS
  0
BLOCK
  8
0
  2
$MODEL_SPACE
 70
     0
 10
0.0
 20
0.0
 30
0.0
  3
$MODEL_SPACE
  1

  0
ENDBLK
  5
268
  8
0
  0
BLOCK
 67
     1
  8
0
  2
$PAPER_SPACE
 70
     0
 10
0.0
 20
0.0
 30
0.0
  3
$PAPER_SPACE
  1

  0
ENDBLK
  5
264
 67
     1
  8
0
  0
ENDSEC
  0
SECTION
  2
ENTITIES
  0
LINE
  5
2D
  8
HIBINO-BASE
  6
CONTINUOUS
 62
     7
 10
-169.99999999999989
 20
537.06729578973182
 30
0.0
 11
370.0
 21
537.06729578973182
 31
0.0
  0
LINE
  5
2E
  8
HIBINO-BASE
  6
CONTINUOUS
 62
     7
 10
370.0
 20
-242.93270421026821
 30
0.0
 11
-169.99999999999989
 21
-242.93270421026821
 31
0.0
  0
LINE
  5
2F
  8
HIBINO-BASE
  6
CONTINUOUS
 62
     7
 10
-169.99999999999989
 20
-242.93270421026821
 30
0.0
 11
-169.99999999999989
 21
537.06729578973182
 31
0.0
  0
LINE
  5
30
  8
HIBINO-BASE
  6
CONTINUOUS
 62
     7
 10
370.0
 20
537.06729578973182
 30
0.0
 11
370.0
 21
-242.93270421026821
 31
0.0
  0
LINE
  5
31
  8
HIBINO-BASE
  6
CONTINUOUS
 62
     7
 10
100.0
 20
-175.4327042102681
 30
0.0
 11
370.0
 21
-175.4327042102681
 31
0.0
  0
LINE
  5
32
  8
HIBINO-BASE
  6
CONTINUOUS
 62
     7
 10
100.0
 20
-242.93270421026821
 30
0.0
 11
100.0
 21
-175.4327042102681
 31
0.0
  0
TEXT
  5
33
  8
HIBINO-BASE
 62
     7
 10
102.7
 20
-182.95878421026811
 30
0.0
 40
4.8865234374999993
  1
NOTE
 41
0.7
 11
102.7
 21
-178.0722607727682
 31
0.0
 73
     3
  0
LINE
  5
34
  8
HIBINO-BASE
  6
CONTINUOUS
 62
     7
 10
205.0
 20
-242.93270421026821
 30
0.0
 11
205.0
 21
-175.4327042102681
 31
0.0
  0
TEXT
  5
35
  8
HIBINO-BASE
 62
     7
 10
207.69999999999999
 20
-182.95878421026811
 30
0.0
 40
4.8865234374999993
  1
TITLE
 41
0.7
 11
207.69999999999999
 21
-178.0722607727682
 31
0.0
 73
     3
  0
LINE
  5
36
  8
HIBINO-BASE
  6
CONTINUOUS
 62
     7
 10
100.0
 20
-212.9327042102681
 30
0.0
 11
370.0
 21
-212.9327042102681
 31
0.0
  0
TEXT
  5
37
  8
HIBINO-BASE
 62
     7
 10
245.19999999999999
 20
-220.28982421026819
 30
0.0
 40
4.8865234374999993
  1
DRAWN
 41
0.7
 11
245.19999999999999
 21
-215.4033007727682
 31
0.0
 73
     3
  0
TEXT
  5
38
  8
HIBINO-BASE
 62
     7
 10
170.19999999999999
 20
-220.28982421026819
 30
0.0
 40
4.8865234374999993
  1
DATE
 41
0.7
 11
170.19999999999999
 21
-215.4033007727682
 31
0.0
 73
     3
  0
TEXT
  5
39
  8
HIBINO-BASE
 62
     7
 10
140.19999999999999
 20
-220.28982421026819
 30
0.0
 40
4.8865234374999993
  1
SCALE
 41
0.7
 11
140.19999999999999
 21
-215.4033007727682
 31
0.0
 73
     3
  0
TEXT
  5
3A
  8
HIBINO-BASE
 62
     7
 10
207.69999999999999
 20
-220.28982421026819
 30
0.0
 40
4.8865234374999993
  1
DESIGN
 41
0.7
 11
207.69999999999999
 21
-215.4033007727682
 31
0.0
 73
     3
  0
TEXT
  5
3B
  8
HIBINO-BASE
 62
     7
 10
320.19999999999999
 20
-220.28982421026819
 30
0.0
 40
4.8865234374999993
  1
DRAWING NO.
 41
0.7
 11
320.19999999999999
 21
-215.4033007727682
 31
0.0
 73
     3
  0
TEXT
  5
3C
  8
HIBINO-BASE
 62
     7
 10
282.69999999999999
 20
-220.28982421026819
 30
0.0
 40
4.8865234374999993
  1
CHECK
 41
0.7
 11
282.69999999999999
 21
-215.4033007727682
 31
0.0
 73
     3
  0
LINE
  5
3D
  8
HIBINO-BASE
  6
CONTINUOUS
 62
     7
 10
143.12499999999989
 20
-239.18270421026821
 30
0.0
 11
154.375
 21
-227.9327042102681
 31
0.0
  0
TEXT
  5
3E
  8
HIBINO-BASE
 62
     7
 10
141.24999999999989
 20
-231.25953421026821
 30
0.0
 40
4.8865234374999993
  1
1
 41
0.7
 11
141.24999999999989
 21
-226.3730107727682
 31
0.0
 73
     3
  0
LINE
  5
3F
  8
HIBINO-BASE
  6
CONTINUOUS
 62
     7
 10
137.5
 20
-242.93270421026821
 30
0.0
 11
137.5
 21
-212.9327042102681
 31
0.0
  0
LINE
  5
40
  8
HIBINO-BASE
  6
CONTINUOUS
 62
     7
 10
167.5
 20
-242.93270421026821
 30
0.0
 11
167.5
 21
-212.9327042102681
 31
0.0
  0
LINE
  5
41
  8
HIBINO-BASE
  6
CONTINUOUS
 62
     7
 10
242.5
 20
-212.9327042102681
 30
0.0
 11
242.5
 21
-242.93270421026821
 31
0.0
  0
LINE
  5
42
  8
HIBINO-BASE
  6
CONTINUOUS
 62
     7
 10
317.5
 20
-212.9327042102681
 30
0.0
 11
317.5
 21
-242.93270421026821
 31
0.0
  0
LINE
  5
43
  8
HIBINO-BASE
  6
CONTINUOUS
 62
     7
 10
279.99999999999989
 20
-242.93270421026821
 30
0.0
 11
279.99999999999989
 21
-212.9327042102681
 31
0.0
  0
TEXT
  5
44
  8
HIBINO-BASE
 62
     7
 10
173.557168171363
 20
-234.3417642102682
 30
0.0
 40
4.8865234374999993
  1
'12.05.
 41
0.7
 11
173.557168171363
 21
-229.45524077276821
 31
0.0
 73
     3
  0
TEXT
  5
45
  8
HIBINO-BASE
 62
     7
 10
152.5
 20
-236.88453421026821
 30
0.0
 40
4.8865234374999993
  1
3
 41
0.7
 11
152.5
 21
-231.9980107727682
 31
0.0
 73
     3
  0
TEXT
  5
46
  8
HIBINO-BASE
 62
     7
 10
251.84634288576009
 20
-234.3417642102682
 30
0.0
 40
4.8865234374999993
  1
Ootake
 41
0.7
 11
251.84634288576009
 21
-229.45524077276821
 31
0.0
 73
     3
  0
TEXT
  5
47
  8
HIBINO-BASE
 62
     7
 10
111.65000000000001
 20
-237.0047042102681
 30
0.0
 40
9.7730468749999986
  1
A4
 41
0.7
 11
111.65000000000001
 21
-227.2316573352681
 31
0.0
 73
     3
  0
TEXT
  5
48
  8
HIBINO-BASE
 62
     7
 10
102.875
 20
-220.79106921026809
 30
0.0
 40
4.8865234374999993
  1
PAPER SIZE
 41
0.7
 11
102.875
 21
-215.9045457727681
 31
0.0
 73
     3
  0
TEXT
  5
49
  8
HIBINO-BASE
 62
     7
 10
-161.7210942293294
 20
-262.20842491279689
 30
0.0
 40
10.58746744791666
  1
Hibino-Intersound Corporation
 41
0.7
 11
-161.7210942293294
 21
-251.62095746488029
 31
0.0
 73
     3
  0
TEXT
  5
4A
  8
HIBINO-BASE
 62
     7
 10
160.54182904064169
 20
-261.15516015292872
 30
0.0
 40
10.58746744791666
  1
ヒビノインターサウンド株式会社
 41
0.7
 11
160.54182904064169
 21
-250.56769270501201
 31
0.0
 73
     3
  0
LINE
  5
4B
  8
PATTERN_FILL
  6
CONTINUOUS
 62
     7
 10
25.80918000001445
 20
-71.89310999984356
 30
0.0
 11
21.17782000001446
 21
-67.261749999843602
 31
0.0
  0
LINE
  5
4C
  8
PATTERN_FILL
  6
CONTINUOUS
 62
     7
 10
37.889420000014439
 20
-61.502909999843638
 30
0.0
 11
29.813490000014468
 21
-69.578839999843595
 31
0.0
  0
LINE
  5
4D
  8
PATTERN_FILL
  6
CONTINUOUS
 62
     7
 10
28.910000000014438
 20
-69.993929999843573
 30
0.0
 11
24.121940000014462
 21
-65.205879999843575
 31
0.0
  0
LINE
  5
4E
  8
PATTERN_FILL
  6
CONTINUOUS
 62
     7
 10
32.55379000001453
 20
-68.63771999984364
 30
0.0
 11
27.440810000014409
 21
-63.524739999843653
 31
0.0
  0
LINE
  5
4F
  8
PATTERN_FILL
  6
CONTINUOUS
 62
     7
 10
42.422170000014397
 20
-61.970169999843648
 30
0.0
 11
36.358920000014479
 21
-68.03339999984361
 31
0.0
  0
LINE
  5
50
  8
PATTERN_FILL
  6
CONTINUOUS
 62
     7
 10
36.92454000001446
 20
-68.008489999843647
 30
0.0
 11
31.192700000014408
 21
-62.27662999984355
 31
0.0
  0
LINE
  5
51
  8
PATTERN_FILL
  6
CONTINUOUS
 62
     7
 10
46.342500000014432
 20
-63.049829999843638
 30
0.0
 11
41.063890000014467
 21
-68.328439999843596
 31
0.0
  0
LINE
  5
52
  8
PATTERN_FILL
  6
CONTINUOUS
 62
     7
 10
42.59286000001444
 20
-68.676789999843578
 30
0.0
 11
35.493580000014411
 21
-61.57752999984362
 31
0.0
  0
LINE
  5
53
  8
PATTERN_FILL
  6
CONTINUOUS
 62
     7
 10
49.799270000014452
 20
-64.593059999843632
 30
0.0
 11
44.923870000014432
 21
-69.46846999984362
 31
0.0
  0
LINE
  5
54
  8
PATTERN_FILL
  6
CONTINUOUS
 62
     7
 10
52.865870000014439
 20
-66.52644999984355
 30
0.0
 11
48.196660000014418
 21
-71.195659999843556
 31
0.0
  0
LINE
  5
55
  8
PATTERN_FILL
  6
CONTINUOUS
 62
     7
 10
55.175410000014409
 20
-106.567759999844
 30
0.0
 11
50.574830000014487
 21
-101.967159999844
 31
0.0
  0
LINE
  5
56
  8
PATTERN_FILL
  6
CONTINUOUS
 62
     7
 10
52.408650000014433
 20
-108.80098999984401
 30
0.0
 11
47.716860000014449
 21
-104.10918999984401
 31
0.0
  0
LINE
  5
57
  8
PATTERN_FILL
  6
CONTINUOUS
 62
     7
 10
43.565730000014383
 20
-106.03258999984411
 30
0.0
 11
36.134220000014487
 21
-113.46408999984401
 31
0.0
  0
LINE
  5
58
  8
PATTERN_FILL
  6
CONTINUOUS
 62
     7
 10
49.283920000014419
 20
-110.67625999984401
 30
0.0
 11
44.360850000014381
 21
-105.753189999844
 31
0.0
  0
LINE
  5
59
  8
PATTERN_FILL
  6
CONTINUOUS
 62
     7
 10
45.76051000001442
 20
-112.15284999984399
 30
0.0
 11
40.392010000014487
 21
-106.784349999844
 31
0.0
  0
LINE
  5
5A
  8
PATTERN_FILL
  6
CONTINUOUS
 62
     7
 10
37.392640000014381
 20
-106.999699999844
 30
0.0
 11
31.5761700000144
 21
-112.816159999844
 31
0.0
  0
LINE
  5
5B
  8
PATTERN_FILL
  6
CONTINUOUS
 62
     7
 10
41.75681000001444
 20
-113.149159999844
 30
0.0
 11
35.505380000014412
 21
-106.897719999844
 31
0.0
  0
LINE
  5
5C
  8
PATTERN_FILL
  6
CONTINUOUS
 62
     7
 10
32.934360000014443
 20
-106.457979999844
 30
0.0
 11
27.778280000014458
 21
-111.614059999844
 31
0.0
  0
LINE
  5
5D
  8
PATTERN_FILL
  6
CONTINUOUS
 62
     7
 10
29.231940000014479
 20
-105.160379999844
 30
0.0
 11
24.421300000014451
 21
-109.97103999984409
 31
0.0
  0
LINE
  5
5E
  8
PATTERN_FILL
  6
CONTINUOUS
 62
     7
 10
26.083610000014481
 20
-103.308729999844
 30
0.0
 11
21.44304000001447
 21
-107.949299999844
 31
0.0
  0
LINE
  5
5F
  8
PATTERN_FILL
  6
CONTINUOUS
 62
     7
 10
37.104650000014452
 20
-113.496989999844
 30
0.0
 11
28.302090000014491
 21
-104.694419999844
 31
0.0
  0
LINE
  5
60
  8
PATTERN_FILL
  6
CONTINUOUS
 62
     7
 10
23.410930000014481
 20
-100.981389999844
 30
0.0
 11
18.813890000014482
 21
-105.5784299998441
 31
0.0
  0
LINE
  5
61
  8
PATTERN_FILL
  6
CONTINUOUS
 62
     7
 10
20.305560000014481
 20
-96.697899999843997
 30
0.0
 11
11.503000000014501
 21
-87.895339999843813
 31
0.0
  0
LINE
  5
62
  8
PATTERN_FILL
  6
CONTINUOUS
 62
     7
 10
21.195660000014438
 20
-98.196659999844016
 30
0.0
 11
16.526450000014421
 21
-102.86586999984399
 31
0.0
  0
LINE
  5
63
  8
PATTERN_FILL
  6
CONTINUOUS
 62
     7
 10
19.468470000014491
 20
-94.923869999843973
 30
0.0
 11
14.59305000001441
 21
-99.799269999844071
 31
0.0
  0
LINE
  5
64
  8
PATTERN_FILL
  6
CONTINUOUS
 62
     7
 10
18.062510000014441
 20
-89.060149999843915
 30
0.0
 11
11.90896000001444
 21
-82.906609999843766
 31
0.0
  0
LINE
  5
65
  8
PATTERN_FILL
  6
CONTINUOUS
 62
     7
 10
18.328440000014471
 20
-91.063889999843866
 30
0.0
 11
13.049830000014509
 21
-96.342489999844005
 31
0.0
  0
LINE
  5
66
  8
PATTERN_FILL
  6
CONTINUOUS
 62
     7
 10
18.257510000014491
 20
-84.341449999843775
 30
0.0
 11
12.92542000001438
 21
-79.009379999843631
 31
0.0
  0
LINE
  5
67
  8
PATTERN_FILL
  6
CONTINUOUS
 62
     7
 10
18.021380000014489
 20
-86.587039999843796
 30
0.0
 11
12.005650000014411
 21
-92.602779999843918
 31
0.0
  0
LINE
  5
68
  8
PATTERN_FILL
  6
CONTINUOUS
 62
     7
 10
19.33220000001441
 20
-80.416129999843633
 30
0.0
 11
14.42844000001449
 21
-75.512369999843628
 31
0.0
  0
LINE
  5
69
  8
PATTERN_FILL
  6
CONTINUOUS
 62
     7
 10
19.424430000014489
 20
-80.183999999843664
 30
0.0
 11
11.50696000001451
 21
-88.101459999843783
 31
0.0
  0
LINE
  5
6A
  8
PATTERN_FILL
  6
CONTINUOUS
 62
     7
 10
21.009180000014481
 20
-77.09311999984358
 30
0.0
 11
16.32666000001441
 21
-72.410589999843552
 31
0.0
  0
LINE
  5
6B
  8
PATTERN_FILL
  6
CONTINUOUS
 62
     7
 10
23.161530000014441
 20
-74.284159999843652
 30
0.0
 11
18.44097000001446
 21
-69.815169999843562
 31
0.0
  0
LINE
  5
6C
  8
PATTERN_FILL
  6
CONTINUOUS
 62
     7
 10
63.242550000014532
 20
-91.14978999984389
 30
0.0
 11
41.149790000014526
 21
-113.242549999844
 31
0.0
  0
LINE
  5
6D
  8
PATTERN_FILL
  6
CONTINUOUS
 62
     7
 10
62.374630000014498
 20
-95.066549999844
 30
0.0
 11
45.066550000014473
 21
-112.374629999844
 31
0.0
  0
LINE
  5
6E
  8
PATTERN_FILL
  6
CONTINUOUS
 62
     7
 10
32.652550000014493
 20
-61.955879999843582
 30
0.0
 11
11.955870000014469
 21
-82.652549999843686
 31
0.0
  0
LINE
  5
6F
  8
PATTERN_FILL
  6
CONTINUOUS
 62
     7
 10
63.353730000014401
 20
-84.746069999843726
 30
0.0
 11
40.25392000001446
 21
-61.646249999843597
 31
0.0
  0
LINE
  5
70
  8
PATTERN_FILL
  6
CONTINUOUS
 62
     7
 10
61.83156000001442
 20
-78.336199999843544
 30
0.0
 11
46.663790000014423
 21
-63.168429999843639
 31
0.0
  0
LINE
  5
71
  8
PATTERN_FILL
  6
CONTINUOUS
 62
     7
 10
31.376190000014411
 20
-112.76852999984401
 30
0.0
 11
12.23146000001444
 21
-93.623789999843908
 31
0.0
  0
LINE
  5
72
  8
PATTERN_FILL
  6
CONTINUOUS
 62
     7
 10
59.971030000014487
 20
-74.42128999984358
 30
0.0
 11
55.160380000014392
 21
-79.231939999843661
 31
0.0
  0
LINE
  5
73
  8
PATTERN_FILL
  6
CONTINUOUS
 62
     7
 10
63.464090000014409
 20
-88.865779999843866
 30
0.0
 11
56.03259000001438
 21
-81.434269999843679
 31
0.0
  0
LINE
  5
74
  8
PATTERN_FILL
  6
CONTINUOUS
 62
     7
 10
61.614060000014447
 20
-77.778279999843576
 30
0.0
 11
56.457980000014487
 21
-82.934359999843736
 31
0.0
  0
LINE
  5
75
  8
PATTERN_FILL
  6
CONTINUOUS
 62
     7
 10
62.660640000014411
 20
-94.052989999843973
 30
0.0
 11
56.98046000001446
 21
-88.372789999843803
 31
0.0
  0
LINE
  5
76
  8
PATTERN_FILL
  6
CONTINUOUS
 62
     7
 10
61.38328000001448
 20
-97.775619999844054
 30
0.0
 11
56.29686000001449
 21
-92.689199999843964
 31
0.0
  0
LINE
  5
77
  8
PATTERN_FILL
  6
CONTINUOUS
 62
     7
 10
63.464090000014409
 20
-86.13421999984385
 30
0.0
 11
56.03259000001438
 21
-93.565719999843921
 31
0.0
  0
LINE
  5
78
  8
PATTERN_FILL
  6
CONTINUOUS
 62
     7
 10
59.792560000014461
 20
-100.880629999844
 30
0.0
 11
55.004690000014449
 21
-96.092759999843992
 31
0.0
  0
LINE
  5
79
  8
PATTERN_FILL
  6
CONTINUOUS
 62
     7
 10
57.599900000014507
 20
-103.992229999844
 30
0.0
 11
52.973900000014417
 21
-99.366239999843998
 31
0.0
  0
LINE
  5
7A
  8
PATTERN_FILL
  6
CONTINUOUS
 62
     7
 10
55.578440000014467
 20
-68.81388999984361
 30
0.0
 11
50.981390000014493
 21
-73.410929999843603
 31
0.0
  0
LINE
  5
7B
  8
PATTERN_FILL
  6
CONTINUOUS
 62
     7
 10
57.94930000001446
 20
-71.443039999843592
 30
0.0
 11
53.308730000014428
 21
-76.083609999843631
 31
0.0
  0
LINE
  5
7C
  8
PATTERN_FILL
  6
CONTINUOUS
 62
     7
 10
62.816170000014409
 20
-81.576159999843682
 30
0.0
 11
56.999690000014461
 21
-87.392639999843865
 31
0.0
  0
ARC
  5
7D
  8
PATTERN_FILL
  6
CONTINUOUS
 62
     7
 10
37.499999999957467
 20
209.45655460578161
 30
0.0
 40
9.9999999999999911
 50
44.427004000805752
 51
135.57299599919449
  0
LINE
  5
7E
  8
PATTERN_FILL
  6
CONTINUOUS
 62
     7
 10
37.499999999957467
 20
240.45655460578169
 30
0.0
 11
37.499999999957467
 21
216.45655460578169
 31
0.0
  0
ARC
  5
7F
  8
PATTERN_FILL
  6
CONTINUOUS
 62
     7
 10
664.74999999995839
 20
215.45655460578169
 30
0.0
 40
625.25000000000125
 50
177.71992094845569
 51
179.90836348555121
  0
ARC
  5
80
  8
PATTERN_FILL
  6
CONTINUOUS
 62
     7
 10
664.65511396059492
 20
204.5836914390116
 30
0.0
 40
623.25000000000102
 50
176.74520391614229
 51
178.9084553142732
  0
ARC
  5
81
  8
PATTERN_FILL
  6
CONTINUOUS
 62
     7
 10
664.37149958413499
 20
193.75197712583869
 30
0.0
 40
621.2500000000008
 50
175.7892465267945
 51
177.90544145148741
  0
ARC
  5
82
  8
PATTERN_FILL
  6
CONTINUOUS
 62
     7
 10
37.499999999957467
 20
207.45655460578169
 30
0.0
 40
10.0
 50
64.15806723683211
 51
115.8419327631678
  0
ARC
  5
83
  8
PATTERN_FILL
  6
CONTINUOUS
 62
     7
 10
-589.75000000004331
 20
215.45655460578169
 30
0.0
 40
625.25000000000102
 50
0.091636514448776
 51
2.2800790515442708
  0
ARC
  5
84
  8
PATTERN_FILL
  6
CONTINUOUS
 62
     7
 10
-589.65511396068018
 20
204.5836914390116
 30
0.0
 40
623.25000000000102
 50
1.0915446857268221
 51
3.254796083857681
  0
ARC
  5
85
  8
PATTERN_FILL
  6
CONTINUOUS
 62
     7
 10
-589.37149958422015
 20
193.75197712583869
 30
0.0
 40
621.2500000000008
 50
2.0945585485126661
 51
4.210753473205517
  0
ARC
  5
86
  8
PATTERN_FILL
  6
CONTINUOUS
 62
     7
 10
37.499999999957467
 20
219.45655460578169
 30
0.0
 40
10.00000000000003
 50
224.42700400080551
 51
315.57299599919418
  0
LINE
  5
87
  8
PATTERN_FILL
  6
CONTINUOUS
 62
     7
 10
37.499999999957467
 20
196.45655460578169
 30
0.0
 11
37.499999999957467
 21
212.4565546057818
 31
0.0
  0
ARC
  5
88
  8
PATTERN_FILL
  6
CONTINUOUS
 62
     7
 10
664.74999999995839
 20
213.45655460578169
 30
0.0
 40
625.25000000000125
 50
180.09163651444871
 51
181.55801407407199
  0
ARC
  5
89
  8
PATTERN_FILL
  6
CONTINUOUS
 62
     7
 10
664.65511396059492
 20
224.32941777255201
 30
0.0
 40
623.25000000000102
 50
181.0915446857268
 51
182.56322542334681
  0
ARC
  5
8A
  8
PATTERN_FILL
  6
CONTINUOUS
 62
     7
 10
664.37149958413499
 20
235.1611320857248
 30
0.0
 40
621.2500000000008
 50
182.09455854851259
 51
183.5719050810259
  0
ARC
  5
8B
  8
PATTERN_FILL
  6
CONTINUOUS
 62
     7
 10
663.9004457323025
 20
245.95009503486199
 30
0.0
 40
619.25000000000102
 50
183.1004810615903
 51
184.5842532794687
  0
ARC
  5
8C
  8
PATTERN_FILL
  6
CONTINUOUS
 62
     7
 10
37.499999999957467
 20
221.45655460578169
 30
0.0
 40
10.0
 50
244.1580672368321
 51
295.84193276316779
  0
ARC
  5
8D
  8
PATTERN_FILL
  6
CONTINUOUS
 62
     7
 10
-589.75000000004331
 20
213.45655460578169
 30
0.0
 40
625.2500000000008
 50
358.44198592592761
 51
359.90836348555092
  0
ARC
  5
8E
  8
PATTERN_FILL
  6
CONTINUOUS
 62
     7
 10
-589.65511396068018
 20
224.32941777255201
 30
0.0
 40
623.25000000000102
 50
357.43677457665183
 51
358.90845531427323
  0
ARC
  5
8F
  8
PATTERN_FILL
  6
CONTINUOUS
 62
     7
 10
-589.37149958422015
 20
235.1611320857248
 30
0.0
 40
621.2500000000008
 50
356.42735789610208
 51
357.90544145148749
  0
ARC
  5
90
  8
PATTERN_FILL
  6
CONTINUOUS
 62
     7
 10
37.499999999957467
 20
209.45655460578161
 30
0.0
 40
11.99999999999995
 50
35.685334712652221
 51
144.31466528734799
  0
ARC
  5
91
  8
PATTERN_FILL
  6
CONTINUOUS
 62
     7
 10
37.499999999957467
 20
209.45655460578161
 30
0.0
 40
14.000000000000011
 50
30.00000000000038
 51
150.0
  0
ARC
  5
92
  8
PATTERN_FILL
  6
CONTINUOUS
 62
     7
 10
37.499999999957467
 20
209.45655460578161
 30
0.0
 40
15.999999999999959
 50
25.94447977237397
 51
154.0555202276301
  0
ARC
  5
93
  8
PATTERN_FILL
  6
CONTINUOUS
 62
     7
 10
37.499999999957467
 20
209.45655460578161
 30
0.0
 40
17.999999999999979
 50
22.885380476156129
 51
157.11461952384141
  0
ARC
  5
94
  8
PATTERN_FILL
  6
CONTINUOUS
 62
     7
 10
37.499999999957467
 20
209.45655460578161
 30
0.0
 40
19.999999999999972
 50
20.48731511472317
 51
159.51268488527739
  0
ARC
  5
95
  8
PATTERN_FILL
  6
CONTINUOUS
 62
     7
 10
37.499999999957467
 20
209.45655460578161
 30
0.0
 40
21.99999999999994
 50
18.553004535040969
 51
161.4698458237896
  0
ARC
  5
96
  8
PATTERN_FILL
  6
CONTINUOUS
 62
     7
 10
37.499999999957467
 20
209.45655460578161
 30
0.0
 40
23.999999999999929
 50
16.940727594531609
 51
163.05927240546839
  0
ARC
  5
97
  8
PATTERN_FILL
  6
CONTINUOUS
 62
     7
 10
37.499999999957467
 20
209.45655460578161
 30
0.0
 40
25.999999999999972
 50
16.19135163861705
 51
163.8086483613834
  0
ARC
  5
98
  8
PATTERN_FILL
  6
CONTINUOUS
 62
     7
 10
37.499999999957467
 20
209.45655460578161
 30
0.0
 40
27.999999999999929
 50
35.47566608613382
 51
144.52433391386629
  0
ARC
  5
99
  8
PATTERN_FILL
  6
CONTINUOUS
 62
     7
 10
37.499999999957467
 20
209.45655460578161
 30
0.0
 40
29.999999999999972
 50
59.756072044010388
 51
120.2439279559897
  0
ARC
  5
9A
  8
PATTERN_FILL
  6
CONTINUOUS
 62
     7
 10
37.499999999957467
 20
219.45655460578169
 30
0.0
 40
12.0
 50
215.68533471265201
 51
324.31466528734768
  0
ARC
  5
9B
  8
PATTERN_FILL
  6
CONTINUOUS
 62
     7
 10
37.499999999957467
 20
219.45655460578169
 30
0.0
 40
14.000000000000011
 50
210.0
 51
329.99999999999972
  0
ARC
  5
9C
  8
PATTERN_FILL
  6
CONTINUOUS
 62
     7
 10
37.499999999957467
 20
219.45655460578169
 30
0.0
 40
16.000000000000039
 50
205.9444797723699
 51
334.05552022762612
  0
ARC
  5
9D
  8
PATTERN_FILL
  6
CONTINUOUS
 62
     7
 10
37.499999999957467
 20
219.45655460578169
 30
0.0
 40
18.0
 50
202.88538047615859
 51
337.11461952384388
  0
ARC
  5
9E
  8
PATTERN_FILL
  6
CONTINUOUS
 62
     7
 10
37.499999999957467
 20
219.45655460578169
 30
0.0
 40
20.000000000000028
 50
200.48731511472269
 51
339.51268488527683
  0
ARC
  5
9F
  8
PATTERN_FILL
  6
CONTINUOUS
 62
     7
 10
37.499999999957467
 20
219.45655460578169
 30
0.0
 40
22.0
 50
198.5301541762104
 51
341.446995464959
  0
ARC
  5
A0
  8
PATTERN_FILL
  6
CONTINUOUS
 62
     7
 10
663.9004457323025
 20
182.96301417670139
 30
0.0
 40
619.25000000000068
 50
174.8526984021124
 51
176.8995189384097
  0
ARC
  5
A1
  8
PATTERN_FILL
  6
CONTINUOUS
 62
     7
 10
663.24330135379171
 20
172.2187985611144
 30
0.0
 40
617.2500000000008
 50
173.9366644335438
 51
175.8901446122625
  0
ARC
  5
A2
  8
PATTERN_FILL
  6
CONTINUOUS
 62
     7
 10
662.40148115802799
 20
161.52245880269581
 30
0.0
 40
615.25000000000068
 50
173.04292504797331
 51
174.87663243155129
  0
ARC
  5
A3
  8
PATTERN_FILL
  6
CONTINUOUS
 62
     7
 10
661.37645523673507
 20
150.87715759263631
 30
0.0
 40
613.25000000000045
 50
172.17410924840749
 51
173.8612048870709
  0
ARC
  5
A4
  8
PATTERN_FILL
  6
CONTINUOUS
 62
     7
 10
660.16974763601775
 20
140.28602090846039
 30
0.0
 40
611.25000000000068
 50
171.334201161739
 51
172.84152309440961
  0
ARC
  5
A5
  8
PATTERN_FILL
  6
CONTINUOUS
 62
     7
 10
658.78293552299158
 20
129.75213709736721
 30
0.0
 40
609.25000000000102
 50
170.5295968170378
 51
171.81826710974079
  0
ARC
  5
A6
  8
PATTERN_FILL
  6
CONTINUOUS
 62
     7
 10
-588.90044573238765
 20
182.96301417670139
 30
0.0
 40
619.25000000000102
 50
3.100481061590286
 51
5.1473015978875196
  0
ARC
  5
A7
  8
PATTERN_FILL
  6
CONTINUOUS
 62
     7
 10
-588.24330135387675
 20
172.2187985611144
 30
0.0
 40
617.2500000000008
 50
4.1098553877374631
 51
6.063335566456149
  0
ARC
  5
A8
  8
PATTERN_FILL
  6
CONTINUOUS
 62
     7
 10
-587.40148115811292
 20
161.52245880269581
 30
0.0
 40
615.25000000000057
 50
5.1233675684486411
 51
6.9570749520266517
  0
ARC
  5
A9
  8
PATTERN_FILL
  6
CONTINUOUS
 62
     7
 10
-586.37645523682033
 20
150.87715759263631
 30
0.0
 40
613.25000000000045
 50
6.1387951129290954
 51
7.8258907515925218
  0
ARC
  5
AA
  8
PATTERN_FILL
  6
CONTINUOUS
 62
     7
 10
-585.1697476361029
 20
140.28602090846039
 30
0.0
 40
611.25000000000068
 50
7.1584769055903319
 51
8.6657988382610451
  0
ARC
  5
AB
  8
PATTERN_FILL
  6
CONTINUOUS
 62
     7
 10
657.21764833691157
 20
119.27855597746969
 30
0.0
 40
607.25000000000102
 50
169.77162307628089
 51
170.79138338854639
  0
ARC
  5
AC
  8
PATTERN_FILL
  6
CONTINUOUS
 62
     7
 10
655.47556692516196
 20
108.86828795719489
 30
0.0
 40
605.2500000000008
 50
169.08417762807241
 51
169.76078039007089
  0
ARC
  5
AD
  8
PATTERN_FILL
  6
CONTINUOUS
 62
     7
 10
653.55842266449099
 20
98.524303173096996
 30
0.0
 40
603.25000000000102
 50
168.5419918620411
 51
168.72638516189761
  0
ARC
  5
AE
  8
PATTERN_FILL
  6
CONTINUOUS
 62
     7
 10
-583.7829355230765
 20
129.75213709736721
 30
0.0
 40
609.2500000000008
 50
8.1817328902591928
 51
9.4704031829621744
  0
ARC
  5
AF
  8
PATTERN_FILL
  6
CONTINUOUS
 62
     7
 10
-582.2176483369966
 20
119.27855597746969
 30
0.0
 40
607.25000000000068
 50
9.2086166114535608
 51
10.228376923719059
  0
ARC
  5
B0
  8
PATTERN_FILL
  6
CONTINUOUS
 62
     7
 10
-580.47556692524677
 20
108.86828795719489
 30
0.0
 40
605.2500000000008
 50
10.239219609929201
 51
10.915822371927669
  0
ARC
  5
B1
  8
PATTERN_FILL
  6
CONTINUOUS
 62
     7
 10
-578.55842266457614
 20
98.524303173096996
 30
0.0
 40
603.25000000000068
 50
11.27361483810231
 51
11.45800813795884
  0
ARC
  5
B2
  8
PATTERN_FILL
  6
CONTINUOUS
 62
     7
 10
37.499999999957467
 20
219.45655460578169
 30
0.0
 40
23.999999999999989
 50
196.9407275945315
 51
253.4689467067943
  0
ARC
  5
B3
  8
PATTERN_FILL
  6
CONTINUOUS
 62
     7
 10
37.499999999957467
 20
219.45655460578169
 30
0.0
 40
23.99999999999995
 50
286.53105329320601
 51
343.05927240546839
  0
ARC
  5
B4
  8
PATTERN_FILL
  6
CONTINUOUS
 62
     7
 10
37.499999999957467
 20
219.45655460578169
 30
0.0
 40
26.000000000000021
 50
196.61430312224789
 51
242.20422750397211
  0
ARC
  5
B5
  8
PATTERN_FILL
  6
CONTINUOUS
 62
     7
 10
37.499999999957467
 20
219.45655460578169
 30
0.0
 40
25.999999999999972
 50
297.79577249602789
 51
343.38569687775208
  0
ARC
  5
B6
  8
PATTERN_FILL
  6
CONTINUOUS
 62
     7
 10
37.499999999957467
 20
219.45655460578169
 30
0.0
 40
27.999999999999979
 50
213.90717311924169
 51
235.22805596805139
  0
ARC
  5
B7
  8
PATTERN_FILL
  6
CONTINUOUS
 62
     7
 10
37.499999999957467
 20
219.45655460578169
 30
0.0
 40
27.99999999999995
 50
304.77194403194829
 51
326.00716260293279
  0
ARC
  5
B8
  8
PATTERN_FILL
  6
CONTINUOUS
 62
     7
 10
663.24330135379171
 20
256.6943106504491
 30
0.0
 40
617.2500000000008
 50
184.10985538773741
 51
185.60043940803601
  0
ARC
  5
B9
  8
PATTERN_FILL
  6
CONTINUOUS
 62
     7
 10
662.40148115802799
 20
267.39065040886749
 30
0.0
 40
615.25000000000068
 50
185.1233675684486
 51
186.6205323933809
  0
ARC
  5
BA
  8
PATTERN_FILL
  6
CONTINUOUS
 62
     7
 10
661.37645523673507
 20
278.03595161892707
 30
0.0
 40
613.25000000000045
 50
186.1387951129291
 51
187.64460184417081
  0
ARC
  5
BB
  8
PATTERN_FILL
  6
CONTINUOUS
 62
     7
 10
660.16974763601775
 20
288.62708830310311
 30
0.0
 40
611.25000000000068
 50
187.15847690559031
 51
188.6727248406977
  0
ARC
  5
BC
  8
PATTERN_FILL
  6
CONTINUOUS
 62
     7
 10
658.78293552299158
 20
299.16097211419623
 30
0.0
 40
609.2500000000008
 50
188.18173289025921
 51
189.5056402057586
  0
ARC
  5
BD
  8
PATTERN_FILL
  6
CONTINUOUS
 62
     7
 10
655.47556692516196
 20
320.04482125436851
 30
0.0
 40
605.2500000000008
 50
190.23921960992919
 51
190.93855274996881
  0
ARC
  5
BE
  8
PATTERN_FILL
  6
CONTINUOUS
 62
     7
 10
653.55842266449099
 20
330.3888060384665
 30
0.0
 40
603.25000000000068
 50
191.27361483810239
 51
191.45800813795881
  0
ARC
  5
BF
  8
PATTERN_FILL
  6
CONTINUOUS
 62
     7
 10
-588.90044573238765
 20
245.95009503486199
 30
0.0
 40
619.25000000000068
 50
355.41574672053139
 51
356.89951893840959
  0
ARC
  5
C0
  8
PATTERN_FILL
  6
CONTINUOUS
 62
     7
 10
-588.24330135387675
 20
256.6943106504491
 30
0.0
 40
617.2500000000008
 50
354.39956059194952
 51
355.89014461226247
  0
ARC
  5
C1
  8
PATTERN_FILL
  6
CONTINUOUS
 62
     7
 10
-587.40148115811292
 20
267.39065040886749
 30
0.0
 40
615.25000000000068
 50
353.3794676066197
 51
354.87663243155117
  0
ARC
  5
C2
  8
PATTERN_FILL
  6
CONTINUOUS
 62
     7
 10
-586.37645523682033
 20
278.03595161892707
 30
0.0
 40
613.25000000000045
 50
352.35539815582882
 51
353.86120488707093
  0
ARC
  5
C3
  8
PATTERN_FILL
  6
CONTINUOUS
 62
     7
 10
-585.1697476361029
 20
288.62708830310311
 30
0.0
 40
611.25000000000068
 50
351.33420116173897
 51
352.84152309440969
  0
ARC
  5
C4
  8
PATTERN_FILL
  6
CONTINUOUS
 62
     7
 10
-583.7829355230765
 20
299.16097211419623
 30
0.0
 40
609.2500000000008
 50
350.49435979427039
 51
351.81826710974099
  0
ARC
  5
C5
  8
PATTERN_FILL
  6
CONTINUOUS
 62
     7
 10
-582.2176483369966
 20
309.63455323409369
 30
0.0
 40
607.25000000000102
 50
349.74065372820638
 51
350.79138338854659
  0
ARC
  5
C6
  8
PATTERN_FILL
  6
CONTINUOUS
 62
     7
 10
-580.47556692524677
 20
320.04482125436851
 30
0.0
 40
605.25000000000045
 50
349.06144725001388
 51
349.76078039007092
  0
ARC
  5
C7
  8
PATTERN_FILL
  6
CONTINUOUS
 62
     7
 10
-578.55842266457614
 20
330.3888060384665
 30
0.0
 40
603.25000000000102
 50
348.54199186204119
 51
348.72638516189772
  0
ARC
  5
C8
  8
PATTERN_FILL
  6
CONTINUOUS
 62
     7
 10
657.21764833691157
 20
309.63455323409369
 30
0.0
 40
607.25000000000068
 50
189.20861661145349
 51
190.25934627179279
  0
ARC
  5
C9
  8
PATTERN_FILL
  6
CONTINUOUS
 62
     7
 10
174.9999999999574
 20
208.93110513490001
 30
0.0
 40
9.9999999999999911
 50
44.427004000805752
 51
135.57299599919449
  0
ARC
  5
CA
  8
PATTERN_FILL
  6
CONTINUOUS
 62
     7
 10
174.9999999999574
 20
208.93110513490001
 30
0.0
 40
11.99999999999995
 50
35.685334712652221
 51
144.31466528734799
  0
LINE
  5
CB
  8
PATTERN_FILL
  6
CONTINUOUS
 62
     7
 10
174.9999999999574
 20
239.93110513490001
 30
0.0
 11
174.9999999999574
 21
215.93110513490001
 31
0.0
  0
ARC
  5
CC
  8
PATTERN_FILL
  6
CONTINUOUS
 62
     7
 10
802.24999999995828
 20
214.93110513490001
 30
0.0
 40
625.25000000000125
 50
177.71992094845569
 51
179.90836348555121
  0
ARC
  5
CD
  8
PATTERN_FILL
  6
CONTINUOUS
 62
     7
 10
802.1551139605948
 20
204.05824196812969
 30
0.0
 40
623.25000000000102
 50
176.74520391614229
 51
178.9084553142732
  0
ARC
  5
CE
  8
PATTERN_FILL
  6
CONTINUOUS
 62
     7
 10
801.87149958413488
 20
193.2265276549569
 30
0.0
 40
621.2500000000008
 50
175.7892465267945
 51
177.90544145148741
  0
ARC
  5
CF
  8
PATTERN_FILL
  6
CONTINUOUS
 62
     7
 10
801.4004457323025
 20
182.43756470581971
 30
0.0
 40
619.25000000000068
 50
174.8526984021124
 51
176.8995189384097
  0
ARC
  5
D0
  8
PATTERN_FILL
  6
CONTINUOUS
 62
     7
 10
800.74330135379159
 20
171.69334909023269
 30
0.0
 40
617.2500000000008
 50
173.9366644335438
 51
175.8901446122625
  0
ARC
  5
D1
  8
PATTERN_FILL
  6
CONTINUOUS
 62
     7
 10
799.90148115802799
 20
160.99700933181421
 30
0.0
 40
615.25000000000068
 50
173.04292504797331
 51
174.87663243155129
  0
ARC
  5
D2
  8
PATTERN_FILL
  6
CONTINUOUS
 62
     7
 10
174.9999999999574
 20
206.93110513490001
 30
0.0
 40
10.0
 50
64.15806723683211
 51
115.8419327631678
  0
ARC
  5
D3
  8
PATTERN_FILL
  6
CONTINUOUS
 62
     7
 10
-452.2500000000432
 20
214.93110513490001
 30
0.0
 40
625.25000000000102
 50
0.091636514448776
 51
2.2800790515442708
  0
ARC
  5
D4
  8
PATTERN_FILL
  6
CONTINUOUS
 62
     7
 10
-452.15511396068001
 20
204.05824196812969
 30
0.0
 40
623.25000000000102
 50
1.0915446857268221
 51
3.254796083857681
  0
ARC
  5
D5
  8
PATTERN_FILL
  6
CONTINUOUS
 62
     7
 10
-451.8714995842202
 20
193.2265276549569
 30
0.0
 40
621.2500000000008
 50
2.0945585485126661
 51
4.210753473205517
  0
ARC
  5
D6
  8
PATTERN_FILL
  6
CONTINUOUS
 62
     7
 10
-451.40044573238771
 20
182.43756470581971
 30
0.0
 40
619.25000000000102
 50
3.100481061590286
 51
5.1473015978875196
  0
ARC
  5
D7
  8
PATTERN_FILL
  6
CONTINUOUS
 62
     7
 10
174.9999999999574
 20
218.93110513490001
 30
0.0
 40
10.00000000000003
 50
224.42700400080551
 51
315.57299599919418
  0
ARC
  5
D8
  8
PATTERN_FILL
  6
CONTINUOUS
 62
     7
 10
174.9999999999574
 20
218.93110513490001
 30
0.0
 40
12.0
 50
215.68533471265201
 51
324.31466528734768
  0
LINE
  5
D9
  8
PATTERN_FILL
  6
CONTINUOUS
 62
     7
 10
174.9999999999574
 20
195.93110513490001
 30
0.0
 11
174.9999999999574
 21
211.93110513490001
 31
0.0
  0
ARC
  5
DA
  8
PATTERN_FILL
  6
CONTINUOUS
 62
     7
 10
802.24999999995828
 20
212.93110513490001
 30
0.0
 40
625.25000000000125
 50
180.09163651444871
 51
181.55801407407199
  0
ARC
  5
DB
  8
PATTERN_FILL
  6
CONTINUOUS
 62
     7
 10
802.1551139605948
 20
223.8039683016703
 30
0.0
 40
623.25000000000102
 50
181.0915446857268
 51
182.56322542334681
  0
ARC
  5
DC
  8
PATTERN_FILL
  6
CONTINUOUS
 62
     7
 10
801.87149958413488
 20
234.63568261484301
 30
0.0
 40
621.2500000000008
 50
182.09455854851259
 51
183.5719050810259
  0
ARC
  5
DD
  8
PATTERN_FILL
  6
CONTINUOUS
 62
     7
 10
801.4004457323025
 20
245.42464556398031
 30
0.0
 40
619.25000000000102
 50
183.1004810615903
 51
184.5842532794687
  0
ARC
  5
DE
  8
PATTERN_FILL
  6
CONTINUOUS
 62
     7
 10
800.74330135379159
 20
256.16886117956727
 30
0.0
 40
617.2500000000008
 50
184.10985538773741
 51
185.60043940803601
  0
ARC
  5
DF
  8
PATTERN_FILL
  6
CONTINUOUS
 62
     7
 10
799.90148115802799
 20
266.86520093798578
 30
0.0
 40
615.25000000000068
 50
185.1233675684486
 51
186.6205323933809
  0
ARC
  5
E0
  8
PATTERN_FILL
  6
CONTINUOUS
 62
     7
 10
174.9999999999574
 20
220.93110513490001
 30
0.0
 40
10.0
 50
244.1580672368321
 51
295.84193276316779
  0
ARC
  5
E1
  8
PATTERN_FILL
  6
CONTINUOUS
 62
     7
 10
-452.2500000000432
 20
212.93110513490001
 30
0.0
 40
625.2500000000008
 50
358.44198592592761
 51
359.90836348555092
  0
ARC
  5
E2
  8
PATTERN_FILL
  6
CONTINUOUS
 62
     7
 10
-452.15511396068001
 20
223.8039683016703
 30
0.0
 40
623.25000000000102
 50
357.43677457665183
 51
358.90845531427323
  0
ARC
  5
E3
  8
PATTERN_FILL
  6
CONTINUOUS
 62
     7
 10
-451.8714995842202
 20
234.63568261484301
 30
0.0
 40
621.2500000000008
 50
356.42735789610208
 51
357.90544145148749
  0
ARC
  5
E4
  8
PATTERN_FILL
  6
CONTINUOUS
 62
     7
 10
-451.40044573238771
 20
245.42464556398031
 30
0.0
 40
619.25000000000068
 50
355.41574672053139
 51
356.89951893840959
  0
ARC
  5
E5
  8
PATTERN_FILL
  6
CONTINUOUS
 62
     7
 10
174.9999999999574
 20
208.93110513490001
 30
0.0
 40
14.000000000000011
 50
30.00000000000038
 51
150.0
  0
ARC
  5
E6
  8
PATTERN_FILL
  6
CONTINUOUS
 62
     7
 10
174.9999999999574
 20
208.93110513490001
 30
0.0
 40
15.999999999999959
 50
25.94447977237397
 51
154.0555202276301
  0
ARC
  5
E7
  8
PATTERN_FILL
  6
CONTINUOUS
 62
     7
 10
174.9999999999574
 20
208.93110513490001
 30
0.0
 40
17.999999999999979
 50
22.885380476156129
 51
157.11461952384141
  0
ARC
  5
E8
  8
PATTERN_FILL
  6
CONTINUOUS
 62
     7
 10
174.9999999999574
 20
208.93110513490001
 30
0.0
 40
19.999999999999972
 50
20.48731511472317
 51
159.51268488527739
  0
ARC
  5
E9
  8
PATTERN_FILL
  6
CONTINUOUS
 62
     7
 10
174.9999999999574
 20
208.93110513490001
 30
0.0
 40
21.99999999999994
 50
18.553004535040969
 51
161.4698458237896
  0
ARC
  5
EA
  8
PATTERN_FILL
  6
CONTINUOUS
 62
     7
 10
174.9999999999574
 20
208.93110513490001
 30
0.0
 40
23.999999999999929
 50
16.940727594531609
 51
163.05927240546839
  0
ARC
  5
EB
  8
PATTERN_FILL
  6
CONTINUOUS
 62
     7
 10
174.9999999999574
 20
208.93110513490001
 30
0.0
 40
25.999999999999972
 50
16.19135163861705
 51
163.8086483613834
  0
ARC
  5
EC
  8
PATTERN_FILL
  6
CONTINUOUS
 62
     7
 10
174.9999999999574
 20
208.93110513490001
 30
0.0
 40
27.999999999999929
 50
35.47566608613382
 51
144.52433391386629
  0
ARC
  5
ED
  8
PATTERN_FILL
  6
CONTINUOUS
 62
     7
 10
174.9999999999574
 20
208.93110513490001
 30
0.0
 40
29.999999999999972
 50
59.756072044010388
 51
120.2439279559897
  0
ARC
  5
EE
  8
PATTERN_FILL
  6
CONTINUOUS
 62
     7
 10
174.9999999999574
 20
218.93110513490001
 30
0.0
 40
14.000000000000011
 50
210.0
 51
329.99999999999972
  0
ARC
  5
EF
  8
PATTERN_FILL
  6
CONTINUOUS
 62
     7
 10
174.9999999999574
 20
218.93110513490001
 30
0.0
 40
16.000000000000039
 50
205.9444797723699
 51
334.05552022762612
  0
ARC
  5
F0
  8
PATTERN_FILL
  6
CONTINUOUS
 62
     7
 10
174.9999999999574
 20
218.93110513490001
 30
0.0
 40
18.0
 50
202.88538047615859
 51
337.11461952384388
  0
ARC
  5
F1
  8
PATTERN_FILL
  6
CONTINUOUS
 62
     7
 10
174.9999999999574
 20
218.93110513490001
 30
0.0
 40
20.000000000000028
 50
200.48731511472269
 51
339.51268488527683
  0
ARC
  5
F2
  8
PATTERN_FILL
  6
CONTINUOUS
 62
     7
 10
174.9999999999574
 20
218.93110513490001
 30
0.0
 40
22.0
 50
198.5301541762104
 51
341.446995464959
  0
ARC
  5
F3
  8
PATTERN_FILL
  6
CONTINUOUS
 62
     7
 10
174.9999999999574
 20
218.93110513490001
 30
0.0
 40
23.99999999999995
 50
286.53105329320601
 51
343.05927240546839
  0
ARC
  5
F4
  8
PATTERN_FILL
  6
CONTINUOUS
 62
     7
 10
174.9999999999574
 20
218.93110513490001
 30
0.0
 40
25.999999999999972
 50
297.79577249602789
 51
343.38569687775208
  0
ARC
  5
F5
  8
PATTERN_FILL
  6
CONTINUOUS
 62
     7
 10
798.87645523673496
 20
150.3517081217546
 30
0.0
 40
613.25000000000045
 50
172.17410924840749
 51
173.8612048870709
  0
ARC
  5
F6
  8
PATTERN_FILL
  6
CONTINUOUS
 62
     7
 10
797.66974763601775
 20
139.7605714375787
 30
0.0
 40
611.25000000000068
 50
171.334201161739
 51
172.84152309440961
  0
ARC
  5
F7
  8
PATTERN_FILL
  6
CONTINUOUS
 62
     7
 10
796.28293552299192
 20
129.2266876264855
 30
0.0
 40
609.2500000000008
 50
170.5295968170378
 51
171.81826710974079
  0
ARC
  5
F8
  8
PATTERN_FILL
  6
CONTINUOUS
 62
     7
 10
794.71764833691157
 20
118.7531065065881
 30
0.0
 40
607.25000000000102
 50
169.77162307628089
 51
170.79138338854639
  0
ARC
  5
F9
  8
PATTERN_FILL
  6
CONTINUOUS
 62
     7
 10
792.97556692516184
 20
108.3428384863132
 30
0.0
 40
605.2500000000008
 50
169.08417762807241
 51
169.76078039007089
  0
ARC
  5
FA
  8
PATTERN_FILL
  6
CONTINUOUS
 62
     7
 10
791.05842266449099
 20
97.998853702215243
 30
0.0
 40
603.25000000000102
 50
168.5419918620411
 51
168.72638516189761
  0
ARC
  5
FB
  8
PATTERN_FILL
  6
CONTINUOUS
 62
     7
 10
-450.7433013538768
 20
171.69334909023269
 30
0.0
 40
617.2500000000008
 50
4.1098553877374604
 51
6.0633355664561446
  0
ARC
  5
FC
  8
PATTERN_FILL
  6
CONTINUOUS
 62
     7
 10
-449.9014811581128
 20
160.99700933181421
 30
0.0
 40
615.25000000000057
 50
5.1233675684486339
 51
6.9570749520266464
  0
ARC
  5
FD
  8
PATTERN_FILL
  6
CONTINUOUS
 62
     7
 10
-448.87645523682022
 20
150.3517081217546
 30
0.0
 40
613.25000000000045
 50
6.138795112929091
 51
7.8258907515925147
  0
ARC
  5
FE
  8
PATTERN_FILL
  6
CONTINUOUS
 62
     7
 10
-447.6697476361029
 20
139.7605714375787
 30
0.0
 40
611.25000000000068
 50
7.1584769055903248
 51
8.6657988382610363
  0
ARC
  5
FF
  8
PATTERN_FILL
  6
CONTINUOUS
 62
     7
 10
-446.2829355230765
 20
129.2266876264855
 30
0.0
 40
609.2500000000008
 50
8.1817328902591822
 51
9.4704031829621673
  0
ARC
  5
100
  8
PATTERN_FILL
  6
CONTINUOUS
 62
     7
 10
-444.71764833699677
 20
118.7531065065881
 30
0.0
 40
607.25000000000068
 50
9.2086166114535501
 51
10.22837692371905
  0
ARC
  5
101
  8
PATTERN_FILL
  6
CONTINUOUS
 62
     7
 10
-442.97556692524682
 20
108.3428384863132
 30
0.0
 40
605.2500000000008
 50
10.23921960992919
 51
10.915822371927661
  0
ARC
  5
102
  8
PATTERN_FILL
  6
CONTINUOUS
 62
     7
 10
-441.05842266457609
 20
97.998853702215243
 30
0.0
 40
603.25000000000068
 50
11.27361483810231
 51
11.45800813795884
  0
ARC
  5
103
  8
PATTERN_FILL
  6
CONTINUOUS
 62
     7
 10
174.9999999999574
 20
218.93110513490001
 30
0.0
 40
23.999999999999989
 50
196.9407275945315
 51
253.4689467067943
  0
ARC
  5
104
  8
PATTERN_FILL
  6
CONTINUOUS
 62
     7
 10
174.9999999999574
 20
218.93110513490001
 30
0.0
 40
26.000000000000021
 50
196.61430312224789
 51
242.20422750397211
  0
ARC
  5
105
  8
PATTERN_FILL
  6
CONTINUOUS
 62
     7
 10
174.9999999999574
 20
218.93110513490001
 30
0.0
 40
27.999999999999979
 50
213.90717311924169
 51
235.22805596805139
  0
ARC
  5
106
  8
PATTERN_FILL
  6
CONTINUOUS
 62
     7
 10
798.87645523673496
 20
277.51050214804542
 30
0.0
 40
613.25000000000045
 50
186.1387951129291
 51
187.64460184417081
  0
ARC
  5
107
  8
PATTERN_FILL
  6
CONTINUOUS
 62
     7
 10
797.66974763601775
 20
288.10163883222128
 30
0.0
 40
611.25000000000068
 50
187.15847690559031
 51
188.6727248406977
  0
ARC
  5
108
  8
PATTERN_FILL
  6
CONTINUOUS
 62
     7
 10
796.28293552299192
 20
298.63552264331452
 30
0.0
 40
609.2500000000008
 50
188.18173289025921
 51
189.5056402057586
  0
ARC
  5
109
  8
PATTERN_FILL
  6
CONTINUOUS
 62
     7
 10
794.71764833691157
 20
309.10910376321192
 30
0.0
 40
607.25000000000068
 50
189.20861661145349
 51
190.25934627179279
  0
ARC
  5
10A
  8
PATTERN_FILL
  6
CONTINUOUS
 62
     7
 10
792.97556692516184
 20
319.5193717834868
 30
0.0
 40
605.2500000000008
 50
190.23921960992919
 51
190.93855274996881
  0
ARC
  5
10B
  8
PATTERN_FILL
  6
CONTINUOUS
 62
     7
 10
791.05842266449099
 20
329.86335656758479
 30
0.0
 40
603.25000000000068
 50
191.27361483810239
 51
191.45800813795881
  0
ARC
  5
10C
  8
PATTERN_FILL
  6
CONTINUOUS
 62
     7
 10
-450.7433013538768
 20
256.16886117956727
 30
0.0
 40
617.2500000000008
 50
354.39956059194952
 51
355.89014461226247
  0
ARC
  5
10D
  8
PATTERN_FILL
  6
CONTINUOUS
 62
     7
 10
-449.9014811581128
 20
266.86520093798578
 30
0.0
 40
615.25000000000068
 50
353.3794676066197
 51
354.87663243155117
  0
ARC
  5
10E
  8
PATTERN_FILL
  6
CONTINUOUS
 62
     7
 10
-448.87645523682022
 20
277.51050214804542
 30
0.0
 40
613.25000000000045
 50
352.35539815582882
 51
353.86120488707093
  0
ARC
  5
10F
  8
PATTERN_FILL
  6
CONTINUOUS
 62
     7
 10
-447.6697476361029
 20
288.10163883222128
 30
0.0
 40
611.25000000000068
 50
351.33420116173897
 51
352.84152309440969
  0
ARC
  5
110
  8
PATTERN_FILL
  6
CONTINUOUS
 62
     7
 10
-446.2829355230765
 20
298.63552264331452
 30
0.0
 40
609.2500000000008
 50
350.49435979427039
 51
351.81826710974099
  0
ARC
  5
111
  8
PATTERN_FILL
  6
CONTINUOUS
 62
     7
 10
-444.71764833699677
 20
309.10910376321192
 30
0.0
 40
607.25000000000102
 50
349.74065372820638
 51
350.79138338854659
  0
ARC
  5
112
  8
PATTERN_FILL
  6
CONTINUOUS
 62
     7
 10
-442.97556692524682
 20
319.5193717834868
 30
0.0
 40
605.25000000000045
 50
349.06144725001388
 51
349.76078039007092
  0
ARC
  5
113
  8
PATTERN_FILL
  6
CONTINUOUS
 62
     7
 10
-441.05842266457609
 20
329.86335656758479
 30
0.0
 40
603.25000000000102
 50
348.54199186204119
 51
348.72638516189772
  0
ARC
  5
114
  8
PATTERN_FILL
  6
CONTINUOUS
 62
     7
 10
174.9999999999574
 20
218.93110513490001
 30
0.0
 40
27.99999999999995
 50
304.77194403194829
 51
326.00716260293279
  0
LINE
  5
115
  8
SPEC
  6
CONTINUOUS
 62
     7
 10
-147.49999999999989
 20
507.0672957897317
 30
0.0
 11
295.0
 21
507.0672957897317
 31
0.0
  0
LINE
  5
116
  8
SPEC
  6
CONTINUOUS
 62
     7
 10
-29.999999999999961
 20
495.8172957897317
 30
0.0
 11
295.0
 21
495.8172957897317
 31
0.0
  0
LINE
  5
117
  8
SPEC
  6
CONTINUOUS
 62
     7
 10
-147.49999999999989
 20
473.3172957897317
 30
0.0
 11
295.0
 21
473.3172957897317
 31
0.0
  0
LINE
  5
118
  8
SPEC
  6
CONTINUOUS
 62
     7
 10
-29.999999999999961
 20
484.5672957897317
 30
0.0
 11
295.0
 21
484.5672957897317
 31
0.0
  0
LINE
  5
119
  8
SPEC
  6
CONTINUOUS
 62
     7
 10
-147.49999999999989
 20
507.0672957897317
 30
0.0
 11
-147.49999999999989
 21
338.3172957897317
 31
0.0
  0
TEXT
  5
11A
  8
SPEC
 62
     7
 10
-143.74999999999989
 20
511.24710578973179
 30
0.0
 40
7.3297851562499989
  1
仕様
 41
0.7
 11
-143.74999999999989
 21
518.57689094598175
 31
0.0
 73
     3
  0
LINE
  5
11B
  8
SPEC
  6
CONTINUOUS
 62
     7
 10
-29.999999999999989
 20
507.0672957897317
 30
0.0
 11
-29.999999999999989
 21
338.3172957897317
 31
0.0
  0
LINE
  5
11C
  8
SPEC
  6
CONTINUOUS
 62
     7
 10
295.0
 20
507.0672957897317
 30
0.0
 11
295.0
 21
338.3172957897317
 31
0.0
  0
LINE
  5
11D
  8
SPEC
  6
CONTINUOUS
 62
     7
 10
-147.49999999999989
 20
462.0672957897317
 30
0.0
 11
295.0
 21
462.0672957897317
 31
0.0
  0
LINE
  5
11E
  8
SPEC
  6
CONTINUOUS
 62
     7
 10
-147.49999999999989
 20
450.8172957897317
 30
0.0
 11
295.0
 21
450.8172957897317
 31
0.0
  0
LINE
  5
11F
  8
SPEC
  6
CONTINUOUS
 62
     7
 10
-147.49999999999989
 20
439.5672957897317
 30
0.0
 11
295.0
 21
439.5672957897317
 31
0.0
  0
LINE
  5
120
  8
SPEC
  6
CONTINUOUS
 62
     7
 10
-147.49999999999989
 20
428.3172957897317
 30
0.0
 11
295.0
 21
428.3172957897317
 31
0.0
  0
LINE
  5
121
  8
SPEC
  6
CONTINUOUS
 62
     7
 10
-147.49999999999989
 20
417.0672957897317
 30
0.0
 11
295.0
 21
417.0672957897317
 31
0.0
  0
LINE
  5
122
  8
SPEC
  6
CONTINUOUS
 62
     7
 10
-147.49999999999989
 20
405.8172957897317
 30
0.0
 11
295.0
 21
405.8172957897317
 31
0.0
  0
LINE
  5
123
  8
SPEC
  6
CONTINUOUS
 62
     7
 10
-147.49999999999989
 20
394.5672957897317
 30
0.0
 11
295.0
 21
394.5672957897317
 31
0.0
  0
TEXT
  5
124
  8
SPEC
 62
     7
 10
-145.12488147196669
 20
363.87478951490408
 30
0.0
 40
5.7009440104166673
  1
寸法
 41
0.7
 11
-145.12488147196669
 21
369.5757335253208
 31
0.0
 73
     3
  0
TEXT
  5
125
  8
SPEC
 62
     7
 10
-28.116646899474588
 20
363.5767534146899
 30
0.0
 40
5.7009440104166673
  1
\U+03A653\U+00D7296mm(突起部含まず）
 41
0.7
 11
-28.116646899474588
 21
369.27769742510662
 31
0.0
 73
     3
  0
TEXT
  5
126
  8
SPEC
 62
     7
 10
-27.504783587110111
 20
352.17261457215221
 30
0.0
 40
5.7009440104166673
  1
約296g(除電池)
 41
0.7
 11
-27.504783587110111
 21
357.87355858256882
 31
0.0
 73
     3
  0
TEXT
  5
127
  8
SPEC
 62
     7
 10
-144.989245361055
 20
352.48989622792328
 30
0.0
 40
5.7009440104166673
  1
重量
 41
0.7
 11
-144.989245361055
 21
358.19084023834
 31
0.0
 73
     3
  0
TEXT
  5
128
  8
SPEC
 62
     7
 10
-145.06044848032909
 20
375.1251424351218
 30
0.0
 40
5.7009440104166673
  1
電池寿命
 41
0.7
 11
-145.06044848032909
 21
380.82608644553852
 31
0.0
 73
     3
  0
TEXT
  5
129
  8
SPEC
 62
     7
 10
-145.05678133878951
 20
386.22730096967922
 30
0.0
 40
5.7009440104166673
  1
電源
 41
0.7
 11
-145.05678133878951
 21
391.92824498009588
 31
0.0
 73
     3
  0
TEXT
  5
12A
  8
SPEC
 62
     7
 10
-27.387501908574318
 20
386.26848256027182
 30
0.0
 40
5.7009440104166673
  1
単3形アルカリ乾電池\U+00D72、もしくは専用リチウムイオンバッテリーSB900
 41
0.7
 11
-27.387501908574318
 21
391.96942657068843
 31
0.0
 73
     3
  0
TEXT
  5
12B
  8
SPEC
 62
     7
 10
-144.84413734977269
 20
408.8372099972438
 30
0.0
 40
5.7009440104166673
  1
最大入力レベル(1kHz、THD1%%%）
 41
0.7
 11
-144.84413734977269
 21
414.53815400766052
 31
0.0
 73
     3
  0
TEXT
  5
12C
  8
SPEC
 62
     7
 10
-27.613559210508068
 20
408.8931155428067
 30
0.0
 40
5.7009440104166673
  1
145dB SPL(SM58：代表値）＊マイクヘッドにより変動
 41
0.7
 11
-27.613559210508068
 21
414.5940595532233
 31
0.0
 73
     3
  0
TEXT
  5
12D
  8
SPEC
 62
     7
 10
-145.1942879150958
 20
442.49646611390108
 30
0.0
 40
5.7009440104166673
  1
アンテナ形式
 41
0.7
 11
-145.1942879150958
 21
448.1974101243178
 31
0.0
 73
     3
  0
TEXT
  5
12E
  8
SPEC
 62
     7
 10
-27.777183058738331
 20
442.67245593557368
 30
0.0
 40
5.7009440104166673
  1
内蔵型ヘリカル
 41
0.7
 11
-27.777183058738331
 21
448.3733999459904
 31
0.0
 73
     3
  0
TEXT
  5
12F
  8
SPEC
 62
     7
 10
-144.8305921259641
 20
453.74130804856469
 30
0.0
 40
5.7009440104166673
  1
送信出力
 41
0.7
 11
-144.8305921259641
 21
459.44225205898141
 31
0.0
 73
     3
  0
TEXT
  5
130
  8
SPEC
 62
     7
 10
-144.9703777427267
 20
464.888866005463
 30
0.0
 40
5.7009440104166673
  1
電波方式
 41
0.7
 11
-144.9703777427267
 21
470.58981001587972
 31
0.0
 73
     3
  0
TEXT
  5
131
  8
SPEC
 62
     7
 10
-27.191503869429809
 20
464.70010635959738
 30
0.0
 40
5.7009440104166673
  1
G1D、G1E
 41
0.7
 11
-27.191503869429809
 21
470.4010503700141
 31
0.0
 73
     3
  0
TEXT
  5
132
  8
SPEC
 62
     7
 10
-144.7943431764181
 20
498.44662649060399
 30
0.0
 40
5.7009440104166673
  1
送信周波数
 41
0.7
 11
-144.7943431764181
 21
504.1475705010206
 31
0.0
 73
     3
  0
TEXT
  5
133
  8
SPEC
 62
     7
 10
-27.365275776450108
 20
375.1585098890564
 30
0.0
 40
5.7009440104166673
  1
約11時間(アルカリ乾電池)、約12時間(SB900)＊使用環境によって異なる
 41
0.7
 11
-27.365275776450108
 21
380.85945389947301
 31
0.0
 73
     3
  0
LINE
  5
134
  8
SPEC
  6
CONTINUOUS
 62
     7
 10
-147.49999999999989
 20
383.31729578973182
 30
0.0
 11
295.0
 21
383.31729578973182
 31
0.0
  0
TEXT
  5
135
  8
SPEC
 62
     7
 10
-144.8719811237435
 20
341.45054598684158
 30
0.0
 40
5.7009440104166673
  1
付属品
 41
0.7
 11
-144.8719811237435
 21
347.1514899972583
 31
0.0
 73
     3
  0
TEXT
  5
136
  8
SPEC
 62
     7
 10
-27.336575091516021
 20
340.61086804487837
 30
0.0
 40
5.7009440104166673
  1
単3型 アルカリ乾電池\U+00D72、マイクホルダー、3/8"ー 5/8"変換ねじ、マイクポーチ
 41
0.7
 11
-27.336575091516021
 21
346.31181205529498
 31
0.0
 73
     3
  0
TEXT
  5
137
  8
SPEC
 62
     7
 10
-27.332052528080659
 20
487.38915510622172
 30
0.0
 40
5.7009440104166647
  1
ULXD2-AB：A1～A4帯(770～806MHz)284チャンネル、B帯(806～810MHz)30チャンネル、
 41
0.7
 11
-27.332052528080659
 21
493.09009911663833
 31
0.0
 73
     3
  0
TEXT
  5
138
  8
SPEC
 62
     7
 10
-27.362506451169601
 20
476.32173213215088
 30
0.0
 40
5.7009440104166647
  1
合計314チャンネルのうち任意の1チャンネル
 41
0.7
 11
-27.362506451169601
 21
482.0226761425676
 31
0.0
 73
     3
  0
TEXT
  5
139
  8
SPEC
 62
     7
 10
-27.349674192130909
 20
498.65316981625813
 30
0.0
 40
5.7009440104166647
  1
ULXD2-JB：B帯(806～810MHz)30チャンネルのうち任意の1チャンネル
 41
0.7
 11
-27.349674192130909
 21
504.35411382667468
 31
0.0
 73
     3
  0
TEXT
  5
13A
  8
SPEC
 62
     7
 10
-27.0704450789476
 20
453.5901685701761
 30
0.0
 40
5.7009440104166647
  1
A帯：1mW、10mW、20mW　B帯：1mW、10mW
 41
0.7
 11
-27.0704450789476
 21
459.29111258059282
 31
0.0
 73
     3
  0
TEXT
  5
13B
  8
SPEC
 62
     7
 10
-145.01118838872091
 20
431.30820921700172
 30
0.0
 40
5.7009440104166673
  1
到達距離
 41
0.7
 11
-145.01118838872091
 21
437.00915322741838
 31
0.0
 73
     3
  0
TEXT
  5
13C
  8
SPEC
 62
     7
 10
-27.496921928738079
 20
431.57746000452272
 30
0.0
 40
5.7009440104166673
  1
空中線電力10mW約100m　＊見通しの良い屋外で使用した場合。使用環境によって異なる
 41
0.7
 11
-27.496921928738079
 21
437.27840401493933
 31
0.0
 73
     3
  0
TEXT
  5
13D
  8
SPEC
 62
     7
 10
-144.78360470727841
 20
420.00067155808881
 30
0.0
 40
5.7009440104166647
  1
周波数特性
 41
0.7
 11
-144.78360470727841
 21
425.70161556850547
 31
0.0
 73
     3
  0
TEXT
  5
13E
  8
SPEC
 62
     7
 10
-27.29529379208563
 20
420.26482402898648
 30
0.0
 40
5.7009440104166647
  1
30Hz～20kHz(\U+00B11dB）＊システム全体の帯域幅はマイクヘッドにより変動
 41
0.7
 11
-27.29529379208563
 21
425.9657680394032
 31
0.0
 73
     3
  0
TEXT
  5
13F
  8
SPEC
 62
     7
 10
-145.11058984802449
 20
397.44397421237392
 30
0.0
 40
5.7009440104166673
  1
ゲイン調整範囲
 41
0.7
 11
-145.11058984802449
 21
403.14491822279052
 31
0.0
 73
     3
  0
TEXT
  5
140
  8
SPEC
 62
     7
 10
-27.10549449497314
 20
397.58529685155952
 30
0.0
 40
5.7009440104166673
  1
0～+21dB(3dBステップ）
 41
0.7
 11
-27.10549449497314
 21
403.28624086197613
 31
0.0
 73
     3
  0
LINE
  5
141
  8
SPEC
  6
CONTINUOUS
 62
     7
 10
-147.49999999999989
 20
372.0672957897317
 30
0.0
 11
295.0
 21
372.0672957897317
 31
0.0
  0
LINE
  5
142
  8
SPEC
  6
CONTINUOUS
 62
     7
 10
-147.49999999999989
 20
360.81729578973182
 30
0.0
 11
295.0
 21
360.81729578973182
 31
0.0
  0
LINE
  5
143
  8
SPEC
  6
CONTINUOUS
 62
     7
 10
-147.49999999999989
 20
349.56729578973182
 30
0.0
 11
295.0
 21
349.56729578973182
 31
0.0
  0
LINE
  5
144
  8
SPEC
  6
CONTINUOUS
 62
     7
 10
-147.49999999999989
 20
338.3172957897317
 30
0.0
 11
295.0
 21
338.3172957897317
 31
0.0
  0
TEXT
  5
145
  8
DIMNSIONS
 62
     7
 10
40.0
 20
-206.12423421026821
 30
0.0
 40
7.3297851562499989
  1
(単位：mm)
 41
0.7
 11
40.0
 21
-198.79444905401809
 31
0.0
 73
     3
  0
LINE
  5
146
  8
DIMNSIONS
  6
CONTINUOUS
 62
     7
 10
14.5
 20
17.5
 30
0.0
 11
-31.000000000000011
 21
17.5
 31
0.0
  0
LINE
  5
147
  8
DIMNSIONS
  6
CONTINUOUS
 62
     7
 10
12.997502076257399
 20
165.49999999988461
 30
0.0
 11
-30.999999999999989
 21
165.49999999988461
 31
0.0
  0
LINE
  5
148
  8
DIMNSIONS
  6
CONTINUOUS
 62
     7
 10
-25.0
 20
17.5
 30
0.0
 11
-25.0
 21
165.49999999988461
 31
0.0
  0
LINE
  5
149
  8
DIMNSIONS
  6
CONTINUOUS
 62
     7
 10
-25.0
 20
17.5
 30
0.0
 11
-27.010119385450739
 21
25.001867675781259
 31
0.0
  0
LINE
  5
14A
  8
DIMNSIONS
  6
CONTINUOUS
 62
     7
 10
-25.0
 20
17.5
 30
0.0
 11
-22.989880614549278
 21
25.001867675781259
 31
0.0
  0
LINE
  5
14B
  8
DIMNSIONS
  6
CONTINUOUS
 62
     7
 10
-25.0
 20
165.49999999988461
 30
0.0
 11
-22.989880614549278
 21
157.9981323241033
 31
0.0
  0
LINE
  5
14C
  8
DIMNSIONS
  6
CONTINUOUS
 62
     7
 10
-25.0
 20
165.49999999988461
 30
0.0
 11
-27.010119385450739
 21
157.9981323241033
 31
0.0
  0
TEXT
  5
14D
  8
DIMNSIONS
 62
     7
 10
-27.981666666666669
 20
92.0625
 30
0.0
 40
8.1442057291666661
  1
148
 50
90.0
 41
0.7
 11
-36.125872395833341
 21
92.0625
 31
0.0
 73
     3
  0
LINE
  5
14E
  8
DIMNSIONS
  6
CONTINUOUS
 62
     7
 10
18.5
 20
-12.5
 30
0.0
 11
-31.000000000000011
 21
-12.5
 31
0.0
  0
LINE
  5
14F
  8
DIMNSIONS
  6
CONTINUOUS
 62
     7
 10
14.5
 20
17.5
 30
0.0
 11
-30.999999999999989
 21
17.5
 31
0.0
  0
LINE
  5
150
  8
DIMNSIONS
  6
CONTINUOUS
 62
     7
 10
-25.0
 20
-12.5
 30
0.0
 11
-25.0
 21
17.5
 31
0.0
  0
LINE
  5
151
  8
DIMNSIONS
  6
CONTINUOUS
 62
     7
 10
-25.0
 20
-12.5
 30
0.0
 11
-27.010119385450739
 21
-4.9981323242187443
 31
0.0
  0
LINE
  5
152
  8
DIMNSIONS
  6
CONTINUOUS
 62
     7
 10
-25.0
 20
-12.5
 30
0.0
 11
-22.989880614549278
 21
-4.9981323242187443
 31
0.0
  0
LINE
  5
153
  8
DIMNSIONS
  6
CONTINUOUS
 62
     7
 10
-25.0
 20
17.5
 30
0.0
 11
-22.989880614549278
 21
9.9981323242187443
 31
0.0
  0
LINE
  5
154
  8
DIMNSIONS
  6
CONTINUOUS
 62
     7
 10
-25.0
 20
17.5
 30
0.0
 11
-27.010119385450739
 21
9.9981323242187443
 31
0.0
  0
TEXT
  5
155
  8
DIMNSIONS
 62
     7
 10
-27.981666666666669
 20
-2.7916666666666572
 30
0.0
 40
8.1442057291666661
  1
30
 50
90.0
 41
0.7
 11
-36.125872395833341
 21
-2.7916666666666559
 31
0.0
 73
     3
  0
LINE
  5
156
  8
DIMNSIONS
  6
CONTINUOUS
 62
     7
 10
56.238329701457971
 20
-68.761670298400304
 30
0.0
 11
75.0
 21
-49.999999999858296
 31
0.0
  0
LINE
  5
157
  8
DIMNSIONS
  6
CONTINUOUS
 62
     7
 10
56.238329701457971
 20
-68.761670298400304
 30
0.0
 11
60.23837544079619
 21
-62.104476245956107
 31
0.0
  0
LINE
  5
158
  8
DIMNSIONS
  6
CONTINUOUS
 62
     7
 10
56.238329701457971
 20
-68.761670298400304
 30
0.0
 11
63.03106795424668
 21
-64.996394000730049
 31
0.0
  0
LINE
  5
159
  8
DIMNSIONS
  6
CONTINUOUS
 62
     7
 10
75.0
 20
-49.999999999858296
 30
0.0
 11
102.1666666666666
 21
-49.999999999858296
 31
0.0
  0
TEXT
  5
15A
  8
DIMNSIONS
 62
     7
 10
81.0
 20
-47.01833333319162
 30
0.0
 40
8.1442057291666661
  1
\U+03C653
 41
0.7
 11
81.0
 21
-38.874127604024963
 31
0.0
 73
     3
  0
LINE
  5
15B
  8
DIMNSIONS
  6
CONTINUOUS
 62
     7
 10
12.997502076257399
 20
165.49999999988461
 30
0.0
 11
-31.000000000000011
 21
165.49999999988461
 31
0.0
  0
LINE
  5
15C
  8
DIMNSIONS
  6
CONTINUOUS
 62
     7
 10
29.039999999999988
 20
240.49999999988449
 30
0.0
 11
-30.999999999999989
 21
240.49999999988449
 31
0.0
  0
LINE
  5
15D
  8
DIMNSIONS
  6
CONTINUOUS
 62
     7
 10
-25.0
 20
165.49999999988461
 30
0.0
 11
-25.0
 21
240.49999999988449
 31
0.0
  0
LINE
  5
15E
  8
DIMNSIONS
  6
CONTINUOUS
 62
     7
 10
-25.0
 20
165.49999999988461
 30
0.0
 11
-27.010119385450739
 21
173.00186767566581
 31
0.0
  0
LINE
  5
15F
  8
DIMNSIONS
  6
CONTINUOUS
 62
     7
 10
-25.0
 20
165.49999999988461
 30
0.0
 11
-22.989880614549278
 21
173.00186767566581
 31
0.0
  0
LINE
  5
160
  8
DIMNSIONS
  6
CONTINUOUS
 62
     7
 10
-25.0
 20
240.49999999988449
 30
0.0
 11
-22.989880614549278
 21
232.9981323241033
 31
0.0
  0
LINE
  5
161
  8
DIMNSIONS
  6
CONTINUOUS
 62
     7
 10
-25.0
 20
240.49999999988449
 30
0.0
 11
-27.010119385450739
 21
232.9981323241033
 31
0.0
  0
TEXT
  5
162
  8
DIMNSIONS
 62
     7
 10
-27.981666666666669
 20
197.70833333321789
 30
0.0
 40
8.1442057291666661
  1
75
 50
90.0
 41
0.7
 11
-36.125872395833341
 21
197.70833333321789
 31
0.0
 73
     3
  0
TEXT
  5
163
  8
DATA
 62
     7
 10
225.2361699775914
 20
-209.8606287032737
 30
0.0
 40
7.3297851562499989
  1
ULXD2/B58-AB 、ULXD2/B58-JB
 41
0.7
 11
225.2361699775914
 21
-202.53084354702369
 31
0.0
 73
     3
  0
TEXT
  5
164
  8
DATA
 62
     7
 10
250.0
 20
-186.54155672812971
 30
0.0
 40
7.3297851562499989
  1
SHURE
 41
0.7
 11
250.0
 21
-179.21177157187969
 31
0.0
 73
     3
  0
LINE
  5
165
  8
DATA
  6
CONTINUOUS
 62
     7
 10
55.997502076257319
 20
165.49999999988461
 30
0.0
 11
18.997502076257401
 21
165.49999999988461
 31
0.0
  0
LINE
  5
166
  8
DATA
  6
CONTINUOUS
 62
     7
 10
20.000000000055099
 20
165.93110513464151
 30
0.0
 11
20.000000000055099
 21
165.49999999988461
 31
0.0
  0
LINE
  5
167
  8
DATA
  6
CONTINUOUS
 62
     7
 10
55.000000000055103
 20
165.93110513464151
 30
0.0
 11
55.000000000055103
 21
165.49999999988461
 31
0.0
  0
TEXT
  5
168
  8
DATA
 62
     7
 10
225.56903624360069
 20
-196.40923101603701
 30
0.0
 40
4.8865234374999993
  1
ハンドヘルド型送信機
 41
0.7
 11
225.56903624360069
 21
-191.52270757853699
 31
0.0
 73
     3
  0
LINE
  5
169
  8
DATA
  6
CONTINUOUS
 62
     7
 10
26.958680531446241
 20
-12.5
 30
0.0
 11
48.041319468553752
 21
-12.5
 31
0.0
  0
LINE
  5
16A
  8
DATA
  6
CONTINUOUS
 62
     7
 10
20.5
 20
17.5
 30
0.0
 11
54.5
 21
17.5
 31
0.0
  0
LINE
  5
16B
  8
DATA
  6
CONTINUOUS
 62
     7
 10
20.5
 20
17.5
 30
0.0
 11
19.591394836656121
 21
106.99999999988449
 31
0.0
  0
LINE
  5
16C
  8
DATA
  6
CONTINUOUS
 62
     7
 10
19.58631883015698
 20
107.49999999988449
 30
0.0
 11
18.997502076257401
 21
165.49999999988461
 31
0.0
  0
LINE
  5
16D
  8
DATA
  6
CONTINUOUS
 62
     7
 10
55.997502076257319
 20
165.49999999988461
 30
0.0
 11
55.410643154480361
 21
107.49999999988449
 31
0.0
  0
LINE
  5
16E
  8
DATA
  6
CONTINUOUS
 62
     7
 10
55.405584025844341
 20
106.99999999988449
 30
0.0
 11
54.5
 21
17.5
 31
0.0
  0
LINE
  5
16F
  8
DATA
  6
CONTINUOUS
 62
     7
 10
24.459027681347241
 20
-10.041660880834989
 30
0.0
 11
24.0
 21
17.5
 31
0.0
  0
LINE
  5
170
  8
DATA
  6
CONTINUOUS
 62
     7
 10
50.540972318652742
 20
-10.041660880834989
 30
0.0
 11
51.0
 21
17.5
 31
0.0
  0
ARC
  5
171
  8
DATA
  6
CONTINUOUS
 62
     7
 10
37.5000000001573
 20
-87.499999999903764
 30
0.0
 40
13.00000000000005
 50
313.04907980023631
 51
226.95092019976369
  0
ARC
  5
172
  8
DATA
  6
CONTINUOUS
 62
     7
 10
37.500000000157343
 20
-87.499999999903807
 30
0.0
 40
13.499999999999989
 50
315.27508684506631
 51
224.72491315493389
  0
LINE
  5
173
  8
DATA
  6
CONTINUOUS
 62
     7
 10
27.90833695353184
 20
-96.999999999903821
 30
0.0
 11
47.09166304678282
 21
-96.999999999903821
 31
0.0
  0
LINE
  5
174
  8
DATA
  6
CONTINUOUS
 62
     7
 10
27.5
 20
129.49999999988449
 30
0.0
 11
47.5
 21
129.49999999988449
 31
0.0
  0
LINE
  5
175
  8
DATA
  6
CONTINUOUS
 62
     7
 10
24.0
 20
110.79999999988451
 30
0.0
 11
24.0
 21
142.19999999988451
 31
0.0
  0
ARC
  5
176
  8
DATA
  6
CONTINUOUS
 62
     7
 10
24.300000000000001
 20
110.79999999988451
 30
0.0
 40
0.2999999999999972
 50
180.0
 51
270.0
  0
LINE
  5
177
  8
DATA
  6
CONTINUOUS
 62
     7
 10
50.700000000000003
 20
110.49999999988449
 30
0.0
 11
24.300000000000001
 21
110.49999999988449
 31
0.0
  0
ARC
  5
178
  8
DATA
  6
CONTINUOUS
 62
     7
 10
50.700000000000003
 20
110.79999999988451
 30
0.0
 40
0.2999999999999972
 50
270.0
 51
0.0000000000006821
  0
LINE
  5
179
  8
DATA
  6
CONTINUOUS
 62
     7
 10
51.0
 20
142.19999999988451
 30
0.0
 11
51.0
 21
110.79999999988451
 31
0.0
  0
ARC
  5
17A
  8
DATA
  6
CONTINUOUS
 62
     7
 10
50.700000000000003
 20
142.19999999988451
 30
0.0
 40
0.2999999999999972
 50
0.0
 51
90.0
  0
LINE
  5
17B
  8
DATA
  6
CONTINUOUS
 62
     7
 10
24.300000000000001
 20
142.49999999988461
 30
0.0
 11
50.700000000000003
 21
142.49999999988461
 31
0.0
  0
ARC
  5
17C
  8
DATA
  6
CONTINUOUS
 62
     7
 10
24.300000000000001
 20
142.19999999988451
 30
0.0
 40
0.3000000000000114
 50
90.0
 51
179.99999999999781
  0
LINE
  5
17D
  8
DATA
  6
CONTINUOUS
 62
     7
 10
27.5
 20
139.49999999988461
 30
0.0
 11
27.5
 21
129.49999999988449
 31
0.0
  0
LINE
  5
17E
  8
DATA
  6
CONTINUOUS
 62
     7
 10
47.5
 20
139.49999999988461
 30
0.0
 11
47.5
 21
129.49999999988449
 31
0.0
  0
LINE
  5
17F
  8
DATA
  6
CONTINUOUS
 62
     7
 10
47.5
 20
139.49999999988461
 30
0.0
 11
27.5
 21
139.49999999988461
 31
0.0
  0
LINE
  5
180
  8
DATA
  6
CONTINUOUS
 62
     7
 10
28.0
 20
127.49999999988449
 30
0.0
 11
47.0
 21
127.49999999988449
 31
0.0
  0
LINE
  5
181
  8
DATA
  6
CONTINUOUS
 62
     7
 10
28.0
 20
123.49999999988449
 30
0.0
 11
47.0
 21
123.49999999988449
 31
0.0
  0
LINE
  5
182
  8
DATA
  6
CONTINUOUS
 62
     7
 10
27.5
 20
123.99999999988449
 30
0.0
 11
27.5
 21
126.99999999988449
 31
0.0
  0
LINE
  5
183
  8
DATA
  6
CONTINUOUS
 62
     7
 10
47.5
 20
123.99999999988449
 30
0.0
 11
47.5
 21
126.99999999988449
 31
0.0
  0
LINE
  5
184
  8
DATA
  6
CONTINUOUS
 62
     7
 10
31.0
 20
112.99999999988449
 30
0.0
 11
31.0
 21
119.99999999988449
 31
0.0
  0
ARC
  5
185
  8
DATA
  6
CONTINUOUS
 62
     7
 10
31.5
 20
112.99999999988449
 30
0.0
 40
0.5
 50
180.0
 51
270.0
  0
LINE
  5
186
  8
DATA
  6
CONTINUOUS
 62
     7
 10
43.5
 20
112.49999999988449
 30
0.0
 11
31.5
 21
112.49999999988449
 31
0.0
  0
ARC
  5
187
  8
DATA
  6
CONTINUOUS
 62
     7
 10
43.5
 20
112.99999999988449
 30
0.0
 40
0.5
 50
270.0
 51
0.0
  0
LINE
  5
188
  8
DATA
  6
CONTINUOUS
 62
     7
 10
44.0
 20
119.99999999988449
 30
0.0
 11
44.0
 21
112.99999999988449
 31
0.0
  0
ARC
  5
189
  8
DATA
  6
CONTINUOUS
 62
     7
 10
43.5
 20
119.99999999988449
 30
0.0
 40
0.5
 50
0.0
 51
90.0
  0
LINE
  5
18A
  8
DATA
  6
CONTINUOUS
 62
     7
 10
31.5
 20
120.49999999988449
 30
0.0
 11
43.5
 21
120.49999999988449
 31
0.0
  0
ARC
  5
18B
  8
DATA
  6
CONTINUOUS
 62
     7
 10
31.5
 20
119.99999999988449
 30
0.0
 40
0.5
 50
90.0
 51
180.0
  0
LINE
  5
18C
  8
DATA
  6
CONTINUOUS
 62
     7
 10
55.410643154480361
 20
107.49999999988449
 30
0.0
 11
19.586318830157001
 21
107.49999999988449
 31
0.0
  0
LINE
  5
18D
  8
DATA
  6
CONTINUOUS
 62
     7
 10
55.405584025844341
 20
106.99999999988449
 30
0.0
 11
19.591394836656121
 21
106.99999999988449
 31
0.0
  0
LINE
  5
18E
  8
DATA
  6
CONTINUOUS
 62
     7
 10
20.899999999999991
 20
106.99999999988449
 30
0.0
 11
20.899999999999991
 21
107.49999999988449
 31
0.0
  0
LINE
  5
18F
  8
DATA
  6
CONTINUOUS
 62
     7
 10
54.096978862500471
 20
106.99999999988449
 30
0.0
 11
54.096978862500471
 21
107.49999999988449
 31
0.0
  0
LINE
  5
190
  8
DATA
  6
CONTINUOUS
 62
     7
 10
31.0
 20
113.55
 30
0.0
 11
44.0
 21
113.55
 31
0.0
  0
LINE
  5
191
  8
DATA
  6
CONTINUOUS
 62
     7
 10
31.0
 20
115.75
 30
0.0
 11
44.0
 21
115.75
 31
0.0
  0
ARC
  5
192
  8
DATA
  6
CONTINUOUS
 62
     7
 10
28.0
 20
126.99999999988449
 30
0.0
 40
0.5
 50
90.0
 51
180.0
  0
ARC
  5
193
  8
DATA
  6
CONTINUOUS
 62
     7
 10
47.0
 20
126.99999999988449
 30
0.0
 40
0.5
 50
0.0
 51
90.0
  0
ARC
  5
194
  8
DATA
  6
CONTINUOUS
 62
     7
 10
28.0
 20
123.99999999988449
 30
0.0
 40
0.5
 50
180.0
 51
270.0
  0
ARC
  5
195
  8
DATA
  6
CONTINUOUS
 62
     7
 10
47.0
 20
123.99999999988449
 30
0.0
 40
0.5
 50
270.0
 51
0.0
  0
TEXT
  5
196
  8
DATA
 62
     7
 10
34.537752689267641
 20
140.07699681767201
 30
0.0
 40
1.8324462890625
  1
ULXD2
 41
0.7
 11
34.537752689267641
 21
141.9094431067345
 31
0.0
 73
     3
  0
TEXT
  5
197
  8
DATA
 62
     7
 10
36.316759040932887
 20
121.25212500000001
 30
0.0
 40
1.8324462890625
  1
on
 41
0.7
 11
36.316759040932887
 21
123.0845712890625
 31
0.0
 73
     3
  0
LINE
  5
198
  8
DATA
  6
CONTINUOUS
 62
     7
 10
193.49750207625729
 20
165.49999999988461
 30
0.0
 11
156.4975020762574
 21
165.49999999988461
 31
0.0
  0
LINE
  5
199
  8
DATA
  6
CONTINUOUS
 62
     7
 10
157.50000000005511
 20
165.93110513464151
 30
0.0
 11
157.50000000005511
 21
165.49999999988461
 31
0.0
  0
LINE
  5
19A
  8
DATA
  6
CONTINUOUS
 62
     7
 10
192.50000000005511
 20
165.93110513464151
 30
0.0
 11
192.50000000005511
 21
165.49999999988461
 31
0.0
  0
LINE
  5
19B
  8
DATA
  6
CONTINUOUS
 62
     7
 10
164.45868053144619
 20
-12.5
 30
0.0
 11
185.5413194685537
 21
-12.5
 31
0.0
  0
LINE
  5
19C
  8
DATA
  6
CONTINUOUS
 62
     7
 10
158.0
 20
17.5
 30
0.0
 11
192.0
 21
17.5
 31
0.0
  0
LINE
  5
19D
  8
DATA
  6
CONTINUOUS
 62
     7
 10
158.0
 20
17.5
 30
0.0
 11
157.09139483665609
 21
106.99999999988449
 31
0.0
  0
LINE
  5
19E
  8
DATA
  6
CONTINUOUS
 62
     7
 10
157.08631883015701
 20
107.49999999988449
 30
0.0
 11
156.4975020762574
 21
165.49999999988461
 31
0.0
  0
LINE
  5
19F
  8
DATA
  6
CONTINUOUS
 62
     7
 10
193.49750207625729
 20
165.49999999988461
 30
0.0
 11
192.91064315448031
 21
107.49999999988449
 31
0.0
  0
LINE
  5
1A0
  8
DATA
  6
CONTINUOUS
 62
     7
 10
192.90558402584441
 20
106.99999999988449
 30
0.0
 11
192.0
 21
17.5
 31
0.0
  0
LINE
  5
1A1
  8
DATA
  6
CONTINUOUS
 62
     7
 10
161.95902768134721
 20
-10.041660880834989
 30
0.0
 11
161.5
 21
17.5
 31
0.0
  0
LINE
  5
1A2
  8
DATA
  6
CONTINUOUS
 62
     7
 10
188.04097231865271
 20
-10.041660880834989
 30
0.0
 11
188.5
 21
17.5
 31
0.0
  0
LINE
  5
1A3
  8
DATA
  6
CONTINUOUS
 62
     7
 10
192.91064315448031
 20
107.49999999988449
 30
0.0
 11
157.08631883015701
 21
107.49999999988449
 31
0.0
  0
LINE
  5
1A4
  8
DATA
  6
CONTINUOUS
 62
     7
 10
192.90558402584441
 20
106.99999999988449
 30
0.0
 11
157.09139483665609
 21
106.99999999988449
 31
0.0
  0
LINE
  5
1A5
  8
DATA
  6
CONTINUOUS
 62
     7
 10
158.39999999999989
 20
106.99999999988449
 30
0.0
 11
158.39999999999989
 21
107.49999999988449
 31
0.0
  0
LINE
  5
1A6
  8
DATA
  6
CONTINUOUS
 62
     7
 10
191.59697886250041
 20
106.99999999988449
 30
0.0
 11
191.59697886250041
 21
107.49999999988449
 31
0.0
  0
LINE
  5
1A7
  8
DATA
  6
CONTINUOUS
 62
     7
 10
179.300636104765
 20
10.482508603794651
 30
0.0
 11
179.30111302165599
 21
17.5
 31
0.0
  0
LINE
  5
1A8
  8
DATA
  6
CONTINUOUS
 62
     7
 10
180.878449614765
 20
10.48240680937468
 30
0.0
 11
179.300636104765
 21
10.482508603794651
 31
0.0
  0
LINE
  5
1A9
  8
DATA
  6
CONTINUOUS
 62
     7
 10
180.87892653857409
 20
17.5
 30
0.0
 11
180.878449614765
 21
10.48240680937468
 31
0.0
  0
LINE
  5
1AA
  8
DATA
  6
CONTINUOUS
 62
     7
 10
176.75577560476501
 20
10.48268674402965
 30
0.0
 11
176.7562525095494
 21
17.5
 31
0.0
  0
LINE
  5
1AB
  8
DATA
  6
CONTINUOUS
 62
     7
 10
178.333589114765
 20
10.48258494960967
 30
0.0
 11
176.75577560476501
 21
10.48268674402965
 31
0.0
  0
LINE
  5
1AC
  8
DATA
  6
CONTINUOUS
 62
     7
 10
178.33406602646741
 20
17.5
 30
0.0
 11
178.333589114765
 21
10.48258494960967
 31
0.0
  0
LINE
  5
1AD
  8
DATA
  6
CONTINUOUS
 62
     7
 10
174.21091510476501
 20
10.48286488426467
 30
0.0
 11
174.21139199744269
 21
17.5
 31
0.0
  0
LINE
  5
1AE
  8
DATA
  6
CONTINUOUS
 62
     7
 10
175.78872861476501
 20
10.48276308984466
 30
0.0
 11
174.21091510476501
 21
10.48286488426467
 31
0.0
  0
LINE
  5
1AF
  8
DATA
  6
CONTINUOUS
 62
     7
 10
175.7892055143609
 20
17.5
 30
0.0
 11
175.78872861476501
 21
10.48276308984466
 31
0.0
  0
LINE
  5
1B0
  8
DATA
  6
CONTINUOUS
 62
     7
 10
170.69900761476501
 20
10.48311937031465
 30
0.0
 11
169.12119410476501
 21
10.48322116473466
 31
0.0
  0
LINE
  5
1B1
  8
DATA
  6
CONTINUOUS
 62
     7
 10
170.6994844901476
 20
17.5
 30
0.0
 11
170.69900761476501
 21
10.48311937031465
 31
0.0
  0
LINE
  5
1B2
  8
DATA
  6
CONTINUOUS
 62
     7
 10
171.66605460476501
 20
10.48304302449966
 30
0.0
 11
171.66653148533621
 21
17.5
 31
0.0
  0
LINE
  5
1B3
  8
DATA
  6
CONTINUOUS
 62
     7
 10
173.24386811476501
 20
10.48294123007966
 30
0.0
 11
171.66605460476501
 21
10.48304302449966
 31
0.0
  0
LINE
  5
1B4
  8
DATA
  6
CONTINUOUS
 62
     7
 10
173.24434500225419
 20
17.5
 30
0.0
 11
173.24386811476501
 21
10.48294123007966
 31
0.0
  0
LINE
  5
1B5
  8
DATA
  6
CONTINUOUS
 62
     7
 10
169.12119410476501
 20
10.48322116473466
 30
0.0
 11
169.1216709732295
 21
17.5
 31
0.0
  0
ARC
  5
1B6
  8
DATA
  6
CONTINUOUS
 62
     7
 10
26.958680531446252
 20
-10.0
 30
0.0
 40
2.5000000000000111
 50
180.95484125387239
 51
269.9999999999996
  0
ARC
  5
1B7
  8
DATA
  6
CONTINUOUS
 62
     7
 10
48.041319468553752
 20
-10.00000000000002
 30
0.0
 40
2.499999999999972
 50
270.0
 51
359.04515874612821
  0
ARC
  5
1B8
  8
DATA
  6
CONTINUOUS
 62
     7
 10
164.45868053144619
 20
-10.0
 30
0.0
 40
2.499999999999996
 50
180.95484125387239
 51
270.0
  0
ARC
  5
1B9
  8
DATA
  6
CONTINUOUS
 62
     7
 10
185.5413194685537
 20
-10.00000000000002
 30
0.0
 40
2.499999999999972
 50
270.0
 51
359.04515874612821
  0
CIRCLE
  5
1BA
  8
DATA
  6
CONTINUOUS
 62
     7
 10
37.500000000014467
 20
-87.499999999843794
 30
0.0
 40
17.0
  0
CIRCLE
  5
1BB
  8
DATA
  6
CONTINUOUS
 62
     7
 10
37.500000000014467
 20
-87.499999999843794
 30
0.0
 40
25.99998633442717
  0
CIRCLE
  5
1BC
  8
DATA
  6
CONTINUOUS
 62
     7
 10
37.500000000014467
 20
-87.499999999843794
 30
0.0
 40
26.5
  0
CIRCLE
  5
1BD
  8
DATA
  6
CONTINUOUS
 62
     7
 10
37.500000000014467
 20
-87.499999999843794
 30
0.0
 40
18.5
  0
CIRCLE
  5
1BE
  8
DATA
  6
CONTINUOUS
 62
     7
 10
37.500000000014467
 20
-87.499999999843794
 30
0.0
 40
19.5
  0
LINE
  5
1BF
  8
DATA
  6
CONTINUOUS
 62
     7
 10
11.49999999995741
 20
215.45655460578169
 30
0.0
 11
63.49999999995741
 21
215.45655460578169
 31
0.0
  0
LINE
  5
1C0
  8
DATA
  6
CONTINUOUS
 62
     7
 10
11.49999999995741
 20
213.45655460578169
 30
0.0
 11
63.49999999995741
 21
213.45655460578169
 31
0.0
  0
LINE
  5
1C1
  8
DATA
  6
CONTINUOUS
 62
     7
 10
56.74999999995741
 20
196.45655460578169
 30
0.0
 11
18.24999999995741
 21
196.45655460578169
 31
0.0
  0
LINE
  5
1C2
  8
DATA
  6
CONTINUOUS
 62
     7
 10
11.49999999995741
 20
216.4565546057818
 30
0.0
 11
63.49999999995741
 21
216.4565546057818
 31
0.0
  0
LINE
  5
1C3
  8
DATA
  6
CONTINUOUS
 62
     7
 10
11.49999999995741
 20
212.4565546057818
 30
0.0
 11
63.49999999995741
 21
212.4565546057818
 31
0.0
  0
TEXT
  5
1C4
  8
DATA
 62
     7
 10
27.64574561399251
 20
181.9345760482768
 30
0.0
 40
4.072102864583333
  1
BETA 58A
 41
0.7
 11
27.64574561399251
 21
186.0066789128602
 31
0.0
 73
     3
  0
LINE
  5
1C5
  8
DATA
  6
CONTINUOUS
 62
     7
 10
11.49999999995741
 20
216.4565546057818
 30
0.0
 11
11.49999999995741
 21
215.45655460578169
 31
0.0
  0
LINE
  5
1C6
  8
DATA
  6
CONTINUOUS
 62
     7
 10
11.49999999995741
 20
213.45655460578169
 30
0.0
 11
11.49999999995741
 21
212.4565546057818
 31
0.0
  0
LINE
  5
1C7
  8
DATA
  6
CONTINUOUS
 62
     7
 10
63.49999999995741
 20
216.4565546057818
 30
0.0
 11
63.49999999995741
 21
215.45655460578169
 31
0.0
  0
LINE
  5
1C8
  8
DATA
  6
CONTINUOUS
 62
     7
 10
63.49999999995741
 20
213.45655460578169
 30
0.0
 11
63.49999999995741
 21
212.4565546057818
 31
0.0
  0
ARC
  5
1C9
  8
DATA
  6
CONTINUOUS
 62
     7
 10
13.37499999995741
 20
214.4565546057818
 30
0.0
 40
2.125
 50
151.92751306414701
 51
208.07248693585291
  0
ARC
  5
1CA
  8
DATA
  6
CONTINUOUS
 62
     7
 10
61.62499999995741
 20
214.4565546057818
 30
0.0
 40
2.125
 50
331.92751306414709
 51
28.072486935852972
  0
ARC
  5
1CB
  8
DATA
  6
CONTINUOUS
 62
     7
 10
37.363823872196392
 20
212.8317640633266
 30
0.0
 40
24.79156961398774
 50
180.86717942713969
 51
221.33917947172131
  0
ARC
  5
1CC
  8
DATA
  6
CONTINUOUS
 62
     7
 10
37.499999999957403
 20
215.45655460578169
 30
0.0
 40
25.0
 50
2.2905982518369119
 51
177.70571565708039
  0
ARC
  5
1CD
  8
DATA
  6
CONTINUOUS
 62
     7
 10
37.636176127718421
 20
212.8317640633266
 30
0.0
 40
24.791569613987718
 50
318.66082052827858
 51
359.13282057286028
  0
LINE
  5
1CE
  8
DATA
  6
CONTINUOUS
 62
     7
 10
18.99999999995741
 20
188.45655460578169
 30
0.0
 11
55.99999999995741
 21
188.45655460578169
 31
0.0
  0
LINE
  5
1CF
  8
DATA
  6
CONTINUOUS
 62
     7
 10
19.99999999995741
 20
191.95655460578169
 30
0.0
 11
54.99999999995741
 21
191.95655460578169
 31
0.0
  0
LINE
  5
1D0
  8
DATA
  6
CONTINUOUS
 62
     7
 10
18.99999999995741
 20
188.45655460578169
 30
0.0
 11
19.99999999995741
 21
191.95655460578169
 31
0.0
  0
LINE
  5
1D1
  8
DATA
  6
CONTINUOUS
 62
     7
 10
19.74999999995741
 20
192.45655460578169
 30
0.0
 11
55.24999999995741
 21
192.45655460578169
 31
0.0
  0
LINE
  5
1D2
  8
DATA
  6
CONTINUOUS
 62
     7
 10
18.24999999995741
 20
196.45655460578169
 30
0.0
 11
19.74999999995741
 21
192.45655460578169
 31
0.0
  0
LINE
  5
1D3
  8
DATA
  6
CONTINUOUS
 62
     7
 10
19.74999999995741
 20
192.45655460578169
 30
0.0
 11
20.99999999995741
 21
191.95655460578169
 31
0.0
  0
LINE
  5
1D4
  8
DATA
  6
CONTINUOUS
 62
     7
 10
55.99999999995741
 20
188.45655460578169
 30
0.0
 11
54.99999999995741
 21
191.95655460578169
 31
0.0
  0
LINE
  5
1D5
  8
DATA
  6
CONTINUOUS
 62
     7
 10
56.74999999995741
 20
196.45655460578169
 30
0.0
 11
55.24999999995741
 21
192.45655460578169
 31
0.0
  0
LINE
  5
1D6
  8
DATA
  6
CONTINUOUS
 62
     7
 10
55.24999999995741
 20
192.45655460578169
 30
0.0
 11
53.99999999995741
 21
191.95655460578169
 31
0.0
  0
LINE
  5
1D7
  8
DATA
  6
CONTINUOUS
 62
     7
 10
18.99999999995741
 20
188.45655460578169
 30
0.0
 11
18.99999999995741
 21
165.93110513490001
 31
0.0
  0
LINE
  5
1D8
  8
DATA
  6
CONTINUOUS
 62
     7
 10
18.99999999995741
 20
165.93110513490001
 30
0.0
 11
55.99999999995741
 21
165.93110513490001
 31
0.0
  0
LINE
  5
1D9
  8
DATA
  6
CONTINUOUS
 62
     7
 10
55.99999999995741
 20
165.93110513490001
 30
0.0
 11
55.99999999995741
 21
188.45655460578169
 31
0.0
  0
LINE
  5
1DA
  8
DATA
  6
CONTINUOUS
 62
     7
 10
148.9999999999574
 20
214.93110513490001
 30
0.0
 11
200.9999999999574
 21
214.93110513490001
 31
0.0
  0
LINE
  5
1DB
  8
DATA
  6
CONTINUOUS
 62
     7
 10
148.9999999999574
 20
212.93110513490001
 30
0.0
 11
200.9999999999574
 21
212.93110513490001
 31
0.0
  0
LINE
  5
1DC
  8
DATA
  6
CONTINUOUS
 62
     7
 10
194.2499999999574
 20
195.93110513490001
 30
0.0
 11
155.7499999999574
 21
195.93110513490001
 31
0.0
  0
LINE
  5
1DD
  8
DATA
  6
CONTINUOUS
 62
     7
 10
148.9999999999574
 20
215.93110513490001
 30
0.0
 11
200.9999999999574
 21
215.93110513490001
 31
0.0
  0
LINE
  5
1DE
  8
DATA
  6
CONTINUOUS
 62
     7
 10
148.9999999999574
 20
211.93110513490001
 30
0.0
 11
200.9999999999574
 21
211.93110513490001
 31
0.0
  0
LINE
  5
1DF
  8
DATA
  6
CONTINUOUS
 62
     7
 10
148.9999999999574
 20
215.93110513490001
 30
0.0
 11
148.9999999999574
 21
214.93110513490001
 31
0.0
  0
LINE
  5
1E0
  8
DATA
  6
CONTINUOUS
 62
     7
 10
148.9999999999574
 20
212.93110513490001
 30
0.0
 11
148.9999999999574
 21
211.93110513490001
 31
0.0
  0
LINE
  5
1E1
  8
DATA
  6
CONTINUOUS
 62
     7
 10
200.9999999999574
 20
215.93110513490001
 30
0.0
 11
200.9999999999574
 21
214.93110513490001
 31
0.0
  0
LINE
  5
1E2
  8
DATA
  6
CONTINUOUS
 62
     7
 10
200.9999999999574
 20
212.93110513490001
 30
0.0
 11
200.9999999999574
 21
211.93110513490001
 31
0.0
  0
ARC
  5
1E3
  8
DATA
  6
CONTINUOUS
 62
     7
 10
150.8749999999574
 20
213.93110513490001
 30
0.0
 40
2.125
 50
151.92751306414701
 51
208.07248693585291
  0
ARC
  5
1E4
  8
DATA
  6
CONTINUOUS
 62
     7
 10
199.1249999999574
 20
213.93110513490001
 30
0.0
 40
2.125
 50
331.92751306414709
 51
28.072486935852972
  0
ARC
  5
1E5
  8
DATA
  6
CONTINUOUS
 62
     7
 10
174.86382387219641
 20
212.30631459244481
 30
0.0
 40
24.79156961398774
 50
180.86717942713969
 51
221.33917947172131
  0
ARC
  5
1E6
  8
DATA
  6
CONTINUOUS
 62
     7
 10
174.9999999999574
 20
214.93110513490001
 30
0.0
 40
25.0
 50
2.2905982518369119
 51
177.70571565708039
  0
ARC
  5
1E7
  8
DATA
  6
CONTINUOUS
 62
     7
 10
175.13617612771839
 20
212.30631459244481
 30
0.0
 40
24.791569613987718
 50
318.66082052827858
 51
359.13282057286028
  0
LINE
  5
1E8
  8
DATA
  6
CONTINUOUS
 62
     7
 10
156.4999999999574
 20
187.93110513490001
 30
0.0
 11
193.4999999999574
 21
187.93110513490001
 31
0.0
  0
LINE
  5
1E9
  8
DATA
  6
CONTINUOUS
 62
     7
 10
157.4999999999574
 20
191.43110513490001
 30
0.0
 11
192.4999999999574
 21
191.43110513490001
 31
0.0
  0
LINE
  5
1EA
  8
DATA
  6
CONTINUOUS
 62
     7
 10
156.4999999999574
 20
187.93110513490001
 30
0.0
 11
157.4999999999574
 21
191.43110513490001
 31
0.0
  0
LINE
  5
1EB
  8
DATA
  6
CONTINUOUS
 62
     7
 10
157.2499999999574
 20
191.93110513490001
 30
0.0
 11
192.7499999999574
 21
191.93110513490001
 31
0.0
  0
LINE
  5
1EC
  8
DATA
  6
CONTINUOUS
 62
     7
 10
155.7499999999574
 20
195.93110513490001
 30
0.0
 11
157.2499999999574
 21
191.93110513490001
 31
0.0
  0
LINE
  5
1ED
  8
DATA
  6
CONTINUOUS
 62
     7
 10
157.2499999999574
 20
191.93110513490001
 30
0.0
 11
158.4999999999574
 21
191.43110513490001
 31
0.0
  0
LINE
  5
1EE
  8
DATA
  6
CONTINUOUS
 62
     7
 10
193.4999999999574
 20
187.93110513490001
 30
0.0
 11
192.4999999999574
 21
191.43110513490001
 31
0.0
  0
LINE
  5
1EF
  8
DATA
  6
CONTINUOUS
 62
     7
 10
194.2499999999574
 20
195.93110513490001
 30
0.0
 11
192.7499999999574
 21
191.93110513490001
 31
0.0
  0
LINE
  5
1F0
  8
DATA
  6
CONTINUOUS
 62
     7
 10
192.7499999999574
 20
191.93110513490001
 30
0.0
 11
191.4999999999574
 21
191.43110513490001
 31
0.0
  0
LINE
  5
1F1
  8
DATA
  6
CONTINUOUS
 62
     7
 10
156.4999999999574
 20
187.93110513490001
 30
0.0
 11
156.4999999999574
 21
165.93110513490001
 31
0.0
  0
LINE
  5
1F2
  8
DATA
  6
CONTINUOUS
 62
     7
 10
156.4999999999574
 20
165.93110513490001
 30
0.0
 11
193.4999999999574
 21
165.93110513490001
 31
0.0
  0
LINE
  5
1F3
  8
DATA
  6
CONTINUOUS
 62
     7
 10
193.4999999999574
 20
165.93110513490001
 30
0.0
 11
193.4999999999574
 21
187.93110513490001
 31
0.0
  0
TEXT
  5
1F4
  8
DATA
 62
     7
 10
-162.5
 20
-219.30387087693489
 30
0.0
 40
5.7009440104166673
  1
※仕様及び外観は予告なく変更されることがあります。
 41
0.7
 11
-162.5
 21
-213.60292686651829
 31
0.0
 73
     3
  0
TEXT
  5
1F5
  8
DATA
 62
     7
 10
-162.5
 20
-226.71220421026831
 30
0.0
 40
5.7009440104166673
  1
　また、同一商品でも若干の個体差があることがあります。ご了承ください。
 41
0.7
 11
-162.5
 21
-221.01126019985159
 31
0.0
 73
     3
  0
ENDSEC
  0
EOF
