  0
SECTION
  2
HEADER
  9
$ACADVER
  1
AC1009
  9
$INSBASE
 10
0.0
 20
0.0
 30
0.0
  9
$EXTMIN
 10
-180.01098548994739
 20
-275.11077217222902
 30
-0.0004406539666224
  9
$EXTMAX
 10
180.01098716632811
 20
260.01629870255692
 30
0.0000000100861541
  9
$LIMMIN
 10
0.0
 20
0.0
  9
$LIMMAX
 10
0.0
 20
0.0
  9
$ORTHOMODE
 70
     0
  9
$REGENMODE
 70
     1
  9
$FILLMODE
 70
     1
  9
$QTEXTMODE
 70
     0
  9
$MIRRTEXT
 70
     1
  9
$DRAGMODE
 70
     2
  9
$LTSCALE
 40
10.16
  9
$OSMODE
 70
   231
  9
$ATTMODE
 70
     1
  9
$TEXTSIZE
 40
0.0
  9
$TRACEWID
 40
1.0
  9
$TEXTSTYLE
  7
STANDARD
  9
$CLAYER
  8
DATA
  9
$CELTYPE
  6
BYLAYER
  9
$CECOLOR
 62
   256
  9
$DIMSCALE
 40
1.0
  9
$DIMASZ
 40
0.18
  9
$DIMEXO
 40
0.0625
  9
$DIMDLI
 40
0.38
  9
$DIMRND
 40
0.0
  9
$DIMDLE
 40
0.0
  9
$DIMEXE
 40
0.18
  9
$DIMTP
 40
0.0
  9
$DIMTM
 40
0.0
  9
$DIMTXT
 40
0.18
  9
$DIMCEN
 40
0.09
  9
$DIMTSZ
 40
0.0
  9
$DIMTOL
 70
     0
  9
$DIMLIM
 70
     0
  9
$DIMTIH
 70
     1
  9
$DIMTOH
 70
     1
  9
$DIMSE1
 70
     0
  9
$DIMSE2
 70
     0
  9
$DIMTAD
 70
     0
  9
$DIMZIN
 70
     0
  9
$DIMBLK
  1

  9
$DIMASO
 70
     1
  9
$DIMSHO
 70
     1
  9
$DIMPOST
  1

  9
$DIMAPOST
  1

  9
$DIMALT
 70
     0
  9
$DIMALTD
 70
     2
  9
$DIMALTF
 40
25.399999999999999
  9
$DIMLFAC
 40
1.0
  9
$DIMTOFL
 70
     0
  9
$DIMTVP
 40
0.0
  9
$DIMTIX
 70
     0
  9
$DIMSOXD
 70
     0
  9
$DIMSAH
 70
     0
  9
$DIMBLK1
  1

  9
$DIMBLK2
  1

  9
$DIMSTYLE
  2
STANDARD
  9
$DIMCLRD
 70
     0
  9
$DIMCLRE
 70
     0
  9
$DIMCLRT
 70
     0
  9
$DIMTFAC
 40
1.0
  9
$DIMGAP
 40
0.09
  9
$LUNITS
 70
     2
  9
$LUPREC
 70
     4
  9
$SKETCHINC
 40
0.1
  9
$FILLETRAD
 40
0.0
  9
$AUNITS
 70
     0
  9
$AUPREC
 70
     0
  9
$MENU
  1
acad
  9
$ELEVATION
 40
0.0
  9
$PELEVATION
 40
0.0
  9
$THICKNESS
 40
0.0
  9
$LIMCHECK
 70
     0
  9
$BLIPMODE
 70
     0
  9
$CHAMFERA
 40
0.0
  9
$CHAMFERB
 40
0.0
  9
$SKPOLY
 70
     0
  9
$TDCREATE
 40
2456421.4884953708
  9
$TDUPDATE
 40
2456421.544046829
  9
$TDINDWG
 40
0.0006548727
  9
$TDUSRTIMER
 40
0.0006545602
  9
$USRTIMER
 70
     1
  9
$ANGBASE
 50
0.0
  9
$ANGDIR
 70
     0
  9
$PDMODE
 70
     1
  9
$PDSIZE
 40
-2.0
  9
$PLINEWID
 40
0.0
  9
$COORDS
 70
     2
  9
$SPLFRAME
 70
     0
  9
$SPLINETYPE
 70
     6
  9
$SPLINESEGS
 70
     8
  9
$ATTDIA
 70
     0
  9
$ATTREQ
 70
     1
  9
$HANDLING
 70
     1
  9
$HANDSEED
  5
215
  9
$SURFTAB1
 70
     6
  9
$SURFTAB2
 70
     6
  9
$SURFTYPE
 70
     6
  9
$SURFU
 70
     6
  9
$SURFV
 70
     6
  9
$UCSNAME
  2

  9
$UCSORG
 10
0.0
 20
0.0
 30
0.0
  9
$UCSXDIR
 10
1.0
 20
0.0
 30
0.0
  9
$UCSYDIR
 10
0.0
 20
1.0
 30
0.0
  9
$PUCSNAME
  2

  9
$PUCSORG
 10
0.0
 20
0.0
 30
0.0
  9
$PUCSXDIR
 10
1.0
 20
0.0
 30
0.0
  9
$PUCSYDIR
 10
0.0
 20
1.0
 30
0.0
  9
$USERI1
 70
     0
  9
$USERI2
 70
     0
  9
$USERI3
 70
     0
  9
$USERI4
 70
     0
  9
$USERI5
 70
     0
  9
$USERR1
 40
0.0
  9
$USERR2
 40
0.0
  9
$USERR3
 40
0.0
  9
$USERR4
 40
0.0
  9
$USERR5
 40
0.0
  9
$WORLDVIEW
 70
     1
  9
$SHADEDGE
 70
     3
  9
$SHADEDIF
 70
    70
  9
$TILEMODE
 70
     1
  9
$MAXACTVP
 70
    64
  9
$PLIMCHECK
 70
     0
  9
$PEXTMIN
 10
1.0000000000000000E+020
 20
1.0000000000000000E+020
 30
1.0000000000000000E+020
  9
$PEXTMAX
 10
-1.0000000000000000E+020
 20
-1.0000000000000000E+020
 30
-1.0000000000000000E+020
  9
$PLIMMIN
 10
0.0
 20
0.0
  9
$PLIMMAX
 10
12.0
 20
9.0
  9
$UNITMODE
 70
     0
  9
$VISRETAIN
 70
     0
  9
$PLINEGEN
 70
     1
  9
$PSLTSCALE
 70
     0
  0
ENDSEC
  0
SECTION
  2
TABLES
  0
TABLE
  2
VPORT
 70
     1
  0
VPORT
  2
*ACTIVE
 70
     0
 10
0.0
 20
0.0
 11
1.0
 21
1.0
 12
0.000000838190374
 22
-7.5472367348360194
 13
0.0
 23
0.0
 14
1.0
 24
1.0
 15
0.0
 25
0.0
 16
0.0
 26
0.0
 36
1.0
 17
0.0
 27
0.0
 37
0.0
 40
539.25932624833627
 41
2.1585051546391751
 42
50.0
 43
0.0
 44
0.0
 50
0.0
 51
0.0
 71
     0
 72
  2000
 73
     1
 74
     1
 75
     0
 76
     0
 77
     0
 78
     0
  0
ENDTAB
  0
TABLE
  2
LTYPE
 70
    11
  0
LTYPE
  2
CONTINUOUS
 70
     0
  3
Solid line
 72
    65
 73
     0
 40
0.0
  0
ENDTAB
  0
TABLE
  2
LAYER
 70
     6
  0
LAYER
  2
0
 70
     0
 62
     7
  6
CONTINUOUS
  0
LAYER
  2
DATA
 70
     0
 62
     7
  6
CONTINUOUS
  0
LAYER
  2
HIBINO-BASE
 70
     0
 62
     7
  6
CONTINUOUS
  0
LAYER
  2
SPEC
 70
     0
 62
     7
  6
CONTINUOUS
  0
LAYER
  2
DIMNSIONS
 70
     0
 62
     7
  6
CONTINUOUS
  0
ENDTAB
  0
TABLE
  2
STYLE
 70
     3
  0
STYLE
  2
STANDARD
 70
     0
 40
0.0
 41
1.0
 50
0.0
 71
     0
 42
0.0
  3
txt
  4
BIGFONT.SHX
  0
ENDTAB
  0
TABLE
  2
VIEW
 70
     0
  0
ENDTAB
  0
TABLE
  2
UCS
 70
     0
  0
ENDTAB
  0
TABLE
  2
APPID
 70
     4
  0
APPID
  2
ACAD
 70
     0
  0
APPID
  2
ACADANNOTATIVE
 70
     0
  0
APPID
  2
ACAD_NAV_VCDISPLAY
 70
     0
  0
APPID
  2
ACAD_MLEADERVER
 70
     0
  0
ENDTAB
  0
TABLE
  2
DIMSTYLE
 70
     2
  0
DIMSTYLE
  2
STANDARD
 70
     0
  3

  4

  5

  6

  7

 40
1.0
 41
0.18
 42
0.0625
 43
0.38
 44
0.18
 45
0.0
 46
0.0
 47
0.0
 48
0.0
140
0.18
141
0.09
142
0.0
143
25.399999999999999
144
1.0
145
0.0
146
1.0
147
0.09
 71
     0
 72
     0
 73
     1
 74
     1
 75
     0
 76
     0
 77
     0
 78
     0
170
     0
171
     2
172
     0
173
     0
174
     0
175
     0
176
     0
177
     0
178
     0
  0
ENDTAB
  0
ENDSEC
  0
SECTION
  2
BLOCKS
  0
BLOCK
  8
0
  2
$MODEL_SPACE
 70
     0
 10
0.0
 20
0.0
 30
0.0
  3
$MODEL_SPACE
  1

  0
ENDBLK
  5
19E
  8
0
  0
BLOCK
 67
     1
  8
0
  2
$PAPER_SPACE
 70
     0
 10
0.0
 20
0.0
 30
0.0
  3
$PAPER_SPACE
  1

  0
ENDBLK
  5
19A
 67
     1
  8
0
  0
BLOCK
  8
DATA
  2
____
 70
     0
 10
0.0
 20
0.0
 30
0.0
  3
____
  1

  0
CIRCLE
  5
33
  8
0
  6
CONTINUOUS
 62
     7
 10
-80.094005851454753
 20
-79.079700292572738
 30
0.0
 40
3.0
  0
LINE
  5
34
  8
0
  6
CONTINUOUS
 62
     7
 10
-80.094005851454753
 20
-78.079700292572738
 30
0.0
 11
-79.227980447670333
 21
-78.579700292572724
 31
0.0
  0
LINE
  5
35
  8
0
  6
CONTINUOUS
 62
     7
 10
-79.227980447670333
 20
-78.579700292572724
 30
0.0
 11
-79.227980447670333
 21
-79.579700292572724
 31
0.0
  0
LINE
  5
36
  8
0
  6
CONTINUOUS
 62
     7
 10
-79.227980447670333
 20
-79.579700292572724
 30
0.0
 11
-80.094005851454753
 21
-80.079700292572738
 31
0.0
  0
LINE
  5
37
  8
0
  6
CONTINUOUS
 62
     7
 10
-80.094005851454753
 20
-80.079700292572738
 30
0.0
 11
-80.960031255239187
 21
-79.579700292572724
 31
0.0
  0
LINE
  5
38
  8
0
  6
CONTINUOUS
 62
     7
 10
-80.960031255239187
 20
-79.579700292572724
 30
0.0
 11
-80.960031255239187
 21
-78.579700292572724
 31
0.0
  0
LINE
  5
39
  8
0
  6
CONTINUOUS
 62
     7
 10
-80.960031255239187
 20
-78.579700292572724
 30
0.0
 11
-80.094005851454753
 21
-78.079700292572738
 31
0.0
  0
ENDBLK
  5
3A
  8
DATA
  0
BLOCK
  8
DATA
  2
____-1
 70
     0
 10
0.0
 20
0.0
 30
0.0
  3
____-1
  1

  0
LINE
  5
3C
  8
0
  6
CONTINUOUS
 62
     7
 10
108.0
 20
-73.0
 30
0.0
 11
109.5
 21
-120.0
 31
0.0
  0
LINE
  5
3D
  8
0
  6
CONTINUOUS
 62
     7
 10
92.0
 20
-73.0
 30
0.0
 11
90.5
 21
-120.0
 31
0.0
  0
LINE
  5
3E
  8
0
  6
CONTINUOUS
 62
     7
 10
90.5
 20
-120.0
 30
0.0
 11
109.5
 21
-120.0
 31
0.0
  0
LINE
  5
3F
  8
0
  6
CONTINUOUS
 62
     7
 10
92.0
 20
-73.0
 30
0.0
 11
108.0
 21
-73.0
 31
0.0
  0
LINE
  5
40
  8
0
  6
CONTINUOUS
 62
     7
 10
96.25
 20
-43.0
 30
0.0
 11
103.75
 21
-43.0
 31
0.0
  0
LINE
  5
41
  8
0
  6
CONTINUOUS
 62
     7
 10
103.75
 20
-43.0
 30
0.0
 11
103.75
 21
-73.0
 31
0.0
  0
LINE
  5
42
  8
0
  6
CONTINUOUS
 62
     7
 10
96.25
 20
-43.0
 30
0.0
 11
96.25
 21
-73.0
 31
0.0
  0
ENDBLK
  5
43
  8
DATA
  0
BLOCK
  8
DATA
  2
____-2
 70
     0
 10
0.0
 20
0.0
 30
0.0
  3
____-2
  1

  0
CIRCLE
  5
45
  8
0
  6
CONTINUOUS
 62
     7
 10
100.0
 20
-160.49999999999989
 30
0.0
 40
9.5
  0
ARC
  5
46
  8
0
  6
CONTINUOUS
 62
     7
 10
99.999999999997442
 20
-160.5000000000025
 30
0.0
 40
8.1000000000035648
 50
48.454070482715252
 51
38.104561892532359
  0
CIRCLE
  5
47
  8
0
  6
CONTINUOUS
 62
     7
 10
104.0
 20
-160.49999999999989
 30
0.0
 40
1.5
  0
CIRCLE
  5
48
  8
0
  6
CONTINUOUS
 62
     7
 10
100.0
 20
-164.25
 30
0.0
 40
1.5
  0
CIRCLE
  5
49
  8
0
  6
CONTINUOUS
 62
     7
 10
96.0
 20
-160.49999999999989
 30
0.0
 40
1.5
  0
ARC
  5
4A
  8
0
  6
CONTINUOUS
 62
     7
 10
105.89696435779349
 20
-154.94699978724
 30
0.0
 40
0.7313150365050373
 50
310.69193904007921
 51
135.8666933351675
  0
ENDBLK
  5
4B
  8
DATA
  0
BLOCK
  8
DATA
  2
____-3
 70
     0
 10
0.0
 20
0.0
 30
0.0
  3
____-3
  1

  0
LINE
  5
4D
  8
0
  6
CONTINUOUS
 62
     7
 10
9.9999999999999982
 20
-120.0
 30
0.0
 11
1.999999999999998
 21
-120.0
 31
0.0
  0
LINE
  5
4E
  8
0
  6
CONTINUOUS
 62
     7
 10
9.9999999999999982
 20
-64.645103822502364
 30
0.0
 11
9.9999999999999982
 21
-120.0
 31
0.0
  0
LINE
  5
4F
  8
0
  6
CONTINUOUS
 62
     7
 10
2.0
 20
-64.598852254776872
 30
0.0
 11
1.999999999999998
 21
-120.0
 31
0.0
  0
LINE
  5
50
  8
0
  6
CONTINUOUS
 62
     7
 10
-8.8392492212259377
 20
-99.852797378334444
 30
0.0
 11
1.999999999999998
 21
-119.0
 31
0.0
  0
ARC
  5
51
  8
0
  6
CONTINUOUS
 62
     7
 10
8.5654163550350813
 20
-89.999999999999986
 30
0.0
 40
20.0
 50
180.0
 51
209.51424067621599
  0
LINE
  5
52
  8
0
  6
CONTINUOUS
 62
     7
 10
-9.0000000000000036
 20
-30.499999999999989
 30
0.0
 11
6.5495154878351629
 21
-53.415075455757083
 31
0.0
  0
LINE
  5
53
  8
0
  6
CONTINUOUS
 62
     7
 10
-13.5
 20
-36.289564019921933
 30
0.0
 11
-9.0000000000000036
 21
-30.499999999999989
 31
0.0
  0
LINE
  5
54
  8
0
  6
CONTINUOUS
 62
     7
 10
-1.403141741965946
 20
-53.438910679538822
 30
0.0
 11
-13.5
 21
-36.289564019921933
 31
0.0
  0
LINE
  5
55
  8
0
  6
CONTINUOUS
 62
     7
 10
-11.434583644964921
 20
-39.21764173344021
 30
0.0
 11
-11.434583644964921
 21
-89.999999999999986
 31
0.0
  0
ARC
  5
56
  8
0
  6
CONTINUOUS
 62
     7
 10
-10.0
 20
-64.645103822502364
 30
0.0
 40
20.0
 50
0.0
 51
34.159694545669431
  0
ARC
  5
57
  8
0
  6
CONTINUOUS
 62
     7
 10
-18.0
 20
-64.598852254776872
 30
0.0
 40
20.0
 50
0.0
 51
33.9173952583239
  0
ENDBLK
  5
58
  8
DATA
  0
BLOCK
  8
DATA
  2
____-4
 70
     0
 10
0.0
 20
0.0
 30
0.0
  3
____-4
  1

  0
LINE
  5
5A
  8
0
  6
CONTINUOUS
 62
     7
 10
98.585786437626922
 20
-102.5
 30
0.0
 11
101.41421356237311
 21
-102.5
 31
0.0
  0
CIRCLE
  5
5B
  8
0
  6
CONTINUOUS
 62
     7
 10
100.0
 20
-102.0
 30
0.0
 40
1.5
  0
LINE
  5
5C
  8
0
  6
CONTINUOUS
 62
     7
 10
98.585786437626922
 20
-101.5
 30
0.0
 11
101.41421356237311
 21
-101.5
 31
0.0
  0
ENDBLK
  5
5D
  8
DATA
  0
ENDSEC
  0
SECTION
  2
ENTITIES
  0
LINE
  5
5E
  8
HIBINO-BASE
  6
CONTINUOUS
 62
     7
 10
-180.0
 20
260.0
 30
0.0
 11
180.0
 21
260.0
 31
0.0
  0
LINE
  5
5F
  8
HIBINO-BASE
  6
CONTINUOUS
 62
     7
 10
180.0
 20
-260.0
 30
0.0
 11
-180.0
 21
-260.0
 31
0.0
  0
LINE
  5
60
  8
HIBINO-BASE
  6
CONTINUOUS
 62
     7
 10
-180.0
 20
-260.0
 30
0.0
 11
-180.0
 21
260.0
 31
0.0
  0
LINE
  5
61
  8
HIBINO-BASE
  6
CONTINUOUS
 62
     7
 10
180.0
 20
260.0
 30
0.0
 11
180.0
 21
-260.0
 31
0.0
  0
LINE
  5
62
  8
HIBINO-BASE
  6
CONTINUOUS
 62
     7
 10
0.0000000000000142
 20
-215.0
 30
0.0
 11
180.0
 21
-215.0
 31
0.0
  0
LINE
  5
63
  8
HIBINO-BASE
  6
CONTINUOUS
 62
     7
 10
0.0000000000000142
 20
-260.0
 30
0.0
 11
0.0000000000000142
 21
-215.0
 31
0.0
  0
TEXT
  5
64
  8
HIBINO-BASE
 62
     7
 10
1.8000000000000249
 20
-220.0173866666666
 30
0.0
 40
3.2576822916666659
  1
NOTE
 41
0.7
 11
1.8000000000000249
 21
-216.7597043749999
 31
0.0
 73
     3
  0
LINE
  5
65
  8
HIBINO-BASE
  6
CONTINUOUS
 62
     7
 10
70.000000000000043
 20
-260.0
 30
0.0
 11
70.000000000000043
 21
-215.0
 31
0.0
  0
TEXT
  5
66
  8
HIBINO-BASE
 62
     7
 10
71.799999999999983
 20
-220.0173866666666
 30
0.0
 40
3.2576822916666659
  1
TITLE
 41
0.7
 11
71.799999999999983
 21
-216.7597043749999
 31
0.0
 73
     3
  0
LINE
  5
67
  8
HIBINO-BASE
  6
CONTINUOUS
 62
     7
 10
0.0000000000000142
 20
-240.0
 30
0.0
 11
180.0
 21
-240.0
 31
0.0
  0
TEXT
  5
68
  8
HIBINO-BASE
 62
     7
 10
96.799999999999983
 20
-244.9047466666666
 30
0.0
 40
3.2576822916666659
  1
DRAWN
 41
0.7
 11
96.799999999999983
 21
-241.6470643749999
 31
0.0
 73
     3
  0
TEXT
  5
69
  8
HIBINO-BASE
 62
     7
 10
46.79999999999999
 20
-244.9047466666666
 30
0.0
 40
3.2576822916666659
  1
DATE
 41
0.7
 11
46.79999999999999
 21
-241.6470643749999
 31
0.0
 73
     3
  0
TEXT
  5
6A
  8
HIBINO-BASE
 62
     7
 10
26.800000000000001
 20
-244.9047466666666
 30
0.0
 40
3.2576822916666659
  1
SCALE
 41
0.7
 11
26.800000000000001
 21
-241.6470643749999
 31
0.0
 73
     3
  0
TEXT
  5
6B
  8
HIBINO-BASE
 62
     7
 10
71.799999999999983
 20
-244.9047466666666
 30
0.0
 40
3.2576822916666659
  1
DESIGN
 41
0.7
 11
71.799999999999983
 21
-241.6470643749999
 31
0.0
 73
     3
  0
TEXT
  5
6C
  8
HIBINO-BASE
 62
     7
 10
146.7999999999999
 20
-244.9047466666666
 30
0.0
 40
3.2576822916666659
  1
DRAWING NO.
 41
0.7
 11
146.7999999999999
 21
-241.6470643749999
 31
0.0
 73
     3
  0
TEXT
  5
6D
  8
HIBINO-BASE
 62
     7
 10
121.7999999999999
 20
-244.9047466666666
 30
0.0
 40
3.2576822916666659
  1
CHECK
 41
0.7
 11
121.7999999999999
 21
-241.6470643749999
 31
0.0
 73
     3
  0
LINE
  5
6E
  8
HIBINO-BASE
  6
CONTINUOUS
 62
     7
 10
28.750000000000011
 20
-257.49999999999989
 30
0.0
 11
36.250000000000028
 21
-250.0
 31
0.0
  0
TEXT
  5
6F
  8
HIBINO-BASE
 62
     7
 10
27.500000000000011
 20
-252.21788666666669
 30
0.0
 40
3.2576822916666659
  1
1
 41
0.7
 11
27.500000000000011
 21
-248.96020437499999
 31
0.0
 73
     3
  0
LINE
  5
70
  8
HIBINO-BASE
  6
CONTINUOUS
 62
     7
 10
25.000000000000011
 20
-260.0
 30
0.0
 11
25.000000000000011
 21
-240.0
 31
0.0
  0
LINE
  5
71
  8
HIBINO-BASE
  6
CONTINUOUS
 62
     7
 10
44.999999999999993
 20
-260.0
 30
0.0
 11
44.999999999999993
 21
-240.0
 31
0.0
  0
LINE
  5
72
  8
HIBINO-BASE
  6
CONTINUOUS
 62
     7
 10
94.999999999999957
 20
-240.0
 30
0.0
 11
94.999999999999957
 21
-260.0
 31
0.0
  0
LINE
  5
73
  8
HIBINO-BASE
  6
CONTINUOUS
 62
     7
 10
145.0
 20
-240.0
 30
0.0
 11
145.0
 21
-260.0
 31
0.0
  0
LINE
  5
74
  8
HIBINO-BASE
  6
CONTINUOUS
 62
     7
 10
119.9999999999999
 20
-260.0
 30
0.0
 11
119.9999999999999
 21
-240.0
 31
0.0
  0
TEXT
  5
75
  8
HIBINO-BASE
 62
     7
 10
46.713080000000019
 20
-254.27270666666661
 30
0.0
 40
3.2576822916666659
  1
'13.05.
 41
0.7
 11
46.713080000000019
 21
-251.01502437499991
 31
0.0
 73
     3
  0
TEXT
  5
76
  8
HIBINO-BASE
 62
     7
 10
35.000000000000007
 20
-255.96788666666669
 30
0.0
 40
3.2576822916666659
  1
2
 41
0.7
 11
35.000000000000007
 21
-252.71020437499999
 31
0.0
 73
     3
  0
TEXT
  5
77
  8
HIBINO-BASE
 62
     7
 10
98.011620022069224
 20
-254.27270666666661
 30
0.0
 40
3.2576822916666659
  1
N.Sasaki
 41
0.7
 11
98.011620022069224
 21
-251.01502437499991
 31
0.0
 73
     3
  0
TEXT
  5
78
  8
HIBINO-BASE
 62
     7
 10
7.7666666666667208
 20
-256.04799999999989
 30
0.0
 40
6.5153645833333318
  1
A4
 41
0.7
 11
7.7666666666667208
 21
-249.53263541666661
 31
0.0
 73
     3
  0
TEXT
  5
79
  8
HIBINO-BASE
 62
     7
 10
1.916666666666671
 20
-245.23890999999989
 30
0.0
 40
3.2576822916666659
  1
PAPER SIZE
 41
0.7
 11
1.916666666666671
 21
-241.98122770833331
 31
0.0
 73
     3
  0
TEXT
  5
7A
  8
HIBINO-BASE
 62
     7
 10
-165.63199999999989
 20
-272.7510299999999
 30
0.0
 40
7.0583116319444441
  1
Hibino-Intersound Corporation
 41
0.7
 11
-165.63199999999989
 21
-265.69271836805552
 31
0.0
 73
     3
  0
TEXT
  5
7B
  8
HIBINO-BASE
 62
     7
 10
28.048668334486258
 20
-272.7510299999999
 30
0.0
 40
7.0583116319444441
  1
ヒビノインターサウンド株式会社
 41
0.7
 11
28.048668334486258
 21
-265.69271836805552
 31
0.0
 73
     3
  0
LINE
  5
7C
  8
SPEC
  6
CONTINUOUS
 62
     7
 10
-164.99999999999989
 20
240.00000000000011
 30
0.0
 11
130.0
 21
240.00000000000011
 31
0.0
  0
LINE
  5
7D
  8
SPEC
  6
CONTINUOUS
 62
     7
 10
-164.99999999999989
 20
232.5
 30
0.0
 11
130.0
 21
232.5
 31
0.0
  0
LINE
  5
7E
  8
SPEC
  6
CONTINUOUS
 62
     7
 10
-164.99999999999989
 20
202.5
 30
0.0
 11
130.0
 21
202.5
 31
0.0
  0
LINE
  5
7F
  8
SPEC
  6
CONTINUOUS
 62
     7
 10
-164.99999999999989
 20
210.0
 30
0.0
 11
130.0
 21
210.0
 31
0.0
  0
LINE
  5
80
  8
SPEC
  6
CONTINUOUS
 62
     7
 10
-164.99999999999989
 20
217.5
 30
0.0
 11
130.0
 21
217.5
 31
0.0
  0
LINE
  5
81
  8
SPEC
  6
CONTINUOUS
 62
     7
 10
-164.99999999999989
 20
195.0
 30
0.0
 11
130.0
 21
195.0
 31
0.0
  0
LINE
  5
82
  8
SPEC
  6
CONTINUOUS
 62
     7
 10
-164.99999999999989
 20
180.0
 30
0.0
 11
130.0
 21
180.0
 31
0.0
  0
LINE
  5
83
  8
SPEC
  6
CONTINUOUS
 62
     7
 10
-164.99999999999989
 20
187.5
 30
0.0
 11
130.0
 21
187.5
 31
0.0
  0
LINE
  5
84
  8
SPEC
  6
CONTINUOUS
 62
     7
 10
-164.99999999999989
 20
165.0
 30
0.0
 11
130.0
 21
165.0
 31
0.0
  0
LINE
  5
85
  8
SPEC
  6
CONTINUOUS
 62
     7
 10
-164.99999999999989
 20
157.5
 30
0.0
 11
130.0
 21
157.5
 31
0.0
  0
LINE
  5
86
  8
SPEC
  6
CONTINUOUS
 62
     7
 10
-164.99999999999989
 20
225.0
 30
0.0
 11
130.0
 21
225.0
 31
0.0
  0
TEXT
  5
87
  8
SPEC
 62
     7
 10
-88.200000000000003
 20
234.07583555555561
 30
0.0
 40
3.8006293402777769
  1
エレクトレットコンデンサー型 
 41
0.7
 11
-88.200000000000003
 21
237.87646489583329
 31
0.0
 73
     3
  0
LINE
  5
88
  8
SPEC
  6
CONTINUOUS
 62
     7
 10
-164.99999999999989
 20
142.5
 30
0.0
 11
130.0
 21
142.5
 31
0.0
  0
LINE
  5
89
  8
SPEC
  6
CONTINUOUS
 62
     7
 10
-164.99999999999989
 20
240.00000000000011
 30
0.0
 11
-164.99999999999989
 21
142.5
 31
0.0
  0
TEXT
  5
8A
  8
SPEC
 62
     7
 10
-162.49999999999989
 20
242.78654
 30
0.0
 40
4.8865234375000002
  1
仕様
 41
0.7
 11
-162.49999999999989
 21
247.67306343749999
 31
0.0
 73
     3
  0
LINE
  5
8B
  8
SPEC
  6
CONTINUOUS
 62
     7
 10
-90.0
 20
240.00000000000011
 30
0.0
 11
-90.0
 21
142.5
 31
0.0
  0
LINE
  5
8C
  8
SPEC
  6
CONTINUOUS
 62
     7
 10
130.0
 20
240.00000000000011
 30
0.0
 11
130.0
 21
142.5
 31
0.0
  0
TEXT
  5
8D
  8
SPEC
 62
     7
 10
-88.200000000000003
 20
159.07583555555561
 30
0.0
 40
3.8006293402777769
  1
63.0\U+00D723.5\U+00D789.5mm
 41
0.7
 11
-88.200000000000003
 21
162.87646489583341
 31
0.0
 73
     3
  0
TEXT
  5
8E
  8
SPEC
 62
     7
 10
-88.200000000000003
 20
174.07583555555561
 30
0.0
 40
3.8006293402777769
  1
CVB-B/C：黒、CVB-W/C：白
 41
0.7
 11
-88.200000000000003
 21
177.87646489583329
 31
0.0
 73
     3
  0
TEXT
  5
8F
  8
SPEC
 62
     7
 10
-163.19999999999999
 20
204.07583555555561
 30
0.0
 40
3.8006293402777769
  1
開回路感度
 41
0.7
 11
-163.19999999999999
 21
207.87646489583329
 31
0.0
 73
     3
  0
TEXT
  5
90
  8
SPEC
 62
     7
 10
-163.19999999999999
 20
234.07583555555561
 30
0.0
 40
3.8006293402777769
  1
カートリッジタイプ
 41
0.7
 11
-163.19999999999999
 21
237.87646489583329
 31
0.0
 73
     3
  0
TEXT
  5
91
  8
SPEC
 62
     7
 10
-163.19999999999999
 20
151.57583555555561
 30
0.0
 40
3.8006293402777769
  1
質量
 41
0.7
 11
-163.19999999999999
 21
155.37646489583341
 31
0.0
 73
     3
  0
TEXT
  5
92
  8
SPEC
 62
     7
 10
-163.19999999999999
 20
189.07583555555561
 30
0.0
 40
3.8006293402777769
  1
最大音圧レベル(1kHz,THD1%%%)
 41
0.7
 11
-163.19999999999999
 21
192.87646489583329
 31
0.0
 73
     3
  0
TEXT
  5
93
  8
SPEC
 62
     7
 10
-163.19999999999999
 20
181.57583555555561
 30
0.0
 40
3.8006293402777769
  1
電源
 41
0.7
 11
-163.19999999999999
 21
185.37646489583329
 31
0.0
 73
     3
  0
TEXT
  5
94
  8
SPEC
 62
     7
 10
-163.19999999999999
 20
211.57583555555561
 30
0.0
 40
3.8006293402777769
  1
インピーダンス
 41
0.7
 11
-163.19999999999999
 21
215.37646489583329
 31
0.0
 73
     3
  0
TEXT
  5
95
  8
SPEC
 62
     7
 10
-163.19999999999999
 20
196.57583555555561
 30
0.0
 40
3.8006293402777769
  1
等価雑音レベル
 41
0.7
 11
-163.19999999999999
 21
200.37646489583341
 31
0.0
 73
     3
  0
TEXT
  5
96
  8
SPEC
 62
     7
 10
-163.19999999999999
 20
226.57583555555561
 30
0.0
 40
3.8006293402777769
  1
指向特性
 41
0.7
 11
-163.19999999999999
 21
230.37646489583329
 31
0.0
 73
     3
  0
TEXT
  5
97
  8
SPEC
 62
     7
 10
-163.19999999999999
 20
219.07583555555561
 30
0.0
 40
3.8006293402777769
  1
周波数特性
 41
0.7
 11
-163.19999999999999
 21
222.87646489583341
 31
0.0
 73
     3
  0
TEXT
  5
98
  8
SPEC
 62
     7
 10
-163.19999999999999
 20
174.07583555555561
 30
0.0
 40
3.8006293402777769
  1
コネクター
 41
0.7
 11
-163.19999999999999
 21
177.87646489583329
 31
0.0
 73
     3
  0
TEXT
  5
99
  8
SPEC
 62
     7
 10
-163.19999999999999
 20
159.07583555555561
 30
0.0
 40
3.8006293402777769
  1
寸法(マイクヘッド\U+03C6\U+00D7全長)
 41
0.7
 11
-163.19999999999999
 21
162.87646489583341
 31
0.0
 73
     3
  0
TEXT
  5
9A
  8
SPEC
 62
     7
 10
-88.200000000000003
 20
204.07583555555561
 30
0.0
 40
3.8006293402777769
  1
－32.5dB re 1V/Pa
 41
0.7
 11
-88.200000000000003
 21
207.87646489583329
 31
0.0
 73
     3
  0
TEXT
  5
9B
  8
SPEC
 62
     7
 10
-88.200000000000003
 20
189.07583555555561
 30
0.0
 40
3.8006293402777769
  1
120dB SPL
 41
0.7
 11
-88.200000000000003
 21
192.87646489583329
 31
0.0
 73
     3
  0
TEXT
  5
9C
  8
SPEC
 62
     7
 10
-88.200000000000003
 20
151.57583555555561
 30
0.0
 40
3.8006293402777769
  1
222g(含ケーブル)
 41
0.7
 11
-88.200000000000003
 21
155.37646489583341
 31
0.0
 73
     3
  0
TEXT
  5
9D
  8
SPEC
 62
     7
 10
-88.200000000000003
 20
211.57583555555561
 30
0.0
 40
3.8006293402777769
  1
180\U+03A9
 41
0.7
 11
-88.200000000000003
 21
215.37646489583329
 31
0.0
 73
     3
  0
TEXT
  5
9E
  8
SPEC
 62
     7
 10
-88.200000000000003
 20
196.57583555555561
 30
0.0
 40
3.8006293402777769
  1
27dB SPL
 41
0.7
 11
-88.200000000000003
 21
200.37646489583341
 31
0.0
 73
     3
  0
TEXT
  5
9F
  8
SPEC
 62
     7
 10
-88.200000000000003
 20
219.07583555555561
 30
0.0
 40
3.8006293402777769
  1
70Hz～16kHz
 41
0.7
 11
-88.200000000000003
 21
222.87646489583341
 31
0.0
 73
     3
  0
TEXT
  5
A0
  8
SPEC
 62
     7
 10
-88.200000000000003
 20
226.57583555555561
 30
0.0
 40
3.8006293402777769
  1
カーディオイド
 41
0.7
 11
-88.200000000000003
 21
230.37646489583329
 31
0.0
 73
     3
  0
TEXT
  5
A1
  8
SPEC
 62
     7
 10
-88.200000000000003
 20
181.57583555555561
 30
0.0
 40
3.8006293402777769
  1
ファンタムDC11～52V/2.0mA
 41
0.7
 11
-88.200000000000003
 21
185.37646489583329
 31
0.0
 73
     3
  0
LINE
  5
A2
  8
SPEC
  6
CONTINUOUS
 62
     7
 10
-164.99999999999989
 20
150.0
 30
0.0
 11
130.0
 21
150.0
 31
0.0
  0
TEXT
  5
A3
  8
SPEC
 62
     7
 10
-163.19999999999999
 20
144.07583555555561
 30
0.0
 40
3.8006293402777769
  1
ケーブル長
 41
0.7
 11
-163.19999999999999
 21
147.87646489583341
 31
0.0
 73
     3
  0
TEXT
  5
A4
  8
SPEC
 62
     7
 10
-88.200000000000003
 20
144.07583555555561
 30
0.0
 40
3.8006293402777769
  1
3.5m(除コネクタ ー)
 41
0.7
 11
-88.200000000000003
 21
147.87646489583341
 31
0.0
 73
     3
  0
LINE
  5
A5
  8
SPEC
  6
CONTINUOUS
 62
     7
 10
-164.99999999999989
 20
172.5
 30
0.0
 11
130.0
 21
172.5
 31
0.0
  0
TEXT
  5
A6
  8
SPEC
 62
     7
 10
-88.200000000000003
 20
166.57583555555561
 30
0.0
 40
3.8006293402777769
  1
XLR3ピン、オス
 41
0.7
 11
-88.200000000000003
 21
170.37646489583329
 31
0.0
 73
     3
  0
TEXT
  5
A7
  8
SPEC
 62
     7
 10
-163.19999999999999
 20
166.57583555555561
 30
0.0
 40
3.8006293402777769
  1
仕上げ
 41
0.7
 11
-163.19999999999999
 21
170.37646489583329
 31
0.0
 73
     3
  0
TEXT
  5
A8
  8
DIMNSIONS
 62
     7
 10
-40.0
 20
-235.46101999999991
 30
0.0
 40
4.8865234375000002
  1
(単位：mm)
 41
0.7
 11
-40.0
 21
-230.57449656249989
 31
0.0
 73
     3
  0
LINE
  5
A9
  8
DIMNSIONS
  6
CONTINUOUS
 62
     7
 10
-111.5940058514548
 20
-174.07970029257271
 30
0.0
 11
-111.5940058514548
 21
-204.0797002925728
 31
0.0
  0
LINE
  5
AA
  8
DIMNSIONS
  6
CONTINUOUS
 62
     7
 10
-48.594005851454767
 20
-174.07970029257271
 30
0.0
 11
-48.594005851454767
 21
-204.0797002925728
 31
0.0
  0
LINE
  5
AB
  8
DIMNSIONS
  6
CONTINUOUS
 62
     7
 10
-111.5940058514548
 20
-200.0797002925728
 30
0.0
 11
-48.594005851454767
 21
-200.0797002925728
 31
0.0
  0
LINE
  5
AC
  8
DIMNSIONS
  6
CONTINUOUS
 62
     7
 10
-111.5940058514548
 20
-200.0797002925728
 30
0.0
 11
-106.5927607342672
 21
-198.7396207022723
 31
0.0
  0
LINE
  5
AD
  8
DIMNSIONS
  6
CONTINUOUS
 62
     7
 10
-111.5940058514548
 20
-200.0797002925728
 30
0.0
 11
-106.5927607342672
 21
-201.41977988287331
 31
0.0
  0
LINE
  5
AE
  8
DIMNSIONS
  6
CONTINUOUS
 62
     7
 10
-48.594005851454767
 20
-200.0797002925728
 30
0.0
 11
-53.595250968642247
 21
-201.41977988287331
 31
0.0
  0
LINE
  5
AF
  8
DIMNSIONS
  6
CONTINUOUS
 62
     7
 10
-48.594005851454767
 20
-200.0797002925728
 30
0.0
 11
-53.595250968642247
 21
-198.7396207022723
 31
0.0
  0
TEXT
  5
B0
  8
DIMNSIONS
 62
     7
 10
-87.149561407010324
 20
-198.09192251479499
 30
0.0
 40
5.4294704861111107
  1
63.0
 41
0.7
 11
-87.149561407010324
 21
-192.6624520286839
 31
0.0
 73
     3
  0
LINE
  5
B1
  8
DIMNSIONS
  6
CONTINUOUS
 62
     7
 10
-84.094005851454739
 20
-120.0797002925727
 30
0.0
 11
-134.0
 21
-120.0797002925727
 31
0.0
  0
LINE
  5
B2
  8
DIMNSIONS
  6
CONTINUOUS
 62
     7
 10
-84.094005851454739
 20
-30.57911388096818
 30
0.0
 11
-134.0
 21
-30.57911388096818
 31
0.0
  0
LINE
  5
B3
  8
DIMNSIONS
  6
CONTINUOUS
 62
     7
 10
-130.0
 20
-120.0797002925727
 30
0.0
 11
-130.0
 21
-30.57911388096818
 31
0.0
  0
LINE
  5
B4
  8
DIMNSIONS
  6
CONTINUOUS
 62
     7
 10
-130.0
 20
-120.0797002925727
 30
0.0
 11
-131.34007959030049
 21
-115.0784551753852
 31
0.0
  0
LINE
  5
B5
  8
DIMNSIONS
  6
CONTINUOUS
 62
     7
 10
-130.0
 20
-120.0797002925727
 30
0.0
 11
-128.65992040969951
 21
-115.0784551753852
 31
0.0
  0
LINE
  5
B6
  8
DIMNSIONS
  6
CONTINUOUS
 62
     7
 10
-130.0
 20
-30.57911388096818
 30
0.0
 11
-128.65992040969951
 21
-35.580358998155681
 31
0.0
  0
LINE
  5
B7
  8
DIMNSIONS
  6
CONTINUOUS
 62
     7
 10
-130.0
 20
-30.57911388096818
 30
0.0
 11
-131.34007959030049
 21
-35.580358998155681
 31
0.0
  0
TEXT
  5
B8
  8
DIMNSIONS
 62
     7
 10
-131.98777777777769
 20
-82.384962642325988
 30
0.0
 40
5.4294704861111107
  1
89.5
 50
90.0
 41
0.7
 11
-137.41724826388881
 21
-82.384962642325988
 31
0.0
 73
     3
  0
LINE
  5
B9
  8
DIMNSIONS
  6
CONTINUOUS
 62
     7
 10
-115.5940058514547
 20
-170.07970029257271
 30
0.0
 11
-134.0
 21
-170.07970029257271
 31
0.0
  0
LINE
  5
BA
  8
DIMNSIONS
  6
CONTINUOUS
 62
     7
 10
-84.094005851454739
 20
-146.57821000657421
 30
0.0
 11
-134.0
 21
-146.57821000657421
 31
0.0
  0
LINE
  5
BB
  8
DIMNSIONS
  6
CONTINUOUS
 62
     7
 10
-130.0
 20
-170.07970029257271
 30
0.0
 11
-130.0
 21
-146.57821000657421
 31
0.0
  0
LINE
  5
BC
  8
DIMNSIONS
  6
CONTINUOUS
 62
     7
 10
-130.0
 20
-170.07970029257271
 30
0.0
 11
-131.34007959030049
 21
-165.07845517538519
 31
0.0
  0
LINE
  5
BD
  8
DIMNSIONS
  6
CONTINUOUS
 62
     7
 10
-130.0
 20
-170.07970029257271
 30
0.0
 11
-128.65992040969951
 21
-165.07845517538519
 31
0.0
  0
LINE
  5
BE
  8
DIMNSIONS
  6
CONTINUOUS
 62
     7
 10
-130.0
 20
-146.57821000657421
 30
0.0
 11
-128.65992040969951
 21
-151.5794551237617
 31
0.0
  0
LINE
  5
BF
  8
DIMNSIONS
  6
CONTINUOUS
 62
     7
 10
-130.0
 20
-146.57821000657421
 30
0.0
 11
-131.34007959030049
 21
-151.5794551237617
 31
0.0
  0
TEXT
  5
C0
  8
DIMNSIONS
 62
     7
 10
-131.98777777777769
 20
-165.384510705129
 30
0.0
 40
5.4294704861111107
  1
23.5
 50
90.0
 41
0.7
 11
-137.41724826388881
 21
-165.384510705129
 31
0.0
 73
     3
  0
TEXT
  5
C1
  8
DATA
 62
     7
 10
99.999999999999957
 20
-237.7382199999999
 30
0.0
 40
4.8865234375000002
  1
CVB-B/C、CVB-W/C
 41
0.7
 11
99.999999999999957
 21
-232.85169656249991
 31
0.0
 73
     3
  0
TEXT
  5
C2
  8
DATA
 62
     7
 10
99.999999999999957
 20
-223.2382199999999
 30
0.0
 40
4.8865234375000002
  1
SHURE
 41
0.7
 11
99.999999999999957
 21
-218.35169656249991
 31
0.0
 73
     3
  0
TEXT
  5
C3
  8
DATA
 62
     7
 10
-175.0
 20
-244.2474444444444
 30
0.0
 40
3.8006293402777769
  1
※仕様及び外観は予告なく変更されることがあります。
 41
0.7
 11
-175.0
 21
-240.4468151041666
 31
0.0
 73
     3
  0
TEXT
  5
C4
  8
DATA
 62
     7
 10
-175.0
 20
-249.18633333333329
 30
0.0
 40
3.8006293402777769
  1
　また、同一商品でも若干の個体差があることがあります。ご了承ください。
 41
0.7
 11
-175.0
 21
-245.3857039930555
 31
0.0
 73
     3
  0
LINE
  5
C5
  8
DATA
  6
CONTINUOUS
 62
     7
 10
-111.5940058514548
 20
-110.8947065347724
 30
0.0
 11
-111.5940058514548
 21
-110.0797002925727
 31
0.0
  0
LINE
  5
C6
  8
DATA
  6
CONTINUOUS
 62
     7
 10
-48.594005851454767
 20
-110.0797002925727
 30
0.0
 11
-48.594005851454767
 21
-110.8947065347724
 31
0.0
  0
LINE
  5
C7
  8
DATA
  6
CONTINUOUS
 62
     7
 10
-111.5940058514548
 20
-110.0797002925727
 30
0.0
 11
-111.0940058514547
 21
-100.0797002925727
 31
0.0
  0
LINE
  5
C8
  8
DATA
  6
CONTINUOUS
 62
     7
 10
-111.0940058514547
 20
-100.0797002925727
 30
0.0
 11
-110.5940058514548
 21
-90.079700292572724
 31
0.0
  0
LINE
  5
C9
  8
DATA
  6
CONTINUOUS
 62
     7
 10
-110.5940058514548
 20
-90.079700292572724
 30
0.0
 11
-109.0940058514547
 21
-80.079700292572738
 31
0.0
  0
LINE
  5
CA
  8
DATA
  6
CONTINUOUS
 62
     7
 10
-109.0940058514547
 20
-80.079700292572738
 30
0.0
 11
-107.5940058514547
 21
-70.079700292572753
 31
0.0
  0
LINE
  5
CB
  8
DATA
  6
CONTINUOUS
 62
     7
 10
-107.5940058514547
 20
-70.079700292572753
 30
0.0
 11
-105.0940058514547
 21
-60.079700292572753
 31
0.0
  0
LINE
  5
CC
  8
DATA
  6
CONTINUOUS
 62
     7
 10
-105.0940058514547
 20
-60.079700292572753
 30
0.0
 11
-102.5940058514547
 21
-50.079700292572753
 31
0.0
  0
LINE
  5
CD
  8
DATA
  6
CONTINUOUS
 62
     7
 10
-48.594005851454767
 20
-110.0797002925727
 30
0.0
 11
-49.094005851454767
 21
-100.0797002925727
 31
0.0
  0
LINE
  5
CE
  8
DATA
  6
CONTINUOUS
 62
     7
 10
-49.094005851454767
 20
-100.0797002925727
 30
0.0
 11
-49.594005851454767
 21
-90.079700292572724
 31
0.0
  0
LINE
  5
CF
  8
DATA
  6
CONTINUOUS
 62
     7
 10
-49.594005851454767
 20
-90.079700292572724
 30
0.0
 11
-51.094005851454767
 21
-80.079700292572738
 31
0.0
  0
LINE
  5
D0
  8
DATA
  6
CONTINUOUS
 62
     7
 10
-51.094005851454767
 20
-80.079700292572738
 30
0.0
 11
-52.594005851454781
 21
-70.079700292572753
 31
0.0
  0
LINE
  5
D1
  8
DATA
  6
CONTINUOUS
 62
     7
 10
-52.594005851454781
 20
-70.079700292572753
 30
0.0
 11
-55.094005851454781
 21
-60.079700292572753
 31
0.0
  0
LINE
  5
D2
  8
DATA
  6
CONTINUOUS
 62
     7
 10
-55.094005851454781
 20
-60.079700292572753
 30
0.0
 11
-57.594005851454781
 21
-50.079700292572753
 31
0.0
  0
LINE
  5
D3
  8
DATA
  6
CONTINUOUS
 62
     7
 10
-102.5940058514547
 20
-50.079700292572753
 30
0.0
 11
-100.3359433462481
 21
-43.305512776952938
 31
0.0
  0
LINE
  5
D4
  8
DATA
  6
CONTINUOUS
 62
     7
 10
-57.594005851454781
 20
-50.079700292572753
 30
0.0
 11
-59.852068356661363
 21
-43.305512776952973
 31
0.0
  0
ARC
  5
D5
  8
DATA
  6
CONTINUOUS
 62
     7
 10
-80.094005851454753
 20
-53.040191326184392
 30
0.0
 40
22.461077445216201
 50
25.68366170682317
 51
154.3163382931553
  0
LINE
  5
D6
  8
DATA
  6
CONTINUOUS
 62
     7
 10
-80.094005851454753
 20
-120.0797002925727
 30
0.0
 11
-90.094005851454753
 21
-119.5797002925727
 31
0.0
  0
LINE
  5
D7
  8
DATA
  6
CONTINUOUS
 62
     7
 10
-90.094005851454753
 20
-119.5797002925727
 30
0.0
 11
-103.9935067870059
 21
-118.8847252457952
 31
0.0
  0
LINE
  5
D8
  8
DATA
  6
CONTINUOUS
 62
     7
 10
-80.094005851454753
 20
-120.0797002925727
 30
0.0
 11
-70.094005851454767
 21
-119.5797002925727
 31
0.0
  0
LINE
  5
D9
  8
DATA
  6
CONTINUOUS
 62
     7
 10
-70.094005851454767
 20
-119.5797002925727
 30
0.0
 11
-56.194504915903607
 21
-118.8847252457952
 31
0.0
  0
ARC
  5
DA
  8
DATA
  6
CONTINUOUS
 62
     7
 10
-103.5940058514547
 20
-110.8947065347724
 30
0.0
 40
8.0
 50
180.0
 51
267.13759477388822
  0
ARC
  5
DB
  8
DATA
  6
CONTINUOUS
 62
     7
 10
-56.594005851454767
 20
-110.8947065347724
 30
0.0
 40
8.0000000000000124
 50
272.86240522611172
 51
359.99999999999977
  0
LINE
  5
DC
  8
DATA
  6
CONTINUOUS
 62
     7
 10
-50.094005851454781
 20
-110.0797002925727
 30
0.0
 11
-50.094005851454781
 21
-112.7370291087593
 31
0.0
  0
LINE
  5
DD
  8
DATA
  6
CONTINUOUS
 62
     7
 10
-50.094005851454781
 20
-110.0797002925727
 30
0.0
 11
-50.594005851454767
 21
-100.0797002925727
 31
0.0
  0
LINE
  5
DE
  8
DATA
  6
CONTINUOUS
 62
     7
 10
-50.594005851454767
 20
-100.0797002925727
 30
0.0
 11
-51.094005851454767
 21
-90.079700292572724
 31
0.0
  0
LINE
  5
DF
  8
DATA
  6
CONTINUOUS
 62
     7
 10
-51.094005851454767
 20
-90.079700292572724
 30
0.0
 11
-52.594005851454781
 21
-80.079700292572738
 31
0.0
  0
LINE
  5
E0
  8
DATA
  6
CONTINUOUS
 62
     7
 10
-52.594005851454781
 20
-80.079700292572738
 30
0.0
 11
-54.094005851454767
 21
-70.079700292572753
 31
0.0
  0
LINE
  5
E1
  8
DATA
  6
CONTINUOUS
 62
     7
 10
-54.094005851454767
 20
-70.079700292572753
 30
0.0
 11
-56.594005851454767
 21
-60.079700292572753
 31
0.0
  0
LINE
  5
E2
  8
DATA
  6
CONTINUOUS
 62
     7
 10
-56.594005851454767
 20
-60.079700292572753
 30
0.0
 11
-59.411796181063863
 21
-50.079700292572753
 31
0.0
  0
ARC
  5
E3
  8
DATA
  6
CONTINUOUS
 62
     7
 10
-57.594005851454781
 20
-109.95314692734431
 30
0.0
 40
8.0000000000000195
 50
275.49292159094909
 51
339.63586519368198
  0
LINE
  5
E4
  8
DATA
  6
CONTINUOUS
 62
     7
 10
-80.094005851454753
 20
-119.0797002925727
 30
0.0
 11
-90.094005851454753
 21
-118.5797002925727
 31
0.0
  0
LINE
  5
E5
  8
DATA
  6
CONTINUOUS
 62
     7
 10
-90.094005851454753
 20
-118.5797002925727
 30
0.0
 11
-103.35978808350571
 21
-117.9164111809702
 31
0.0
  0
LINE
  5
E6
  8
DATA
  6
CONTINUOUS
 62
     7
 10
-80.094005851454753
 20
-119.0797002925727
 30
0.0
 11
-70.094005851454767
 21
-118.5797002925727
 31
0.0
  0
LINE
  5
E7
  8
DATA
  6
CONTINUOUS
 62
     7
 10
-70.094005851454767
 20
-118.5797002925727
 30
0.0
 11
-56.828223619405051
 21
-117.9164111809702
 31
0.0
  0
LINE
  5
E8
  8
DATA
  6
CONTINUOUS
 62
     7
 10
-110.0940058514547
 20
-110.0797002925727
 30
0.0
 11
-109.5940058514548
 21
-100.0797002925727
 31
0.0
  0
LINE
  5
E9
  8
DATA
  6
CONTINUOUS
 62
     7
 10
-109.5940058514548
 20
-100.0797002925727
 30
0.0
 11
-109.0940058514547
 21
-90.079700292572724
 31
0.0
  0
LINE
  5
EA
  8
DATA
  6
CONTINUOUS
 62
     7
 10
-109.0940058514547
 20
-90.079700292572724
 30
0.0
 11
-107.5940058514547
 21
-80.079700292572738
 31
0.0
  0
LINE
  5
EB
  8
DATA
  6
CONTINUOUS
 62
     7
 10
-107.5940058514547
 20
-80.079700292572738
 30
0.0
 11
-106.0940058514547
 21
-70.079700292572753
 31
0.0
  0
LINE
  5
EC
  8
DATA
  6
CONTINUOUS
 62
     7
 10
-106.0940058514547
 20
-70.079700292572753
 30
0.0
 11
-103.5940058514547
 21
-60.079700292572753
 31
0.0
  0
ARC
  5
ED
  8
DATA
  6
CONTINUOUS
 62
     7
 10
-102.5940058514547
 20
-109.95314692734431
 30
0.0
 40
8.0000000000000195
 50
200.36413480631779
 51
264.50707840905068
  0
LINE
  5
EE
  8
DATA
  6
CONTINUOUS
 62
     7
 10
-110.0940058514547
 20
-110.0797002925727
 30
0.0
 11
-110.0940058514547
 21
-112.7370291087593
 31
0.0
  0
ARC
  5
EF
  8
DATA
  6
CONTINUOUS
 62
     7
 10
-80.094005851454753
 20
-129.73475315213781
 30
0.0
 40
34.652103021171357
 50
30.031736158365199
 51
149.96826384163481
  0
INSERT
  5
F0
  8
DATA
 62
     7
  2
____
 10
0.0
 20
0.0
 30
0.0
  0
ARC
  5
F1
  8
DATA
  6
CONTINUOUS
 62
     7
 10
-80.094005851454753
 20
-53.040191326184392
 30
0.0
 40
22.461077445216201
 50
25.68366170682317
 51
154.3163382931553
  0
ARC
  5
F2
  8
DATA
  6
CONTINUOUS
 62
     7
 10
-80.094005851454753
 20
-58.840191326184389
 30
0.0
 40
22.461077445216208
 50
22.956357784179978
 51
157.04364221582011
  0
LINE
  5
F3
  8
DATA
  6
CONTINUOUS
 62
     7
 10
-103.5940058514544
 20
-60.07970029257293
 30
0.0
 11
-100.7762155218453
 21
-50.07970029257293
 31
0.0
  0
LINE
  5
F4
  8
DATA
  6
CONTINUOUS
 62
     7
 10
-111.5940058514548
 20
-170.07970029257271
 30
0.0
 11
-111.5940058514548
 21
-162.07970029257271
 31
0.0
  0
LINE
  5
F5
  8
DATA
  6
CONTINUOUS
 62
     7
 10
-48.594005851454767
 20
-170.07970029257271
 30
0.0
 11
-111.5940058514548
 21
-170.07970029257271
 31
0.0
  0
LINE
  5
F6
  8
DATA
  6
CONTINUOUS
 62
     7
 10
-48.594005851454767
 20
-162.07970029257271
 30
0.0
 11
-48.594005851454767
 21
-170.07970029257271
 31
0.0
  0
LINE
  5
F7
  8
DATA
  6
CONTINUOUS
 62
     7
 10
-111.5940058514548
 20
-162.07970029257271
 30
0.0
 11
-48.594005851454767
 21
-162.07970029257271
 31
0.0
  0
ARC
  5
F8
  8
DATA
  6
CONTINUOUS
 62
     7
 10
-80.094005851454753
 20
-188.96178984481151
 30
0.0
 40
40.282089552238773
 50
41.862553396250249
 51
90.000000000000028
  0
ARC
  5
F9
  8
DATA
  6
CONTINUOUS
 62
     7
 10
-80.094005851454781
 20
-188.96178984481151
 30
0.0
 40
40.282089552238801
 50
89.999999999999986
 51
138.13744660374971
  0
ARC
  5
FA
  8
DATA
  6
CONTINUOUS
 62
     7
 10
-80.091709459161294
 20
-169.0392873344002
 30
0.0
 40
22.461077445216201
 50
53.688942175766897
 51
126.3182412667194
  0
ARC
  5
FB
  8
DATA
  6
CONTINUOUS
 62
     7
 10
-80.094005851454753
 20
-63.745083798349782
 30
0.0
 40
24.446311451500311
 50
30.737014646747699
 51
149.26298535324321
  0
LINE
  5
FC
  8
DATA
  6
CONTINUOUS
 62
     7
 10
-82.39400585145475
 20
-30.69718347137665
 30
0.0
 11
-82.39400585145475
 21
12.220299707427239
 31
0.0
  0
LINE
  5
FD
  8
DATA
  6
CONTINUOUS
 62
     7
 10
-62.394005851454772
 20
32.220299707427237
 30
0.0
 11
6.5192841152013008
 21
32.220299707427237
 31
0.0
  0
LINE
  5
FE
  8
DATA
  6
CONTINUOUS
 62
     7
 10
13.11328996665608
 20
32.299999999999997
 30
0.0
 11
82.299999999999983
 21
32.299999999999997
 31
0.0
  0
LINE
  5
FF
  8
DATA
  6
CONTINUOUS
 62
     7
 10
-62.394005851454772
 20
27.62029970742725
 30
0.0
 11
10.292704181889141
 21
27.62029970742725
 31
0.0
  0
LINE
  5
100
  8
DATA
  6
CONTINUOUS
 62
     7
 10
16.88671003334391
 20
27.70000000000001
 30
0.0
 11
82.299999999999983
 21
27.70000000000001
 31
0.0
  0
LINE
  5
101
  8
DATA
  6
CONTINUOUS
 62
     7
 10
97.700000000000017
 20
12.29999999999999
 30
0.0
 11
97.700000000000017
 21
-43.0
 31
0.0
  0
LINE
  5
102
  8
DATA
  6
CONTINUOUS
 62
     7
 10
102.3
 20
12.29999999999999
 30
0.0
 11
102.3
 21
-43.0
 31
0.0
  0
INSERT
  5
103
  8
DATA
 62
     7
  2
____-1
 10
0.0
 20
0.0
 30
0.0
  0
INSERT
  5
104
  8
DATA
 62
     7
  2
____-2
 10
0.0
 20
0.0
 30
0.0
  0
ARC
  5
105
  8
DATA
  6
CONTINUOUS
 62
     7
 10
-62.394005851454772
 20
12.220299707427239
 30
0.0
 40
20.0
 50
90.0
 51
180.0
  0
ARC
  5
106
  8
DATA
  6
CONTINUOUS
 62
     7
 10
82.299999999999983
 20
12.29999999999999
 30
0.0
 40
20.0
 50
0.0
 51
90.0
  0
LINE
  5
107
  8
DATA
  6
CONTINUOUS
 62
     7
 10
-111.5
 20
80.0
 30
0.0
 11
-111.5
 21
72.0
 31
0.0
  0
LINE
  5
108
  8
DATA
  6
CONTINUOUS
 62
     7
 10
-48.5
 20
80.0
 30
0.0
 11
-111.5
 21
80.0
 31
0.0
  0
LINE
  5
109
  8
DATA
  6
CONTINUOUS
 62
     7
 10
-48.5
 20
72.0
 30
0.0
 11
-48.5
 21
80.0
 31
0.0
  0
LINE
  5
10A
  8
DATA
  6
CONTINUOUS
 62
     7
 10
-111.5
 20
72.0
 30
0.0
 11
-103.5
 21
72.0
 31
0.0
  0
LINE
  5
10B
  8
DATA
  6
CONTINUOUS
 62
     7
 10
-54.298366821502981
 20
72.0
 30
0.0
 11
-48.5
 21
72.0
 31
0.0
  0
ARC
  5
10C
  8
DATA
  6
CONTINUOUS
 62
     7
 10
-79.997703607706541
 20
78.959587041827518
 30
0.0
 40
22.461077445216201
 50
233.6817587332805
 51
306.31105782423299
  0
INSERT
  5
10D
  8
DATA
 62
     7
  2
____-3
 10
0.0
 20
0.0
 30
0.0
  0
LINE
  5
10E
  8
DATA
  6
CONTINUOUS
 62
     7
 10
-57.986541952698957
 20
70.375998252610245
 30
0.0
 11
-66.696956390911282
 21
60.860136125434707
 31
0.0
  0
LINE
  5
10F
  8
DATA
  6
CONTINUOUS
 62
     7
 10
-57.98293082678439
 20
78.408111299324503
 30
0.0
 11
-73.02431247823958
 21
62.261568884112677
 31
0.0
  0
LINE
  5
110
  8
DATA
  6
CONTINUOUS
 62
     7
 10
-103.5
 20
72.0
 30
0.0
 11
-93.303043609088746
 21
60.860136125434707
 31
0.0
  0
LINE
  5
111
  8
DATA
  6
CONTINUOUS
 62
     7
 10
-102.0170691732156
 20
78.408111299324503
 30
0.0
 11
-86.975687521760435
 21
62.261568884112712
 31
0.0
  0
ARC
  5
112
  8
DATA
  6
CONTINUOUS
 62
     7
 10
-80.0
 20
80.867640670248349
 30
0.0
 40
19.870735359117361
 50
249.44824589314379
 51
290.55175410685609
  0
ARC
  5
113
  8
DATA
  6
CONTINUOUS
 62
     7
 10
-80.0
 20
81.867640670248349
 30
0.0
 40
19.870735359117361
 50
249.44824589314379
 51
290.55175410685609
  0
LINE
  5
114
  8
DATA
  6
CONTINUOUS
 62
     7
 10
-58.914485166076489
 20
78.408111299324503
 30
0.0
 11
-73.02431247823958
 21
63.261568884112691
 31
0.0
  0
LINE
  5
115
  8
DATA
  6
CONTINUOUS
 62
     7
 10
-101.0855148339235
 20
78.408111299324503
 30
0.0
 11
-86.97568752176042
 21
63.261568884112691
 31
0.0
  0
ARC
  5
116
  8
DATA
  6
CONTINUOUS
 62
     7
 10
-54.298366821502981
 20
67.0
 30
0.0
 40
5.0
 50
90.0
 51
137.53034386741891
  0
ARC
  5
117
  8
DATA
  6
CONTINUOUS
 62
     7
 10
-54.32440962670686
 20
75.0
 30
0.0
 40
5.0
 50
90.0
 51
137.02945741642691
  0
ARC
  5
118
  8
DATA
  6
CONTINUOUS
 62
     7
 10
-55.255963965998973
 20
75.0
 30
0.0
 40
5.0
 50
89.999999999999943
 51
137.02945741642679
  0
ARC
  5
119
  8
DATA
  6
CONTINUOUS
 62
     7
 10
-105.6755903732931
 20
75.0
 30
0.0
 40
4.9999999999999982
 50
42.970542583573092
 51
90.0
  0
ARC
  5
11A
  8
DATA
  6
CONTINUOUS
 62
     7
 10
-104.744036034001
 20
75.0
 30
0.0
 40
4.9999999999999867
 50
42.970542583573199
 51
90.0
  0
LINE
  5
11B
  8
DATA
  6
CONTINUOUS
 62
     7
 10
-77.79400585145477
 20
12.220299707427239
 30
0.0
 11
-77.79400585145477
 21
-30.69718347137665
 31
0.0
  0
CIRCLE
  5
11C
  8
DATA
  6
CONTINUOUS
 62
     7
 10
-80.0
 20
68.75
 30
0.0
 40
3.75
  0
LINE
  5
11D
  8
DATA
  6
CONTINUOUS
 62
     7
 10
-59.524598972850981
 20
80.0
 30
0.0
 11
-77.690090036594952
 21
65.795881525571104
 31
0.0
  0
LINE
  5
11E
  8
DATA
  6
CONTINUOUS
 62
     7
 10
-59.524598972850981
 20
80.0
 30
0.0
 11
-59.524598972850981
 21
77.753169573393549
 31
0.0
  0
LINE
  5
11F
  8
DATA
  6
CONTINUOUS
 62
     7
 10
-100.475401027149
 20
80.0
 30
0.0
 11
-82.309909963405005
 21
65.795881525571104
 31
0.0
  0
LINE
  5
120
  8
DATA
  6
CONTINUOUS
 62
     7
 10
-100.475401027149
 20
80.0
 30
0.0
 11
-100.475401027149
 21
77.753169573393549
 31
0.0
  0
LINE
  5
121
  8
DATA
  6
CONTINUOUS
 62
     7
 10
98.585786437626922
 20
-81.5
 30
0.0
 11
101.41421356237311
 21
-81.5
 31
0.0
  0
CIRCLE
  5
122
  8
DATA
  6
CONTINUOUS
 62
     7
 10
100.0
 20
-81.0
 30
0.0
 40
1.5
  0
LINE
  5
123
  8
DATA
  6
CONTINUOUS
 62
     7
 10
98.585786437626922
 20
-80.5
 30
0.0
 11
101.41421356237311
 21
-80.5
 31
0.0
  0
INSERT
  5
124
  8
DATA
 62
     7
  2
____-4
 10
0.0
 20
0.0
 30
0.0
  0
ARC
  5
125
  8
DATA
  6
CONTINUOUS
 62
     7
 10
-62.394005851454772
 20
12.220299707427239
 30
0.0
 40
15.4
 50
90.0
 51
180.0
  0
ARC
  5
126
  8
DATA
  6
CONTINUOUS
 62
     7
 10
82.299999999999983
 20
12.29999999999999
 30
0.0
 40
15.4
 50
0.0
 51
90.0
  0
ARC
  5
127
  8
DATA
  6
CONTINUOUS
 62
     7
 10
13.75
 20
35.0
 30
0.0
 40
6.25
 50
126.86989764584401
 51
233.13010235415601
  0
ARC
  5
128
  8
DATA
  6
CONTINUOUS
 62
     7
 10
6.25
 20
25.0
 30
0.0
 40
6.25
 50
306.86989764584411
 51
53.130102354155952
  0
ARC
  5
129
  8
DATA
  6
CONTINUOUS
 62
     7
 10
18.75
 20
35.0
 30
0.0
 40
6.25
 50
126.86989764584401
 51
233.13010235415601
  0
ARC
  5
12A
  8
DATA
  6
CONTINUOUS
 62
     7
 10
11.25
 20
25.0
 30
0.0
 40
6.25
 50
306.86989764584411
 51
53.130102354155952
  0
TEXT
  5
12B
  8
DATA
 62
     7
 10
94.999999999999957
 20
-230.19212999999999
 30
0.0
 40
3.2576822916666659
  1
バウンダリー・マイクロホン
 41
0.7
 11
94.999999999999957
 21
-226.93444770833329
 31
0.0
 73
     3
  0
ENDSEC
  0
EOF
