  0
SECTION
  2
HEADER
  9
$ACADVER
  1
AC1009
  9
$INSBASE
 10
0.0
 20
0.0
 30
0.0
  9
$EXTMIN
 10
-360.02197097989489
 20
-550.20760108796264
 30
-0.0015258207003583
  9
$EXTMAX
 10
360.02197433265633
 20
520.03259740511385
 30
0.0000000349246037
  9
$LIMMIN
 10
0.0
 20
0.0
  9
$LIMMAX
 10
0.0
 20
0.0
  9
$ORTHOMODE
 70
     0
  9
$REGENMODE
 70
     1
  9
$FILLMODE
 70
     1
  9
$QTEXTMODE
 70
     0
  9
$MIRRTEXT
 70
     1
  9
$DRAGMODE
 70
     2
  9
$LTSCALE
 40
20.32
  9
$OSMODE
 70
   231
  9
$ATTMODE
 70
     1
  9
$TEXTSIZE
 40
0.0
  9
$TRACEWID
 40
1.0
  9
$TEXTSTYLE
  7
STANDARD
  9
$CLAYER
  8
DATA
  9
$CELTYPE
  6
BYLAYER
  9
$CECOLOR
 62
   256
  9
$DIMSCALE
 40
1.0
  9
$DIMASZ
 40
0.18
  9
$DIMEXO
 40
0.0625
  9
$DIMDLI
 40
0.38
  9
$DIMRND
 40
0.0
  9
$DIMDLE
 40
0.0
  9
$DIMEXE
 40
0.18
  9
$DIMTP
 40
0.0
  9
$DIMTM
 40
0.0
  9
$DIMTXT
 40
0.18
  9
$DIMCEN
 40
0.09
  9
$DIMTSZ
 40
0.0
  9
$DIMTOL
 70
     0
  9
$DIMLIM
 70
     0
  9
$DIMTIH
 70
     1
  9
$DIMTOH
 70
     1
  9
$DIMSE1
 70
     0
  9
$DIMSE2
 70
     0
  9
$DIMTAD
 70
     0
  9
$DIMZIN
 70
     0
  9
$DIMBLK
  1

  9
$DIMASO
 70
     1
  9
$DIMSHO
 70
     1
  9
$DIMPOST
  1

  9
$DIMAPOST
  1

  9
$DIMALT
 70
     0
  9
$DIMALTD
 70
     2
  9
$DIMALTF
 40
25.399999999999999
  9
$DIMLFAC
 40
1.0
  9
$DIMTOFL
 70
     0
  9
$DIMTVP
 40
0.0
  9
$DIMTIX
 70
     0
  9
$DIMSOXD
 70
     0
  9
$DIMSAH
 70
     0
  9
$DIMBLK1
  1

  9
$DIMBLK2
  1

  9
$DIMSTYLE
  2
STANDARD
  9
$DIMCLRD
 70
     0
  9
$DIMCLRE
 70
     0
  9
$DIMCLRT
 70
     0
  9
$DIMTFAC
 40
1.0
  9
$DIMGAP
 40
0.09
  9
$LUNITS
 70
     2
  9
$LUPREC
 70
     4
  9
$SKETCHINC
 40
0.1
  9
$FILLETRAD
 40
0.0
  9
$AUNITS
 70
     0
  9
$AUPREC
 70
     0
  9
$MENU
  1
acad
  9
$ELEVATION
 40
0.0
  9
$PELEVATION
 40
0.0
  9
$THICKNESS
 40
0.0
  9
$LIMCHECK
 70
     0
  9
$BLIPMODE
 70
     0
  9
$CHAMFERA
 40
0.0
  9
$CHAMFERB
 40
0.0
  9
$SKPOLY
 70
     0
  9
$TDCREATE
 40
2456421.5011921301
  9
$TDUPDATE
 40
2456421.5022126161
  9
$TDINDWG
 40
0.0004880208
  9
$TDUSRTIMER
 40
0.0004876157
  9
$USRTIMER
 70
     1
  9
$ANGBASE
 50
0.0
  9
$ANGDIR
 70
     0
  9
$PDMODE
 70
     1
  9
$PDSIZE
 40
-2.0
  9
$PLINEWID
 40
0.0
  9
$COORDS
 70
     2
  9
$SPLFRAME
 70
     0
  9
$SPLINETYPE
 70
     6
  9
$SPLINESEGS
 70
     8
  9
$ATTDIA
 70
     0
  9
$ATTREQ
 70
     1
  9
$HANDLING
 70
     1
  9
$HANDSEED
  5
564
  9
$SURFTAB1
 70
     6
  9
$SURFTAB2
 70
     6
  9
$SURFTYPE
 70
     6
  9
$SURFU
 70
     6
  9
$SURFV
 70
     6
  9
$UCSNAME
  2

  9
$UCSORG
 10
0.0
 20
0.0
 30
0.0
  9
$UCSXDIR
 10
1.0
 20
0.0
 30
0.0
  9
$UCSYDIR
 10
0.0
 20
1.0
 30
0.0
  9
$PUCSNAME
  2

  9
$PUCSORG
 10
0.0
 20
0.0
 30
0.0
  9
$PUCSXDIR
 10
1.0
 20
0.0
 30
0.0
  9
$PUCSYDIR
 10
0.0
 20
1.0
 30
0.0
  9
$USERI1
 70
     0
  9
$USERI2
 70
     0
  9
$USERI3
 70
     0
  9
$USERI4
 70
     0
  9
$USERI5
 70
     0
  9
$USERR1
 40
0.0
  9
$USERR2
 40
0.0
  9
$USERR3
 40
0.0
  9
$USERR4
 40
0.0
  9
$USERR5
 40
0.0
  9
$WORLDVIEW
 70
     1
  9
$SHADEDGE
 70
     3
  9
$SHADEDIF
 70
    70
  9
$TILEMODE
 70
     1
  9
$MAXACTVP
 70
    64
  9
$PLIMCHECK
 70
     0
  9
$PEXTMIN
 10
1.0000000000000000E+020
 20
1.0000000000000000E+020
 30
1.0000000000000000E+020
  9
$PEXTMAX
 10
-1.0000000000000000E+020
 20
-1.0000000000000000E+020
 30
-1.0000000000000000E+020
  9
$PLIMMIN
 10
0.0
 20
0.0
  9
$PLIMMAX
 10
12.0
 20
9.0
  9
$UNITMODE
 70
     0
  9
$VISRETAIN
 70
     0
  9
$PLINEGEN
 70
     1
  9
$PSLTSCALE
 70
     0
  0
ENDSEC
  0
SECTION
  2
TABLES
  0
TABLE
  2
VPORT
 70
     1
  0
VPORT
  2
*ACTIVE
 70
     0
 10
0.0
 20
0.0
 11
1.0
 21
1.0
 12
0.000001676380748
 22
-14.035138624316
 13
0.0
 23
0.0
 14
1.0
 24
1.0
 15
0.0
 25
0.0
 16
0.0
 26
0.0
 36
1.0
 17
0.0
 27
0.0
 37
0.0
 40
1076.383622422248
 41
2.1585051546391751
 42
50.0
 43
0.0
 44
0.0
 50
0.0
 51
0.0
 71
     0
 72
  2000
 73
     1
 74
     1
 75
     0
 76
     0
 77
     0
 78
     0
  0
ENDTAB
  0
TABLE
  2
LTYPE
 70
    11
  0
LTYPE
  2
CONTINUOUS
 70
     0
  3
Solid line
 72
    65
 73
     0
 40
0.0
  0
ENDTAB
  0
TABLE
  2
LAYER
 70
     5
  0
LAYER
  2
0
 70
     0
 62
     7
  6
CONTINUOUS
  0
LAYER
  2
DATA
 70
     0
 62
     7
  6
CONTINUOUS
  0
LAYER
  2
HIBINO-BASE
 70
     0
 62
     7
  6
CONTINUOUS
  0
LAYER
  2
SPEC
 70
     0
 62
     7
  6
CONTINUOUS
  0
LAYER
  2
DIMNSIONS
 70
     0
 62
     7
  6
CONTINUOUS
  0
ENDTAB
  0
TABLE
  2
STYLE
 70
     3
  0
STYLE
  2
STANDARD
 70
     0
 40
0.0
 41
1.0
 50
0.0
 71
     0
 42
0.0
  3
txt
  4
BIGFONT.SHX
  0
ENDTAB
  0
TABLE
  2
VIEW
 70
     0
  0
ENDTAB
  0
TABLE
  2
UCS
 70
     0
  0
ENDTAB
  0
TABLE
  2
APPID
 70
     4
  0
APPID
  2
ACAD
 70
     0
  0
APPID
  2
ACADANNOTATIVE
 70
     0
  0
APPID
  2
ACAD_NAV_VCDISPLAY
 70
     0
  0
APPID
  2
ACAD_MLEADERVER
 70
     0
  0
ENDTAB
  0
TABLE
  2
DIMSTYLE
 70
     2
  0
DIMSTYLE
  2
STANDARD
 70
     0
  3

  4

  5

  6

  7

 40
1.0
 41
0.18
 42
0.0625
 43
0.38
 44
0.18
 45
0.0
 46
0.0
 47
0.0
 48
0.0
140
0.18
141
0.09
142
0.0
143
25.399999999999999
144
1.0
145
0.0
146
1.0
147
0.09
 71
     0
 72
     0
 73
     1
 74
     1
 75
     0
 76
     0
 77
     0
 78
     0
170
     0
171
     2
172
     0
173
     0
174
     0
175
     0
176
     0
177
     0
178
     0
  0
ENDTAB
  0
ENDSEC
  0
SECTION
  2
BLOCKS
  0
BLOCK
  8
0
  2
$MODEL_SPACE
 70
     0
 10
0.0
 20
0.0
 30
0.0
  3
$MODEL_SPACE
  1

  0
ENDBLK
  5
4E4
  8
0
  0
BLOCK
 67
     1
  8
0
  2
$PAPER_SPACE
 70
     0
 10
0.0
 20
0.0
 30
0.0
  3
$PAPER_SPACE
  1

  0
ENDBLK
  5
4E0
 67
     1
  8
0
  0
ENDSEC
  0
SECTION
  2
ENTITIES
  0
LINE
  5
2C
  8
HIBINO-BASE
  6
CONTINUOUS
 62
     7
 10
-360.0
 20
520.00000000000011
 30
0.0
 11
360.0
 21
520.00000000000011
 31
0.0
  0
LINE
  5
2D
  8
HIBINO-BASE
  6
CONTINUOUS
 62
     7
 10
360.0
 20
-519.99999999999989
 30
0.0
 11
-360.0
 21
-519.99999999999989
 31
0.0
  0
LINE
  5
2E
  8
HIBINO-BASE
  6
CONTINUOUS
 62
     7
 10
-360.0
 20
-519.99999999999989
 30
0.0
 11
-360.0
 21
520.00000000000011
 31
0.0
  0
LINE
  5
2F
  8
HIBINO-BASE
  6
CONTINUOUS
 62
     7
 10
360.0
 20
520.00000000000011
 30
0.0
 11
360.0
 21
-519.99999999999989
 31
0.0
  0
LINE
  5
30
  8
HIBINO-BASE
  6
CONTINUOUS
 62
     7
 10
0.0000000000000284
 20
-429.99999999999989
 30
0.0
 11
360.0
 21
-429.99999999999989
 31
0.0
  0
LINE
  5
31
  8
HIBINO-BASE
  6
CONTINUOUS
 62
     7
 10
0.0000000000000284
 20
-519.99999999999989
 30
0.0
 11
0.0000000000000284
 21
-429.99999999999989
 31
0.0
  0
TEXT
  5
32
  8
HIBINO-BASE
 62
     7
 10
3.6000000000000498
 20
-440.03477333333319
 30
0.0
 40
6.5153645833333318
  1
NOTE
 41
0.7
 11
3.6000000000000512
 21
-433.5194087499998
 31
0.0
 73
     3
  0
LINE
  5
33
  8
HIBINO-BASE
  6
CONTINUOUS
 62
     7
 10
140.00000000000011
 20
-519.99999999999989
 30
0.0
 11
140.00000000000011
 21
-429.99999999999989
 31
0.0
  0
TEXT
  5
34
  8
HIBINO-BASE
 62
     7
 10
143.59999999999999
 20
-440.03477333333319
 30
0.0
 40
6.5153645833333318
  1
TITLE
 41
0.7
 11
143.59999999999999
 21
-433.5194087499998
 31
0.0
 73
     3
  0
LINE
  5
35
  8
HIBINO-BASE
  6
CONTINUOUS
 62
     7
 10
0.0000000000000284
 20
-479.99999999999989
 30
0.0
 11
360.0
 21
-479.99999999999989
 31
0.0
  0
TEXT
  5
36
  8
HIBINO-BASE
 62
     7
 10
193.59999999999999
 20
-489.80949333333319
 30
0.0
 40
6.5153645833333318
  1
DRAWN
 41
0.7
 11
193.59999999999999
 21
-483.2941287499998
 31
0.0
 73
     3
  0
TEXT
  5
37
  8
HIBINO-BASE
 62
     7
 10
93.599999999999994
 20
-489.80949333333319
 30
0.0
 40
6.5153645833333318
  1
DATE
 41
0.7
 11
93.599999999999994
 21
-483.2941287499998
 31
0.0
 73
     3
  0
TEXT
  5
38
  8
HIBINO-BASE
 62
     7
 10
53.600000000000001
 20
-489.80949333333319
 30
0.0
 40
6.5153645833333318
  1
SCALE
 41
0.7
 11
53.600000000000001
 21
-483.2941287499998
 31
0.0
 73
     3
  0
TEXT
  5
39
  8
HIBINO-BASE
 62
     7
 10
143.59999999999999
 20
-489.80949333333319
 30
0.0
 40
6.5153645833333318
  1
DESIGN
 41
0.7
 11
143.59999999999999
 21
-483.2941287499998
 31
0.0
 73
     3
  0
TEXT
  5
3A
  8
HIBINO-BASE
 62
     7
 10
293.60000000000002
 20
-489.80949333333319
 30
0.0
 40
6.5153645833333318
  1
DRAWING NO.
 41
0.7
 11
293.60000000000002
 21
-483.2941287499998
 31
0.0
 73
     3
  0
TEXT
  5
3B
  8
HIBINO-BASE
 62
     7
 10
243.59999999999999
 20
-489.80949333333319
 30
0.0
 40
6.5153645833333318
  1
CHECK
 41
0.7
 11
243.59999999999999
 21
-483.2941287499998
 31
0.0
 73
     3
  0
LINE
  5
3C
  8
HIBINO-BASE
  6
CONTINUOUS
 62
     7
 10
57.500000000000021
 20
-514.99999999999977
 30
0.0
 11
72.500000000000071
 21
-499.99999999999989
 31
0.0
  0
TEXT
  5
3D
  8
HIBINO-BASE
 62
     7
 10
55.000000000000021
 20
-504.4357733333332
 30
0.0
 40
6.5153645833333318
  1
1
 41
0.7
 11
55.000000000000021
 21
-497.92040874999992
 31
0.0
 73
     3
  0
LINE
  5
3E
  8
HIBINO-BASE
  6
CONTINUOUS
 62
     7
 10
50.000000000000021
 20
-519.99999999999989
 30
0.0
 11
50.000000000000021
 21
-479.99999999999989
 31
0.0
  0
LINE
  5
3F
  8
HIBINO-BASE
  6
CONTINUOUS
 62
     7
 10
89.999999999999957
 20
-519.99999999999989
 30
0.0
 11
89.999999999999957
 21
-479.99999999999989
 31
0.0
  0
LINE
  5
40
  8
HIBINO-BASE
  6
CONTINUOUS
 62
     7
 10
190.0
 20
-479.99999999999989
 30
0.0
 11
190.0
 21
-519.99999999999989
 31
0.0
  0
LINE
  5
41
  8
HIBINO-BASE
  6
CONTINUOUS
 62
     7
 10
290.00000000000011
 20
-479.99999999999989
 30
0.0
 11
290.00000000000011
 21
-519.99999999999989
 31
0.0
  0
LINE
  5
42
  8
HIBINO-BASE
  6
CONTINUOUS
 62
     7
 10
240.0
 20
-519.99999999999989
 30
0.0
 11
240.0
 21
-479.99999999999989
 31
0.0
  0
TEXT
  5
43
  8
HIBINO-BASE
 62
     7
 10
93.426160000000039
 20
-508.5454133333331
 30
0.0
 40
6.5153645833333318
  1
'13.05.
 41
0.7
 11
93.426160000000039
 21
-502.03004874999982
 31
0.0
 73
     3
  0
TEXT
  5
44
  8
HIBINO-BASE
 62
     7
 10
70.000000000000014
 20
-511.9357733333332
 30
0.0
 40
6.5153645833333318
  1
4
 41
0.7
 11
70.000000000000014
 21
-505.42040874999992
 31
0.0
 73
     3
  0
TEXT
  5
45
  8
HIBINO-BASE
 62
     7
 10
196.02324004413839
 20
-508.5454133333331
 30
0.0
 40
6.5153645833333318
  1
N.Sasaki
 41
0.7
 11
196.02324004413839
 21
-502.03004874999982
 31
0.0
 73
     3
  0
TEXT
  5
46
  8
HIBINO-BASE
 62
     7
 10
15.53333333333344
 20
-512.09599999999989
 30
0.0
 40
13.03072916666666
  1
A4
 41
0.7
 11
15.53333333333344
 21
-499.06527083333322
 31
0.0
 73
     3
  0
TEXT
  5
47
  8
HIBINO-BASE
 62
     7
 10
3.8333333333333419
 20
-490.47781999999978
 30
0.0
 40
6.5153645833333318
  1
PAPER SIZE
 41
0.7
 11
3.8333333333333428
 21
-483.9624554166665
 31
0.0
 73
     3
  0
TEXT
  5
48
  8
HIBINO-BASE
 62
     7
 10
-331.2639999999999
 20
-545.50205999999957
 30
0.0
 40
14.116623263888879
  1
Hibino-Intersound Corporation
 41
0.7
 11
-331.2639999999999
 21
-531.38543673611082
 31
0.0
 73
     3
  0
TEXT
  5
49
  8
HIBINO-BASE
 62
     7
 10
56.097336668972517
 20
-545.50205999999957
 30
0.0
 40
14.116623263888879
  1
ヒビノインターサウンド株式会社
 41
0.7
 11
56.097336668972517
 21
-531.38543673611082
 31
0.0
 73
     3
  0
LINE
  5
4A
  8
SPEC
  6
CONTINUOUS
 62
     7
 10
-329.99999999999989
 20
480.0
 30
0.0
 11
275.0
 21
480.0
 31
0.0
  0
LINE
  5
4B
  8
SPEC
  6
CONTINUOUS
 62
     7
 10
-329.99999999999989
 20
465.0
 30
0.0
 11
275.0
 21
465.0
 31
0.0
  0
LINE
  5
4C
  8
SPEC
  6
CONTINUOUS
 62
     7
 10
-329.99999999999989
 20
405.0
 30
0.0
 11
275.0
 21
405.0
 31
0.0
  0
LINE
  5
4D
  8
SPEC
  6
CONTINUOUS
 62
     7
 10
-329.99999999999989
 20
420.00000000000011
 30
0.0
 11
275.0
 21
420.00000000000011
 31
0.0
  0
LINE
  5
4E
  8
SPEC
  6
CONTINUOUS
 62
     7
 10
-329.99999999999989
 20
435.0
 30
0.0
 11
275.0
 21
435.0
 31
0.0
  0
LINE
  5
4F
  8
SPEC
  6
CONTINUOUS
 62
     7
 10
-329.99999999999989
 20
390.00000000000011
 30
0.0
 11
275.0
 21
390.00000000000011
 31
0.0
  0
LINE
  5
50
  8
SPEC
  6
CONTINUOUS
 62
     7
 10
-329.99999999999989
 20
375.0
 30
0.0
 11
275.0
 21
375.0
 31
0.0
  0
LINE
  5
51
  8
SPEC
  6
CONTINUOUS
 62
     7
 10
-329.99999999999989
 20
360.0
 30
0.0
 11
275.0
 21
360.0
 31
0.0
  0
LINE
  5
52
  8
SPEC
  6
CONTINUOUS
 62
     7
 10
-329.99999999999989
 20
345.00000000000011
 30
0.0
 11
275.0
 21
345.00000000000011
 31
0.0
  0
LINE
  5
53
  8
SPEC
  6
CONTINUOUS
 62
     7
 10
-329.99999999999989
 20
450.0
 30
0.0
 11
275.0
 21
450.0
 31
0.0
  0
TEXT
  5
54
  8
SPEC
 62
     7
 10
-171.40000000000001
 20
468.15168640000002
 30
0.0
 40
7.6012449999999978
  1
エレクトレットコンデンサー型 
 41
0.7
 11
-171.40000000000001
 21
475.75293140000002
 31
0.0
 73
     3
  0
LINE
  5
55
  8
SPEC
  6
CONTINUOUS
 62
     7
 10
-329.99999999999989
 20
315.00000000000011
 30
0.0
 11
275.0
 21
315.00000000000011
 31
0.0
  0
LINE
  5
56
  8
SPEC
  6
CONTINUOUS
 62
     7
 10
-329.99999999999989
 20
300.0
 30
0.0
 11
275.0
 21
300.0
 31
0.0
  0
LINE
  5
57
  8
SPEC
  6
CONTINUOUS
 62
     7
 10
-329.99999999999989
 20
255.00000000000011
 30
0.0
 11
275.0
 21
255.00000000000011
 31
0.0
  0
LINE
  5
58
  8
SPEC
  6
CONTINUOUS
 62
     7
 10
-329.99999999999989
 20
480.0
 30
0.0
 11
-329.99999999999989
 21
255.00000000000011
 31
0.0
  0
TEXT
  5
59
  8
SPEC
 62
     7
 10
-324.99999999999989
 20
485.57307999999989
 30
0.0
 40
9.7730468750000004
  1
仕様
 41
0.7
 11
-324.99999999999989
 21
495.34612687499992
 31
0.0
 73
     3
  0
LINE
  5
5A
  8
SPEC
  6
CONTINUOUS
 62
     7
 10
-175.0
 20
480.0
 30
0.0
 11
-175.0
 21
255.00000000000011
 31
0.0
  0
LINE
  5
5B
  8
SPEC
  6
CONTINUOUS
 62
     7
 10
275.0
 20
480.0
 30
0.0
 11
275.0
 21
255.00000000000011
 31
0.0
  0
TEXT
  5
5C
  8
SPEC
 62
     7
 10
-171.40000000000001
 20
333.15168640000007
 30
0.0
 40
7.6012449999999978
  1
\U+03C615.0\U+00D7442mm
 41
0.7
 11
-171.40000000000001
 21
340.75293140000008
 31
0.0
 73
     3
  0
TEXT
  5
5D
  8
SPEC
 62
     7
 10
-171.40000000000001
 20
348.15168640000007
 30
0.0
 40
7.6012449999999978
  1
XLR3ピン、オス
 41
0.7
 11
-171.40000000000001
 21
355.75293140000008
 31
0.0
 73
     3
  0
TEXT
  5
5E
  8
SPEC
 62
     7
 10
-171.40000000000001
 20
303.15168640000007
 30
0.0
 40
7.6012449999999978
  1
スナップフィット・ウインドスクリーン(95A16670)、マウント用フランジ(RPM640)
 41
0.7
 11
-171.40000000000001
 21
310.75293140000008
 31
0.0
 73
     3
  0
TEXT
  5
5F
  8
SPEC
 62
     7
 10
-326.39999999999998
 20
288.15168640000007
 30
0.0
 40
7.6012449999999978
  1
オプション
 41
0.7
 11
-326.39999999999998
 21
295.75293140000019
 31
0.0
 73
     3
  0
TEXT
  5
60
  8
SPEC
 62
     7
 10
-326.39999999999998
 20
408.15168640000007
 30
0.0
 40
7.6012449999999978
  1
開回路感度
 41
0.7
 11
-326.39999999999998
 21
415.75293140000002
 31
0.0
 73
     3
  0
TEXT
  5
61
  8
SPEC
 62
     7
 10
-326.39999999999998
 20
468.15168640000002
 30
0.0
 40
7.6012449999999978
  1
カートリッジタイプ
 41
0.7
 11
-326.39999999999998
 21
475.75293140000002
 31
0.0
 73
     3
  0
TEXT
  5
62
  8
SPEC
 62
     7
 10
-326.39999999999998
 20
318.15168640000007
 30
0.0
 40
7.6012449999999978
  1
質量
 41
0.7
 11
-326.39999999999998
 21
325.75293140000008
 31
0.0
 73
     3
  0
TEXT
  5
63
  8
SPEC
 62
     7
 10
-326.39999999999998
 20
378.15168640000007
 30
0.0
 40
7.6012449999999978
  1
最大音圧レベル(1kHz、THD1%%%)
 41
0.7
 11
-326.39999999999998
 21
385.75293140000008
 31
0.0
 73
     3
  0
TEXT
  5
64
  8
SPEC
 62
     7
 10
-326.39999999999998
 20
363.15168640000007
 30
0.0
 40
7.6012449999999978
  1
電源
 41
0.7
 11
-326.39999999999998
 21
370.75293140000008
 31
0.0
 73
     3
  0
TEXT
  5
65
  8
SPEC
 62
     7
 10
-326.39999999999998
 20
423.15168640000002
 30
0.0
 40
7.6012449999999978
  1
インピーダンス
 41
0.7
 11
-326.39999999999998
 21
430.75293140000002
 31
0.0
 73
     3
  0
TEXT
  5
66
  8
SPEC
 62
     7
 10
-326.39999999999998
 20
393.15168640000007
 30
0.0
 40
7.6012449999999978
  1
等価雑音レベル
 41
0.7
 11
-326.39999999999998
 21
400.75293140000008
 31
0.0
 73
     3
  0
TEXT
  5
67
  8
SPEC
 62
     7
 10
-326.39999999999998
 20
453.15168640000007
 30
0.0
 40
7.6012449999999978
  1
指向特性
 41
0.7
 11
-326.39999999999998
 21
460.75293140000002
 31
0.0
 73
     3
  0
TEXT
  5
68
  8
SPEC
 62
     7
 10
-326.39999999999998
 20
438.15168640000002
 30
0.0
 40
7.6012449999999978
  1
周波数特性
 41
0.7
 11
-326.39999999999998
 21
445.75293140000008
 31
0.0
 73
     3
  0
TEXT
  5
69
  8
SPEC
 62
     7
 10
-326.39999999999998
 20
348.15168640000007
 30
0.0
 40
7.6012449999999978
  1
コネクター
 41
0.7
 11
-326.39999999999998
 21
355.75293140000008
 31
0.0
 73
     3
  0
TEXT
  5
6A
  8
SPEC
 62
     7
 10
-326.39999999999998
 20
333.15168640000007
 30
0.0
 40
7.6012449999999978
  1
寸法(マイクヘッド\U+03C6\U+00D7全長)
 41
0.7
 11
-326.39999999999998
 21
340.75293140000008
 31
0.0
 73
     3
  0
TEXT
  5
6B
  8
SPEC
 62
     7
 10
-326.39999999999998
 20
303.15168640000007
 30
0.0
 40
7.6012449999999978
  1
付属品
 41
0.7
 11
-326.39999999999998
 21
310.75293140000008
 31
0.0
 73
     3
  0
TEXT
  5
6C
  8
SPEC
 62
     7
 10
-171.40000000000001
 20
288.15168640000007
 30
0.0
 40
7.6012449999999978
  1
デスクトップベース（CVD-B)、スナップフィット・ウインドスクリーン4個セッ(ACVG4WS-B)
 41
0.7
 11
-171.40000000000001
 21
295.75293140000019
 31
0.0
 73
     3
  0
TEXT
  5
6D
  8
SPEC
 62
     7
 10
-171.40000000000001
 20
408.15168640000007
 30
0.0
 40
7.6012449999999978
  1
－33dB re 1V/Pa
 41
0.7
 11
-171.40000000000001
 21
415.75293140000002
 31
0.0
 73
     3
  0
TEXT
  5
6E
  8
SPEC
 62
     7
 10
-171.40000000000001
 20
378.15168640000007
 30
0.0
 40
7.6012449999999978
  1
120dB SPL
 41
0.7
 11
-171.40000000000001
 21
385.75293140000019
 31
0.0
 73
     3
  0
TEXT
  5
6F
  8
SPEC
 62
     7
 10
-171.40000000000001
 20
363.15168640000007
 30
0.0
 40
7.6012449999999978
  1
ファンタムDC11～52V/5.5mA
 41
0.7
 11
-171.40000000000001
 21
370.75293140000008
 31
0.0
 73
     3
  0
TEXT
  5
70
  8
SPEC
 62
     7
 10
-171.40000000000001
 20
318.15168640000007
 30
0.0
 40
7.6012449999999978
  1
176g
 41
0.7
 11
-171.40000000000001
 21
325.75293140000008
 31
0.0
 73
     3
  0
TEXT
  5
71
  8
SPEC
 62
     7
 10
-171.40000000000001
 20
423.15168640000002
 30
0.0
 40
7.6012449999999978
  1
180\U+03A9
 41
0.7
 11
-171.40000000000001
 21
430.75293140000002
 31
0.0
 73
     3
  0
TEXT
  5
72
  8
SPEC
 62
     7
 10
-171.40000000000001
 20
393.15168640000007
 30
0.0
 40
7.6012449999999978
  1
27dB SPL
 41
0.7
 11
-171.40000000000001
 21
400.75293140000008
 31
0.0
 73
     3
  0
TEXT
  5
73
  8
SPEC
 62
     7
 10
-171.40000000000001
 20
438.15168640000002
 30
0.0
 40
7.6012449999999978
  1
70Hz～16kHz
 41
0.7
 11
-171.40000000000001
 21
445.75293140000008
 31
0.0
 73
     3
  0
TEXT
  5
74
  8
SPEC
 62
     7
 10
-171.40000000000001
 20
453.15168640000007
 30
0.0
 40
7.6012449999999978
  1
カーディオイド
 41
0.7
 11
-171.40000000000001
 21
460.75293140000002
 31
0.0
 73
     3
  0
LINE
  5
75
  8
SPEC
  6
CONTINUOUS
 62
     7
 10
-329.99999999999989
 20
330.00000000000011
 30
0.0
 11
275.0
 21
330.00000000000011
 31
0.0
  0
TEXT
  5
76
  8
SPEC
 62
     7
 10
-171.40000000000001
 20
273.15168640000007
 30
0.0
 40
7.6012449999999978
  1
マイクホルダー(A57F)、マイクケーブル（C25J:ケーブル長7.6m、XLRメス-XLRオス)
 41
0.7
 11
-171.40000000000001
 21
280.75293140000008
 31
0.0
 73
     3
  0
TEXT
  5
77
  8
SPEC
 62
     7
 10
-171.40000000000001
 20
258.15168640000007
 30
0.0
 40
7.6012449999999978
  1
ショックマウント（A400SM)
 41
0.7
 11
-171.40000000000001
 21
265.75293140000008
 31
0.0
 73
     3
  0
TEXT
  5
78
  8
DIMNSIONS
 62
     7
 10
-79.999999999999972
 20
-470.9220399999997
 30
0.0
 40
9.7730468750000004
  1
(単位：mm)
 41
0.7
 11
-79.999999999999972
 21
-461.14899312499972
 31
0.0
 73
     3
  0
LINE
  5
79
  8
DIMNSIONS
  6
CONTINUOUS
 62
     7
 10
-164.0
 20
67.000000000000014
 30
0.0
 11
-208.0
 21
67.000000000000014
 31
0.0
  0
LINE
  5
7A
  8
DIMNSIONS
  6
CONTINUOUS
 62
     7
 10
-167.5
 20
-375.0
 30
0.0
 11
-208.0
 21
-375.0
 31
0.0
  0
LINE
  5
7B
  8
DIMNSIONS
  6
CONTINUOUS
 62
     7
 10
-200.0
 20
67.000000000000014
 30
0.0
 11
-200.0
 21
-375.0
 31
0.0
  0
LINE
  5
7C
  8
DIMNSIONS
  6
CONTINUOUS
 62
     7
 10
-200.0
 20
67.000000000000014
 30
0.0
 11
-197.31984081939899
 21
56.997509765625011
 31
0.0
  0
LINE
  5
7D
  8
DIMNSIONS
  6
CONTINUOUS
 62
     7
 10
-200.0
 20
67.000000000000014
 30
0.0
 11
-202.68015918060101
 21
56.997509765625011
 31
0.0
  0
LINE
  5
7E
  8
DIMNSIONS
  6
CONTINUOUS
 62
     7
 10
-200.0
 20
-375.0
 30
0.0
 11
-202.68015918060101
 21
-364.9975097656249
 31
0.0
  0
LINE
  5
7F
  8
DIMNSIONS
  6
CONTINUOUS
 62
     7
 10
-200.0
 20
-375.0
 30
0.0
 11
-197.31984081939899
 21
-364.9975097656249
 31
0.0
  0
TEXT
  5
80
  8
DIMNSIONS
 62
     7
 10
-203.9755555555555
 20
-164.58333333333329
 30
0.0
 40
10.85894097222222
  1
442
 50
90.0
 41
0.7
 11
-214.8344965277777
 21
-164.58333333333329
 31
0.0
 73
     3
  0
LINE
  5
81
  8
DIMNSIONS
  6
CONTINUOUS
 62
     7
 10
-137.59999999999991
 20
-414.7251133647402
 30
0.0
 11
-137.59999999999991
 21
-458.0
 31
0.0
  0
LINE
  5
82
  8
DIMNSIONS
  6
CONTINUOUS
 62
     7
 10
-162.39999999999989
 20
-414.72511336474082
 30
0.0
 11
-162.39999999999989
 21
-458.0
 31
0.0
  0
LINE
  5
83
  8
DIMNSIONS
  6
CONTINUOUS
 62
     7
 10
-162.39999999999989
 20
-450.0
 30
0.0
 11
-193.61111111111109
 21
-450.0
 31
0.0
  0
LINE
  5
84
  8
DIMNSIONS
  6
CONTINUOUS
 62
     7
 10
-137.59999999999991
 20
-450.0
 30
0.0
 11
-162.39999999999989
 21
-450.0
 31
0.0
  0
LINE
  5
85
  8
DIMNSIONS
  6
CONTINUOUS
 62
     7
 10
-137.59999999999991
 20
-450.0
 30
0.0
 11
-147.6024902343749
 21
-452.68015918060098
 31
0.0
  0
LINE
  5
86
  8
DIMNSIONS
  6
CONTINUOUS
 62
     7
 10
-137.59999999999991
 20
-450.0
 30
0.0
 11
-147.6024902343749
 21
-447.31984081939902
 31
0.0
  0
LINE
  5
87
  8
DIMNSIONS
  6
CONTINUOUS
 62
     7
 10
-162.39999999999989
 20
-450.0
 30
0.0
 11
-152.39750976562499
 21
-447.31984081939902
 31
0.0
  0
LINE
  5
88
  8
DIMNSIONS
  6
CONTINUOUS
 62
     7
 10
-162.39999999999989
 20
-450.0
 30
0.0
 11
-152.39750976562499
 21
-452.68015918060098
 31
0.0
  0
TEXT
  5
89
  8
DIMNSIONS
 62
     7
 10
-193.61111111111109
 20
-446.0244444444445
 30
0.0
 40
10.85894097222222
  1
24.8
 41
0.7
 11
-193.61111111111109
 21
-435.16550347222221
 31
0.0
 73
     3
  0
LINE
  5
8A
  8
DIMNSIONS
  6
CONTINUOUS
 62
     7
 10
-158.0
 20
173.0000000000002
 30
0.0
 11
-208.0
 21
173.0000000000002
 31
0.0
  0
LINE
  5
8B
  8
DIMNSIONS
  6
CONTINUOUS
 62
     7
 10
-158.0
 20
137.5
 30
0.0
 11
-208.0
 21
137.5
 31
0.0
  0
LINE
  5
8C
  8
DIMNSIONS
  6
CONTINUOUS
 62
     7
 10
-200.0
 20
173.0000000000002
 30
0.0
 11
-200.0
 21
137.5
 31
0.0
  0
LINE
  5
8D
  8
DIMNSIONS
  6
CONTINUOUS
 62
     7
 10
-200.0
 20
173.0000000000002
 30
0.0
 11
-197.31984081939899
 21
162.99750976562521
 31
0.0
  0
LINE
  5
8E
  8
DIMNSIONS
  6
CONTINUOUS
 62
     7
 10
-200.0
 20
173.0000000000002
 30
0.0
 11
-202.68015918060101
 21
162.99750976562521
 31
0.0
  0
LINE
  5
8F
  8
DIMNSIONS
  6
CONTINUOUS
 62
     7
 10
-200.0
 20
137.5
 30
0.0
 11
-202.68015918060101
 21
147.50249023437499
 31
0.0
  0
LINE
  5
90
  8
DIMNSIONS
  6
CONTINUOUS
 62
     7
 10
-200.0
 20
137.5
 30
0.0
 11
-197.31984081939899
 21
147.50249023437499
 31
0.0
  0
TEXT
  5
91
  8
DIMNSIONS
 62
     7
 10
-203.9755555555555
 20
141.138888888889
 30
0.0
 40
10.85894097222222
  1
35.5
 50
90.0
 41
0.7
 11
-214.8344965277777
 21
141.138888888889
 31
0.0
 73
     3
  0
LINE
  5
92
  8
DIMNSIONS
  6
CONTINUOUS
 62
     7
 10
167.0
 20
-66.75
 30
0.0
 11
104.5
 21
-66.75
 31
0.0
  0
LINE
  5
93
  8
DIMNSIONS
  6
CONTINUOUS
 62
     7
 10
167.0
 20
-133.25
 30
0.0
 11
104.5
 21
-133.25
 31
0.0
  0
LINE
  5
94
  8
DIMNSIONS
  6
CONTINUOUS
 62
     7
 10
112.5
 20
-66.75
 30
0.0
 11
112.5
 21
-133.25
 31
0.0
  0
LINE
  5
95
  8
DIMNSIONS
  6
CONTINUOUS
 62
     7
 10
112.5
 20
-66.75
 30
0.0
 11
115.1801591806009
 21
-76.752490234375017
 31
0.0
  0
LINE
  5
96
  8
DIMNSIONS
  6
CONTINUOUS
 62
     7
 10
112.5
 20
-66.75
 30
0.0
 11
109.819840819399
 21
-76.752490234375017
 31
0.0
  0
LINE
  5
97
  8
DIMNSIONS
  6
CONTINUOUS
 62
     7
 10
112.5
 20
-133.25
 30
0.0
 11
109.819840819399
 21
-123.247509765625
 31
0.0
  0
LINE
  5
98
  8
DIMNSIONS
  6
CONTINUOUS
 62
     7
 10
112.5
 20
-133.25
 30
0.0
 11
115.1801591806009
 21
-123.247509765625
 31
0.0
  0
TEXT
  5
99
  8
DIMNSIONS
 62
     7
 10
108.5244444444444
 20
-114.1111111111111
 30
0.0
 40
10.85894097222222
  1
66.5
 50
90.0
 41
0.7
 11
97.665503472222213
 21
-114.1111111111111
 31
0.0
 73
     3
  0
LINE
  5
9A
  8
DIMNSIONS
  6
CONTINUOUS
 62
     7
 10
148.09999999999999
 20
-200.0
 30
0.0
 11
104.5
 21
-200.0
 31
0.0
  0
LINE
  5
9B
  8
DIMNSIONS
  6
CONTINUOUS
 62
     7
 10
151.5
 20
-184.0
 30
0.0
 11
104.5
 21
-184.0
 31
0.0
  0
LINE
  5
9C
  8
DIMNSIONS
  6
CONTINUOUS
 62
     7
 10
112.5
 20
-184.0
 30
0.0
 11
112.5
 21
-200.0
 31
0.0
  0
LINE
  5
9D
  8
DIMNSIONS
  6
CONTINUOUS
 62
     7
 10
112.5
 20
-200.0
 30
0.0
 11
112.5
 21
-220.0
 31
0.0
  0
LINE
  5
9E
  8
DIMNSIONS
  6
CONTINUOUS
 62
     7
 10
112.5
 20
-200.0
 30
0.0
 11
115.1801591806009
 21
-210.00249023437499
 31
0.0
  0
LINE
  5
9F
  8
DIMNSIONS
  6
CONTINUOUS
 62
     7
 10
112.5
 20
-200.0
 30
0.0
 11
109.819840819399
 21
-210.00249023437499
 31
0.0
  0
LINE
  5
A0
  8
DIMNSIONS
  6
CONTINUOUS
 62
     7
 10
112.5
 20
-184.0
 30
0.0
 11
112.5
 21
-148.38888888888891
 31
0.0
  0
LINE
  5
A1
  8
DIMNSIONS
  6
CONTINUOUS
 62
     7
 10
112.5
 20
-184.0
 30
0.0
 11
109.819840819399
 21
-173.99750976562501
 31
0.0
  0
LINE
  5
A2
  8
DIMNSIONS
  6
CONTINUOUS
 62
     7
 10
112.5
 20
-184.0
 30
0.0
 11
115.1801591806009
 21
-173.99750976562501
 31
0.0
  0
TEXT
  5
A3
  8
DIMNSIONS
 62
     7
 10
104.6355555555555
 20
-176.61111111111109
 30
0.0
 40
10.85894097222222
  1
16.0
 50
90.0
 41
0.7
 11
93.776614583333327
 21
-176.61111111111109
 31
0.0
 73
     3
  0
LINE
  5
A4
  8
DIMNSIONS
  6
CONTINUOUS
 62
     7
 10
167.0
 20
111.5036184895625
 30
0.0
 11
117.0
 21
111.5036184895625
 31
0.0
  0
LINE
  5
A5
  8
DIMNSIONS
  6
CONTINUOUS
 62
     7
 10
167.0
 20
138.49638151043749
 30
0.0
 11
117.0
 21
138.49638151043749
 31
0.0
  0
LINE
  5
A6
  8
DIMNSIONS
  6
CONTINUOUS
 62
     7
 10
125.0
 20
111.5036184895625
 30
0.0
 11
125.0
 21
138.49638151043749
 31
0.0
  0
LINE
  5
A7
  8
DIMNSIONS
  6
CONTINUOUS
 62
     7
 10
125.0
 20
111.5036184895625
 30
0.0
 11
122.319840819399
 21
121.5061087239375
 31
0.0
  0
LINE
  5
A8
  8
DIMNSIONS
  6
CONTINUOUS
 62
     7
 10
125.0
 20
111.5036184895625
 30
0.0
 11
127.6801591806009
 21
121.5061087239375
 31
0.0
  0
LINE
  5
A9
  8
DIMNSIONS
  6
CONTINUOUS
 62
     7
 10
125.0
 20
138.49638151043749
 30
0.0
 11
127.6801591806009
 21
128.4938912760625
 31
0.0
  0
LINE
  5
AA
  8
DIMNSIONS
  6
CONTINUOUS
 62
     7
 10
125.0
 20
138.49638151043749
 30
0.0
 11
122.319840819399
 21
128.4938912760625
 31
0.0
  0
TEXT
  5
AB
  8
DIMNSIONS
 62
     7
 10
121.0244444444444
 20
110.8888888888889
 30
0.0
 40
10.85894097222222
  1
27.0
 50
90.0
 41
0.7
 11
110.1655034722222
 21
110.8888888888889
 31
0.0
 73
     3
  0
LINE
  5
AC
  8
DIMNSIONS
  6
CONTINUOUS
 62
     7
 10
159.6597010349611
 20
90.0
 30
0.0
 11
117.0
 21
90.0
 31
0.0
  0
LINE
  5
AD
  8
DIMNSIONS
  6
CONTINUOUS
 62
     7
 10
159.0
 20
50.0
 30
0.0
 11
117.0
 21
50.0
 31
0.0
  0
LINE
  5
AE
  8
DIMNSIONS
  6
CONTINUOUS
 62
     7
 10
125.0
 20
90.0
 30
0.0
 11
125.0
 21
50.0
 31
0.0
  0
LINE
  5
AF
  8
DIMNSIONS
  6
CONTINUOUS
 62
     7
 10
125.0
 20
90.0
 30
0.0
 11
127.6801591806009
 21
79.997509765624983
 31
0.0
  0
LINE
  5
B0
  8
DIMNSIONS
  6
CONTINUOUS
 62
     7
 10
125.0
 20
90.0
 30
0.0
 11
122.319840819399
 21
79.997509765624983
 31
0.0
  0
LINE
  5
B1
  8
DIMNSIONS
  6
CONTINUOUS
 62
     7
 10
125.0
 20
50.0
 30
0.0
 11
122.319840819399
 21
60.002490234375003
 31
0.0
  0
LINE
  5
B2
  8
DIMNSIONS
  6
CONTINUOUS
 62
     7
 10
125.0
 20
50.0
 30
0.0
 11
127.6801591806009
 21
60.002490234375003
 31
0.0
  0
TEXT
  5
B3
  8
DIMNSIONS
 62
     7
 10
121.0244444444444
 20
55.888888888888893
 30
0.0
 40
10.85894097222222
  1
40.0
 50
90.0
 41
0.7
 11
110.1655034722222
 21
55.888888888888893
 31
0.0
 73
     3
  0
LINE
  5
B4
  8
DIMNSIONS
  6
CONTINUOUS
 62
     7
 10
-157.5
 20
53.200000000000003
 30
0.0
 11
-157.5
 21
108.0
 31
0.0
  0
LINE
  5
B5
  8
DIMNSIONS
  6
CONTINUOUS
 62
     7
 10
-142.5
 20
53.200000000000003
 30
0.0
 11
-142.5
 21
108.0
 31
0.0
  0
LINE
  5
B6
  8
DIMNSIONS
  6
CONTINUOUS
 62
     7
 10
-142.5
 20
100.0
 30
0.0
 11
-157.5
 21
100.0
 31
0.0
  0
LINE
  5
B7
  8
DIMNSIONS
  6
CONTINUOUS
 62
     7
 10
-157.5
 20
100.0
 30
0.0
 11
-201.61111111111109
 21
100.0
 31
0.0
  0
LINE
  5
B8
  8
DIMNSIONS
  6
CONTINUOUS
 62
     7
 10
-157.5
 20
100.0
 30
0.0
 11
-167.50249023437499
 21
97.319840819399019
 31
0.0
  0
LINE
  5
B9
  8
DIMNSIONS
  6
CONTINUOUS
 62
     7
 10
-157.5
 20
100.0
 30
0.0
 11
-167.50249023437499
 21
102.6801591806009
 31
0.0
  0
LINE
  5
BA
  8
DIMNSIONS
  6
CONTINUOUS
 62
     7
 10
-142.5
 20
100.0
 30
0.0
 11
-122.5
 21
100.0
 31
0.0
  0
LINE
  5
BB
  8
DIMNSIONS
  6
CONTINUOUS
 62
     7
 10
-142.5
 20
100.0
 30
0.0
 11
-132.49750976562501
 21
102.6801591806009
 31
0.0
  0
LINE
  5
BC
  8
DIMNSIONS
  6
CONTINUOUS
 62
     7
 10
-142.5
 20
100.0
 30
0.0
 11
-132.49750976562501
 21
97.319840819399062
 31
0.0
  0
TEXT
  5
BD
  8
DIMNSIONS
 62
     7
 10
-201.61111111111109
 20
103.9755555555555
 30
0.0
 40
10.85894097222222
  1
15.0
 41
0.7
 11
-201.61111111111109
 21
114.8344965277778
 31
0.0
 73
     3
  0
LINE
  5
BE
  8
DIMNSIONS
  6
CONTINUOUS
 62
     7
 10
153.23511464256521
 20
-114.87623858196569
 30
0.0
 11
160.0
 21
-159.99999999999989
 31
0.0
  0
LINE
  5
BF
  8
DIMNSIONS
  6
CONTINUOUS
 62
     7
 10
153.23511464256521
 20
-114.87623858196569
 30
0.0
 11
157.44701082506839
 21
-124.3363122957346
 31
0.0
  0
LINE
  5
C0
  8
DIMNSIONS
  6
CONTINUOUS
 62
     7
 10
153.23511464256521
 20
-114.87623858196569
 30
0.0
 11
152.15268687783109
 21
-125.1748508310145
 31
0.0
  0
LINE
  5
C1
  8
DIMNSIONS
  6
CONTINUOUS
 62
     7
 10
160.0
 20
-159.99999999999989
 30
0.0
 11
217.3889588673909
 21
-159.99999999999989
 31
0.0
  0
TEXT
  5
C2
  8
DIMNSIONS
 62
     7
 10
168.0
 20
-156.0244416478256
 30
0.0
 40
10.858956344261941
  1
3-\U+03C64.3
 41
0.7
 11
168.0
 21
-145.1654853035636
 31
0.0
 73
     3
  0
TEXT
  5
C3
  8
DATA
 62
     7
 10
200.0
 20
-475.47643999999968
 30
0.0
 40
9.7730468750000004
  1
CVG12S-B/C
 41
0.7
 11
200.0
 21
-465.70339312499971
 31
0.0
 73
     3
  0
TEXT
  5
C4
  8
DATA
 62
     7
 10
200.0
 20
-446.47643999999968
 30
0.0
 40
9.7730468750000004
  1
Shure
 41
0.7
 11
200.0
 21
-436.70339312499982
 31
0.0
 73
     3
  0
TEXT
  5
C5
  8
DATA
 62
     7
 10
-350.0
 20
-488.49488888888868
 30
0.0
 40
7.6012586805555546
  1
※仕様及び外観は予告なく変更されることがあります。
 41
0.7
 11
-350.0
 21
-480.89363020833309
 31
0.0
 73
     3
  0
TEXT
  5
C6
  8
DATA
 62
     7
 10
-350.0
 20
-498.37266666666648
 30
0.0
 40
7.6012586805555546
  1
　また、同一商品でも若干の個体差があることがあります。ご了承ください。
 41
0.7
 11
-350.0
 21
-490.771407986111
 31
0.0
 73
     3
  0
LINE
  5
C7
  8
DATA
  6
CONTINUOUS
 62
     7
 10
-145.90000000000001
 20
-184.0
 30
0.0
 11
-145.90000000000001
 21
-186.0
 31
0.0
  0
LINE
  5
C8
  8
DATA
  6
CONTINUOUS
 62
     7
 10
-145.90000000000001
 20
-187.0
 30
0.0
 11
-145.90000000000001
 21
-189.0
 31
0.0
  0
LINE
  5
C9
  8
DATA
  6
CONTINUOUS
 62
     7
 10
-145.90000000000001
 20
-190.0
 30
0.0
 11
-145.90000000000001
 21
-192.0
 31
0.0
  0
LINE
  5
CA
  8
DATA
  6
CONTINUOUS
 62
     7
 10
-145.90000000000001
 20
-193.0
 30
0.0
 11
-145.90000000000001
 21
-195.0
 31
0.0
  0
LINE
  5
CB
  8
DATA
  6
CONTINUOUS
 62
     7
 10
-145.90000000000001
 20
-196.0
 30
0.0
 11
-145.90000000000001
 21
-198.0
 31
0.0
  0
LINE
  5
CC
  8
DATA
  6
CONTINUOUS
 62
     7
 10
-145.90000000000001
 20
-199.0
 30
0.0
 11
-145.90000000000001
 21
-201.0
 31
0.0
  0
LINE
  5
CD
  8
DATA
  6
CONTINUOUS
 62
     7
 10
-145.90000000000001
 20
-202.0
 30
0.0
 11
-145.90000000000001
 21
-204.0
 31
0.0
  0
LINE
  5
CE
  8
DATA
  6
CONTINUOUS
 62
     7
 10
-145.90000000000001
 20
-205.0
 30
0.0
 11
-145.90000000000001
 21
-207.0
 31
0.0
  0
LINE
  5
CF
  8
DATA
  6
CONTINUOUS
 62
     7
 10
-145.90000000000001
 20
-208.0
 30
0.0
 11
-145.90000000000001
 21
-210.0
 31
0.0
  0
LINE
  5
D0
  8
DATA
  6
CONTINUOUS
 62
     7
 10
-145.90000000000001
 20
-211.0
 30
0.0
 11
-145.90000000000001
 21
-213.0
 31
0.0
  0
LINE
  5
D1
  8
DATA
  6
CONTINUOUS
 62
     7
 10
-145.90000000000001
 20
-214.0
 30
0.0
 11
-145.90000000000001
 21
-216.0
 31
0.0
  0
LINE
  5
D2
  8
DATA
  6
CONTINUOUS
 62
     7
 10
-145.90000000000001
 20
-217.0
 30
0.0
 11
-145.90000000000001
 21
-219.0
 31
0.0
  0
LINE
  5
D3
  8
DATA
  6
CONTINUOUS
 62
     7
 10
-145.90000000000001
 20
-220.0
 30
0.0
 11
-145.90000000000001
 21
-222.0
 31
0.0
  0
LINE
  5
D4
  8
DATA
  6
CONTINUOUS
 62
     7
 10
-145.90000000000001
 20
-223.0
 30
0.0
 11
-145.90000000000001
 21
-225.0
 31
0.0
  0
LINE
  5
D5
  8
DATA
  6
CONTINUOUS
 62
     7
 10
-145.90000000000001
 20
-226.0
 30
0.0
 11
-145.90000000000001
 21
-228.0
 31
0.0
  0
LINE
  5
D6
  8
DATA
  6
CONTINUOUS
 62
     7
 10
-145.90000000000001
 20
-229.0
 30
0.0
 11
-145.90000000000001
 21
-231.0
 31
0.0
  0
LINE
  5
D7
  8
DATA
  6
CONTINUOUS
 62
     7
 10
-145.90000000000001
 20
-232.0
 30
0.0
 11
-145.90000000000001
 21
-234.0
 31
0.0
  0
LINE
  5
D8
  8
DATA
  6
CONTINUOUS
 62
     7
 10
-145.90000000000001
 20
-235.0
 30
0.0
 11
-145.90000000000001
 21
-237.0
 31
0.0
  0
LINE
  5
D9
  8
DATA
  6
CONTINUOUS
 62
     7
 10
-145.90000000000001
 20
-238.0
 30
0.0
 11
-145.90000000000001
 21
-240.0
 31
0.0
  0
LINE
  5
DA
  8
DATA
  6
CONTINUOUS
 62
     7
 10
-145.90000000000001
 20
-241.0
 30
0.0
 11
-145.90000000000001
 21
-243.0
 31
0.0
  0
LINE
  5
DB
  8
DATA
  6
CONTINUOUS
 62
     7
 10
-145.90000000000001
 20
-244.0
 30
0.0
 11
-145.90000000000001
 21
-246.0
 31
0.0
  0
LINE
  5
DC
  8
DATA
  6
CONTINUOUS
 62
     7
 10
-145.90000000000001
 20
-247.0
 30
0.0
 11
-145.90000000000001
 21
-249.0
 31
0.0
  0
LINE
  5
DD
  8
DATA
  6
CONTINUOUS
 62
     7
 10
-145.90000000000001
 20
-250.0
 30
0.0
 11
-145.90000000000001
 21
-252.0
 31
0.0
  0
LINE
  5
DE
  8
DATA
  6
CONTINUOUS
 62
     7
 10
-145.90000000000001
 20
-253.0
 30
0.0
 11
-145.90000000000001
 21
-255.0
 31
0.0
  0
POLYLINE
  5
DF
  8
DATA
  6
CONTINUOUS
 62
     7
 66
     1
 10
0.0
 20
0.0
 30
0.0
  0
VERTEX
  5
514
  8
DATA
  6
CONTINUOUS
 62
     7
 10
-145.90000000000001
 20
-256.0
 30
0.0
  0
VERTEX
  5
515
  8
DATA
  6
CONTINUOUS
 62
     7
 10
-145.90000000000001
 20
-259.0
 30
0.0
  0
VERTEX
  5
516
  8
DATA
  6
CONTINUOUS
 62
     7
 10
-154.09999999999999
 20
-259.0
 30
0.0
  0
VERTEX
  5
517
  8
DATA
  6
CONTINUOUS
 62
     7
 10
-154.09999999999999
 20
-257.0
 30
0.0
  0
SEQEND
  5
518
  8
DATA
  6
CONTINUOUS
 62
     7
  0
LINE
  5
E6
  8
DATA
  6
CONTINUOUS
 62
     7
 10
-154.09999999999999
 20
-256.0
 30
0.0
 11
-154.09999999999999
 21
-254.0
 31
0.0
  0
LINE
  5
E7
  8
DATA
  6
CONTINUOUS
 62
     7
 10
-154.09999999999999
 20
-253.0
 30
0.0
 11
-154.09999999999999
 21
-251.0
 31
0.0
  0
LINE
  5
E8
  8
DATA
  6
CONTINUOUS
 62
     7
 10
-154.09999999999999
 20
-250.0
 30
0.0
 11
-154.09999999999999
 21
-248.0
 31
0.0
  0
LINE
  5
E9
  8
DATA
  6
CONTINUOUS
 62
     7
 10
-154.09999999999999
 20
-247.0
 30
0.0
 11
-154.09999999999999
 21
-245.0
 31
0.0
  0
LINE
  5
EA
  8
DATA
  6
CONTINUOUS
 62
     7
 10
-153.69999999999999
 20
-44.79999999999999
 30
0.0
 11
-153.69999999999999
 21
-160.5
 31
0.0
  0
LINE
  5
EB
  8
DATA
  6
CONTINUOUS
 62
     7
 10
-154.09999999999999
 20
-185.0
 30
0.0
 11
-154.09999999999999
 21
-187.0
 31
0.0
  0
LINE
  5
EC
  8
DATA
  6
CONTINUOUS
 62
     7
 10
-154.09999999999999
 20
-188.0
 30
0.0
 11
-154.09999999999999
 21
-190.0
 31
0.0
  0
LINE
  5
ED
  8
DATA
  6
CONTINUOUS
 62
     7
 10
-154.09999999999999
 20
-191.0
 30
0.0
 11
-154.09999999999999
 21
-193.0
 31
0.0
  0
LINE
  5
EE
  8
DATA
  6
CONTINUOUS
 62
     7
 10
-154.09999999999999
 20
-194.0
 30
0.0
 11
-154.09999999999999
 21
-196.0
 31
0.0
  0
LINE
  5
EF
  8
DATA
  6
CONTINUOUS
 62
     7
 10
-154.09999999999999
 20
-197.0
 30
0.0
 11
-154.09999999999999
 21
-199.0
 31
0.0
  0
LINE
  5
F0
  8
DATA
  6
CONTINUOUS
 62
     7
 10
-154.09999999999999
 20
-200.0
 30
0.0
 11
-154.09999999999999
 21
-202.0
 31
0.0
  0
LINE
  5
F1
  8
DATA
  6
CONTINUOUS
 62
     7
 10
-154.09999999999999
 20
-203.0
 30
0.0
 11
-154.09999999999999
 21
-205.0
 31
0.0
  0
LINE
  5
F2
  8
DATA
  6
CONTINUOUS
 62
     7
 10
-154.09999999999999
 20
-206.0
 30
0.0
 11
-154.09999999999999
 21
-208.0
 31
0.0
  0
LINE
  5
F3
  8
DATA
  6
CONTINUOUS
 62
     7
 10
-154.09999999999999
 20
-209.0
 30
0.0
 11
-154.09999999999999
 21
-211.0
 31
0.0
  0
LINE
  5
F4
  8
DATA
  6
CONTINUOUS
 62
     7
 10
-154.09999999999999
 20
-212.0
 30
0.0
 11
-154.09999999999999
 21
-214.0
 31
0.0
  0
LINE
  5
F5
  8
DATA
  6
CONTINUOUS
 62
     7
 10
-154.09999999999999
 20
-215.0
 30
0.0
 11
-154.09999999999999
 21
-217.0
 31
0.0
  0
LINE
  5
F6
  8
DATA
  6
CONTINUOUS
 62
     7
 10
-154.09999999999999
 20
-218.0
 30
0.0
 11
-154.09999999999999
 21
-220.0
 31
0.0
  0
LINE
  5
F7
  8
DATA
  6
CONTINUOUS
 62
     7
 10
-154.09999999999999
 20
-221.0
 30
0.0
 11
-154.09999999999999
 21
-223.0
 31
0.0
  0
LINE
  5
F8
  8
DATA
  6
CONTINUOUS
 62
     7
 10
-154.09999999999999
 20
-224.0
 30
0.0
 11
-154.09999999999999
 21
-226.0
 31
0.0
  0
LINE
  5
F9
  8
DATA
  6
CONTINUOUS
 62
     7
 10
-154.09999999999999
 20
-227.0
 30
0.0
 11
-154.09999999999999
 21
-229.0
 31
0.0
  0
LINE
  5
FA
  8
DATA
  6
CONTINUOUS
 62
     7
 10
-154.09999999999999
 20
-230.0
 30
0.0
 11
-154.09999999999999
 21
-232.0
 31
0.0
  0
LINE
  5
FB
  8
DATA
  6
CONTINUOUS
 62
     7
 10
-154.09999999999999
 20
-233.0
 30
0.0
 11
-154.09999999999999
 21
-235.0
 31
0.0
  0
LINE
  5
FC
  8
DATA
  6
CONTINUOUS
 62
     7
 10
-154.09999999999999
 20
-236.0
 30
0.0
 11
-154.09999999999999
 21
-238.0
 31
0.0
  0
LINE
  5
FD
  8
DATA
  6
CONTINUOUS
 62
     7
 10
-154.09999999999999
 20
-239.0
 30
0.0
 11
-154.09999999999999
 21
-241.0
 31
0.0
  0
LINE
  5
FE
  8
DATA
  6
CONTINUOUS
 62
     7
 10
-154.09999999999999
 20
-242.0
 30
0.0
 11
-154.09999999999999
 21
-244.0
 31
0.0
  0
LINE
  5
FF
  8
DATA
  6
CONTINUOUS
 62
     7
 10
-154.09999999999999
 20
-245.0
 30
0.0
 11
-154.09999999999999
 21
-247.0
 31
0.0
  0
LINE
  5
100
  8
DATA
  6
CONTINUOUS
 62
     7
 10
-154.09999999999999
 20
-248.0
 30
0.0
 11
-154.09999999999999
 21
-250.0
 31
0.0
  0
LINE
  5
101
  8
DATA
  6
CONTINUOUS
 62
     7
 10
-154.09999999999999
 20
-251.0
 30
0.0
 11
-154.09999999999999
 21
-253.0
 31
0.0
  0
LINE
  5
102
  8
DATA
  6
CONTINUOUS
 62
     7
 10
-154.09999999999999
 20
-254.0
 30
0.0
 11
-154.09999999999999
 21
-256.0
 31
0.0
  0
LINE
  5
103
  8
DATA
  6
CONTINUOUS
 62
     7
 10
-159.5
 20
-375.0
 30
0.0
 11
-140.5
 21
-375.0
 31
0.0
  0
LINE
  5
104
  8
DATA
  6
CONTINUOUS
 62
     7
 10
-162.40000000000001
 20
-289.0
 30
0.0
 11
-137.59999999999999
 21
-289.0
 31
0.0
  0
LINE
  5
105
  8
DATA
  6
CONTINUOUS
 62
     7
 10
-159.5
 20
-361.0
 30
0.0
 11
-140.5
 21
-361.0
 31
0.0
  0
LINE
  5
106
  8
DATA
  6
CONTINUOUS
 62
     7
 10
-159.5
 20
-361.0
 30
0.0
 11
-159.5
 21
-375.0
 31
0.0
  0
LINE
  5
107
  8
DATA
  6
CONTINUOUS
 62
     7
 10
-140.5
 20
-361.0
 30
0.0
 11
-140.5
 21
-375.0
 31
0.0
  0
LINE
  5
108
  8
DATA
  6
CONTINUOUS
 62
     7
 10
-137.59999999999999
 20
-289.0
 30
0.0
 11
-140.5
 21
-361.0
 31
0.0
  0
LINE
  5
109
  8
DATA
  6
CONTINUOUS
 62
     7
 10
-162.40000000000001
 20
-289.0
 30
0.0
 11
-159.5
 21
-361.0
 31
0.0
  0
LINE
  5
10A
  8
DATA
  6
CONTINUOUS
 62
     7
 10
-157.0
 20
-259.0
 30
0.0
 11
-143.0
 21
-259.0
 31
0.0
  0
ARC
  5
10B
  8
DATA
  6
CONTINUOUS
 62
     7
 10
-64.300188513258817
 20
-266.02802563780318
 30
0.0
 40
78.725937377945442
 50
178.5238643188583
 51
196.965556773988
  0
ARC
  5
10C
  8
DATA
  6
CONTINUOUS
 62
     7
 10
-235.6998114867412
 20
-266.02802563780318
 30
0.0
 40
78.725937377945471
 50
343.034443226012
 51
1.4761356811421249
  0
LINE
  5
10D
  8
DATA
  6
CONTINUOUS
 62
     7
 10
-143.0
 20
-259.0
 30
0.0
 11
-143.0
 21
-264.00000000000063
 31
0.0
  0
LINE
  5
10E
  8
DATA
  6
CONTINUOUS
 62
     7
 10
-157.0
 20
-259.0
 30
0.0
 11
-157.0
 21
-264.00000000000011
 31
0.0
  0
LINE
  5
10F
  8
DATA
  6
CONTINUOUS
 62
     7
 10
-154.09999999999999
 20
-259.0
 30
0.0
 11
-145.90000000000001
 21
-258.0
 31
0.0
  0
LINE
  5
110
  8
DATA
  6
CONTINUOUS
 62
     7
 10
-154.09999999999999
 20
-257.0
 30
0.0
 11
-145.90000000000001
 21
-256.0
 31
0.0
  0
LINE
  5
111
  8
DATA
  6
CONTINUOUS
 62
     7
 10
-154.09999999999999
 20
-256.0
 30
0.0
 11
-145.90000000000001
 21
-255.0
 31
0.0
  0
LINE
  5
112
  8
DATA
  6
CONTINUOUS
 62
     7
 10
-154.09999999999999
 20
-254.0
 30
0.0
 11
-145.90000000000001
 21
-253.0
 31
0.0
  0
LINE
  5
113
  8
DATA
  6
CONTINUOUS
 62
     7
 10
-154.30000000000001
 20
-182.5
 30
0.0
 11
-145.69999999999999
 21
-182.5
 31
0.0
  0
LINE
  5
114
  8
DATA
  6
CONTINUOUS
 62
     7
 10
-154.09999999999999
 20
-253.0
 30
0.0
 11
-145.90000000000001
 21
-252.0
 31
0.0
  0
LINE
  5
115
  8
DATA
  6
CONTINUOUS
 62
     7
 10
-154.09999999999999
 20
-251.0
 30
0.0
 11
-145.90000000000001
 21
-250.0
 31
0.0
  0
LINE
  5
116
  8
DATA
  6
CONTINUOUS
 62
     7
 10
-154.09999999999999
 20
-250.0
 30
0.0
 11
-145.90000000000001
 21
-249.0
 31
0.0
  0
LINE
  5
117
  8
DATA
  6
CONTINUOUS
 62
     7
 10
-154.09999999999999
 20
-248.0
 30
0.0
 11
-145.90000000000001
 21
-247.0
 31
0.0
  0
LINE
  5
118
  8
DATA
  6
CONTINUOUS
 62
     7
 10
-154.09999999999999
 20
-247.0
 30
0.0
 11
-145.90000000000001
 21
-246.0
 31
0.0
  0
LINE
  5
119
  8
DATA
  6
CONTINUOUS
 62
     7
 10
-154.09999999999999
 20
-245.0
 30
0.0
 11
-145.90000000000001
 21
-244.0
 31
0.0
  0
LINE
  5
11A
  8
DATA
  6
CONTINUOUS
 62
     7
 10
-154.09999999999999
 20
-244.0
 30
0.0
 11
-145.90000000000001
 21
-243.0
 31
0.0
  0
LINE
  5
11B
  8
DATA
  6
CONTINUOUS
 62
     7
 10
-154.09999999999999
 20
-242.0
 30
0.0
 11
-145.90000000000001
 21
-241.0
 31
0.0
  0
LINE
  5
11C
  8
DATA
  6
CONTINUOUS
 62
     7
 10
-154.09999999999999
 20
-241.0
 30
0.0
 11
-145.90000000000001
 21
-240.0
 31
0.0
  0
LINE
  5
11D
  8
DATA
  6
CONTINUOUS
 62
     7
 10
-154.09999999999999
 20
-239.0
 30
0.0
 11
-145.90000000000001
 21
-238.0
 31
0.0
  0
LINE
  5
11E
  8
DATA
  6
CONTINUOUS
 62
     7
 10
-154.09999999999999
 20
-238.0
 30
0.0
 11
-145.90000000000001
 21
-237.0
 31
0.0
  0
LINE
  5
11F
  8
DATA
  6
CONTINUOUS
 62
     7
 10
-154.09999999999999
 20
-236.0
 30
0.0
 11
-145.90000000000001
 21
-235.0
 31
0.0
  0
LINE
  5
120
  8
DATA
  6
CONTINUOUS
 62
     7
 10
-154.09999999999999
 20
-235.0
 30
0.0
 11
-145.90000000000001
 21
-234.0
 31
0.0
  0
LINE
  5
121
  8
DATA
  6
CONTINUOUS
 62
     7
 10
-154.09999999999999
 20
-233.0
 30
0.0
 11
-145.90000000000001
 21
-232.0
 31
0.0
  0
LINE
  5
122
  8
DATA
  6
CONTINUOUS
 62
     7
 10
-154.09999999999999
 20
-232.0
 30
0.0
 11
-145.90000000000001
 21
-231.0
 31
0.0
  0
LINE
  5
123
  8
DATA
  6
CONTINUOUS
 62
     7
 10
-154.09999999999999
 20
-230.0
 30
0.0
 11
-145.90000000000001
 21
-229.0
 31
0.0
  0
LINE
  5
124
  8
DATA
  6
CONTINUOUS
 62
     7
 10
-154.09999999999999
 20
-229.0
 30
0.0
 11
-145.90000000000001
 21
-228.0
 31
0.0
  0
LINE
  5
125
  8
DATA
  6
CONTINUOUS
 62
     7
 10
-154.09999999999999
 20
-227.0
 30
0.0
 11
-145.90000000000001
 21
-226.0
 31
0.0
  0
LINE
  5
126
  8
DATA
  6
CONTINUOUS
 62
     7
 10
-154.09999999999999
 20
-226.0
 30
0.0
 11
-145.90000000000001
 21
-225.0
 31
0.0
  0
LINE
  5
127
  8
DATA
  6
CONTINUOUS
 62
     7
 10
-154.09999999999999
 20
-224.0
 30
0.0
 11
-145.90000000000001
 21
-223.0
 31
0.0
  0
LINE
  5
128
  8
DATA
  6
CONTINUOUS
 62
     7
 10
-154.09999999999999
 20
-223.0
 30
0.0
 11
-145.90000000000001
 21
-222.0
 31
0.0
  0
LINE
  5
129
  8
DATA
  6
CONTINUOUS
 62
     7
 10
-154.09999999999999
 20
-221.0
 30
0.0
 11
-145.90000000000001
 21
-220.0
 31
0.0
  0
LINE
  5
12A
  8
DATA
  6
CONTINUOUS
 62
     7
 10
-154.09999999999999
 20
-220.0
 30
0.0
 11
-145.90000000000001
 21
-219.0
 31
0.0
  0
LINE
  5
12B
  8
DATA
  6
CONTINUOUS
 62
     7
 10
-154.09999999999999
 20
-218.0
 30
0.0
 11
-145.90000000000001
 21
-217.0
 31
0.0
  0
LINE
  5
12C
  8
DATA
  6
CONTINUOUS
 62
     7
 10
-154.09999999999999
 20
-217.0
 30
0.0
 11
-145.90000000000001
 21
-216.0
 31
0.0
  0
LINE
  5
12D
  8
DATA
  6
CONTINUOUS
 62
     7
 10
-154.09999999999999
 20
-215.0
 30
0.0
 11
-145.90000000000001
 21
-214.0
 31
0.0
  0
LINE
  5
12E
  8
DATA
  6
CONTINUOUS
 62
     7
 10
-154.09999999999999
 20
-214.0
 30
0.0
 11
-145.90000000000001
 21
-213.0
 31
0.0
  0
LINE
  5
12F
  8
DATA
  6
CONTINUOUS
 62
     7
 10
-154.09999999999999
 20
-212.0
 30
0.0
 11
-145.90000000000001
 21
-211.0
 31
0.0
  0
LINE
  5
130
  8
DATA
  6
CONTINUOUS
 62
     7
 10
-154.09999999999999
 20
-211.0
 30
0.0
 11
-145.90000000000001
 21
-210.0
 31
0.0
  0
LINE
  5
131
  8
DATA
  6
CONTINUOUS
 62
     7
 10
-154.09999999999999
 20
-209.0
 30
0.0
 11
-145.90000000000001
 21
-208.0
 31
0.0
  0
LINE
  5
132
  8
DATA
  6
CONTINUOUS
 62
     7
 10
-154.09999999999999
 20
-208.0
 30
0.0
 11
-145.90000000000001
 21
-207.0
 31
0.0
  0
LINE
  5
133
  8
DATA
  6
CONTINUOUS
 62
     7
 10
-154.09999999999999
 20
-206.0
 30
0.0
 11
-145.90000000000001
 21
-205.0
 31
0.0
  0
LINE
  5
134
  8
DATA
  6
CONTINUOUS
 62
     7
 10
-154.09999999999999
 20
-205.0
 30
0.0
 11
-145.90000000000001
 21
-204.0
 31
0.0
  0
LINE
  5
135
  8
DATA
  6
CONTINUOUS
 62
     7
 10
-154.09999999999999
 20
-203.0
 30
0.0
 11
-145.90000000000001
 21
-202.0
 31
0.0
  0
LINE
  5
136
  8
DATA
  6
CONTINUOUS
 62
     7
 10
-154.09999999999999
 20
-202.0
 30
0.0
 11
-145.90000000000001
 21
-201.0
 31
0.0
  0
LINE
  5
137
  8
DATA
  6
CONTINUOUS
 62
     7
 10
-154.09999999999999
 20
-200.0
 30
0.0
 11
-145.90000000000001
 21
-199.0
 31
0.0
  0
LINE
  5
138
  8
DATA
  6
CONTINUOUS
 62
     7
 10
-154.09999999999999
 20
-199.0
 30
0.0
 11
-145.90000000000001
 21
-198.0
 31
0.0
  0
LINE
  5
139
  8
DATA
  6
CONTINUOUS
 62
     7
 10
-154.09999999999999
 20
-197.0
 30
0.0
 11
-145.90000000000001
 21
-196.0
 31
0.0
  0
LINE
  5
13A
  8
DATA
  6
CONTINUOUS
 62
     7
 10
-154.09999999999999
 20
-196.0
 30
0.0
 11
-145.90000000000001
 21
-195.0
 31
0.0
  0
LINE
  5
13B
  8
DATA
  6
CONTINUOUS
 62
     7
 10
-154.09999999999999
 20
-194.0
 30
0.0
 11
-145.90000000000001
 21
-193.0
 31
0.0
  0
LINE
  5
13C
  8
DATA
  6
CONTINUOUS
 62
     7
 10
-154.09999999999999
 20
-193.0
 30
0.0
 11
-145.90000000000001
 21
-192.0
 31
0.0
  0
LINE
  5
13D
  8
DATA
  6
CONTINUOUS
 62
     7
 10
-154.09999999999999
 20
-191.0
 30
0.0
 11
-145.90000000000001
 21
-190.0
 31
0.0
  0
LINE
  5
13E
  8
DATA
  6
CONTINUOUS
 62
     7
 10
-154.09999999999999
 20
-190.0
 30
0.0
 11
-145.90000000000001
 21
-189.0
 31
0.0
  0
LINE
  5
13F
  8
DATA
  6
CONTINUOUS
 62
     7
 10
-154.09999999999999
 20
-188.0
 30
0.0
 11
-145.90000000000001
 21
-187.0
 31
0.0
  0
LINE
  5
140
  8
DATA
  6
CONTINUOUS
 62
     7
 10
-154.09999999999999
 20
-187.0
 30
0.0
 11
-145.90000000000001
 21
-186.0
 31
0.0
  0
LINE
  5
141
  8
DATA
  6
CONTINUOUS
 62
     7
 10
-154.09999999999999
 20
-185.0
 30
0.0
 11
-145.90000000000001
 21
-184.0
 31
0.0
  0
LINE
  5
142
  8
DATA
  6
CONTINUOUS
 62
     7
 10
-154.09999999999999
 20
-184.0
 30
0.0
 11
-145.90000000000001
 21
-183.0
 31
0.0
  0
LINE
  5
143
  8
DATA
  6
CONTINUOUS
 62
     7
 10
-146.09999999999999
 20
-183.02439024390239
 30
0.0
 11
-146.09999999999999
 21
-184.02439024390239
 31
0.0
  0
LINE
  5
144
  8
DATA
  6
CONTINUOUS
 62
     7
 10
-146.09999999999999
 20
-186.02439024390239
 30
0.0
 11
-146.09999999999999
 21
-187.02439024390239
 31
0.0
  0
LINE
  5
145
  8
DATA
  6
CONTINUOUS
 62
     7
 10
-146.09999999999999
 20
-189.02439024390239
 30
0.0
 11
-146.09999999999999
 21
-190.02439024390239
 31
0.0
  0
LINE
  5
146
  8
DATA
  6
CONTINUOUS
 62
     7
 10
-146.09999999999999
 20
-192.02439024390239
 30
0.0
 11
-146.09999999999999
 21
-193.02439024390239
 31
0.0
  0
LINE
  5
147
  8
DATA
  6
CONTINUOUS
 62
     7
 10
-146.09999999999999
 20
-195.02439024390239
 30
0.0
 11
-146.09999999999999
 21
-196.02439024390239
 31
0.0
  0
LINE
  5
148
  8
DATA
  6
CONTINUOUS
 62
     7
 10
-146.09999999999999
 20
-198.02439024390239
 30
0.0
 11
-146.09999999999999
 21
-199.02439024390239
 31
0.0
  0
LINE
  5
149
  8
DATA
  6
CONTINUOUS
 62
     7
 10
-146.09999999999999
 20
-201.02439024390239
 30
0.0
 11
-146.09999999999999
 21
-202.0243902439025
 31
0.0
  0
LINE
  5
14A
  8
DATA
  6
CONTINUOUS
 62
     7
 10
-146.09999999999999
 20
-204.0243902439025
 30
0.0
 11
-146.09999999999999
 21
-205.02439024390239
 31
0.0
  0
LINE
  5
14B
  8
DATA
  6
CONTINUOUS
 62
     7
 10
-146.09999999999999
 20
-207.02439024390239
 30
0.0
 11
-146.09999999999999
 21
-208.0243902439025
 31
0.0
  0
LINE
  5
14C
  8
DATA
  6
CONTINUOUS
 62
     7
 10
-146.09999999999999
 20
-210.0243902439025
 30
0.0
 11
-146.09999999999999
 21
-211.02439024390239
 31
0.0
  0
LINE
  5
14D
  8
DATA
  6
CONTINUOUS
 62
     7
 10
-146.09999999999999
 20
-213.02439024390239
 30
0.0
 11
-146.09999999999999
 21
-214.02439024390239
 31
0.0
  0
LINE
  5
14E
  8
DATA
  6
CONTINUOUS
 62
     7
 10
-146.09999999999999
 20
-216.02439024390239
 30
0.0
 11
-146.09999999999999
 21
-217.02439024390239
 31
0.0
  0
LINE
  5
14F
  8
DATA
  6
CONTINUOUS
 62
     7
 10
-146.09999999999999
 20
-219.0243902439025
 30
0.0
 11
-146.09999999999999
 21
-220.02439024390239
 31
0.0
  0
LINE
  5
150
  8
DATA
  6
CONTINUOUS
 62
     7
 10
-146.09999999999999
 20
-222.02439024390239
 30
0.0
 11
-146.09999999999999
 21
-223.0243902439025
 31
0.0
  0
LINE
  5
151
  8
DATA
  6
CONTINUOUS
 62
     7
 10
-146.09999999999999
 20
-225.0243902439025
 30
0.0
 11
-146.09999999999999
 21
-226.02439024390239
 31
0.0
  0
LINE
  5
152
  8
DATA
  6
CONTINUOUS
 62
     7
 10
-146.09999999999999
 20
-228.02439024390239
 30
0.0
 11
-146.09999999999999
 21
-229.0243902439025
 31
0.0
  0
LINE
  5
153
  8
DATA
  6
CONTINUOUS
 62
     7
 10
-146.09999999999999
 20
-231.0243902439025
 30
0.0
 11
-146.09999999999999
 21
-232.02439024390239
 31
0.0
  0
LINE
  5
154
  8
DATA
  6
CONTINUOUS
 62
     7
 10
-146.09999999999999
 20
-234.02439024390239
 30
0.0
 11
-146.09999999999999
 21
-235.0243902439025
 31
0.0
  0
LINE
  5
155
  8
DATA
  6
CONTINUOUS
 62
     7
 10
-146.09999999999999
 20
-237.0243902439025
 30
0.0
 11
-146.09999999999999
 21
-238.02439024390239
 31
0.0
  0
LINE
  5
156
  8
DATA
  6
CONTINUOUS
 62
     7
 10
-146.09999999999999
 20
-240.02439024390239
 30
0.0
 11
-146.09999999999999
 21
-241.02439024390239
 31
0.0
  0
LINE
  5
157
  8
DATA
  6
CONTINUOUS
 62
     7
 10
-146.09999999999999
 20
-243.02439024390239
 30
0.0
 11
-146.09999999999999
 21
-244.0243902439025
 31
0.0
  0
LINE
  5
158
  8
DATA
  6
CONTINUOUS
 62
     7
 10
-146.09999999999999
 20
-246.0243902439025
 30
0.0
 11
-146.09999999999999
 21
-247.02439024390239
 31
0.0
  0
LINE
  5
159
  8
DATA
  6
CONTINUOUS
 62
     7
 10
-146.09999999999999
 20
-249.02439024390239
 30
0.0
 11
-146.09999999999999
 21
-250.0243902439025
 31
0.0
  0
LINE
  5
15A
  8
DATA
  6
CONTINUOUS
 62
     7
 10
-146.09999999999999
 20
-252.0243902439025
 30
0.0
 11
-146.09999999999999
 21
-253.02439024390239
 31
0.0
  0
LINE
  5
15B
  8
DATA
  6
CONTINUOUS
 62
     7
 10
-146.09999999999999
 20
-255.02439024390239
 30
0.0
 11
-146.09999999999999
 21
-256.02439024390242
 31
0.0
  0
LINE
  5
15C
  8
DATA
  6
CONTINUOUS
 62
     7
 10
-153.90000000000001
 20
-183.97560975609761
 30
0.0
 11
-153.90000000000001
 21
-184.97560975609761
 31
0.0
  0
LINE
  5
15D
  8
DATA
  6
CONTINUOUS
 62
     7
 10
-153.90000000000001
 20
-186.9756097560975
 30
0.0
 11
-153.90000000000001
 21
-187.9756097560975
 31
0.0
  0
LINE
  5
15E
  8
DATA
  6
CONTINUOUS
 62
     7
 10
-153.90000000000001
 20
-189.9756097560975
 30
0.0
 11
-153.90000000000001
 21
-190.9756097560975
 31
0.0
  0
LINE
  5
15F
  8
DATA
  6
CONTINUOUS
 62
     7
 10
-153.90000000000001
 20
-192.9756097560975
 30
0.0
 11
-153.90000000000001
 21
-193.9756097560975
 31
0.0
  0
LINE
  5
160
  8
DATA
  6
CONTINUOUS
 62
     7
 10
-153.90000000000001
 20
-195.9756097560975
 30
0.0
 11
-153.90000000000001
 21
-196.9756097560975
 31
0.0
  0
LINE
  5
161
  8
DATA
  6
CONTINUOUS
 62
     7
 10
-153.90000000000001
 20
-198.9756097560975
 30
0.0
 11
-153.90000000000001
 21
-199.9756097560975
 31
0.0
  0
LINE
  5
162
  8
DATA
  6
CONTINUOUS
 62
     7
 10
-153.90000000000001
 20
-201.9756097560975
 30
0.0
 11
-153.90000000000001
 21
-202.97560975609761
 31
0.0
  0
LINE
  5
163
  8
DATA
  6
CONTINUOUS
 62
     7
 10
-153.90000000000001
 20
-204.97560975609761
 30
0.0
 11
-153.90000000000001
 21
-205.9756097560975
 31
0.0
  0
LINE
  5
164
  8
DATA
  6
CONTINUOUS
 62
     7
 10
-153.90000000000001
 20
-207.9756097560975
 30
0.0
 11
-153.90000000000001
 21
-208.97560975609761
 31
0.0
  0
LINE
  5
165
  8
DATA
  6
CONTINUOUS
 62
     7
 10
-153.90000000000001
 20
-210.97560975609761
 30
0.0
 11
-153.90000000000001
 21
-211.9756097560975
 31
0.0
  0
LINE
  5
166
  8
DATA
  6
CONTINUOUS
 62
     7
 10
-153.90000000000001
 20
-213.9756097560975
 30
0.0
 11
-153.90000000000001
 21
-214.97560975609761
 31
0.0
  0
LINE
  5
167
  8
DATA
  6
CONTINUOUS
 62
     7
 10
-153.90000000000001
 20
-216.97560975609761
 30
0.0
 11
-153.90000000000001
 21
-217.9756097560975
 31
0.0
  0
LINE
  5
168
  8
DATA
  6
CONTINUOUS
 62
     7
 10
-153.90000000000001
 20
-219.97560975609761
 30
0.0
 11
-153.90000000000001
 21
-220.97560975609761
 31
0.0
  0
LINE
  5
169
  8
DATA
  6
CONTINUOUS
 62
     7
 10
-153.90000000000001
 20
-222.97560975609761
 30
0.0
 11
-153.90000000000001
 21
-223.97560975609761
 31
0.0
  0
LINE
  5
16A
  8
DATA
  6
CONTINUOUS
 62
     7
 10
-153.90000000000001
 20
-225.97560975609761
 30
0.0
 11
-153.90000000000001
 21
-226.9756097560975
 31
0.0
  0
LINE
  5
16B
  8
DATA
  6
CONTINUOUS
 62
     7
 10
-153.90000000000001
 20
-228.9756097560975
 30
0.0
 11
-153.90000000000001
 21
-229.97560975609761
 31
0.0
  0
LINE
  5
16C
  8
DATA
  6
CONTINUOUS
 62
     7
 10
-153.90000000000001
 20
-231.97560975609761
 30
0.0
 11
-153.90000000000001
 21
-232.9756097560975
 31
0.0
  0
LINE
  5
16D
  8
DATA
  6
CONTINUOUS
 62
     7
 10
-153.90000000000001
 20
-234.9756097560975
 30
0.0
 11
-153.90000000000001
 21
-235.97560975609761
 31
0.0
  0
LINE
  5
16E
  8
DATA
  6
CONTINUOUS
 62
     7
 10
-153.90000000000001
 20
-237.97560975609761
 30
0.0
 11
-153.90000000000001
 21
-238.9756097560975
 31
0.0
  0
LINE
  5
16F
  8
DATA
  6
CONTINUOUS
 62
     7
 10
-153.90000000000001
 20
-240.9756097560975
 30
0.0
 11
-153.90000000000001
 21
-241.97560975609761
 31
0.0
  0
LINE
  5
170
  8
DATA
  6
CONTINUOUS
 62
     7
 10
-153.90000000000001
 20
-243.97560975609761
 30
0.0
 11
-153.90000000000001
 21
-244.97560975609761
 31
0.0
  0
LINE
  5
171
  8
DATA
  6
CONTINUOUS
 62
     7
 10
-153.90000000000001
 20
-246.97560975609761
 30
0.0
 11
-153.90000000000001
 21
-247.97560975609761
 31
0.0
  0
LINE
  5
172
  8
DATA
  6
CONTINUOUS
 62
     7
 10
-153.90000000000001
 20
-249.9756097560975
 30
0.0
 11
-153.90000000000001
 21
-250.97560975609761
 31
0.0
  0
LINE
  5
173
  8
DATA
  6
CONTINUOUS
 62
     7
 10
-153.90000000000001
 20
-252.97560975609761
 30
0.0
 11
-153.90000000000001
 21
-253.9756097560975
 31
0.0
  0
LINE
  5
174
  8
DATA
  6
CONTINUOUS
 62
     7
 10
-153.90000000000001
 20
-255.9756097560975
 30
0.0
 11
-153.90000000000001
 21
-256.97560975609758
 31
0.0
  0
LINE
  5
175
  8
DATA
  6
CONTINUOUS
 62
     7
 10
-153.90000000000001
 20
-258.97560975609758
 30
0.0
 11
-153.90000000000001
 21
-259.0
 31
0.0
  0
LINE
  5
176
  8
DATA
  6
CONTINUOUS
 62
     7
 10
-153.69999999999999
 20
-44.79999999999999
 30
0.0
 11
-146.30000000000001
 21
-44.79999999999999
 31
0.0
  0
LINE
  5
177
  8
DATA
  6
CONTINUOUS
 62
     7
 10
-154.0
 20
23.20000000000001
 30
0.0
 11
-146.0
 21
23.20000000000001
 31
0.0
  0
LINE
  5
178
  8
DATA
  6
CONTINUOUS
 62
     7
 10
-153.90000000000001
 20
-44.775609756097538
 30
0.0
 11
-153.90000000000001
 21
-44.79999999999999
 31
0.0
  0
LINE
  5
179
  8
DATA
  6
CONTINUOUS
 62
     7
 10
-150.0
 20
-182.5
 30
0.0
 11
-150.0
 21
-175.5
 31
0.0
  0
LINE
  5
17A
  8
DATA
  6
CONTINUOUS
 62
     7
 10
-145.90000000000001
 20
-183.0
 30
0.0
 11
-145.90000000000001
 21
-182.5
 31
0.0
  0
LINE
  5
17B
  8
DATA
  6
CONTINUOUS
 62
     7
 10
-154.09999999999999
 20
-184.0
 30
0.0
 11
-154.09999999999999
 21
-182.5
 31
0.0
  0
LINE
  5
17C
  8
DATA
  6
CONTINUOUS
 62
     7
 10
-148.5
 20
-182.5
 30
0.0
 11
-148.5
 21
-175.5
 31
0.0
  0
LINE
  5
17D
  8
DATA
  6
CONTINUOUS
 62
     7
 10
-151.5
 20
-182.5
 30
0.0
 11
-151.5
 21
-175.5
 31
0.0
  0
LINE
  5
17E
  8
DATA
  6
CONTINUOUS
 62
     7
 10
-145.69999999999999
 20
-182.5
 30
0.0
 11
-145.69999999999999
 21
-172.5
 31
0.0
  0
LINE
  5
17F
  8
DATA
  6
CONTINUOUS
 62
     7
 10
-154.30000000000001
 20
-182.5
 30
0.0
 11
-154.30000000000001
 21
-172.5
 31
0.0
  0
LINE
  5
180
  8
DATA
  6
CONTINUOUS
 62
     7
 10
-145.69999999999999
 20
-172.5
 30
0.0
 11
-146.30000000000001
 21
-160.5
 31
0.0
  0
LINE
  5
181
  8
DATA
  6
CONTINUOUS
 62
     7
 10
-153.69999999999999
 20
-160.5
 30
0.0
 11
-154.30000000000001
 21
-172.5
 31
0.0
  0
LINE
  5
182
  8
DATA
  6
CONTINUOUS
 62
     7
 10
-150.0
 20
-51.79999999999999
 30
0.0
 11
-150.0
 21
-44.79999999999999
 31
0.0
  0
LINE
  5
183
  8
DATA
  6
CONTINUOUS
 62
     7
 10
-148.5
 20
-51.79999999999999
 30
0.0
 11
-148.5
 21
-44.79999999999999
 31
0.0
  0
LINE
  5
184
  8
DATA
  6
CONTINUOUS
 62
     7
 10
-151.5
 20
-51.79999999999999
 30
0.0
 11
-151.5
 21
-44.79999999999999
 31
0.0
  0
LINE
  5
185
  8
DATA
  6
CONTINUOUS
 62
     7
 10
-146.30000000000001
 20
-44.79999999999999
 30
0.0
 11
-146.30000000000001
 21
-160.5
 31
0.0
  0
LINE
  5
186
  8
DATA
  6
CONTINUOUS
 62
     7
 10
-146.84999999999999
 20
-44.79999999999999
 30
0.0
 11
-146.84999999999999
 21
-42.799999999999997
 31
0.0
  0
LINE
  5
187
  8
DATA
  6
CONTINUOUS
 62
     7
 10
-153.15000000000001
 20
-44.79999999999999
 30
0.0
 11
-153.15000000000001
 21
-43.79999999999999
 31
0.0
  0
LINE
  5
188
  8
DATA
  6
CONTINUOUS
 62
     7
 10
-153.15000000000001
 20
-44.79999999999999
 30
0.0
 11
-146.84999999999999
 21
-43.79999999999999
 31
0.0
  0
LINE
  5
189
  8
DATA
  6
CONTINUOUS
 62
     7
 10
-153.15000000000001
 20
-43.79999999999999
 30
0.0
 11
-146.84999999999999
 21
-42.799999999999997
 31
0.0
  0
LINE
  5
18A
  8
DATA
  6
CONTINUOUS
 62
     7
 10
-153.15000000000001
 20
-42.799999999999997
 30
0.0
 11
-146.84999999999999
 21
-41.79999999999999
 31
0.0
  0
LINE
  5
18B
  8
DATA
  6
CONTINUOUS
 62
     7
 10
-147.0499999999999
 20
-39.831746031746022
 30
0.0
 11
-147.0499999999999
 21
-40.831746031746022
 31
0.0
  0
LINE
  5
18C
  8
DATA
  6
CONTINUOUS
 62
     7
 10
-147.0499999999999
 20
-41.831746031746007
 30
0.0
 11
-147.0499999999999
 21
-42.831746031746022
 31
0.0
  0
LINE
  5
18D
  8
DATA
  6
CONTINUOUS
 62
     7
 10
-152.94999999999999
 20
-42.768253968253973
 30
0.0
 11
-152.94999999999999
 21
-43.768253968253958
 31
0.0
  0
LINE
  5
18E
  8
DATA
  6
CONTINUOUS
 62
     7
 10
-146.84999999999999
 20
-41.79999999999999
 30
0.0
 11
-146.84999999999999
 21
-40.799999999999997
 31
0.0
  0
LINE
  5
18F
  8
DATA
  6
CONTINUOUS
 62
     7
 10
-153.15000000000001
 20
-41.79999999999999
 30
0.0
 11
-146.84999999999999
 21
-40.799999999999997
 31
0.0
  0
LINE
  5
190
  8
DATA
  6
CONTINUOUS
 62
     7
 10
-153.15000000000001
 20
-40.799999999999997
 30
0.0
 11
-146.84999999999999
 21
-39.799999999999997
 31
0.0
  0
LINE
  5
191
  8
DATA
  6
CONTINUOUS
 62
     7
 10
-152.94999999999999
 20
-40.768253968253973
 30
0.0
 11
-152.94999999999999
 21
-41.768253968253973
 31
0.0
  0
LINE
  5
192
  8
DATA
  6
CONTINUOUS
 62
     7
 10
-153.15000000000001
 20
-42.799999999999997
 30
0.0
 11
-153.15000000000001
 21
-41.79999999999999
 31
0.0
  0
LINE
  5
193
  8
DATA
  6
CONTINUOUS
 62
     7
 10
-153.15000000000001
 20
-40.799999999999997
 30
0.0
 11
-146.84999999999999
 21
-39.799999999999997
 31
0.0
  0
LINE
  5
194
  8
DATA
  6
CONTINUOUS
 62
     7
 10
-147.0499999999999
 20
-37.831746031746022
 30
0.0
 11
-147.0499999999999
 21
-38.831746031746022
 31
0.0
  0
LINE
  5
195
  8
DATA
  6
CONTINUOUS
 62
     7
 10
-146.84999999999999
 20
-39.799999999999997
 30
0.0
 11
-146.84999999999999
 21
-38.799999999999997
 31
0.0
  0
LINE
  5
196
  8
DATA
  6
CONTINUOUS
 62
     7
 10
-153.15000000000001
 20
-39.799999999999997
 30
0.0
 11
-146.84999999999999
 21
-38.799999999999997
 31
0.0
  0
LINE
  5
197
  8
DATA
  6
CONTINUOUS
 62
     7
 10
-153.15000000000001
 20
-38.799999999999997
 30
0.0
 11
-146.84999999999999
 21
-37.799999999999997
 31
0.0
  0
LINE
  5
198
  8
DATA
  6
CONTINUOUS
 62
     7
 10
-152.94999999999999
 20
-38.768253968253973
 30
0.0
 11
-152.94999999999999
 21
-39.768253968253973
 31
0.0
  0
LINE
  5
199
  8
DATA
  6
CONTINUOUS
 62
     7
 10
-153.15000000000001
 20
-40.799999999999997
 30
0.0
 11
-153.15000000000001
 21
-39.799999999999997
 31
0.0
  0
LINE
  5
19A
  8
DATA
  6
CONTINUOUS
 62
     7
 10
-153.15000000000001
 20
-38.799999999999997
 30
0.0
 11
-146.84999999999999
 21
-37.799999999999997
 31
0.0
  0
LINE
  5
19B
  8
DATA
  6
CONTINUOUS
 62
     7
 10
-147.0499999999999
 20
-35.831746031746029
 30
0.0
 11
-147.0499999999999
 21
-36.831746031746022
 31
0.0
  0
LINE
  5
19C
  8
DATA
  6
CONTINUOUS
 62
     7
 10
-146.84999999999999
 20
-37.799999999999997
 30
0.0
 11
-146.84999999999999
 21
-36.799999999999997
 31
0.0
  0
LINE
  5
19D
  8
DATA
  6
CONTINUOUS
 62
     7
 10
-153.15000000000001
 20
-37.799999999999997
 30
0.0
 11
-146.84999999999999
 21
-36.799999999999997
 31
0.0
  0
LINE
  5
19E
  8
DATA
  6
CONTINUOUS
 62
     7
 10
-153.15000000000001
 20
-36.799999999999997
 30
0.0
 11
-146.84999999999999
 21
-35.799999999999997
 31
0.0
  0
LINE
  5
19F
  8
DATA
  6
CONTINUOUS
 62
     7
 10
-152.94999999999999
 20
-36.768253968253973
 30
0.0
 11
-152.94999999999999
 21
-37.768253968253973
 31
0.0
  0
LINE
  5
1A0
  8
DATA
  6
CONTINUOUS
 62
     7
 10
-153.15000000000001
 20
-38.799999999999997
 30
0.0
 11
-153.15000000000001
 21
-37.799999999999997
 31
0.0
  0
LINE
  5
1A1
  8
DATA
  6
CONTINUOUS
 62
     7
 10
-153.15000000000001
 20
-36.799999999999997
 30
0.0
 11
-146.84999999999999
 21
-35.799999999999997
 31
0.0
  0
LINE
  5
1A2
  8
DATA
  6
CONTINUOUS
 62
     7
 10
-147.0499999999999
 20
-33.831746031746029
 30
0.0
 11
-147.0499999999999
 21
-34.831746031746029
 31
0.0
  0
LINE
  5
1A3
  8
DATA
  6
CONTINUOUS
 62
     7
 10
-146.84999999999999
 20
-35.799999999999997
 30
0.0
 11
-146.84999999999999
 21
-34.799999999999997
 31
0.0
  0
LINE
  5
1A4
  8
DATA
  6
CONTINUOUS
 62
     7
 10
-153.15000000000001
 20
-35.799999999999997
 30
0.0
 11
-146.84999999999999
 21
-34.799999999999997
 31
0.0
  0
LINE
  5
1A5
  8
DATA
  6
CONTINUOUS
 62
     7
 10
-153.15000000000001
 20
-34.799999999999997
 30
0.0
 11
-146.84999999999999
 21
-33.799999999999997
 31
0.0
  0
LINE
  5
1A6
  8
DATA
  6
CONTINUOUS
 62
     7
 10
-152.94999999999999
 20
-34.768253968253973
 30
0.0
 11
-152.94999999999999
 21
-35.768253968253973
 31
0.0
  0
LINE
  5
1A7
  8
DATA
  6
CONTINUOUS
 62
     7
 10
-153.15000000000001
 20
-36.799999999999997
 30
0.0
 11
-153.15000000000001
 21
-35.799999999999997
 31
0.0
  0
LINE
  5
1A8
  8
DATA
  6
CONTINUOUS
 62
     7
 10
-153.15000000000001
 20
-34.799999999999997
 30
0.0
 11
-146.84999999999999
 21
-33.799999999999997
 31
0.0
  0
LINE
  5
1A9
  8
DATA
  6
CONTINUOUS
 62
     7
 10
-147.0499999999999
 20
-31.831746031746029
 30
0.0
 11
-147.0499999999999
 21
-32.831746031746029
 31
0.0
  0
LINE
  5
1AA
  8
DATA
  6
CONTINUOUS
 62
     7
 10
-146.84999999999999
 20
-33.799999999999997
 30
0.0
 11
-146.84999999999999
 21
-32.799999999999997
 31
0.0
  0
LINE
  5
1AB
  8
DATA
  6
CONTINUOUS
 62
     7
 10
-153.15000000000001
 20
-33.799999999999997
 30
0.0
 11
-146.84999999999999
 21
-32.799999999999997
 31
0.0
  0
LINE
  5
1AC
  8
DATA
  6
CONTINUOUS
 62
     7
 10
-153.15000000000001
 20
-32.799999999999997
 30
0.0
 11
-146.84999999999999
 21
-31.800000000000001
 31
0.0
  0
LINE
  5
1AD
  8
DATA
  6
CONTINUOUS
 62
     7
 10
-152.94999999999999
 20
-32.768253968253973
 30
0.0
 11
-152.94999999999999
 21
-33.76825396825398
 31
0.0
  0
LINE
  5
1AE
  8
DATA
  6
CONTINUOUS
 62
     7
 10
-153.15000000000001
 20
-34.799999999999997
 30
0.0
 11
-153.15000000000001
 21
-33.799999999999997
 31
0.0
  0
LINE
  5
1AF
  8
DATA
  6
CONTINUOUS
 62
     7
 10
-153.15000000000001
 20
-32.799999999999997
 30
0.0
 11
-146.84999999999999
 21
-31.800000000000001
 31
0.0
  0
LINE
  5
1B0
  8
DATA
  6
CONTINUOUS
 62
     7
 10
-147.0499999999999
 20
-29.831746031746029
 30
0.0
 11
-147.0499999999999
 21
-30.831746031746029
 31
0.0
  0
LINE
  5
1B1
  8
DATA
  6
CONTINUOUS
 62
     7
 10
-146.84999999999999
 20
-31.800000000000001
 30
0.0
 11
-146.84999999999999
 21
-30.800000000000001
 31
0.0
  0
LINE
  5
1B2
  8
DATA
  6
CONTINUOUS
 62
     7
 10
-153.15000000000001
 20
-31.800000000000001
 30
0.0
 11
-146.84999999999999
 21
-30.800000000000001
 31
0.0
  0
LINE
  5
1B3
  8
DATA
  6
CONTINUOUS
 62
     7
 10
-153.15000000000001
 20
-30.800000000000001
 30
0.0
 11
-146.84999999999999
 21
-29.800000000000001
 31
0.0
  0
LINE
  5
1B4
  8
DATA
  6
CONTINUOUS
 62
     7
 10
-152.94999999999999
 20
-30.768253968253969
 30
0.0
 11
-152.94999999999999
 21
-31.768253968253969
 31
0.0
  0
LINE
  5
1B5
  8
DATA
  6
CONTINUOUS
 62
     7
 10
-153.15000000000001
 20
-32.799999999999997
 30
0.0
 11
-153.15000000000001
 21
-31.800000000000001
 31
0.0
  0
LINE
  5
1B6
  8
DATA
  6
CONTINUOUS
 62
     7
 10
-153.15000000000001
 20
-30.800000000000001
 30
0.0
 11
-146.84999999999999
 21
-29.800000000000001
 31
0.0
  0
LINE
  5
1B7
  8
DATA
  6
CONTINUOUS
 62
     7
 10
-147.0499999999999
 20
-27.831746031746029
 30
0.0
 11
-147.0499999999999
 21
-28.831746031746029
 31
0.0
  0
LINE
  5
1B8
  8
DATA
  6
CONTINUOUS
 62
     7
 10
-146.84999999999999
 20
-29.800000000000001
 30
0.0
 11
-146.84999999999999
 21
-28.800000000000001
 31
0.0
  0
LINE
  5
1B9
  8
DATA
  6
CONTINUOUS
 62
     7
 10
-153.15000000000001
 20
-29.800000000000001
 30
0.0
 11
-146.84999999999999
 21
-28.800000000000001
 31
0.0
  0
LINE
  5
1BA
  8
DATA
  6
CONTINUOUS
 62
     7
 10
-153.15000000000001
 20
-28.800000000000001
 30
0.0
 11
-146.84999999999999
 21
-27.800000000000001
 31
0.0
  0
LINE
  5
1BB
  8
DATA
  6
CONTINUOUS
 62
     7
 10
-152.94999999999999
 20
-28.768253968253969
 30
0.0
 11
-152.94999999999999
 21
-29.768253968253969
 31
0.0
  0
LINE
  5
1BC
  8
DATA
  6
CONTINUOUS
 62
     7
 10
-153.15000000000001
 20
-30.800000000000001
 30
0.0
 11
-153.15000000000001
 21
-29.800000000000001
 31
0.0
  0
LINE
  5
1BD
  8
DATA
  6
CONTINUOUS
 62
     7
 10
-153.15000000000001
 20
-28.800000000000001
 30
0.0
 11
-146.84999999999999
 21
-27.800000000000001
 31
0.0
  0
LINE
  5
1BE
  8
DATA
  6
CONTINUOUS
 62
     7
 10
-147.0499999999999
 20
-25.831746031746029
 30
0.0
 11
-147.0499999999999
 21
-26.831746031746029
 31
0.0
  0
LINE
  5
1BF
  8
DATA
  6
CONTINUOUS
 62
     7
 10
-146.84999999999999
 20
-27.800000000000001
 30
0.0
 11
-146.84999999999999
 21
-26.800000000000001
 31
0.0
  0
LINE
  5
1C0
  8
DATA
  6
CONTINUOUS
 62
     7
 10
-153.15000000000001
 20
-27.800000000000001
 30
0.0
 11
-146.84999999999999
 21
-26.800000000000001
 31
0.0
  0
LINE
  5
1C1
  8
DATA
  6
CONTINUOUS
 62
     7
 10
-153.15000000000001
 20
-26.800000000000001
 30
0.0
 11
-146.84999999999999
 21
-25.800000000000001
 31
0.0
  0
LINE
  5
1C2
  8
DATA
  6
CONTINUOUS
 62
     7
 10
-152.94999999999999
 20
-26.768253968253969
 30
0.0
 11
-152.94999999999999
 21
-27.768253968253969
 31
0.0
  0
LINE
  5
1C3
  8
DATA
  6
CONTINUOUS
 62
     7
 10
-153.15000000000001
 20
-28.800000000000001
 30
0.0
 11
-153.15000000000001
 21
-27.800000000000001
 31
0.0
  0
LINE
  5
1C4
  8
DATA
  6
CONTINUOUS
 62
     7
 10
-153.15000000000001
 20
-26.800000000000001
 30
0.0
 11
-146.84999999999999
 21
-25.800000000000001
 31
0.0
  0
LINE
  5
1C5
  8
DATA
  6
CONTINUOUS
 62
     7
 10
-147.0499999999999
 20
-23.831746031746029
 30
0.0
 11
-147.0499999999999
 21
-24.831746031746029
 31
0.0
  0
LINE
  5
1C6
  8
DATA
  6
CONTINUOUS
 62
     7
 10
-146.84999999999999
 20
-25.800000000000001
 30
0.0
 11
-146.84999999999999
 21
-24.800000000000001
 31
0.0
  0
LINE
  5
1C7
  8
DATA
  6
CONTINUOUS
 62
     7
 10
-153.15000000000001
 20
-25.800000000000001
 30
0.0
 11
-146.84999999999999
 21
-24.800000000000001
 31
0.0
  0
LINE
  5
1C8
  8
DATA
  6
CONTINUOUS
 62
     7
 10
-153.15000000000001
 20
-24.800000000000001
 30
0.0
 11
-146.84999999999999
 21
-23.800000000000001
 31
0.0
  0
LINE
  5
1C9
  8
DATA
  6
CONTINUOUS
 62
     7
 10
-152.94999999999999
 20
-24.768253968253969
 30
0.0
 11
-152.94999999999999
 21
-25.768253968253969
 31
0.0
  0
LINE
  5
1CA
  8
DATA
  6
CONTINUOUS
 62
     7
 10
-153.15000000000001
 20
-26.800000000000001
 30
0.0
 11
-153.15000000000001
 21
-25.800000000000001
 31
0.0
  0
LINE
  5
1CB
  8
DATA
  6
CONTINUOUS
 62
     7
 10
-153.15000000000001
 20
-24.800000000000001
 30
0.0
 11
-146.84999999999999
 21
-23.800000000000001
 31
0.0
  0
LINE
  5
1CC
  8
DATA
  6
CONTINUOUS
 62
     7
 10
-147.0499999999999
 20
-21.831746031746022
 30
0.0
 11
-147.0499999999999
 21
-22.831746031746022
 31
0.0
  0
LINE
  5
1CD
  8
DATA
  6
CONTINUOUS
 62
     7
 10
-146.84999999999999
 20
-23.800000000000001
 30
0.0
 11
-146.84999999999999
 21
-22.800000000000001
 31
0.0
  0
LINE
  5
1CE
  8
DATA
  6
CONTINUOUS
 62
     7
 10
-153.15000000000001
 20
-23.800000000000001
 30
0.0
 11
-146.84999999999999
 21
-22.800000000000001
 31
0.0
  0
LINE
  5
1CF
  8
DATA
  6
CONTINUOUS
 62
     7
 10
-153.15000000000001
 20
-22.800000000000001
 30
0.0
 11
-146.84999999999999
 21
-21.800000000000001
 31
0.0
  0
LINE
  5
1D0
  8
DATA
  6
CONTINUOUS
 62
     7
 10
-152.94999999999999
 20
-22.768253968253969
 30
0.0
 11
-152.94999999999999
 21
-23.768253968253969
 31
0.0
  0
LINE
  5
1D1
  8
DATA
  6
CONTINUOUS
 62
     7
 10
-153.15000000000001
 20
-24.800000000000001
 30
0.0
 11
-153.15000000000001
 21
-23.800000000000001
 31
0.0
  0
LINE
  5
1D2
  8
DATA
  6
CONTINUOUS
 62
     7
 10
-153.15000000000001
 20
-22.800000000000001
 30
0.0
 11
-146.84999999999999
 21
-21.800000000000001
 31
0.0
  0
LINE
  5
1D3
  8
DATA
  6
CONTINUOUS
 62
     7
 10
-147.0499999999999
 20
-19.831746031746022
 30
0.0
 11
-147.0499999999999
 21
-20.831746031746022
 31
0.0
  0
LINE
  5
1D4
  8
DATA
  6
CONTINUOUS
 62
     7
 10
-146.84999999999999
 20
-21.800000000000001
 30
0.0
 11
-146.84999999999999
 21
-20.800000000000001
 31
0.0
  0
LINE
  5
1D5
  8
DATA
  6
CONTINUOUS
 62
     7
 10
-153.15000000000001
 20
-21.800000000000001
 30
0.0
 11
-146.84999999999999
 21
-20.800000000000001
 31
0.0
  0
LINE
  5
1D6
  8
DATA
  6
CONTINUOUS
 62
     7
 10
-153.15000000000001
 20
-20.800000000000001
 30
0.0
 11
-146.84999999999999
 21
-19.800000000000001
 31
0.0
  0
LINE
  5
1D7
  8
DATA
  6
CONTINUOUS
 62
     7
 10
-152.94999999999999
 20
-20.768253968253969
 30
0.0
 11
-152.94999999999999
 21
-21.76825396825398
 31
0.0
  0
LINE
  5
1D8
  8
DATA
  6
CONTINUOUS
 62
     7
 10
-153.15000000000001
 20
-22.800000000000001
 30
0.0
 11
-153.15000000000001
 21
-21.800000000000001
 31
0.0
  0
LINE
  5
1D9
  8
DATA
  6
CONTINUOUS
 62
     7
 10
-153.15000000000001
 20
-20.800000000000001
 30
0.0
 11
-146.84999999999999
 21
-19.800000000000001
 31
0.0
  0
LINE
  5
1DA
  8
DATA
  6
CONTINUOUS
 62
     7
 10
-147.0499999999999
 20
-17.831746031746022
 30
0.0
 11
-147.0499999999999
 21
-18.831746031746022
 31
0.0
  0
LINE
  5
1DB
  8
DATA
  6
CONTINUOUS
 62
     7
 10
-146.84999999999999
 20
-19.800000000000001
 30
0.0
 11
-146.84999999999999
 21
-18.800000000000001
 31
0.0
  0
LINE
  5
1DC
  8
DATA
  6
CONTINUOUS
 62
     7
 10
-153.15000000000001
 20
-19.800000000000001
 30
0.0
 11
-146.84999999999999
 21
-18.800000000000001
 31
0.0
  0
LINE
  5
1DD
  8
DATA
  6
CONTINUOUS
 62
     7
 10
-153.15000000000001
 20
-18.800000000000001
 30
0.0
 11
-146.84999999999999
 21
-17.79999999999999
 31
0.0
  0
LINE
  5
1DE
  8
DATA
  6
CONTINUOUS
 62
     7
 10
-152.94999999999999
 20
-18.768253968253969
 30
0.0
 11
-152.94999999999999
 21
-19.768253968253969
 31
0.0
  0
LINE
  5
1DF
  8
DATA
  6
CONTINUOUS
 62
     7
 10
-153.15000000000001
 20
-20.800000000000001
 30
0.0
 11
-153.15000000000001
 21
-19.800000000000001
 31
0.0
  0
LINE
  5
1E0
  8
DATA
  6
CONTINUOUS
 62
     7
 10
-153.15000000000001
 20
-18.800000000000001
 30
0.0
 11
-146.84999999999999
 21
-17.79999999999999
 31
0.0
  0
LINE
  5
1E1
  8
DATA
  6
CONTINUOUS
 62
     7
 10
-147.0499999999999
 20
-15.83174603174602
 30
0.0
 11
-147.0499999999999
 21
-16.831746031746022
 31
0.0
  0
LINE
  5
1E2
  8
DATA
  6
CONTINUOUS
 62
     7
 10
-146.84999999999999
 20
-17.79999999999999
 30
0.0
 11
-146.84999999999999
 21
-16.79999999999999
 31
0.0
  0
LINE
  5
1E3
  8
DATA
  6
CONTINUOUS
 62
     7
 10
-153.15000000000001
 20
-17.79999999999999
 30
0.0
 11
-146.84999999999999
 21
-16.79999999999999
 31
0.0
  0
LINE
  5
1E4
  8
DATA
  6
CONTINUOUS
 62
     7
 10
-153.15000000000001
 20
-16.79999999999999
 30
0.0
 11
-146.84999999999999
 21
-15.79999999999999
 31
0.0
  0
LINE
  5
1E5
  8
DATA
  6
CONTINUOUS
 62
     7
 10
-152.94999999999999
 20
-16.768253968253969
 30
0.0
 11
-152.94999999999999
 21
-17.768253968253969
 31
0.0
  0
LINE
  5
1E6
  8
DATA
  6
CONTINUOUS
 62
     7
 10
-153.15000000000001
 20
-18.800000000000001
 30
0.0
 11
-153.15000000000001
 21
-17.79999999999999
 31
0.0
  0
LINE
  5
1E7
  8
DATA
  6
CONTINUOUS
 62
     7
 10
-153.15000000000001
 20
-16.79999999999999
 30
0.0
 11
-146.84999999999999
 21
-15.79999999999999
 31
0.0
  0
LINE
  5
1E8
  8
DATA
  6
CONTINUOUS
 62
     7
 10
-147.0499999999999
 20
-13.83174603174602
 30
0.0
 11
-147.0499999999999
 21
-14.83174603174602
 31
0.0
  0
LINE
  5
1E9
  8
DATA
  6
CONTINUOUS
 62
     7
 10
-146.84999999999999
 20
-15.79999999999999
 30
0.0
 11
-146.84999999999999
 21
-14.79999999999999
 31
0.0
  0
LINE
  5
1EA
  8
DATA
  6
CONTINUOUS
 62
     7
 10
-153.15000000000001
 20
-15.79999999999999
 30
0.0
 11
-146.84999999999999
 21
-14.79999999999999
 31
0.0
  0
LINE
  5
1EB
  8
DATA
  6
CONTINUOUS
 62
     7
 10
-153.15000000000001
 20
-14.79999999999999
 30
0.0
 11
-146.84999999999999
 21
-13.79999999999999
 31
0.0
  0
LINE
  5
1EC
  8
DATA
  6
CONTINUOUS
 62
     7
 10
-152.94999999999999
 20
-14.768253968253971
 30
0.0
 11
-152.94999999999999
 21
-15.768253968253971
 31
0.0
  0
LINE
  5
1ED
  8
DATA
  6
CONTINUOUS
 62
     7
 10
-153.15000000000001
 20
-16.79999999999999
 30
0.0
 11
-153.15000000000001
 21
-15.79999999999999
 31
0.0
  0
LINE
  5
1EE
  8
DATA
  6
CONTINUOUS
 62
     7
 10
-153.15000000000001
 20
-14.79999999999999
 30
0.0
 11
-146.84999999999999
 21
-13.79999999999999
 31
0.0
  0
LINE
  5
1EF
  8
DATA
  6
CONTINUOUS
 62
     7
 10
-147.0499999999999
 20
-11.83174603174602
 30
0.0
 11
-147.0499999999999
 21
-12.83174603174602
 31
0.0
  0
LINE
  5
1F0
  8
DATA
  6
CONTINUOUS
 62
     7
 10
-146.84999999999999
 20
-13.79999999999999
 30
0.0
 11
-146.84999999999999
 21
-12.79999999999999
 31
0.0
  0
LINE
  5
1F1
  8
DATA
  6
CONTINUOUS
 62
     7
 10
-153.15000000000001
 20
-13.79999999999999
 30
0.0
 11
-146.84999999999999
 21
-12.79999999999999
 31
0.0
  0
LINE
  5
1F2
  8
DATA
  6
CONTINUOUS
 62
     7
 10
-153.15000000000001
 20
-12.79999999999999
 30
0.0
 11
-146.84999999999999
 21
-11.79999999999999
 31
0.0
  0
LINE
  5
1F3
  8
DATA
  6
CONTINUOUS
 62
     7
 10
-152.94999999999999
 20
-12.768253968253971
 30
0.0
 11
-152.94999999999999
 21
-13.768253968253971
 31
0.0
  0
LINE
  5
1F4
  8
DATA
  6
CONTINUOUS
 62
     7
 10
-153.15000000000001
 20
-14.79999999999999
 30
0.0
 11
-153.15000000000001
 21
-13.79999999999999
 31
0.0
  0
LINE
  5
1F5
  8
DATA
  6
CONTINUOUS
 62
     7
 10
-153.15000000000001
 20
-12.79999999999999
 30
0.0
 11
-146.84999999999999
 21
-11.79999999999999
 31
0.0
  0
LINE
  5
1F6
  8
DATA
  6
CONTINUOUS
 62
     7
 10
-147.0499999999999
 20
-9.8317460317460181
 30
0.0
 11
-147.0499999999999
 21
-10.83174603174602
 31
0.0
  0
LINE
  5
1F7
  8
DATA
  6
CONTINUOUS
 62
     7
 10
-146.84999999999999
 20
-11.79999999999999
 30
0.0
 11
-146.84999999999999
 21
-10.79999999999999
 31
0.0
  0
LINE
  5
1F8
  8
DATA
  6
CONTINUOUS
 62
     7
 10
-153.15000000000001
 20
-11.79999999999999
 30
0.0
 11
-146.84999999999999
 21
-10.79999999999999
 31
0.0
  0
LINE
  5
1F9
  8
DATA
  6
CONTINUOUS
 62
     7
 10
-153.15000000000001
 20
-10.79999999999999
 30
0.0
 11
-146.84999999999999
 21
-9.7999999999999972
 31
0.0
  0
LINE
  5
1FA
  8
DATA
  6
CONTINUOUS
 62
     7
 10
-152.94999999999999
 20
-10.768253968253971
 30
0.0
 11
-152.94999999999999
 21
-11.768253968253971
 31
0.0
  0
LINE
  5
1FB
  8
DATA
  6
CONTINUOUS
 62
     7
 10
-153.15000000000001
 20
-12.79999999999999
 30
0.0
 11
-153.15000000000001
 21
-11.79999999999999
 31
0.0
  0
LINE
  5
1FC
  8
DATA
  6
CONTINUOUS
 62
     7
 10
-153.15000000000001
 20
-10.79999999999999
 30
0.0
 11
-146.84999999999999
 21
-9.7999999999999972
 31
0.0
  0
LINE
  5
1FD
  8
DATA
  6
CONTINUOUS
 62
     7
 10
-147.0499999999999
 20
-7.8317460317460199
 30
0.0
 11
-147.0499999999999
 21
-8.8317460317460217
 31
0.0
  0
LINE
  5
1FE
  8
DATA
  6
CONTINUOUS
 62
     7
 10
-146.84999999999999
 20
-9.7999999999999972
 30
0.0
 11
-146.84999999999999
 21
-8.7999999999999972
 31
0.0
  0
LINE
  5
1FF
  8
DATA
  6
CONTINUOUS
 62
     7
 10
-153.15000000000001
 20
-9.7999999999999972
 30
0.0
 11
-146.84999999999999
 21
-8.7999999999999972
 31
0.0
  0
LINE
  5
200
  8
DATA
  6
CONTINUOUS
 62
     7
 10
-153.15000000000001
 20
-8.7999999999999972
 30
0.0
 11
-146.84999999999999
 21
-7.7999999999999972
 31
0.0
  0
LINE
  5
201
  8
DATA
  6
CONTINUOUS
 62
     7
 10
-152.94999999999999
 20
-8.7682539682539709
 30
0.0
 11
-152.94999999999999
 21
-9.7682539682539709
 31
0.0
  0
LINE
  5
202
  8
DATA
  6
CONTINUOUS
 62
     7
 10
-153.15000000000001
 20
-10.79999999999999
 30
0.0
 11
-153.15000000000001
 21
-9.7999999999999972
 31
0.0
  0
LINE
  5
203
  8
DATA
  6
CONTINUOUS
 62
     7
 10
-153.15000000000001
 20
-8.7999999999999972
 30
0.0
 11
-146.84999999999999
 21
-7.7999999999999972
 31
0.0
  0
LINE
  5
204
  8
DATA
  6
CONTINUOUS
 62
     7
 10
-147.0499999999999
 20
-5.8317460317460208
 30
0.0
 11
-147.0499999999999
 21
-6.8317460317460208
 31
0.0
  0
LINE
  5
205
  8
DATA
  6
CONTINUOUS
 62
     7
 10
-146.84999999999999
 20
-7.7999999999999972
 30
0.0
 11
-146.84999999999999
 21
-6.7999999999999972
 31
0.0
  0
LINE
  5
206
  8
DATA
  6
CONTINUOUS
 62
     7
 10
-153.15000000000001
 20
-7.7999999999999972
 30
0.0
 11
-146.84999999999999
 21
-6.7999999999999972
 31
0.0
  0
LINE
  5
207
  8
DATA
  6
CONTINUOUS
 62
     7
 10
-153.15000000000001
 20
-6.7999999999999972
 30
0.0
 11
-146.84999999999999
 21
-5.7999999999999972
 31
0.0
  0
LINE
  5
208
  8
DATA
  6
CONTINUOUS
 62
     7
 10
-152.94999999999999
 20
-6.7682539682539717
 30
0.0
 11
-152.94999999999999
 21
-7.76825396825397
 31
0.0
  0
LINE
  5
209
  8
DATA
  6
CONTINUOUS
 62
     7
 10
-153.15000000000001
 20
-8.7999999999999972
 30
0.0
 11
-153.15000000000001
 21
-7.7999999999999972
 31
0.0
  0
LINE
  5
20A
  8
DATA
  6
CONTINUOUS
 62
     7
 10
-153.15000000000001
 20
-6.7999999999999972
 30
0.0
 11
-146.84999999999999
 21
-5.7999999999999972
 31
0.0
  0
LINE
  5
20B
  8
DATA
  6
CONTINUOUS
 62
     7
 10
-147.0499999999999
 20
-3.8317460317460208
 30
0.0
 11
-147.0499999999999
 21
-4.8317460317460208
 31
0.0
  0
LINE
  5
20C
  8
DATA
  6
CONTINUOUS
 62
     7
 10
-146.84999999999999
 20
-5.7999999999999972
 30
0.0
 11
-146.84999999999999
 21
-4.7999999999999972
 31
0.0
  0
LINE
  5
20D
  8
DATA
  6
CONTINUOUS
 62
     7
 10
-153.15000000000001
 20
-5.7999999999999972
 30
0.0
 11
-146.84999999999999
 21
-4.7999999999999972
 31
0.0
  0
LINE
  5
20E
  8
DATA
  6
CONTINUOUS
 62
     7
 10
-153.15000000000001
 20
-4.7999999999999972
 30
0.0
 11
-146.84999999999999
 21
-3.7999999999999958
 31
0.0
  0
LINE
  5
20F
  8
DATA
  6
CONTINUOUS
 62
     7
 10
-152.94999999999999
 20
-4.7682539682539717
 30
0.0
 11
-152.94999999999999
 21
-5.7682539682539717
 31
0.0
  0
LINE
  5
210
  8
DATA
  6
CONTINUOUS
 62
     7
 10
-153.15000000000001
 20
-6.7999999999999972
 30
0.0
 11
-153.15000000000001
 21
-5.7999999999999972
 31
0.0
  0
LINE
  5
211
  8
DATA
  6
CONTINUOUS
 62
     7
 10
-153.15000000000001
 20
-4.7999999999999972
 30
0.0
 11
-146.84999999999999
 21
-3.7999999999999958
 31
0.0
  0
LINE
  5
212
  8
DATA
  6
CONTINUOUS
 62
     7
 10
-147.0499999999999
 20
-1.831746031746021
 30
0.0
 11
-147.0499999999999
 21
-2.8317460317460208
 31
0.0
  0
LINE
  5
213
  8
DATA
  6
CONTINUOUS
 62
     7
 10
-146.84999999999999
 20
-3.7999999999999958
 30
0.0
 11
-146.84999999999999
 21
-2.7999999999999958
 31
0.0
  0
LINE
  5
214
  8
DATA
  6
CONTINUOUS
 62
     7
 10
-153.15000000000001
 20
-3.7999999999999958
 30
0.0
 11
-146.84999999999999
 21
-2.7999999999999958
 31
0.0
  0
LINE
  5
215
  8
DATA
  6
CONTINUOUS
 62
     7
 10
-153.15000000000001
 20
-2.7999999999999958
 30
0.0
 11
-146.84999999999999
 21
-1.7999999999999969
 31
0.0
  0
LINE
  5
216
  8
DATA
  6
CONTINUOUS
 62
     7
 10
-152.94999999999999
 20
-2.7682539682539722
 30
0.0
 11
-152.94999999999999
 21
-3.7682539682539722
 31
0.0
  0
LINE
  5
217
  8
DATA
  6
CONTINUOUS
 62
     7
 10
-153.15000000000001
 20
-4.7999999999999972
 30
0.0
 11
-153.15000000000001
 21
-3.7999999999999958
 31
0.0
  0
LINE
  5
218
  8
DATA
  6
CONTINUOUS
 62
     7
 10
-153.15000000000001
 20
-2.7999999999999958
 30
0.0
 11
-146.84999999999999
 21
-1.7999999999999969
 31
0.0
  0
LINE
  5
219
  8
DATA
  6
CONTINUOUS
 62
     7
 10
-147.0499999999999
 20
0.1682539682539783
 30
0.0
 11
-147.0499999999999
 21
-0.8317460317460216
 31
0.0
  0
LINE
  5
21A
  8
DATA
  6
CONTINUOUS
 62
     7
 10
-146.84999999999999
 20
-1.7999999999999969
 30
0.0
 11
-146.84999999999999
 21
-0.7999999999999972
 31
0.0
  0
LINE
  5
21B
  8
DATA
  6
CONTINUOUS
 62
     7
 10
-153.15000000000001
 20
-1.7999999999999969
 30
0.0
 11
-146.84999999999999
 21
-0.7999999999999972
 31
0.0
  0
LINE
  5
21C
  8
DATA
  6
CONTINUOUS
 62
     7
 10
-153.15000000000001
 20
-0.7999999999999972
 30
0.0
 11
-146.84999999999999
 21
0.2000000000000028
 31
0.0
  0
LINE
  5
21D
  8
DATA
  6
CONTINUOUS
 62
     7
 10
-152.94999999999999
 20
-0.7682539682539727
 30
0.0
 11
-152.94999999999999
 21
-1.768253968253972
 31
0.0
  0
LINE
  5
21E
  8
DATA
  6
CONTINUOUS
 62
     7
 10
-153.15000000000001
 20
-2.7999999999999958
 30
0.0
 11
-153.15000000000001
 21
-1.7999999999999969
 31
0.0
  0
LINE
  5
21F
  8
DATA
  6
CONTINUOUS
 62
     7
 10
-153.15000000000001
 20
-0.7999999999999972
 30
0.0
 11
-146.84999999999999
 21
0.2000000000000028
 31
0.0
  0
LINE
  5
220
  8
DATA
  6
CONTINUOUS
 62
     7
 10
-147.0499999999999
 20
2.1682539682539779
 30
0.0
 11
-147.0499999999999
 21
1.1682539682539781
 31
0.0
  0
LINE
  5
221
  8
DATA
  6
CONTINUOUS
 62
     7
 10
-146.84999999999999
 20
0.2000000000000028
 30
0.0
 11
-146.84999999999999
 21
1.200000000000002
 31
0.0
  0
LINE
  5
222
  8
DATA
  6
CONTINUOUS
 62
     7
 10
-153.15000000000001
 20
0.2000000000000028
 30
0.0
 11
-146.84999999999999
 21
1.200000000000002
 31
0.0
  0
LINE
  5
223
  8
DATA
  6
CONTINUOUS
 62
     7
 10
-153.15000000000001
 20
1.200000000000002
 30
0.0
 11
-146.84999999999999
 21
2.200000000000002
 31
0.0
  0
LINE
  5
224
  8
DATA
  6
CONTINUOUS
 62
     7
 10
-152.94999999999999
 20
1.2317460317460269
 30
0.0
 11
-152.94999999999999
 21
0.2317460317460274
 31
0.0
  0
LINE
  5
225
  8
DATA
  6
CONTINUOUS
 62
     7
 10
-153.15000000000001
 20
-0.7999999999999972
 30
0.0
 11
-153.15000000000001
 21
0.2000000000000028
 31
0.0
  0
LINE
  5
226
  8
DATA
  6
CONTINUOUS
 62
     7
 10
-153.15000000000001
 20
1.200000000000002
 30
0.0
 11
-146.84999999999999
 21
2.200000000000002
 31
0.0
  0
LINE
  5
227
  8
DATA
  6
CONTINUOUS
 62
     7
 10
-147.0499999999999
 20
4.1682539682539774
 30
0.0
 11
-147.0499999999999
 21
3.1682539682539779
 31
0.0
  0
LINE
  5
228
  8
DATA
  6
CONTINUOUS
 62
     7
 10
-146.84999999999999
 20
2.200000000000002
 30
0.0
 11
-146.84999999999999
 21
3.200000000000002
 31
0.0
  0
LINE
  5
229
  8
DATA
  6
CONTINUOUS
 62
     7
 10
-153.15000000000001
 20
2.200000000000002
 30
0.0
 11
-146.84999999999999
 21
3.200000000000002
 31
0.0
  0
LINE
  5
22A
  8
DATA
  6
CONTINUOUS
 62
     7
 10
-153.15000000000001
 20
3.200000000000002
 30
0.0
 11
-146.84999999999999
 21
4.200000000000002
 31
0.0
  0
LINE
  5
22B
  8
DATA
  6
CONTINUOUS
 62
     7
 10
-152.94999999999999
 20
3.2317460317460269
 30
0.0
 11
-152.94999999999999
 21
2.2317460317460269
 31
0.0
  0
LINE
  5
22C
  8
DATA
  6
CONTINUOUS
 62
     7
 10
-153.15000000000001
 20
1.200000000000002
 30
0.0
 11
-153.15000000000001
 21
2.200000000000002
 31
0.0
  0
LINE
  5
22D
  8
DATA
  6
CONTINUOUS
 62
     7
 10
-153.15000000000001
 20
3.200000000000002
 30
0.0
 11
-146.84999999999999
 21
4.200000000000002
 31
0.0
  0
LINE
  5
22E
  8
DATA
  6
CONTINUOUS
 62
     7
 10
-147.0499999999999
 20
6.1682539682539774
 30
0.0
 11
-147.0499999999999
 21
5.1682539682539774
 31
0.0
  0
LINE
  5
22F
  8
DATA
  6
CONTINUOUS
 62
     7
 10
-146.84999999999999
 20
4.200000000000002
 30
0.0
 11
-146.84999999999999
 21
5.200000000000002
 31
0.0
  0
LINE
  5
230
  8
DATA
  6
CONTINUOUS
 62
     7
 10
-153.15000000000001
 20
4.200000000000002
 30
0.0
 11
-146.84999999999999
 21
5.200000000000002
 31
0.0
  0
LINE
  5
231
  8
DATA
  6
CONTINUOUS
 62
     7
 10
-153.15000000000001
 20
5.200000000000002
 30
0.0
 11
-146.84999999999999
 21
6.200000000000002
 31
0.0
  0
LINE
  5
232
  8
DATA
  6
CONTINUOUS
 62
     7
 10
-152.94999999999999
 20
5.2317460317460274
 30
0.0
 11
-152.94999999999999
 21
4.2317460317460274
 31
0.0
  0
LINE
  5
233
  8
DATA
  6
CONTINUOUS
 62
     7
 10
-153.15000000000001
 20
3.200000000000002
 30
0.0
 11
-153.15000000000001
 21
4.200000000000002
 31
0.0
  0
LINE
  5
234
  8
DATA
  6
CONTINUOUS
 62
     7
 10
-153.15000000000001
 20
5.200000000000002
 30
0.0
 11
-146.84999999999999
 21
6.200000000000002
 31
0.0
  0
LINE
  5
235
  8
DATA
  6
CONTINUOUS
 62
     7
 10
-147.0499999999999
 20
8.1682539682539783
 30
0.0
 11
-147.0499999999999
 21
7.1682539682539774
 31
0.0
  0
LINE
  5
236
  8
DATA
  6
CONTINUOUS
 62
     7
 10
-146.84999999999999
 20
6.200000000000002
 30
0.0
 11
-146.84999999999999
 21
7.200000000000002
 31
0.0
  0
LINE
  5
237
  8
DATA
  6
CONTINUOUS
 62
     7
 10
-153.15000000000001
 20
6.200000000000002
 30
0.0
 11
-146.84999999999999
 21
7.200000000000002
 31
0.0
  0
LINE
  5
238
  8
DATA
  6
CONTINUOUS
 62
     7
 10
-153.15000000000001
 20
7.200000000000002
 30
0.0
 11
-146.84999999999999
 21
8.2000000000000028
 31
0.0
  0
LINE
  5
239
  8
DATA
  6
CONTINUOUS
 62
     7
 10
-152.94999999999999
 20
7.2317460317460274
 30
0.0
 11
-152.94999999999999
 21
6.2317460317460274
 31
0.0
  0
LINE
  5
23A
  8
DATA
  6
CONTINUOUS
 62
     7
 10
-153.15000000000001
 20
5.200000000000002
 30
0.0
 11
-153.15000000000001
 21
6.200000000000002
 31
0.0
  0
LINE
  5
23B
  8
DATA
  6
CONTINUOUS
 62
     7
 10
-153.15000000000001
 20
7.200000000000002
 30
0.0
 11
-146.84999999999999
 21
8.2000000000000028
 31
0.0
  0
LINE
  5
23C
  8
DATA
  6
CONTINUOUS
 62
     7
 10
-147.0499999999999
 20
10.168253968253969
 30
0.0
 11
-147.0499999999999
 21
9.1682539682539783
 31
0.0
  0
LINE
  5
23D
  8
DATA
  6
CONTINUOUS
 62
     7
 10
-146.84999999999999
 20
8.2000000000000028
 30
0.0
 11
-146.84999999999999
 21
9.2000000000000028
 31
0.0
  0
LINE
  5
23E
  8
DATA
  6
CONTINUOUS
 62
     7
 10
-153.15000000000001
 20
8.2000000000000028
 30
0.0
 11
-146.84999999999999
 21
9.2000000000000028
 31
0.0
  0
LINE
  5
23F
  8
DATA
  6
CONTINUOUS
 62
     7
 10
-153.15000000000001
 20
9.2000000000000028
 30
0.0
 11
-146.84999999999999
 21
10.199999999999999
 31
0.0
  0
LINE
  5
240
  8
DATA
  6
CONTINUOUS
 62
     7
 10
-152.94999999999999
 20
9.2317460317460291
 30
0.0
 11
-152.94999999999999
 21
8.2317460317460274
 31
0.0
  0
LINE
  5
241
  8
DATA
  6
CONTINUOUS
 62
     7
 10
-153.15000000000001
 20
7.200000000000002
 30
0.0
 11
-153.15000000000001
 21
8.2000000000000028
 31
0.0
  0
LINE
  5
242
  8
DATA
  6
CONTINUOUS
 62
     7
 10
-153.15000000000001
 20
9.2000000000000028
 30
0.0
 11
-146.84999999999999
 21
10.199999999999999
 31
0.0
  0
LINE
  5
243
  8
DATA
  6
CONTINUOUS
 62
     7
 10
-147.0499999999999
 20
12.168253968253969
 30
0.0
 11
-147.0499999999999
 21
11.168253968253969
 31
0.0
  0
LINE
  5
244
  8
DATA
  6
CONTINUOUS
 62
     7
 10
-146.84999999999999
 20
10.199999999999999
 30
0.0
 11
-146.84999999999999
 21
11.199999999999999
 31
0.0
  0
LINE
  5
245
  8
DATA
  6
CONTINUOUS
 62
     7
 10
-153.15000000000001
 20
10.199999999999999
 30
0.0
 11
-146.84999999999999
 21
11.199999999999999
 31
0.0
  0
LINE
  5
246
  8
DATA
  6
CONTINUOUS
 62
     7
 10
-153.15000000000001
 20
11.199999999999999
 30
0.0
 11
-146.84999999999999
 21
12.199999999999999
 31
0.0
  0
LINE
  5
247
  8
DATA
  6
CONTINUOUS
 62
     7
 10
-152.94999999999999
 20
11.231746031746029
 30
0.0
 11
-152.94999999999999
 21
10.23174603174602
 31
0.0
  0
LINE
  5
248
  8
DATA
  6
CONTINUOUS
 62
     7
 10
-153.15000000000001
 20
9.2000000000000028
 30
0.0
 11
-153.15000000000001
 21
10.199999999999999
 31
0.0
  0
LINE
  5
249
  8
DATA
  6
CONTINUOUS
 62
     7
 10
-153.15000000000001
 20
11.199999999999999
 30
0.0
 11
-146.84999999999999
 21
12.199999999999999
 31
0.0
  0
LINE
  5
24A
  8
DATA
  6
CONTINUOUS
 62
     7
 10
-147.0499999999999
 20
14.168253968253969
 30
0.0
 11
-147.0499999999999
 21
13.16825396825398
 31
0.0
  0
LINE
  5
24B
  8
DATA
  6
CONTINUOUS
 62
     7
 10
-146.84999999999999
 20
12.199999999999999
 30
0.0
 11
-146.84999999999999
 21
13.199999999999999
 31
0.0
  0
LINE
  5
24C
  8
DATA
  6
CONTINUOUS
 62
     7
 10
-153.15000000000001
 20
12.199999999999999
 30
0.0
 11
-146.84999999999999
 21
13.199999999999999
 31
0.0
  0
LINE
  5
24D
  8
DATA
  6
CONTINUOUS
 62
     7
 10
-153.15000000000001
 20
13.199999999999999
 30
0.0
 11
-146.84999999999999
 21
14.199999999999999
 31
0.0
  0
LINE
  5
24E
  8
DATA
  6
CONTINUOUS
 62
     7
 10
-152.94999999999999
 20
13.231746031746029
 30
0.0
 11
-152.94999999999999
 21
12.231746031746029
 31
0.0
  0
LINE
  5
24F
  8
DATA
  6
CONTINUOUS
 62
     7
 10
-153.15000000000001
 20
11.199999999999999
 30
0.0
 11
-153.15000000000001
 21
12.199999999999999
 31
0.0
  0
LINE
  5
250
  8
DATA
  6
CONTINUOUS
 62
     7
 10
-153.15000000000001
 20
13.199999999999999
 30
0.0
 11
-146.84999999999999
 21
14.199999999999999
 31
0.0
  0
LINE
  5
251
  8
DATA
  6
CONTINUOUS
 62
     7
 10
-147.0499999999999
 20
16.168253968253978
 30
0.0
 11
-147.0499999999999
 21
15.16825396825398
 31
0.0
  0
LINE
  5
252
  8
DATA
  6
CONTINUOUS
 62
     7
 10
-146.84999999999999
 20
14.199999999999999
 30
0.0
 11
-146.84999999999999
 21
15.199999999999999
 31
0.0
  0
LINE
  5
253
  8
DATA
  6
CONTINUOUS
 62
     7
 10
-153.15000000000001
 20
14.199999999999999
 30
0.0
 11
-146.84999999999999
 21
15.199999999999999
 31
0.0
  0
LINE
  5
254
  8
DATA
  6
CONTINUOUS
 62
     7
 10
-153.15000000000001
 20
15.199999999999999
 30
0.0
 11
-146.84999999999999
 21
16.199999999999999
 31
0.0
  0
LINE
  5
255
  8
DATA
  6
CONTINUOUS
 62
     7
 10
-152.94999999999999
 20
15.23174603174602
 30
0.0
 11
-152.94999999999999
 21
14.231746031746029
 31
0.0
  0
LINE
  5
256
  8
DATA
  6
CONTINUOUS
 62
     7
 10
-153.15000000000001
 20
13.199999999999999
 30
0.0
 11
-153.15000000000001
 21
14.199999999999999
 31
0.0
  0
LINE
  5
257
  8
DATA
  6
CONTINUOUS
 62
     7
 10
-153.15000000000001
 20
15.199999999999999
 30
0.0
 11
-146.84999999999999
 21
16.199999999999999
 31
0.0
  0
LINE
  5
258
  8
DATA
  6
CONTINUOUS
 62
     7
 10
-147.0499999999999
 20
18.168253968253978
 30
0.0
 11
-147.0499999999999
 21
17.168253968253978
 31
0.0
  0
LINE
  5
259
  8
DATA
  6
CONTINUOUS
 62
     7
 10
-146.84999999999999
 20
16.199999999999999
 30
0.0
 11
-146.84999999999999
 21
17.199999999999999
 31
0.0
  0
LINE
  5
25A
  8
DATA
  6
CONTINUOUS
 62
     7
 10
-153.15000000000001
 20
16.199999999999999
 30
0.0
 11
-146.84999999999999
 21
17.199999999999999
 31
0.0
  0
LINE
  5
25B
  8
DATA
  6
CONTINUOUS
 62
     7
 10
-153.15000000000001
 20
17.199999999999999
 30
0.0
 11
-146.84999999999999
 21
18.199999999999999
 31
0.0
  0
LINE
  5
25C
  8
DATA
  6
CONTINUOUS
 62
     7
 10
-152.94999999999999
 20
17.231746031746031
 30
0.0
 11
-152.94999999999999
 21
16.231746031746031
 31
0.0
  0
LINE
  5
25D
  8
DATA
  6
CONTINUOUS
 62
     7
 10
-153.15000000000001
 20
15.199999999999999
 30
0.0
 11
-153.15000000000001
 21
16.199999999999999
 31
0.0
  0
LINE
  5
25E
  8
DATA
  6
CONTINUOUS
 62
     7
 10
-153.15000000000001
 20
17.199999999999999
 30
0.0
 11
-146.84999999999999
 21
18.199999999999999
 31
0.0
  0
LINE
  5
25F
  8
DATA
  6
CONTINUOUS
 62
     7
 10
-147.0499999999999
 20
20.168253968253978
 30
0.0
 11
-147.0499999999999
 21
19.168253968253978
 31
0.0
  0
LINE
  5
260
  8
DATA
  6
CONTINUOUS
 62
     7
 10
-146.84999999999999
 20
18.199999999999999
 30
0.0
 11
-146.84999999999999
 21
19.199999999999999
 31
0.0
  0
LINE
  5
261
  8
DATA
  6
CONTINUOUS
 62
     7
 10
-153.15000000000001
 20
18.199999999999999
 30
0.0
 11
-146.84999999999999
 21
19.199999999999999
 31
0.0
  0
LINE
  5
262
  8
DATA
  6
CONTINUOUS
 62
     7
 10
-153.15000000000001
 20
19.199999999999999
 30
0.0
 11
-146.84999999999999
 21
20.20000000000001
 31
0.0
  0
LINE
  5
263
  8
DATA
  6
CONTINUOUS
 62
     7
 10
-152.94999999999999
 20
19.231746031746031
 30
0.0
 11
-152.94999999999999
 21
18.231746031746031
 31
0.0
  0
LINE
  5
264
  8
DATA
  6
CONTINUOUS
 62
     7
 10
-153.15000000000001
 20
17.199999999999999
 30
0.0
 11
-153.15000000000001
 21
18.199999999999999
 31
0.0
  0
LINE
  5
265
  8
DATA
  6
CONTINUOUS
 62
     7
 10
-153.15000000000001
 20
19.199999999999999
 30
0.0
 11
-146.84999999999999
 21
20.20000000000001
 31
0.0
  0
LINE
  5
266
  8
DATA
  6
CONTINUOUS
 62
     7
 10
-147.0499999999999
 20
22.168253968253971
 30
0.0
 11
-147.0499999999999
 21
21.168253968253978
 31
0.0
  0
LINE
  5
267
  8
DATA
  6
CONTINUOUS
 62
     7
 10
-146.84999999999999
 20
20.20000000000001
 30
0.0
 11
-146.84999999999999
 21
21.199999999999999
 31
0.0
  0
LINE
  5
268
  8
DATA
  6
CONTINUOUS
 62
     7
 10
-153.15000000000001
 20
20.20000000000001
 30
0.0
 11
-146.84999999999999
 21
21.199999999999999
 31
0.0
  0
LINE
  5
269
  8
DATA
  6
CONTINUOUS
 62
     7
 10
-153.15000000000001
 20
21.199999999999999
 30
0.0
 11
-146.84999999999999
 21
22.20000000000001
 31
0.0
  0
LINE
  5
26A
  8
DATA
  6
CONTINUOUS
 62
     7
 10
-152.94999999999999
 20
21.231746031746031
 30
0.0
 11
-152.94999999999999
 21
20.231746031746031
 31
0.0
  0
LINE
  5
26B
  8
DATA
  6
CONTINUOUS
 62
     7
 10
-153.15000000000001
 20
19.199999999999999
 30
0.0
 11
-153.15000000000001
 21
20.20000000000001
 31
0.0
  0
LINE
  5
26C
  8
DATA
  6
CONTINUOUS
 62
     7
 10
-153.15000000000001
 20
21.199999999999999
 30
0.0
 11
-146.84999999999999
 21
22.20000000000001
 31
0.0
  0
LINE
  5
26D
  8
DATA
  6
CONTINUOUS
 62
     7
 10
-146.84999999999999
 20
22.20000000000001
 30
0.0
 11
-146.84999999999999
 21
23.20000000000001
 31
0.0
  0
LINE
  5
26E
  8
DATA
  6
CONTINUOUS
 62
     7
 10
-153.15000000000001
 20
22.20000000000001
 30
0.0
 11
-146.84999999999999
 21
23.20000000000001
 31
0.0
  0
LINE
  5
26F
  8
DATA
  6
CONTINUOUS
 62
     7
 10
-152.94999999999999
 20
23.20000000000001
 30
0.0
 11
-152.94999999999999
 21
22.23174603174602
 31
0.0
  0
LINE
  5
270
  8
DATA
  6
CONTINUOUS
 62
     7
 10
-153.15000000000001
 20
21.199999999999999
 30
0.0
 11
-153.15000000000001
 21
22.20000000000001
 31
0.0
  0
LINE
  5
271
  8
DATA
  6
CONTINUOUS
 62
     7
 10
-156.0
 20
67.000000000000014
 30
0.0
 11
-144.0
 21
67.000000000000014
 31
0.0
  0
LINE
  5
272
  8
DATA
  6
CONTINUOUS
 62
     7
 10
-157.5
 20
43.200000000000003
 30
0.0
 11
-142.5
 21
43.200000000000003
 31
0.0
  0
LINE
  5
273
  8
DATA
  6
CONTINUOUS
 62
     7
 10
-157.5
 20
45.200000000000003
 30
0.0
 11
-142.5
 21
45.200000000000003
 31
0.0
  0
LINE
  5
274
  8
DATA
  6
CONTINUOUS
 62
     7
 10
-157.09999999999999
 20
55.000000000000021
 30
0.0
 11
-142.90000000000001
 21
55.000000000000021
 31
0.0
  0
LINE
  5
275
  8
DATA
  6
CONTINUOUS
 62
     7
 10
-144.0
 20
67.000000000000014
 30
0.0
 11
-143.0
 21
55.000000000000021
 31
0.0
  0
LINE
  5
276
  8
DATA
  6
CONTINUOUS
 62
     7
 10
-156.0
 20
67.000000000000014
 30
0.0
 11
-157.0
 21
55.000000000000021
 31
0.0
  0
LINE
  5
277
  8
DATA
  6
CONTINUOUS
 62
     7
 10
-142.90000000000001
 20
55.000000000000021
 30
0.0
 11
-142.5
 21
45.200000000000003
 31
0.0
  0
LINE
  5
278
  8
DATA
  6
CONTINUOUS
 62
     7
 10
-142.5
 20
45.200000000000003
 30
0.0
 11
-142.5
 21
43.200000000000003
 31
0.0
  0
LINE
  5
279
  8
DATA
  6
CONTINUOUS
 62
     7
 10
-157.09999999999999
 20
55.000000000000021
 30
0.0
 11
-157.5
 21
45.200000000000003
 31
0.0
  0
LINE
  5
27A
  8
DATA
  6
CONTINUOUS
 62
     7
 10
-157.5
 20
45.200000000000003
 30
0.0
 11
-157.5
 21
43.200000000000003
 31
0.0
  0
ARC
  5
27B
  8
DATA
  6
CONTINUOUS
 62
     7
 10
-86.100000000000037
 20
23.023750000000021
 30
0.0
 40
59.900259298791802
 50
160.31609583137561
 51
179.831413155321
  0
ARC
  5
27C
  8
DATA
  6
CONTINUOUS
 62
     7
 10
-213.89999999999989
 20
23.023750000000021
 30
0.0
 40
59.900259298791802
 50
0.1685868446790289
 51
19.683904168624359
  0
LINE
  5
27D
  8
DATA
  6
CONTINUOUS
 62
     7
 10
-156.83333333333329
 20
57.000000000000021
 30
0.0
 11
-143.1666666666666
 21
57.000000000000021
 31
0.0
  0
LINE
  5
27E
  8
DATA
  6
CONTINUOUS
 62
     7
 10
-156.7916666666666
 20
57.500000000000021
 30
0.0
 11
-151.90000000000001
 21
57.500000000000021
 31
0.0
  0
LINE
  5
27F
  8
DATA
  6
CONTINUOUS
 62
     7
 10
-148.09999999999999
 20
57.500000000000021
 30
0.0
 11
-143.20833333333329
 21
57.500000000000021
 31
0.0
  0
LINE
  5
280
  8
DATA
  6
CONTINUOUS
 62
     7
 10
-156.64166666666671
 20
59.300000000000018
 30
0.0
 11
-151.90000000000001
 21
59.300000000000018
 31
0.0
  0
LINE
  5
281
  8
DATA
  6
CONTINUOUS
 62
     7
 10
-148.09999999999999
 20
59.300000000000018
 30
0.0
 11
-143.35833333333329
 21
59.300000000000018
 31
0.0
  0
ARC
  5
282
  8
DATA
  6
CONTINUOUS
 62
     7
 10
-148.09999999999999
 20
58.40000000000002
 30
0.0
 40
0.9000000000000056
 50
90.0
 51
270.0
  0
ARC
  5
283
  8
DATA
  6
CONTINUOUS
 62
     7
 10
-151.90000000000001
 20
58.40000000000002
 30
0.0
 40
0.9000000000000056
 50
270.0
 51
90.0
  0
LINE
  5
284
  8
DATA
  6
CONTINUOUS
 62
     7
 10
-144.70833333333329
 20
57.500000000000021
 30
0.0
 11
-144.85833333333329
 21
59.300000000000018
 31
0.0
  0
LINE
  5
285
  8
DATA
  6
CONTINUOUS
 62
     7
 10
-155.2916666666666
 20
57.500000000000021
 30
0.0
 11
-155.14166666666671
 21
59.300000000000018
 31
0.0
  0
LINE
  5
286
  8
DATA
  6
CONTINUOUS
 62
     7
 10
-150.0
 20
-296.0
 30
0.0
 11
-150.0
 21
-300.0
 31
0.0
  0
CIRCLE
  5
287
  8
DATA
  6
CONTINUOUS
 62
     7
 10
-150.0
 20
-298.0
 30
0.0
 40
3.0
  0
LINE
  5
288
  8
DATA
  6
CONTINUOUS
 62
     7
 10
-152.0
 20
-298.0
 30
0.0
 11
-148.0
 21
-298.0
 31
0.0
  0
LINE
  5
289
  8
DATA
  6
CONTINUOUS
 62
     7
 10
-70.90000000000002
 20
-184.0
 30
0.0
 11
-70.90000000000002
 21
-186.0
 31
0.0
  0
LINE
  5
28A
  8
DATA
  6
CONTINUOUS
 62
     7
 10
-70.90000000000002
 20
-187.0
 30
0.0
 11
-70.90000000000002
 21
-189.0
 31
0.0
  0
LINE
  5
28B
  8
DATA
  6
CONTINUOUS
 62
     7
 10
-70.90000000000002
 20
-190.0
 30
0.0
 11
-70.90000000000002
 21
-192.0
 31
0.0
  0
LINE
  5
28C
  8
DATA
  6
CONTINUOUS
 62
     7
 10
-70.90000000000002
 20
-193.0
 30
0.0
 11
-70.90000000000002
 21
-195.0
 31
0.0
  0
LINE
  5
28D
  8
DATA
  6
CONTINUOUS
 62
     7
 10
-70.90000000000002
 20
-196.0
 30
0.0
 11
-70.90000000000002
 21
-198.0
 31
0.0
  0
LINE
  5
28E
  8
DATA
  6
CONTINUOUS
 62
     7
 10
-70.90000000000002
 20
-199.0
 30
0.0
 11
-70.90000000000002
 21
-201.0
 31
0.0
  0
LINE
  5
28F
  8
DATA
  6
CONTINUOUS
 62
     7
 10
-70.90000000000002
 20
-202.0
 30
0.0
 11
-70.90000000000002
 21
-204.0
 31
0.0
  0
LINE
  5
290
  8
DATA
  6
CONTINUOUS
 62
     7
 10
-70.90000000000002
 20
-205.0
 30
0.0
 11
-70.90000000000002
 21
-207.0
 31
0.0
  0
LINE
  5
291
  8
DATA
  6
CONTINUOUS
 62
     7
 10
-70.90000000000002
 20
-208.0
 30
0.0
 11
-70.90000000000002
 21
-210.0
 31
0.0
  0
LINE
  5
292
  8
DATA
  6
CONTINUOUS
 62
     7
 10
-70.90000000000002
 20
-211.0
 30
0.0
 11
-70.90000000000002
 21
-213.0
 31
0.0
  0
LINE
  5
293
  8
DATA
  6
CONTINUOUS
 62
     7
 10
-70.90000000000002
 20
-214.0
 30
0.0
 11
-70.90000000000002
 21
-216.0
 31
0.0
  0
LINE
  5
294
  8
DATA
  6
CONTINUOUS
 62
     7
 10
-70.90000000000002
 20
-217.0
 30
0.0
 11
-70.90000000000002
 21
-219.0
 31
0.0
  0
LINE
  5
295
  8
DATA
  6
CONTINUOUS
 62
     7
 10
-70.90000000000002
 20
-220.0
 30
0.0
 11
-70.90000000000002
 21
-222.0
 31
0.0
  0
LINE
  5
296
  8
DATA
  6
CONTINUOUS
 62
     7
 10
-70.90000000000002
 20
-223.0
 30
0.0
 11
-70.90000000000002
 21
-225.0
 31
0.0
  0
LINE
  5
297
  8
DATA
  6
CONTINUOUS
 62
     7
 10
-70.90000000000002
 20
-226.0
 30
0.0
 11
-70.90000000000002
 21
-228.0
 31
0.0
  0
LINE
  5
298
  8
DATA
  6
CONTINUOUS
 62
     7
 10
-70.90000000000002
 20
-229.0
 30
0.0
 11
-70.90000000000002
 21
-231.0
 31
0.0
  0
LINE
  5
299
  8
DATA
  6
CONTINUOUS
 62
     7
 10
-70.90000000000002
 20
-232.0
 30
0.0
 11
-70.90000000000002
 21
-234.0
 31
0.0
  0
LINE
  5
29A
  8
DATA
  6
CONTINUOUS
 62
     7
 10
-70.90000000000002
 20
-235.0
 30
0.0
 11
-70.90000000000002
 21
-237.0
 31
0.0
  0
LINE
  5
29B
  8
DATA
  6
CONTINUOUS
 62
     7
 10
-70.90000000000002
 20
-238.0
 30
0.0
 11
-70.90000000000002
 21
-240.0
 31
0.0
  0
LINE
  5
29C
  8
DATA
  6
CONTINUOUS
 62
     7
 10
-70.90000000000002
 20
-241.0
 30
0.0
 11
-70.90000000000002
 21
-243.0
 31
0.0
  0
LINE
  5
29D
  8
DATA
  6
CONTINUOUS
 62
     7
 10
-70.90000000000002
 20
-244.0
 30
0.0
 11
-70.90000000000002
 21
-246.0
 31
0.0
  0
LINE
  5
29E
  8
DATA
  6
CONTINUOUS
 62
     7
 10
-70.90000000000002
 20
-247.0
 30
0.0
 11
-70.90000000000002
 21
-249.0
 31
0.0
  0
LINE
  5
29F
  8
DATA
  6
CONTINUOUS
 62
     7
 10
-70.90000000000002
 20
-250.0
 30
0.0
 11
-70.90000000000002
 21
-252.0
 31
0.0
  0
LINE
  5
2A0
  8
DATA
  6
CONTINUOUS
 62
     7
 10
-70.90000000000002
 20
-253.0
 30
0.0
 11
-70.90000000000002
 21
-255.0
 31
0.0
  0
POLYLINE
  5
2A1
  8
DATA
  6
CONTINUOUS
 62
     7
 66
     1
 10
0.0
 20
0.0
 30
0.0
  0
VERTEX
  5
519
  8
DATA
  6
CONTINUOUS
 62
     7
 10
-70.90000000000002
 20
-256.0
 30
0.0
  0
VERTEX
  5
51A
  8
DATA
  6
CONTINUOUS
 62
     7
 10
-70.90000000000002
 20
-259.0
 30
0.0
  0
VERTEX
  5
51B
  8
DATA
  6
CONTINUOUS
 62
     7
 10
-79.09999999999998
 20
-259.0
 30
0.0
  0
VERTEX
  5
51C
  8
DATA
  6
CONTINUOUS
 62
     7
 10
-79.09999999999998
 20
-257.0
 30
0.0
  0
SEQEND
  5
51D
  8
DATA
  6
CONTINUOUS
 62
     7
  0
LINE
  5
2A8
  8
DATA
  6
CONTINUOUS
 62
     7
 10
-79.09999999999998
 20
-256.0
 30
0.0
 11
-79.09999999999998
 21
-254.0
 31
0.0
  0
LINE
  5
2A9
  8
DATA
  6
CONTINUOUS
 62
     7
 10
-79.09999999999998
 20
-253.0
 30
0.0
 11
-79.09999999999998
 21
-251.0
 31
0.0
  0
LINE
  5
2AA
  8
DATA
  6
CONTINUOUS
 62
     7
 10
-79.09999999999998
 20
-250.0
 30
0.0
 11
-79.09999999999998
 21
-248.0
 31
0.0
  0
LINE
  5
2AB
  8
DATA
  6
CONTINUOUS
 62
     7
 10
-79.09999999999998
 20
-247.0
 30
0.0
 11
-79.09999999999998
 21
-245.0
 31
0.0
  0
LINE
  5
2AC
  8
DATA
  6
CONTINUOUS
 62
     7
 10
-78.700000000000031
 20
-77.69712295923091
 30
0.0
 11
-78.700000000000031
 21
-160.5
 31
0.0
  0
LINE
  5
2AD
  8
DATA
  6
CONTINUOUS
 62
     7
 10
-79.09999999999998
 20
-185.0
 30
0.0
 11
-79.09999999999998
 21
-187.0
 31
0.0
  0
LINE
  5
2AE
  8
DATA
  6
CONTINUOUS
 62
     7
 10
-79.09999999999998
 20
-188.0
 30
0.0
 11
-79.09999999999998
 21
-190.0
 31
0.0
  0
LINE
  5
2AF
  8
DATA
  6
CONTINUOUS
 62
     7
 10
-79.09999999999998
 20
-191.0
 30
0.0
 11
-79.09999999999998
 21
-193.0
 31
0.0
  0
LINE
  5
2B0
  8
DATA
  6
CONTINUOUS
 62
     7
 10
-79.09999999999998
 20
-194.0
 30
0.0
 11
-79.09999999999998
 21
-196.0
 31
0.0
  0
LINE
  5
2B1
  8
DATA
  6
CONTINUOUS
 62
     7
 10
-79.09999999999998
 20
-197.0
 30
0.0
 11
-79.09999999999998
 21
-199.0
 31
0.0
  0
LINE
  5
2B2
  8
DATA
  6
CONTINUOUS
 62
     7
 10
-79.09999999999998
 20
-200.0
 30
0.0
 11
-79.09999999999998
 21
-202.0
 31
0.0
  0
LINE
  5
2B3
  8
DATA
  6
CONTINUOUS
 62
     7
 10
-79.09999999999998
 20
-203.0
 30
0.0
 11
-79.09999999999998
 21
-205.0
 31
0.0
  0
LINE
  5
2B4
  8
DATA
  6
CONTINUOUS
 62
     7
 10
-79.09999999999998
 20
-206.0
 30
0.0
 11
-79.09999999999998
 21
-208.0
 31
0.0
  0
LINE
  5
2B5
  8
DATA
  6
CONTINUOUS
 62
     7
 10
-79.09999999999998
 20
-209.0
 30
0.0
 11
-79.09999999999998
 21
-211.0
 31
0.0
  0
LINE
  5
2B6
  8
DATA
  6
CONTINUOUS
 62
     7
 10
-79.09999999999998
 20
-212.0
 30
0.0
 11
-79.09999999999998
 21
-214.0
 31
0.0
  0
LINE
  5
2B7
  8
DATA
  6
CONTINUOUS
 62
     7
 10
-79.09999999999998
 20
-215.0
 30
0.0
 11
-79.09999999999998
 21
-217.0
 31
0.0
  0
LINE
  5
2B8
  8
DATA
  6
CONTINUOUS
 62
     7
 10
-79.09999999999998
 20
-218.0
 30
0.0
 11
-79.09999999999998
 21
-220.0
 31
0.0
  0
LINE
  5
2B9
  8
DATA
  6
CONTINUOUS
 62
     7
 10
-79.09999999999998
 20
-221.0
 30
0.0
 11
-79.09999999999998
 21
-223.0
 31
0.0
  0
LINE
  5
2BA
  8
DATA
  6
CONTINUOUS
 62
     7
 10
-79.09999999999998
 20
-224.0
 30
0.0
 11
-79.09999999999998
 21
-226.0
 31
0.0
  0
LINE
  5
2BB
  8
DATA
  6
CONTINUOUS
 62
     7
 10
-79.09999999999998
 20
-227.0
 30
0.0
 11
-79.09999999999998
 21
-229.0
 31
0.0
  0
LINE
  5
2BC
  8
DATA
  6
CONTINUOUS
 62
     7
 10
-79.09999999999998
 20
-230.0
 30
0.0
 11
-79.09999999999998
 21
-232.0
 31
0.0
  0
LINE
  5
2BD
  8
DATA
  6
CONTINUOUS
 62
     7
 10
-79.09999999999998
 20
-233.0
 30
0.0
 11
-79.09999999999998
 21
-235.0
 31
0.0
  0
LINE
  5
2BE
  8
DATA
  6
CONTINUOUS
 62
     7
 10
-79.09999999999998
 20
-236.0
 30
0.0
 11
-79.09999999999998
 21
-238.0
 31
0.0
  0
LINE
  5
2BF
  8
DATA
  6
CONTINUOUS
 62
     7
 10
-79.09999999999998
 20
-239.0
 30
0.0
 11
-79.09999999999998
 21
-241.0
 31
0.0
  0
LINE
  5
2C0
  8
DATA
  6
CONTINUOUS
 62
     7
 10
-79.09999999999998
 20
-242.0
 30
0.0
 11
-79.09999999999998
 21
-244.0
 31
0.0
  0
LINE
  5
2C1
  8
DATA
  6
CONTINUOUS
 62
     7
 10
-79.09999999999998
 20
-245.0
 30
0.0
 11
-79.09999999999998
 21
-247.0
 31
0.0
  0
LINE
  5
2C2
  8
DATA
  6
CONTINUOUS
 62
     7
 10
-79.09999999999998
 20
-248.0
 30
0.0
 11
-79.09999999999998
 21
-250.0
 31
0.0
  0
LINE
  5
2C3
  8
DATA
  6
CONTINUOUS
 62
     7
 10
-79.09999999999998
 20
-251.0
 30
0.0
 11
-79.09999999999998
 21
-253.0
 31
0.0
  0
LINE
  5
2C4
  8
DATA
  6
CONTINUOUS
 62
     7
 10
-79.09999999999998
 20
-254.0
 30
0.0
 11
-79.09999999999998
 21
-256.0
 31
0.0
  0
LINE
  5
2C5
  8
DATA
  6
CONTINUOUS
 62
     7
 10
-84.500000000000014
 20
-375.0
 30
0.0
 11
-65.5
 21
-375.0
 31
0.0
  0
LINE
  5
2C6
  8
DATA
  6
CONTINUOUS
 62
     7
 10
-87.400000000000006
 20
-289.0
 30
0.0
 11
-64.599999999999994
 21
-289.0
 31
0.0
  0
LINE
  5
2C7
  8
DATA
  6
CONTINUOUS
 62
     7
 10
-84.500000000000014
 20
-361.0
 30
0.0
 11
-65.5
 21
-361.0
 31
0.0
  0
LINE
  5
2C8
  8
DATA
  6
CONTINUOUS
 62
     7
 10
-84.500000000000014
 20
-361.0
 30
0.0
 11
-84.500000000000014
 21
-375.0
 31
0.0
  0
LINE
  5
2C9
  8
DATA
  6
CONTINUOUS
 62
     7
 10
-65.5
 20
-361.0
 30
0.0
 11
-65.5
 21
-375.0
 31
0.0
  0
LINE
  5
2CA
  8
DATA
  6
CONTINUOUS
 62
     7
 10
-87.400000000000006
 20
-289.0
 30
0.0
 11
-84.500000000000014
 21
-361.0
 31
0.0
  0
LINE
  5
2CB
  8
DATA
  6
CONTINUOUS
 62
     7
 10
-82.0
 20
-259.0
 30
0.0
 11
-68.0
 21
-259.0
 31
0.0
  0
ARC
  5
2CC
  8
DATA
  6
CONTINUOUS
 62
     7
 10
10.699811486741179
 20
-266.02802563780318
 30
0.0
 40
78.725937377945442
 50
178.5238643188583
 51
196.965556773988
  0
ARC
  5
2CD
  8
DATA
  6
CONTINUOUS
 62
     7
 10
-160.6998114867412
 20
-266.02802563780318
 30
0.0
 40
78.725937377945471
 50
343.034443226012
 51
1.4761356811421249
  0
LINE
  5
2CE
  8
DATA
  6
CONTINUOUS
 62
     7
 10
-68.0
 20
-259.0
 30
0.0
 11
-68.000000000000014
 21
-264.00000000000063
 31
0.0
  0
LINE
  5
2CF
  8
DATA
  6
CONTINUOUS
 62
     7
 10
-82.0
 20
-259.0
 30
0.0
 11
-82.000000000000014
 21
-264.00000000000011
 31
0.0
  0
LINE
  5
2D0
  8
DATA
  6
CONTINUOUS
 62
     7
 10
-79.09999999999998
 20
-259.0
 30
0.0
 11
-70.90000000000002
 21
-258.0
 31
0.0
  0
LINE
  5
2D1
  8
DATA
  6
CONTINUOUS
 62
     7
 10
-79.09999999999998
 20
-257.0
 30
0.0
 11
-70.90000000000002
 21
-256.0
 31
0.0
  0
LINE
  5
2D2
  8
DATA
  6
CONTINUOUS
 62
     7
 10
-79.09999999999998
 20
-256.0
 30
0.0
 11
-70.90000000000002
 21
-255.0
 31
0.0
  0
LINE
  5
2D3
  8
DATA
  6
CONTINUOUS
 62
     7
 10
-79.09999999999998
 20
-254.0
 30
0.0
 11
-70.90000000000002
 21
-253.0
 31
0.0
  0
LINE
  5
2D4
  8
DATA
  6
CONTINUOUS
 62
     7
 10
-79.300000000000026
 20
-182.5
 30
0.0
 11
-70.700000000000017
 21
-182.5
 31
0.0
  0
LINE
  5
2D5
  8
DATA
  6
CONTINUOUS
 62
     7
 10
-79.09999999999998
 20
-253.0
 30
0.0
 11
-70.90000000000002
 21
-252.0
 31
0.0
  0
LINE
  5
2D6
  8
DATA
  6
CONTINUOUS
 62
     7
 10
-79.09999999999998
 20
-251.0
 30
0.0
 11
-70.90000000000002
 21
-250.0
 31
0.0
  0
LINE
  5
2D7
  8
DATA
  6
CONTINUOUS
 62
     7
 10
-79.09999999999998
 20
-250.0
 30
0.0
 11
-70.90000000000002
 21
-249.0
 31
0.0
  0
LINE
  5
2D8
  8
DATA
  6
CONTINUOUS
 62
     7
 10
-79.09999999999998
 20
-248.0
 30
0.0
 11
-70.90000000000002
 21
-247.0
 31
0.0
  0
LINE
  5
2D9
  8
DATA
  6
CONTINUOUS
 62
     7
 10
-79.09999999999998
 20
-247.0
 30
0.0
 11
-70.90000000000002
 21
-246.0
 31
0.0
  0
LINE
  5
2DA
  8
DATA
  6
CONTINUOUS
 62
     7
 10
-79.09999999999998
 20
-245.0
 30
0.0
 11
-70.90000000000002
 21
-244.0
 31
0.0
  0
LINE
  5
2DB
  8
DATA
  6
CONTINUOUS
 62
     7
 10
-79.09999999999998
 20
-244.0
 30
0.0
 11
-70.90000000000002
 21
-243.0
 31
0.0
  0
LINE
  5
2DC
  8
DATA
  6
CONTINUOUS
 62
     7
 10
-79.09999999999998
 20
-242.0
 30
0.0
 11
-70.90000000000002
 21
-241.0
 31
0.0
  0
LINE
  5
2DD
  8
DATA
  6
CONTINUOUS
 62
     7
 10
-79.09999999999998
 20
-241.0
 30
0.0
 11
-70.90000000000002
 21
-240.0
 31
0.0
  0
LINE
  5
2DE
  8
DATA
  6
CONTINUOUS
 62
     7
 10
-79.09999999999998
 20
-239.0
 30
0.0
 11
-70.90000000000002
 21
-238.0
 31
0.0
  0
LINE
  5
2DF
  8
DATA
  6
CONTINUOUS
 62
     7
 10
-79.09999999999998
 20
-238.0
 30
0.0
 11
-70.90000000000002
 21
-237.0
 31
0.0
  0
LINE
  5
2E0
  8
DATA
  6
CONTINUOUS
 62
     7
 10
-79.09999999999998
 20
-236.0
 30
0.0
 11
-70.90000000000002
 21
-235.0
 31
0.0
  0
LINE
  5
2E1
  8
DATA
  6
CONTINUOUS
 62
     7
 10
-79.09999999999998
 20
-235.0
 30
0.0
 11
-70.90000000000002
 21
-234.0
 31
0.0
  0
LINE
  5
2E2
  8
DATA
  6
CONTINUOUS
 62
     7
 10
-79.09999999999998
 20
-233.0
 30
0.0
 11
-70.90000000000002
 21
-232.0
 31
0.0
  0
LINE
  5
2E3
  8
DATA
  6
CONTINUOUS
 62
     7
 10
-79.09999999999998
 20
-232.0
 30
0.0
 11
-70.90000000000002
 21
-231.0
 31
0.0
  0
LINE
  5
2E4
  8
DATA
  6
CONTINUOUS
 62
     7
 10
-79.09999999999998
 20
-230.0
 30
0.0
 11
-70.90000000000002
 21
-229.0
 31
0.0
  0
LINE
  5
2E5
  8
DATA
  6
CONTINUOUS
 62
     7
 10
-79.09999999999998
 20
-229.0
 30
0.0
 11
-70.90000000000002
 21
-228.0
 31
0.0
  0
LINE
  5
2E6
  8
DATA
  6
CONTINUOUS
 62
     7
 10
-79.09999999999998
 20
-227.0
 30
0.0
 11
-70.90000000000002
 21
-226.0
 31
0.0
  0
LINE
  5
2E7
  8
DATA
  6
CONTINUOUS
 62
     7
 10
-79.09999999999998
 20
-226.0
 30
0.0
 11
-70.90000000000002
 21
-225.0
 31
0.0
  0
LINE
  5
2E8
  8
DATA
  6
CONTINUOUS
 62
     7
 10
-79.09999999999998
 20
-224.0
 30
0.0
 11
-70.90000000000002
 21
-223.0
 31
0.0
  0
LINE
  5
2E9
  8
DATA
  6
CONTINUOUS
 62
     7
 10
-79.09999999999998
 20
-223.0
 30
0.0
 11
-70.90000000000002
 21
-222.0
 31
0.0
  0
LINE
  5
2EA
  8
DATA
  6
CONTINUOUS
 62
     7
 10
-79.09999999999998
 20
-221.0
 30
0.0
 11
-70.90000000000002
 21
-220.0
 31
0.0
  0
LINE
  5
2EB
  8
DATA
  6
CONTINUOUS
 62
     7
 10
-79.09999999999998
 20
-220.0
 30
0.0
 11
-70.90000000000002
 21
-219.0
 31
0.0
  0
LINE
  5
2EC
  8
DATA
  6
CONTINUOUS
 62
     7
 10
-79.09999999999998
 20
-218.0
 30
0.0
 11
-70.90000000000002
 21
-217.0
 31
0.0
  0
LINE
  5
2ED
  8
DATA
  6
CONTINUOUS
 62
     7
 10
-79.09999999999998
 20
-217.0
 30
0.0
 11
-70.90000000000002
 21
-216.0
 31
0.0
  0
LINE
  5
2EE
  8
DATA
  6
CONTINUOUS
 62
     7
 10
-79.09999999999998
 20
-215.0
 30
0.0
 11
-70.90000000000002
 21
-214.0
 31
0.0
  0
LINE
  5
2EF
  8
DATA
  6
CONTINUOUS
 62
     7
 10
-79.09999999999998
 20
-214.0
 30
0.0
 11
-70.90000000000002
 21
-213.0
 31
0.0
  0
LINE
  5
2F0
  8
DATA
  6
CONTINUOUS
 62
     7
 10
-79.09999999999998
 20
-212.0
 30
0.0
 11
-70.90000000000002
 21
-211.0
 31
0.0
  0
LINE
  5
2F1
  8
DATA
  6
CONTINUOUS
 62
     7
 10
-79.09999999999998
 20
-211.0
 30
0.0
 11
-70.90000000000002
 21
-210.0
 31
0.0
  0
LINE
  5
2F2
  8
DATA
  6
CONTINUOUS
 62
     7
 10
-79.09999999999998
 20
-209.0
 30
0.0
 11
-70.90000000000002
 21
-208.0
 31
0.0
  0
LINE
  5
2F3
  8
DATA
  6
CONTINUOUS
 62
     7
 10
-79.09999999999998
 20
-208.0
 30
0.0
 11
-70.90000000000002
 21
-207.0
 31
0.0
  0
LINE
  5
2F4
  8
DATA
  6
CONTINUOUS
 62
     7
 10
-79.09999999999998
 20
-206.0
 30
0.0
 11
-70.90000000000002
 21
-205.0
 31
0.0
  0
LINE
  5
2F5
  8
DATA
  6
CONTINUOUS
 62
     7
 10
-79.09999999999998
 20
-205.0
 30
0.0
 11
-70.90000000000002
 21
-204.0
 31
0.0
  0
LINE
  5
2F6
  8
DATA
  6
CONTINUOUS
 62
     7
 10
-79.09999999999998
 20
-203.0
 30
0.0
 11
-70.90000000000002
 21
-202.0
 31
0.0
  0
LINE
  5
2F7
  8
DATA
  6
CONTINUOUS
 62
     7
 10
-79.09999999999998
 20
-202.0
 30
0.0
 11
-70.90000000000002
 21
-201.0
 31
0.0
  0
LINE
  5
2F8
  8
DATA
  6
CONTINUOUS
 62
     7
 10
-79.09999999999998
 20
-200.0
 30
0.0
 11
-70.90000000000002
 21
-199.0
 31
0.0
  0
LINE
  5
2F9
  8
DATA
  6
CONTINUOUS
 62
     7
 10
-79.09999999999998
 20
-199.0
 30
0.0
 11
-70.90000000000002
 21
-198.0
 31
0.0
  0
LINE
  5
2FA
  8
DATA
  6
CONTINUOUS
 62
     7
 10
-79.09999999999998
 20
-197.0
 30
0.0
 11
-70.90000000000002
 21
-196.0
 31
0.0
  0
LINE
  5
2FB
  8
DATA
  6
CONTINUOUS
 62
     7
 10
-79.09999999999998
 20
-196.0
 30
0.0
 11
-70.90000000000002
 21
-195.0
 31
0.0
  0
LINE
  5
2FC
  8
DATA
  6
CONTINUOUS
 62
     7
 10
-79.09999999999998
 20
-194.0
 30
0.0
 11
-70.90000000000002
 21
-193.0
 31
0.0
  0
LINE
  5
2FD
  8
DATA
  6
CONTINUOUS
 62
     7
 10
-79.09999999999998
 20
-193.0
 30
0.0
 11
-70.90000000000002
 21
-192.0
 31
0.0
  0
LINE
  5
2FE
  8
DATA
  6
CONTINUOUS
 62
     7
 10
-79.09999999999998
 20
-191.0
 30
0.0
 11
-70.90000000000002
 21
-190.0
 31
0.0
  0
LINE
  5
2FF
  8
DATA
  6
CONTINUOUS
 62
     7
 10
-79.09999999999998
 20
-190.0
 30
0.0
 11
-70.90000000000002
 21
-189.0
 31
0.0
  0
LINE
  5
300
  8
DATA
  6
CONTINUOUS
 62
     7
 10
-79.09999999999998
 20
-188.0
 30
0.0
 11
-70.90000000000002
 21
-187.0
 31
0.0
  0
LINE
  5
301
  8
DATA
  6
CONTINUOUS
 62
     7
 10
-79.09999999999998
 20
-187.0
 30
0.0
 11
-70.90000000000002
 21
-186.0
 31
0.0
  0
LINE
  5
302
  8
DATA
  6
CONTINUOUS
 62
     7
 10
-79.09999999999998
 20
-185.0
 30
0.0
 11
-70.90000000000002
 21
-184.0
 31
0.0
  0
LINE
  5
303
  8
DATA
  6
CONTINUOUS
 62
     7
 10
-79.09999999999998
 20
-184.0
 30
0.0
 11
-70.90000000000002
 21
-183.0
 31
0.0
  0
LINE
  5
304
  8
DATA
  6
CONTINUOUS
 62
     7
 10
-71.099999999999994
 20
-183.02439024390239
 30
0.0
 11
-71.099999999999994
 21
-184.02439024390239
 31
0.0
  0
LINE
  5
305
  8
DATA
  6
CONTINUOUS
 62
     7
 10
-71.099999999999994
 20
-186.02439024390239
 30
0.0
 11
-71.099999999999994
 21
-187.02439024390239
 31
0.0
  0
LINE
  5
306
  8
DATA
  6
CONTINUOUS
 62
     7
 10
-71.099999999999994
 20
-189.02439024390239
 30
0.0
 11
-71.099999999999994
 21
-190.02439024390239
 31
0.0
  0
LINE
  5
307
  8
DATA
  6
CONTINUOUS
 62
     7
 10
-71.099999999999994
 20
-192.02439024390239
 30
0.0
 11
-71.099999999999994
 21
-193.02439024390239
 31
0.0
  0
LINE
  5
308
  8
DATA
  6
CONTINUOUS
 62
     7
 10
-71.099999999999994
 20
-195.02439024390239
 30
0.0
 11
-71.099999999999994
 21
-196.02439024390239
 31
0.0
  0
LINE
  5
309
  8
DATA
  6
CONTINUOUS
 62
     7
 10
-71.099999999999994
 20
-198.02439024390239
 30
0.0
 11
-71.099999999999994
 21
-199.02439024390239
 31
0.0
  0
LINE
  5
30A
  8
DATA
  6
CONTINUOUS
 62
     7
 10
-71.099999999999994
 20
-201.02439024390239
 30
0.0
 11
-71.099999999999994
 21
-202.0243902439025
 31
0.0
  0
LINE
  5
30B
  8
DATA
  6
CONTINUOUS
 62
     7
 10
-71.099999999999994
 20
-204.0243902439025
 30
0.0
 11
-71.099999999999994
 21
-205.02439024390239
 31
0.0
  0
LINE
  5
30C
  8
DATA
  6
CONTINUOUS
 62
     7
 10
-71.099999999999994
 20
-207.02439024390239
 30
0.0
 11
-71.099999999999994
 21
-208.0243902439025
 31
0.0
  0
LINE
  5
30D
  8
DATA
  6
CONTINUOUS
 62
     7
 10
-71.099999999999994
 20
-210.0243902439025
 30
0.0
 11
-71.099999999999994
 21
-211.02439024390239
 31
0.0
  0
LINE
  5
30E
  8
DATA
  6
CONTINUOUS
 62
     7
 10
-71.099999999999994
 20
-213.02439024390239
 30
0.0
 11
-71.099999999999994
 21
-214.02439024390239
 31
0.0
  0
LINE
  5
30F
  8
DATA
  6
CONTINUOUS
 62
     7
 10
-71.099999999999994
 20
-216.02439024390239
 30
0.0
 11
-71.099999999999994
 21
-217.02439024390239
 31
0.0
  0
LINE
  5
310
  8
DATA
  6
CONTINUOUS
 62
     7
 10
-71.099999999999994
 20
-219.0243902439025
 30
0.0
 11
-71.099999999999994
 21
-220.02439024390239
 31
0.0
  0
LINE
  5
311
  8
DATA
  6
CONTINUOUS
 62
     7
 10
-71.099999999999994
 20
-222.02439024390239
 30
0.0
 11
-71.099999999999994
 21
-223.0243902439025
 31
0.0
  0
LINE
  5
312
  8
DATA
  6
CONTINUOUS
 62
     7
 10
-71.099999999999994
 20
-225.0243902439025
 30
0.0
 11
-71.099999999999994
 21
-226.02439024390239
 31
0.0
  0
LINE
  5
313
  8
DATA
  6
CONTINUOUS
 62
     7
 10
-71.099999999999994
 20
-228.02439024390239
 30
0.0
 11
-71.099999999999994
 21
-229.0243902439025
 31
0.0
  0
LINE
  5
314
  8
DATA
  6
CONTINUOUS
 62
     7
 10
-71.099999999999994
 20
-231.0243902439025
 30
0.0
 11
-71.099999999999994
 21
-232.02439024390239
 31
0.0
  0
LINE
  5
315
  8
DATA
  6
CONTINUOUS
 62
     7
 10
-71.099999999999994
 20
-234.02439024390239
 30
0.0
 11
-71.099999999999994
 21
-235.0243902439025
 31
0.0
  0
LINE
  5
316
  8
DATA
  6
CONTINUOUS
 62
     7
 10
-71.099999999999994
 20
-237.0243902439025
 30
0.0
 11
-71.099999999999994
 21
-238.02439024390239
 31
0.0
  0
LINE
  5
317
  8
DATA
  6
CONTINUOUS
 62
     7
 10
-71.099999999999994
 20
-240.02439024390239
 30
0.0
 11
-71.099999999999994
 21
-241.02439024390239
 31
0.0
  0
LINE
  5
318
  8
DATA
  6
CONTINUOUS
 62
     7
 10
-71.099999999999994
 20
-243.02439024390239
 30
0.0
 11
-71.099999999999994
 21
-244.0243902439025
 31
0.0
  0
LINE
  5
319
  8
DATA
  6
CONTINUOUS
 62
     7
 10
-71.099999999999994
 20
-246.0243902439025
 30
0.0
 11
-71.099999999999994
 21
-247.02439024390239
 31
0.0
  0
LINE
  5
31A
  8
DATA
  6
CONTINUOUS
 62
     7
 10
-71.099999999999994
 20
-249.02439024390239
 30
0.0
 11
-71.099999999999994
 21
-250.0243902439025
 31
0.0
  0
LINE
  5
31B
  8
DATA
  6
CONTINUOUS
 62
     7
 10
-71.099999999999994
 20
-252.0243902439025
 30
0.0
 11
-71.099999999999994
 21
-253.02439024390239
 31
0.0
  0
LINE
  5
31C
  8
DATA
  6
CONTINUOUS
 62
     7
 10
-71.099999999999994
 20
-255.02439024390239
 30
0.0
 11
-71.099999999999994
 21
-256.02439024390242
 31
0.0
  0
LINE
  5
31D
  8
DATA
  6
CONTINUOUS
 62
     7
 10
-78.900000000000006
 20
-183.97560975609761
 30
0.0
 11
-78.900000000000006
 21
-184.97560975609761
 31
0.0
  0
LINE
  5
31E
  8
DATA
  6
CONTINUOUS
 62
     7
 10
-78.900000000000006
 20
-186.9756097560975
 30
0.0
 11
-78.900000000000006
 21
-187.9756097560975
 31
0.0
  0
LINE
  5
31F
  8
DATA
  6
CONTINUOUS
 62
     7
 10
-78.900000000000006
 20
-189.9756097560975
 30
0.0
 11
-78.900000000000006
 21
-190.9756097560975
 31
0.0
  0
LINE
  5
320
  8
DATA
  6
CONTINUOUS
 62
     7
 10
-78.900000000000006
 20
-192.9756097560975
 30
0.0
 11
-78.900000000000006
 21
-193.9756097560975
 31
0.0
  0
LINE
  5
321
  8
DATA
  6
CONTINUOUS
 62
     7
 10
-78.900000000000006
 20
-195.9756097560975
 30
0.0
 11
-78.900000000000006
 21
-196.9756097560975
 31
0.0
  0
LINE
  5
322
  8
DATA
  6
CONTINUOUS
 62
     7
 10
-78.900000000000006
 20
-198.9756097560975
 30
0.0
 11
-78.900000000000006
 21
-199.9756097560975
 31
0.0
  0
LINE
  5
323
  8
DATA
  6
CONTINUOUS
 62
     7
 10
-78.900000000000006
 20
-201.9756097560975
 30
0.0
 11
-78.900000000000006
 21
-202.97560975609761
 31
0.0
  0
LINE
  5
324
  8
DATA
  6
CONTINUOUS
 62
     7
 10
-78.900000000000006
 20
-204.97560975609761
 30
0.0
 11
-78.900000000000006
 21
-205.9756097560975
 31
0.0
  0
LINE
  5
325
  8
DATA
  6
CONTINUOUS
 62
     7
 10
-78.900000000000006
 20
-207.9756097560975
 30
0.0
 11
-78.900000000000006
 21
-208.97560975609761
 31
0.0
  0
LINE
  5
326
  8
DATA
  6
CONTINUOUS
 62
     7
 10
-78.900000000000006
 20
-210.97560975609761
 30
0.0
 11
-78.900000000000006
 21
-211.9756097560975
 31
0.0
  0
LINE
  5
327
  8
DATA
  6
CONTINUOUS
 62
     7
 10
-78.900000000000006
 20
-213.9756097560975
 30
0.0
 11
-78.900000000000006
 21
-214.97560975609761
 31
0.0
  0
LINE
  5
328
  8
DATA
  6
CONTINUOUS
 62
     7
 10
-78.900000000000006
 20
-216.97560975609761
 30
0.0
 11
-78.900000000000006
 21
-217.9756097560975
 31
0.0
  0
LINE
  5
329
  8
DATA
  6
CONTINUOUS
 62
     7
 10
-78.900000000000006
 20
-219.97560975609761
 30
0.0
 11
-78.900000000000006
 21
-220.97560975609761
 31
0.0
  0
LINE
  5
32A
  8
DATA
  6
CONTINUOUS
 62
     7
 10
-78.900000000000006
 20
-222.97560975609761
 30
0.0
 11
-78.900000000000006
 21
-223.97560975609761
 31
0.0
  0
LINE
  5
32B
  8
DATA
  6
CONTINUOUS
 62
     7
 10
-78.900000000000006
 20
-225.97560975609761
 30
0.0
 11
-78.900000000000006
 21
-226.9756097560975
 31
0.0
  0
LINE
  5
32C
  8
DATA
  6
CONTINUOUS
 62
     7
 10
-78.900000000000006
 20
-228.9756097560975
 30
0.0
 11
-78.900000000000006
 21
-229.97560975609761
 31
0.0
  0
LINE
  5
32D
  8
DATA
  6
CONTINUOUS
 62
     7
 10
-78.900000000000006
 20
-231.97560975609761
 30
0.0
 11
-78.900000000000006
 21
-232.9756097560975
 31
0.0
  0
LINE
  5
32E
  8
DATA
  6
CONTINUOUS
 62
     7
 10
-78.900000000000006
 20
-234.9756097560975
 30
0.0
 11
-78.900000000000006
 21
-235.97560975609761
 31
0.0
  0
LINE
  5
32F
  8
DATA
  6
CONTINUOUS
 62
     7
 10
-78.900000000000006
 20
-237.97560975609761
 30
0.0
 11
-78.900000000000006
 21
-238.9756097560975
 31
0.0
  0
LINE
  5
330
  8
DATA
  6
CONTINUOUS
 62
     7
 10
-78.900000000000006
 20
-240.9756097560975
 30
0.0
 11
-78.900000000000006
 21
-241.97560975609761
 31
0.0
  0
LINE
  5
331
  8
DATA
  6
CONTINUOUS
 62
     7
 10
-78.900000000000006
 20
-243.97560975609761
 30
0.0
 11
-78.900000000000006
 21
-244.97560975609761
 31
0.0
  0
LINE
  5
332
  8
DATA
  6
CONTINUOUS
 62
     7
 10
-78.900000000000006
 20
-246.97560975609761
 30
0.0
 11
-78.900000000000006
 21
-247.97560975609761
 31
0.0
  0
LINE
  5
333
  8
DATA
  6
CONTINUOUS
 62
     7
 10
-78.900000000000006
 20
-249.9756097560975
 30
0.0
 11
-78.900000000000006
 21
-250.97560975609761
 31
0.0
  0
LINE
  5
334
  8
DATA
  6
CONTINUOUS
 62
     7
 10
-78.900000000000006
 20
-252.97560975609761
 30
0.0
 11
-78.900000000000006
 21
-253.9756097560975
 31
0.0
  0
LINE
  5
335
  8
DATA
  6
CONTINUOUS
 62
     7
 10
-78.900000000000006
 20
-255.9756097560975
 30
0.0
 11
-78.900000000000006
 21
-256.97560975609758
 31
0.0
  0
LINE
  5
336
  8
DATA
  6
CONTINUOUS
 62
     7
 10
-78.900000000000006
 20
-258.97560975609758
 30
0.0
 11
-78.900000000000006
 21
-259.0
 31
0.0
  0
LINE
  5
337
  8
DATA
  6
CONTINUOUS
 62
     7
 10
-75.0
 20
-182.5
 30
0.0
 11
-75.0
 21
-175.5
 31
0.0
  0
LINE
  5
338
  8
DATA
  6
CONTINUOUS
 62
     7
 10
-70.90000000000002
 20
-183.0
 30
0.0
 11
-70.90000000000002
 21
-182.5
 31
0.0
  0
LINE
  5
339
  8
DATA
  6
CONTINUOUS
 62
     7
 10
-79.09999999999998
 20
-184.0
 30
0.0
 11
-79.09999999999998
 21
-182.5
 31
0.0
  0
LINE
  5
33A
  8
DATA
  6
CONTINUOUS
 62
     7
 10
-73.5
 20
-182.5
 30
0.0
 11
-73.5
 21
-175.5
 31
0.0
  0
LINE
  5
33B
  8
DATA
  6
CONTINUOUS
 62
     7
 10
-76.5
 20
-182.5
 30
0.0
 11
-76.5
 21
-175.5
 31
0.0
  0
LINE
  5
33C
  8
DATA
  6
CONTINUOUS
 62
     7
 10
-70.700000000000017
 20
-182.5
 30
0.0
 11
-70.700000000000017
 21
-172.5
 31
0.0
  0
LINE
  5
33D
  8
DATA
  6
CONTINUOUS
 62
     7
 10
-79.300000000000026
 20
-182.5
 30
0.0
 11
-79.300000000000026
 21
-172.5
 31
0.0
  0
LINE
  5
33E
  8
DATA
  6
CONTINUOUS
 62
     7
 10
-70.700000000000017
 20
-172.5
 30
0.0
 11
-71.300000000000054
 21
-160.5
 31
0.0
  0
LINE
  5
33F
  8
DATA
  6
CONTINUOUS
 62
     7
 10
-78.700000000000031
 20
-160.5
 30
0.0
 11
-79.300000000000026
 21
-172.5
 31
0.0
  0
LINE
  5
340
  8
DATA
  6
CONTINUOUS
 62
     7
 10
-71.300000000000026
 20
-72.302877040769133
 30
0.0
 11
-71.300000000000054
 21
-160.5
 31
0.0
  0
ARC
  5
341
  8
DATA
  6
CONTINUOUS
 62
     7
 10
153.49999999999989
 20
-368.324927536232
 30
0.0
 40
219.1224647620846
 50
159.61535364017749
 51
178.0843331741647
  0
LINE
  5
342
  8
DATA
  6
CONTINUOUS
 62
     7
 10
-67.400000000000006
 20
-296.0
 30
0.0
 11
-67.400000000000006
 21
-300.0
 31
0.0
  0
CIRCLE
  5
343
  8
DATA
  6
CONTINUOUS
 62
     7
 10
-67.400000000000006
 20
-298.0
 30
0.0
 40
3.0
  0
LINE
  5
344
  8
DATA
  6
CONTINUOUS
 62
     7
 10
-69.400000000000006
 20
-298.0
 30
0.0
 11
-65.400000000000006
 21
-298.0
 31
0.0
  0
ARC
  5
345
  8
DATA
  6
CONTINUOUS
 62
     7
 10
-73.48622047244065
 20
-355.0
 30
0.0
 40
66.595532239669154
 50
71.086570039372489
 51
82.331827138056227
  0
LINE
  5
346
  8
DATA
  6
CONTINUOUS
 62
     7
 10
-54.865150493758222
 20
-291.06080492269371
 30
0.0
 11
-54.64741123797058
 21
-290.12461991571359
 31
0.0
  0
LINE
  5
347
  8
DATA
  6
CONTINUOUS
 62
     7
 10
-61.980264616628723
 20
-289.40596144367288
 30
0.0
 11
-61.756887635699051
 21
-288.44553664707678
 31
0.0
  0
ARC
  5
348
  8
DATA
  6
CONTINUOUS
 62
     7
 10
-73.48622047244065
 20
-354.0
 30
0.0
 40
66.595532239669154
 50
73.567594658344092
 51
79.85569701270704
  0
LINE
  5
349
  8
DATA
  6
CONTINUOUS
 62
     7
 10
-254.09999999999999
 20
-184.0
 30
0.0
 11
-254.09999999999999
 21
-186.0
 31
0.0
  0
LINE
  5
34A
  8
DATA
  6
CONTINUOUS
 62
     7
 10
-254.09999999999999
 20
-187.0
 30
0.0
 11
-254.09999999999999
 21
-189.0
 31
0.0
  0
LINE
  5
34B
  8
DATA
  6
CONTINUOUS
 62
     7
 10
-254.09999999999999
 20
-190.0
 30
0.0
 11
-254.09999999999999
 21
-192.0
 31
0.0
  0
LINE
  5
34C
  8
DATA
  6
CONTINUOUS
 62
     7
 10
-254.09999999999999
 20
-193.0
 30
0.0
 11
-254.09999999999999
 21
-195.0
 31
0.0
  0
LINE
  5
34D
  8
DATA
  6
CONTINUOUS
 62
     7
 10
-254.09999999999999
 20
-196.0
 30
0.0
 11
-254.09999999999999
 21
-198.0
 31
0.0
  0
LINE
  5
34E
  8
DATA
  6
CONTINUOUS
 62
     7
 10
-254.09999999999999
 20
-199.0
 30
0.0
 11
-254.09999999999999
 21
-201.0
 31
0.0
  0
LINE
  5
34F
  8
DATA
  6
CONTINUOUS
 62
     7
 10
-254.09999999999999
 20
-202.0
 30
0.0
 11
-254.09999999999999
 21
-204.0
 31
0.0
  0
LINE
  5
350
  8
DATA
  6
CONTINUOUS
 62
     7
 10
-254.09999999999999
 20
-205.0
 30
0.0
 11
-254.09999999999999
 21
-207.0
 31
0.0
  0
LINE
  5
351
  8
DATA
  6
CONTINUOUS
 62
     7
 10
-254.09999999999999
 20
-208.0
 30
0.0
 11
-254.09999999999999
 21
-210.0
 31
0.0
  0
LINE
  5
352
  8
DATA
  6
CONTINUOUS
 62
     7
 10
-254.09999999999999
 20
-211.0
 30
0.0
 11
-254.09999999999999
 21
-213.0
 31
0.0
  0
LINE
  5
353
  8
DATA
  6
CONTINUOUS
 62
     7
 10
-254.09999999999999
 20
-214.0
 30
0.0
 11
-254.09999999999999
 21
-216.0
 31
0.0
  0
LINE
  5
354
  8
DATA
  6
CONTINUOUS
 62
     7
 10
-254.09999999999999
 20
-217.0
 30
0.0
 11
-254.09999999999999
 21
-219.0
 31
0.0
  0
LINE
  5
355
  8
DATA
  6
CONTINUOUS
 62
     7
 10
-254.09999999999999
 20
-220.0
 30
0.0
 11
-254.09999999999999
 21
-222.0
 31
0.0
  0
LINE
  5
356
  8
DATA
  6
CONTINUOUS
 62
     7
 10
-254.09999999999999
 20
-223.0
 30
0.0
 11
-254.09999999999999
 21
-225.0
 31
0.0
  0
LINE
  5
357
  8
DATA
  6
CONTINUOUS
 62
     7
 10
-254.09999999999999
 20
-226.0
 30
0.0
 11
-254.09999999999999
 21
-228.0
 31
0.0
  0
LINE
  5
358
  8
DATA
  6
CONTINUOUS
 62
     7
 10
-254.09999999999999
 20
-229.0
 30
0.0
 11
-254.09999999999999
 21
-231.0
 31
0.0
  0
LINE
  5
359
  8
DATA
  6
CONTINUOUS
 62
     7
 10
-254.09999999999999
 20
-232.0
 30
0.0
 11
-254.09999999999999
 21
-234.0
 31
0.0
  0
LINE
  5
35A
  8
DATA
  6
CONTINUOUS
 62
     7
 10
-254.09999999999999
 20
-235.0
 30
0.0
 11
-254.09999999999999
 21
-237.0
 31
0.0
  0
LINE
  5
35B
  8
DATA
  6
CONTINUOUS
 62
     7
 10
-254.09999999999999
 20
-238.0
 30
0.0
 11
-254.09999999999999
 21
-240.0
 31
0.0
  0
LINE
  5
35C
  8
DATA
  6
CONTINUOUS
 62
     7
 10
-254.09999999999999
 20
-241.0
 30
0.0
 11
-254.09999999999999
 21
-243.0
 31
0.0
  0
LINE
  5
35D
  8
DATA
  6
CONTINUOUS
 62
     7
 10
-254.09999999999999
 20
-244.0
 30
0.0
 11
-254.09999999999999
 21
-246.0
 31
0.0
  0
LINE
  5
35E
  8
DATA
  6
CONTINUOUS
 62
     7
 10
-254.09999999999999
 20
-247.0
 30
0.0
 11
-254.09999999999999
 21
-249.0
 31
0.0
  0
LINE
  5
35F
  8
DATA
  6
CONTINUOUS
 62
     7
 10
-254.09999999999999
 20
-250.0
 30
0.0
 11
-254.09999999999999
 21
-252.0
 31
0.0
  0
LINE
  5
360
  8
DATA
  6
CONTINUOUS
 62
     7
 10
-254.09999999999999
 20
-253.0
 30
0.0
 11
-254.09999999999999
 21
-255.0
 31
0.0
  0
POLYLINE
  5
361
  8
DATA
  6
CONTINUOUS
 62
     7
 66
     1
 10
0.0
 20
0.0
 30
0.0
  0
VERTEX
  5
51E
  8
DATA
  6
CONTINUOUS
 62
     7
 10
-254.09999999999999
 20
-256.0
 30
0.0
  0
VERTEX
  5
51F
  8
DATA
  6
CONTINUOUS
 62
     7
 10
-254.09999999999999
 20
-259.0
 30
0.0
  0
VERTEX
  5
520
  8
DATA
  6
CONTINUOUS
 62
     7
 10
-245.90000000000001
 20
-259.0
 30
0.0
  0
VERTEX
  5
521
  8
DATA
  6
CONTINUOUS
 62
     7
 10
-245.90000000000001
 20
-257.0
 30
0.0
  0
SEQEND
  5
522
  8
DATA
  6
CONTINUOUS
 62
     7
  0
LINE
  5
368
  8
DATA
  6
CONTINUOUS
 62
     7
 10
-245.90000000000001
 20
-256.0
 30
0.0
 11
-245.90000000000001
 21
-254.0
 31
0.0
  0
LINE
  5
369
  8
DATA
  6
CONTINUOUS
 62
     7
 10
-245.90000000000001
 20
-253.0
 30
0.0
 11
-245.90000000000001
 21
-251.0
 31
0.0
  0
LINE
  5
36A
  8
DATA
  6
CONTINUOUS
 62
     7
 10
-245.90000000000001
 20
-250.0
 30
0.0
 11
-245.90000000000001
 21
-248.0
 31
0.0
  0
LINE
  5
36B
  8
DATA
  6
CONTINUOUS
 62
     7
 10
-245.90000000000001
 20
-247.0
 30
0.0
 11
-245.90000000000001
 21
-245.0
 31
0.0
  0
LINE
  5
36C
  8
DATA
  6
CONTINUOUS
 62
     7
 10
-246.30000000000001
 20
-72.302877040769062
 30
0.0
 11
-246.30000000000001
 21
-160.5
 31
0.0
  0
LINE
  5
36D
  8
DATA
  6
CONTINUOUS
 62
     7
 10
-245.90000000000001
 20
-185.0
 30
0.0
 11
-245.90000000000001
 21
-187.0
 31
0.0
  0
LINE
  5
36E
  8
DATA
  6
CONTINUOUS
 62
     7
 10
-245.90000000000001
 20
-188.0
 30
0.0
 11
-245.90000000000001
 21
-190.0
 31
0.0
  0
LINE
  5
36F
  8
DATA
  6
CONTINUOUS
 62
     7
 10
-245.90000000000001
 20
-191.0
 30
0.0
 11
-245.90000000000001
 21
-193.0
 31
0.0
  0
LINE
  5
370
  8
DATA
  6
CONTINUOUS
 62
     7
 10
-245.90000000000001
 20
-194.0
 30
0.0
 11
-245.90000000000001
 21
-196.0
 31
0.0
  0
LINE
  5
371
  8
DATA
  6
CONTINUOUS
 62
     7
 10
-245.90000000000001
 20
-197.0
 30
0.0
 11
-245.90000000000001
 21
-199.0
 31
0.0
  0
LINE
  5
372
  8
DATA
  6
CONTINUOUS
 62
     7
 10
-245.90000000000001
 20
-200.0
 30
0.0
 11
-245.90000000000001
 21
-202.0
 31
0.0
  0
LINE
  5
373
  8
DATA
  6
CONTINUOUS
 62
     7
 10
-245.90000000000001
 20
-203.0
 30
0.0
 11
-245.90000000000001
 21
-205.0
 31
0.0
  0
LINE
  5
374
  8
DATA
  6
CONTINUOUS
 62
     7
 10
-245.90000000000001
 20
-206.0
 30
0.0
 11
-245.90000000000001
 21
-208.0
 31
0.0
  0
LINE
  5
375
  8
DATA
  6
CONTINUOUS
 62
     7
 10
-245.90000000000001
 20
-209.0
 30
0.0
 11
-245.90000000000001
 21
-211.0
 31
0.0
  0
LINE
  5
376
  8
DATA
  6
CONTINUOUS
 62
     7
 10
-245.90000000000001
 20
-212.0
 30
0.0
 11
-245.90000000000001
 21
-214.0
 31
0.0
  0
LINE
  5
377
  8
DATA
  6
CONTINUOUS
 62
     7
 10
-245.90000000000001
 20
-215.0
 30
0.0
 11
-245.90000000000001
 21
-217.0
 31
0.0
  0
LINE
  5
378
  8
DATA
  6
CONTINUOUS
 62
     7
 10
-245.90000000000001
 20
-218.0
 30
0.0
 11
-245.90000000000001
 21
-220.0
 31
0.0
  0
LINE
  5
379
  8
DATA
  6
CONTINUOUS
 62
     7
 10
-245.90000000000001
 20
-221.0
 30
0.0
 11
-245.90000000000001
 21
-223.0
 31
0.0
  0
LINE
  5
37A
  8
DATA
  6
CONTINUOUS
 62
     7
 10
-245.90000000000001
 20
-224.0
 30
0.0
 11
-245.90000000000001
 21
-226.0
 31
0.0
  0
LINE
  5
37B
  8
DATA
  6
CONTINUOUS
 62
     7
 10
-245.90000000000001
 20
-227.0
 30
0.0
 11
-245.90000000000001
 21
-229.0
 31
0.0
  0
LINE
  5
37C
  8
DATA
  6
CONTINUOUS
 62
     7
 10
-245.90000000000001
 20
-230.0
 30
0.0
 11
-245.90000000000001
 21
-232.0
 31
0.0
  0
LINE
  5
37D
  8
DATA
  6
CONTINUOUS
 62
     7
 10
-245.90000000000001
 20
-233.0
 30
0.0
 11
-245.90000000000001
 21
-235.0
 31
0.0
  0
LINE
  5
37E
  8
DATA
  6
CONTINUOUS
 62
     7
 10
-245.90000000000001
 20
-236.0
 30
0.0
 11
-245.90000000000001
 21
-238.0
 31
0.0
  0
LINE
  5
37F
  8
DATA
  6
CONTINUOUS
 62
     7
 10
-245.90000000000001
 20
-239.0
 30
0.0
 11
-245.90000000000001
 21
-241.0
 31
0.0
  0
LINE
  5
380
  8
DATA
  6
CONTINUOUS
 62
     7
 10
-245.90000000000001
 20
-242.0
 30
0.0
 11
-245.90000000000001
 21
-244.0
 31
0.0
  0
LINE
  5
381
  8
DATA
  6
CONTINUOUS
 62
     7
 10
-245.90000000000001
 20
-245.0
 30
0.0
 11
-245.90000000000001
 21
-247.0
 31
0.0
  0
LINE
  5
382
  8
DATA
  6
CONTINUOUS
 62
     7
 10
-245.90000000000001
 20
-248.0
 30
0.0
 11
-245.90000000000001
 21
-250.0
 31
0.0
  0
LINE
  5
383
  8
DATA
  6
CONTINUOUS
 62
     7
 10
-245.90000000000001
 20
-251.0
 30
0.0
 11
-245.90000000000001
 21
-253.0
 31
0.0
  0
LINE
  5
384
  8
DATA
  6
CONTINUOUS
 62
     7
 10
-245.90000000000001
 20
-254.0
 30
0.0
 11
-245.90000000000001
 21
-256.0
 31
0.0
  0
LINE
  5
385
  8
DATA
  6
CONTINUOUS
 62
     7
 10
-240.5
 20
-375.0
 30
0.0
 11
-259.5
 21
-375.0
 31
0.0
  0
LINE
  5
386
  8
DATA
  6
CONTINUOUS
 62
     7
 10
-237.59999999999999
 20
-289.0
 30
0.0
 11
-260.39999999999998
 21
-289.0
 31
0.0
  0
LINE
  5
387
  8
DATA
  6
CONTINUOUS
 62
     7
 10
-240.5
 20
-361.0
 30
0.0
 11
-259.5
 21
-361.0
 31
0.0
  0
LINE
  5
388
  8
DATA
  6
CONTINUOUS
 62
     7
 10
-240.5
 20
-361.0
 30
0.0
 11
-240.5
 21
-375.0
 31
0.0
  0
LINE
  5
389
  8
DATA
  6
CONTINUOUS
 62
     7
 10
-259.5
 20
-361.0
 30
0.0
 11
-259.5
 21
-375.0
 31
0.0
  0
LINE
  5
38A
  8
DATA
  6
CONTINUOUS
 62
     7
 10
-237.59999999999999
 20
-289.0
 30
0.0
 11
-240.5
 21
-361.0
 31
0.0
  0
LINE
  5
38B
  8
DATA
  6
CONTINUOUS
 62
     7
 10
-243.0
 20
-259.0
 30
0.0
 11
-257.0
 21
-259.0
 31
0.0
  0
ARC
  5
38C
  8
DATA
  6
CONTINUOUS
 62
     7
 10
-335.69981148674123
 20
-266.02802563780318
 30
0.0
 40
78.725937377945471
 50
343.03444322601189
 51
1.4761356811416699
  0
ARC
  5
38D
  8
DATA
  6
CONTINUOUS
 62
     7
 10
-164.30018851325869
 20
-266.02802563780318
 30
0.0
 40
78.725937377945442
 50
178.5238643188579
 51
196.965556773988
  0
LINE
  5
38E
  8
DATA
  6
CONTINUOUS
 62
     7
 10
-257.0
 20
-259.0
 30
0.0
 11
-256.99999999999989
 21
-264.00000000000063
 31
0.0
  0
LINE
  5
38F
  8
DATA
  6
CONTINUOUS
 62
     7
 10
-243.0
 20
-259.0
 30
0.0
 11
-243.0
 21
-264.00000000000011
 31
0.0
  0
LINE
  5
390
  8
DATA
  6
CONTINUOUS
 62
     7
 10
-245.90000000000001
 20
-259.0
 30
0.0
 11
-254.09999999999999
 21
-258.0
 31
0.0
  0
LINE
  5
391
  8
DATA
  6
CONTINUOUS
 62
     7
 10
-245.90000000000001
 20
-257.0
 30
0.0
 11
-254.09999999999999
 21
-256.0
 31
0.0
  0
LINE
  5
392
  8
DATA
  6
CONTINUOUS
 62
     7
 10
-245.90000000000001
 20
-256.0
 30
0.0
 11
-254.09999999999999
 21
-255.0
 31
0.0
  0
LINE
  5
393
  8
DATA
  6
CONTINUOUS
 62
     7
 10
-245.90000000000001
 20
-254.0
 30
0.0
 11
-254.09999999999999
 21
-253.0
 31
0.0
  0
LINE
  5
394
  8
DATA
  6
CONTINUOUS
 62
     7
 10
-245.69999999999999
 20
-182.5
 30
0.0
 11
-254.30000000000001
 21
-182.5
 31
0.0
  0
LINE
  5
395
  8
DATA
  6
CONTINUOUS
 62
     7
 10
-245.90000000000001
 20
-253.0
 30
0.0
 11
-254.09999999999999
 21
-252.0
 31
0.0
  0
LINE
  5
396
  8
DATA
  6
CONTINUOUS
 62
     7
 10
-245.90000000000001
 20
-251.0
 30
0.0
 11
-254.09999999999999
 21
-250.0
 31
0.0
  0
LINE
  5
397
  8
DATA
  6
CONTINUOUS
 62
     7
 10
-245.90000000000001
 20
-250.0
 30
0.0
 11
-254.09999999999999
 21
-249.0
 31
0.0
  0
LINE
  5
398
  8
DATA
  6
CONTINUOUS
 62
     7
 10
-245.90000000000001
 20
-248.0
 30
0.0
 11
-254.09999999999999
 21
-247.0
 31
0.0
  0
LINE
  5
399
  8
DATA
  6
CONTINUOUS
 62
     7
 10
-245.90000000000001
 20
-247.0
 30
0.0
 11
-254.09999999999999
 21
-246.0
 31
0.0
  0
LINE
  5
39A
  8
DATA
  6
CONTINUOUS
 62
     7
 10
-245.90000000000001
 20
-245.0
 30
0.0
 11
-254.09999999999999
 21
-244.0
 31
0.0
  0
LINE
  5
39B
  8
DATA
  6
CONTINUOUS
 62
     7
 10
-245.90000000000001
 20
-244.0
 30
0.0
 11
-254.09999999999999
 21
-243.0
 31
0.0
  0
LINE
  5
39C
  8
DATA
  6
CONTINUOUS
 62
     7
 10
-245.90000000000001
 20
-242.0
 30
0.0
 11
-254.09999999999999
 21
-241.0
 31
0.0
  0
LINE
  5
39D
  8
DATA
  6
CONTINUOUS
 62
     7
 10
-245.90000000000001
 20
-241.0
 30
0.0
 11
-254.09999999999999
 21
-240.0
 31
0.0
  0
LINE
  5
39E
  8
DATA
  6
CONTINUOUS
 62
     7
 10
-245.90000000000001
 20
-239.0
 30
0.0
 11
-254.09999999999999
 21
-238.0
 31
0.0
  0
LINE
  5
39F
  8
DATA
  6
CONTINUOUS
 62
     7
 10
-245.90000000000001
 20
-238.0
 30
0.0
 11
-254.09999999999999
 21
-237.0
 31
0.0
  0
LINE
  5
3A0
  8
DATA
  6
CONTINUOUS
 62
     7
 10
-245.90000000000001
 20
-236.0
 30
0.0
 11
-254.09999999999999
 21
-235.0
 31
0.0
  0
LINE
  5
3A1
  8
DATA
  6
CONTINUOUS
 62
     7
 10
-245.90000000000001
 20
-235.0
 30
0.0
 11
-254.09999999999999
 21
-234.0
 31
0.0
  0
LINE
  5
3A2
  8
DATA
  6
CONTINUOUS
 62
     7
 10
-245.90000000000001
 20
-233.0
 30
0.0
 11
-254.09999999999999
 21
-232.0
 31
0.0
  0
LINE
  5
3A3
  8
DATA
  6
CONTINUOUS
 62
     7
 10
-245.90000000000001
 20
-232.0
 30
0.0
 11
-254.09999999999999
 21
-231.0
 31
0.0
  0
LINE
  5
3A4
  8
DATA
  6
CONTINUOUS
 62
     7
 10
-245.90000000000001
 20
-230.0
 30
0.0
 11
-254.09999999999999
 21
-229.0
 31
0.0
  0
LINE
  5
3A5
  8
DATA
  6
CONTINUOUS
 62
     7
 10
-245.90000000000001
 20
-229.0
 30
0.0
 11
-254.09999999999999
 21
-228.0
 31
0.0
  0
LINE
  5
3A6
  8
DATA
  6
CONTINUOUS
 62
     7
 10
-245.90000000000001
 20
-227.0
 30
0.0
 11
-254.09999999999999
 21
-226.0
 31
0.0
  0
LINE
  5
3A7
  8
DATA
  6
CONTINUOUS
 62
     7
 10
-245.90000000000001
 20
-226.0
 30
0.0
 11
-254.09999999999999
 21
-225.0
 31
0.0
  0
LINE
  5
3A8
  8
DATA
  6
CONTINUOUS
 62
     7
 10
-245.90000000000001
 20
-224.0
 30
0.0
 11
-254.09999999999999
 21
-223.0
 31
0.0
  0
LINE
  5
3A9
  8
DATA
  6
CONTINUOUS
 62
     7
 10
-245.90000000000001
 20
-223.0
 30
0.0
 11
-254.09999999999999
 21
-222.0
 31
0.0
  0
LINE
  5
3AA
  8
DATA
  6
CONTINUOUS
 62
     7
 10
-245.90000000000001
 20
-221.0
 30
0.0
 11
-254.09999999999999
 21
-220.0
 31
0.0
  0
LINE
  5
3AB
  8
DATA
  6
CONTINUOUS
 62
     7
 10
-245.90000000000001
 20
-220.0
 30
0.0
 11
-254.09999999999999
 21
-219.0
 31
0.0
  0
LINE
  5
3AC
  8
DATA
  6
CONTINUOUS
 62
     7
 10
-245.90000000000001
 20
-218.0
 30
0.0
 11
-254.09999999999999
 21
-217.0
 31
0.0
  0
LINE
  5
3AD
  8
DATA
  6
CONTINUOUS
 62
     7
 10
-245.90000000000001
 20
-217.0
 30
0.0
 11
-254.09999999999999
 21
-216.0
 31
0.0
  0
LINE
  5
3AE
  8
DATA
  6
CONTINUOUS
 62
     7
 10
-245.90000000000001
 20
-215.0
 30
0.0
 11
-254.09999999999999
 21
-214.0
 31
0.0
  0
LINE
  5
3AF
  8
DATA
  6
CONTINUOUS
 62
     7
 10
-245.90000000000001
 20
-214.0
 30
0.0
 11
-254.09999999999999
 21
-213.0
 31
0.0
  0
LINE
  5
3B0
  8
DATA
  6
CONTINUOUS
 62
     7
 10
-245.90000000000001
 20
-212.0
 30
0.0
 11
-254.09999999999999
 21
-211.0
 31
0.0
  0
LINE
  5
3B1
  8
DATA
  6
CONTINUOUS
 62
     7
 10
-245.90000000000001
 20
-211.0
 30
0.0
 11
-254.09999999999999
 21
-210.0
 31
0.0
  0
LINE
  5
3B2
  8
DATA
  6
CONTINUOUS
 62
     7
 10
-245.90000000000001
 20
-209.0
 30
0.0
 11
-254.09999999999999
 21
-208.0
 31
0.0
  0
LINE
  5
3B3
  8
DATA
  6
CONTINUOUS
 62
     7
 10
-245.90000000000001
 20
-208.0
 30
0.0
 11
-254.09999999999999
 21
-207.0
 31
0.0
  0
LINE
  5
3B4
  8
DATA
  6
CONTINUOUS
 62
     7
 10
-245.90000000000001
 20
-206.0
 30
0.0
 11
-254.09999999999999
 21
-205.0
 31
0.0
  0
LINE
  5
3B5
  8
DATA
  6
CONTINUOUS
 62
     7
 10
-245.90000000000001
 20
-205.0
 30
0.0
 11
-254.09999999999999
 21
-204.0
 31
0.0
  0
LINE
  5
3B6
  8
DATA
  6
CONTINUOUS
 62
     7
 10
-245.90000000000001
 20
-203.0
 30
0.0
 11
-254.09999999999999
 21
-202.0
 31
0.0
  0
LINE
  5
3B7
  8
DATA
  6
CONTINUOUS
 62
     7
 10
-245.90000000000001
 20
-202.0
 30
0.0
 11
-254.09999999999999
 21
-201.0
 31
0.0
  0
LINE
  5
3B8
  8
DATA
  6
CONTINUOUS
 62
     7
 10
-245.90000000000001
 20
-200.0
 30
0.0
 11
-254.09999999999999
 21
-199.0
 31
0.0
  0
LINE
  5
3B9
  8
DATA
  6
CONTINUOUS
 62
     7
 10
-245.90000000000001
 20
-199.0
 30
0.0
 11
-254.09999999999999
 21
-198.0
 31
0.0
  0
LINE
  5
3BA
  8
DATA
  6
CONTINUOUS
 62
     7
 10
-245.90000000000001
 20
-197.0
 30
0.0
 11
-254.09999999999999
 21
-196.0
 31
0.0
  0
LINE
  5
3BB
  8
DATA
  6
CONTINUOUS
 62
     7
 10
-245.90000000000001
 20
-196.0
 30
0.0
 11
-254.09999999999999
 21
-195.0
 31
0.0
  0
LINE
  5
3BC
  8
DATA
  6
CONTINUOUS
 62
     7
 10
-245.90000000000001
 20
-194.0
 30
0.0
 11
-254.09999999999999
 21
-193.0
 31
0.0
  0
LINE
  5
3BD
  8
DATA
  6
CONTINUOUS
 62
     7
 10
-245.90000000000001
 20
-193.0
 30
0.0
 11
-254.09999999999999
 21
-192.0
 31
0.0
  0
LINE
  5
3BE
  8
DATA
  6
CONTINUOUS
 62
     7
 10
-245.90000000000001
 20
-191.0
 30
0.0
 11
-254.09999999999999
 21
-190.0
 31
0.0
  0
LINE
  5
3BF
  8
DATA
  6
CONTINUOUS
 62
     7
 10
-245.90000000000001
 20
-190.0
 30
0.0
 11
-254.09999999999999
 21
-189.0
 31
0.0
  0
LINE
  5
3C0
  8
DATA
  6
CONTINUOUS
 62
     7
 10
-245.90000000000001
 20
-188.0
 30
0.0
 11
-254.09999999999999
 21
-187.0
 31
0.0
  0
LINE
  5
3C1
  8
DATA
  6
CONTINUOUS
 62
     7
 10
-245.90000000000001
 20
-187.0
 30
0.0
 11
-254.09999999999999
 21
-186.0
 31
0.0
  0
LINE
  5
3C2
  8
DATA
  6
CONTINUOUS
 62
     7
 10
-245.90000000000001
 20
-185.0
 30
0.0
 11
-254.09999999999999
 21
-184.0
 31
0.0
  0
LINE
  5
3C3
  8
DATA
  6
CONTINUOUS
 62
     7
 10
-245.90000000000001
 20
-184.0
 30
0.0
 11
-254.09999999999999
 21
-183.0
 31
0.0
  0
LINE
  5
3C4
  8
DATA
  6
CONTINUOUS
 62
     7
 10
-253.90000000000001
 20
-183.02439024390239
 30
0.0
 11
-253.90000000000001
 21
-184.02439024390239
 31
0.0
  0
LINE
  5
3C5
  8
DATA
  6
CONTINUOUS
 62
     7
 10
-253.90000000000001
 20
-186.02439024390239
 30
0.0
 11
-253.90000000000001
 21
-187.02439024390239
 31
0.0
  0
LINE
  5
3C6
  8
DATA
  6
CONTINUOUS
 62
     7
 10
-253.90000000000001
 20
-189.02439024390239
 30
0.0
 11
-253.90000000000001
 21
-190.02439024390239
 31
0.0
  0
LINE
  5
3C7
  8
DATA
  6
CONTINUOUS
 62
     7
 10
-253.90000000000001
 20
-192.02439024390239
 30
0.0
 11
-253.90000000000001
 21
-193.02439024390239
 31
0.0
  0
LINE
  5
3C8
  8
DATA
  6
CONTINUOUS
 62
     7
 10
-253.90000000000001
 20
-195.02439024390239
 30
0.0
 11
-253.90000000000001
 21
-196.02439024390239
 31
0.0
  0
LINE
  5
3C9
  8
DATA
  6
CONTINUOUS
 62
     7
 10
-253.90000000000001
 20
-198.02439024390239
 30
0.0
 11
-253.90000000000001
 21
-199.02439024390239
 31
0.0
  0
LINE
  5
3CA
  8
DATA
  6
CONTINUOUS
 62
     7
 10
-253.90000000000001
 20
-201.02439024390239
 30
0.0
 11
-253.90000000000001
 21
-202.0243902439025
 31
0.0
  0
LINE
  5
3CB
  8
DATA
  6
CONTINUOUS
 62
     7
 10
-253.90000000000001
 20
-204.0243902439025
 30
0.0
 11
-253.90000000000001
 21
-205.02439024390239
 31
0.0
  0
LINE
  5
3CC
  8
DATA
  6
CONTINUOUS
 62
     7
 10
-253.90000000000001
 20
-207.02439024390239
 30
0.0
 11
-253.90000000000001
 21
-208.0243902439025
 31
0.0
  0
LINE
  5
3CD
  8
DATA
  6
CONTINUOUS
 62
     7
 10
-253.90000000000001
 20
-210.0243902439025
 30
0.0
 11
-253.90000000000001
 21
-211.02439024390239
 31
0.0
  0
LINE
  5
3CE
  8
DATA
  6
CONTINUOUS
 62
     7
 10
-253.90000000000001
 20
-213.02439024390239
 30
0.0
 11
-253.90000000000001
 21
-214.02439024390239
 31
0.0
  0
LINE
  5
3CF
  8
DATA
  6
CONTINUOUS
 62
     7
 10
-253.90000000000001
 20
-216.02439024390239
 30
0.0
 11
-253.90000000000001
 21
-217.02439024390239
 31
0.0
  0
LINE
  5
3D0
  8
DATA
  6
CONTINUOUS
 62
     7
 10
-253.90000000000001
 20
-219.0243902439025
 30
0.0
 11
-253.90000000000001
 21
-220.02439024390239
 31
0.0
  0
LINE
  5
3D1
  8
DATA
  6
CONTINUOUS
 62
     7
 10
-253.90000000000001
 20
-222.02439024390239
 30
0.0
 11
-253.90000000000001
 21
-223.0243902439025
 31
0.0
  0
LINE
  5
3D2
  8
DATA
  6
CONTINUOUS
 62
     7
 10
-253.90000000000001
 20
-225.0243902439025
 30
0.0
 11
-253.90000000000001
 21
-226.02439024390239
 31
0.0
  0
LINE
  5
3D3
  8
DATA
  6
CONTINUOUS
 62
     7
 10
-253.90000000000001
 20
-228.02439024390239
 30
0.0
 11
-253.90000000000001
 21
-229.0243902439025
 31
0.0
  0
LINE
  5
3D4
  8
DATA
  6
CONTINUOUS
 62
     7
 10
-253.90000000000001
 20
-231.0243902439025
 30
0.0
 11
-253.90000000000001
 21
-232.02439024390239
 31
0.0
  0
LINE
  5
3D5
  8
DATA
  6
CONTINUOUS
 62
     7
 10
-253.90000000000001
 20
-234.02439024390239
 30
0.0
 11
-253.90000000000001
 21
-235.0243902439025
 31
0.0
  0
LINE
  5
3D6
  8
DATA
  6
CONTINUOUS
 62
     7
 10
-253.90000000000001
 20
-237.0243902439025
 30
0.0
 11
-253.90000000000001
 21
-238.02439024390239
 31
0.0
  0
LINE
  5
3D7
  8
DATA
  6
CONTINUOUS
 62
     7
 10
-253.90000000000001
 20
-240.02439024390239
 30
0.0
 11
-253.90000000000001
 21
-241.02439024390239
 31
0.0
  0
LINE
  5
3D8
  8
DATA
  6
CONTINUOUS
 62
     7
 10
-253.90000000000001
 20
-243.02439024390239
 30
0.0
 11
-253.90000000000001
 21
-244.0243902439025
 31
0.0
  0
LINE
  5
3D9
  8
DATA
  6
CONTINUOUS
 62
     7
 10
-253.90000000000001
 20
-246.0243902439025
 30
0.0
 11
-253.90000000000001
 21
-247.02439024390239
 31
0.0
  0
LINE
  5
3DA
  8
DATA
  6
CONTINUOUS
 62
     7
 10
-253.90000000000001
 20
-249.02439024390239
 30
0.0
 11
-253.90000000000001
 21
-250.0243902439025
 31
0.0
  0
LINE
  5
3DB
  8
DATA
  6
CONTINUOUS
 62
     7
 10
-253.90000000000001
 20
-252.0243902439025
 30
0.0
 11
-253.90000000000001
 21
-253.02439024390239
 31
0.0
  0
LINE
  5
3DC
  8
DATA
  6
CONTINUOUS
 62
     7
 10
-253.90000000000001
 20
-255.02439024390239
 30
0.0
 11
-253.90000000000001
 21
-256.02439024390242
 31
0.0
  0
LINE
  5
3DD
  8
DATA
  6
CONTINUOUS
 62
     7
 10
-246.09999999999999
 20
-183.97560975609761
 30
0.0
 11
-246.09999999999999
 21
-184.97560975609761
 31
0.0
  0
LINE
  5
3DE
  8
DATA
  6
CONTINUOUS
 62
     7
 10
-246.09999999999999
 20
-186.9756097560975
 30
0.0
 11
-246.09999999999999
 21
-187.9756097560975
 31
0.0
  0
LINE
  5
3DF
  8
DATA
  6
CONTINUOUS
 62
     7
 10
-246.09999999999999
 20
-189.9756097560975
 30
0.0
 11
-246.09999999999999
 21
-190.9756097560975
 31
0.0
  0
LINE
  5
3E0
  8
DATA
  6
CONTINUOUS
 62
     7
 10
-246.09999999999999
 20
-192.9756097560975
 30
0.0
 11
-246.09999999999999
 21
-193.9756097560975
 31
0.0
  0
LINE
  5
3E1
  8
DATA
  6
CONTINUOUS
 62
     7
 10
-246.09999999999999
 20
-195.9756097560975
 30
0.0
 11
-246.09999999999999
 21
-196.9756097560975
 31
0.0
  0
LINE
  5
3E2
  8
DATA
  6
CONTINUOUS
 62
     7
 10
-246.09999999999999
 20
-198.9756097560975
 30
0.0
 11
-246.09999999999999
 21
-199.9756097560975
 31
0.0
  0
LINE
  5
3E3
  8
DATA
  6
CONTINUOUS
 62
     7
 10
-246.09999999999999
 20
-201.9756097560975
 30
0.0
 11
-246.09999999999999
 21
-202.97560975609761
 31
0.0
  0
LINE
  5
3E4
  8
DATA
  6
CONTINUOUS
 62
     7
 10
-246.09999999999999
 20
-204.97560975609761
 30
0.0
 11
-246.09999999999999
 21
-205.9756097560975
 31
0.0
  0
LINE
  5
3E5
  8
DATA
  6
CONTINUOUS
 62
     7
 10
-246.09999999999999
 20
-207.9756097560975
 30
0.0
 11
-246.09999999999999
 21
-208.97560975609761
 31
0.0
  0
LINE
  5
3E6
  8
DATA
  6
CONTINUOUS
 62
     7
 10
-246.09999999999999
 20
-210.97560975609761
 30
0.0
 11
-246.09999999999999
 21
-211.9756097560975
 31
0.0
  0
LINE
  5
3E7
  8
DATA
  6
CONTINUOUS
 62
     7
 10
-246.09999999999999
 20
-213.9756097560975
 30
0.0
 11
-246.09999999999999
 21
-214.97560975609761
 31
0.0
  0
LINE
  5
3E8
  8
DATA
  6
CONTINUOUS
 62
     7
 10
-246.09999999999999
 20
-216.97560975609761
 30
0.0
 11
-246.09999999999999
 21
-217.9756097560975
 31
0.0
  0
LINE
  5
3E9
  8
DATA
  6
CONTINUOUS
 62
     7
 10
-246.09999999999999
 20
-219.97560975609761
 30
0.0
 11
-246.09999999999999
 21
-220.97560975609761
 31
0.0
  0
LINE
  5
3EA
  8
DATA
  6
CONTINUOUS
 62
     7
 10
-246.09999999999999
 20
-222.97560975609761
 30
0.0
 11
-246.09999999999999
 21
-223.97560975609761
 31
0.0
  0
LINE
  5
3EB
  8
DATA
  6
CONTINUOUS
 62
     7
 10
-246.09999999999999
 20
-225.97560975609761
 30
0.0
 11
-246.09999999999999
 21
-226.9756097560975
 31
0.0
  0
LINE
  5
3EC
  8
DATA
  6
CONTINUOUS
 62
     7
 10
-246.09999999999999
 20
-228.9756097560975
 30
0.0
 11
-246.09999999999999
 21
-229.97560975609761
 31
0.0
  0
LINE
  5
3ED
  8
DATA
  6
CONTINUOUS
 62
     7
 10
-246.09999999999999
 20
-231.97560975609761
 30
0.0
 11
-246.09999999999999
 21
-232.9756097560975
 31
0.0
  0
LINE
  5
3EE
  8
DATA
  6
CONTINUOUS
 62
     7
 10
-246.09999999999999
 20
-234.9756097560975
 30
0.0
 11
-246.09999999999999
 21
-235.97560975609761
 31
0.0
  0
LINE
  5
3EF
  8
DATA
  6
CONTINUOUS
 62
     7
 10
-246.09999999999999
 20
-237.97560975609761
 30
0.0
 11
-246.09999999999999
 21
-238.9756097560975
 31
0.0
  0
LINE
  5
3F0
  8
DATA
  6
CONTINUOUS
 62
     7
 10
-246.09999999999999
 20
-240.9756097560975
 30
0.0
 11
-246.09999999999999
 21
-241.97560975609761
 31
0.0
  0
LINE
  5
3F1
  8
DATA
  6
CONTINUOUS
 62
     7
 10
-246.09999999999999
 20
-243.97560975609761
 30
0.0
 11
-246.09999999999999
 21
-244.97560975609761
 31
0.0
  0
LINE
  5
3F2
  8
DATA
  6
CONTINUOUS
 62
     7
 10
-246.09999999999999
 20
-246.97560975609761
 30
0.0
 11
-246.09999999999999
 21
-247.97560975609761
 31
0.0
  0
LINE
  5
3F3
  8
DATA
  6
CONTINUOUS
 62
     7
 10
-246.09999999999999
 20
-249.9756097560975
 30
0.0
 11
-246.09999999999999
 21
-250.97560975609761
 31
0.0
  0
LINE
  5
3F4
  8
DATA
  6
CONTINUOUS
 62
     7
 10
-246.09999999999999
 20
-252.97560975609761
 30
0.0
 11
-246.09999999999999
 21
-253.9756097560975
 31
0.0
  0
LINE
  5
3F5
  8
DATA
  6
CONTINUOUS
 62
     7
 10
-246.09999999999999
 20
-255.9756097560975
 30
0.0
 11
-246.09999999999999
 21
-256.97560975609758
 31
0.0
  0
LINE
  5
3F6
  8
DATA
  6
CONTINUOUS
 62
     7
 10
-246.09999999999999
 20
-258.97560975609758
 30
0.0
 11
-246.09999999999999
 21
-259.0
 31
0.0
  0
LINE
  5
3F7
  8
DATA
  6
CONTINUOUS
 62
     7
 10
-250.0
 20
-182.5
 30
0.0
 11
-250.0
 21
-175.5
 31
0.0
  0
LINE
  5
3F8
  8
DATA
  6
CONTINUOUS
 62
     7
 10
-254.09999999999999
 20
-183.0
 30
0.0
 11
-254.09999999999999
 21
-182.5
 31
0.0
  0
LINE
  5
3F9
  8
DATA
  6
CONTINUOUS
 62
     7
 10
-245.90000000000001
 20
-184.0
 30
0.0
 11
-245.90000000000001
 21
-182.5
 31
0.0
  0
LINE
  5
3FA
  8
DATA
  6
CONTINUOUS
 62
     7
 10
-251.5
 20
-182.5
 30
0.0
 11
-251.5
 21
-175.5
 31
0.0
  0
LINE
  5
3FB
  8
DATA
  6
CONTINUOUS
 62
     7
 10
-248.5
 20
-182.5
 30
0.0
 11
-248.5
 21
-175.5
 31
0.0
  0
LINE
  5
3FC
  8
DATA
  6
CONTINUOUS
 62
     7
 10
-254.30000000000001
 20
-182.5
 30
0.0
 11
-254.30000000000001
 21
-172.5
 31
0.0
  0
LINE
  5
3FD
  8
DATA
  6
CONTINUOUS
 62
     7
 10
-245.69999999999999
 20
-182.5
 30
0.0
 11
-245.69999999999999
 21
-172.5
 31
0.0
  0
LINE
  5
3FE
  8
DATA
  6
CONTINUOUS
 62
     7
 10
-254.30000000000001
 20
-172.5
 30
0.0
 11
-253.6999999999999
 21
-160.5
 31
0.0
  0
LINE
  5
3FF
  8
DATA
  6
CONTINUOUS
 62
     7
 10
-246.30000000000001
 20
-160.5
 30
0.0
 11
-245.69999999999999
 21
-172.5
 31
0.0
  0
LINE
  5
400
  8
DATA
  6
CONTINUOUS
 62
     7
 10
-253.6999999999999
 20
-77.697122959230839
 30
0.0
 11
-253.6999999999999
 21
-160.5
 31
0.0
  0
ARC
  5
401
  8
DATA
  6
CONTINUOUS
 62
     7
 10
-478.5
 20
-368.324927536232
 30
0.0
 40
219.12246476208469
 50
1.9156668258353819
 51
20.384646359822511
  0
LINE
  5
402
  8
DATA
  6
CONTINUOUS
 62
     7
 10
-257.60000000000002
 20
-296.0
 30
0.0
 11
-257.60000000000002
 21
-300.0
 31
0.0
  0
CIRCLE
  5
403
  8
DATA
  6
CONTINUOUS
 62
     7
 10
-257.60000000000002
 20
-298.0
 30
0.0
 40
3.0
  0
LINE
  5
404
  8
DATA
  6
CONTINUOUS
 62
     7
 10
-255.59999999999999
 20
-298.0
 30
0.0
 11
-259.60000000000002
 21
-298.0
 31
0.0
  0
ARC
  5
405
  8
DATA
  6
CONTINUOUS
 62
     7
 10
-251.51377952755931
 20
-355.0
 30
0.0
 40
66.595532239669183
 50
97.668172861943816
 51
108.9134299606275
  0
LINE
  5
406
  8
DATA
  6
CONTINUOUS
 62
     7
 10
-270.13484950624178
 20
-291.06080492269371
 30
0.0
 11
-270.35258876202943
 21
-290.12461991571359
 31
0.0
  0
LINE
  5
407
  8
DATA
  6
CONTINUOUS
 62
     7
 10
-263.0197353833712
 20
-289.40596144367288
 30
0.0
 11
-263.243112364301
 21
-288.44553664707678
 31
0.0
  0
ARC
  5
408
  8
DATA
  6
CONTINUOUS
 62
     7
 10
-251.51377952755931
 20
-354.0
 30
0.0
 40
66.595532239669197
 50
100.144302987293
 51
106.43240534165589
  0
LINE
  5
409
  8
DATA
  6
CONTINUOUS
 62
     7
 10
-248.58578643763099
 20
-357.75
 30
0.0
 11
-251.4142135623691
 21
-357.75
 31
0.0
  0
CIRCLE
  5
40A
  8
DATA
  6
CONTINUOUS
 62
     7
 10
-250.0
 20
-358.25
 30
0.0
 40
1.75
  0
CIRCLE
  5
40B
  8
DATA
  6
CONTINUOUS
 62
     7
 10
-250.0
 20
-358.25
 30
0.0
 40
1.5
  0
LINE
  5
40C
  8
DATA
  6
CONTINUOUS
 62
     7
 10
-248.58578643763099
 20
-358.75
 30
0.0
 11
-251.4142135623691
 21
-358.75
 31
0.0
  0
LINE
  5
40D
  8
DATA
  6
CONTINUOUS
 62
     7
 10
-248.5
 20
-373.5
 30
0.0
 11
-251.5
 21
-373.5
 31
0.0
  0
LINE
  5
40E
  8
DATA
  6
CONTINUOUS
 62
     7
 10
-248.5
 20
-370.0
 30
0.0
 11
-251.5
 21
-370.0
 31
0.0
  0
ARC
  5
40F
  8
DATA
  6
CONTINUOUS
 62
     7
 10
-251.5
 20
-371.75
 30
0.0
 40
1.75
 50
90.0
 51
270.0
  0
ARC
  5
410
  8
DATA
  6
CONTINUOUS
 62
     7
 10
-248.5
 20
-371.75
 30
0.0
 40
1.75
 50
270.0
 51
90.0
  0
TEXT
  5
411
  8
DATA
 62
     7
 10
-252.03200000000001
 20
-136.74444444444441
 30
0.0
 40
4.3435763888888879
  1
CVG18RS
 50
270.0
 41
0.7
 11
-247.68842361111109
 21
-136.74444444444441
 31
0.0
 73
     3
  0
TEXT
  5
412
  8
DATA
 62
     7
 10
-251.5390625
 20
-301.9723958041933
 30
0.0
 40
3.078125
  1
SHURE
 50
270.0
 41
0.7
 72
     1
 11
-250.0
 21
-306.99999997086002
 31
0.0
 73
     2
  0
ARC
  5
413
  8
DATA
  6
CONTINUOUS
 62
     7
 10
-150.0
 20
-400.0
 30
0.0
 40
12.40000000000015
 50
0.0
 51
180.0
  0
ARC
  5
414
  8
DATA
  6
CONTINUOUS
 62
     7
 10
-149.99999999999989
 20
-410.7000000000001
 30
0.0
 40
12.400000000000039
 50
209.7127159040383
 51
330.28728409579901
  0
LINE
  5
415
  8
DATA
  6
CONTINUOUS
 62
     7
 10
-137.59999999999991
 20
-400.0
 30
0.0
 11
-137.59999999999991
 21
-406.7251133647402
 31
0.0
  0
LINE
  5
416
  8
DATA
  6
CONTINUOUS
 62
     7
 10
-162.39999999999989
 20
-400.0
 30
0.0
 11
-162.39999999999989
 21
-406.72511336474082
 31
0.0
  0
LINE
  5
417
  8
DATA
  6
CONTINUOUS
 62
     7
 10
-160.76966701823321
 20
-416.84607779941717
 30
0.0
 11
-162.248077530122
 21
-408.46159514141021
 31
0.0
  0
LINE
  5
418
  8
DATA
  6
CONTINUOUS
 62
     7
 10
-139.2303329817733
 20
-416.84607779945418
 30
0.0
 11
-137.7519224698778
 21
-408.46159514140948
 31
0.0
  0
ARC
  5
419
  8
DATA
  6
CONTINUOUS
 62
     7
 10
-152.39999999999989
 20
-406.72511336474071
 30
0.0
 40
10.0
 50
180.00000000000099
 51
190.00000000000111
  0
ARC
  5
41A
  8
DATA
  6
CONTINUOUS
 62
     7
 10
-147.59999999999991
 20
-406.72511336474031
 30
0.0
 40
10.000000000000011
 50
350.0000000000008
 51
0.0000000000006253
  0
CIRCLE
  5
41B
  8
DATA
  6
CONTINUOUS
 62
     7
 10
-150.0
 20
-400.0
 30
0.0
 40
9.5
  0
CIRCLE
  5
41C
  8
DATA
  6
CONTINUOUS
 62
     7
 10
-150.0
 20
-400.0
 30
0.0
 40
7.9000000000000332
  0
CIRCLE
  5
41D
  8
DATA
  6
CONTINUOUS
 62
     7
 10
-150.0
 20
-396.0
 30
0.0
 40
1.5
  0
CIRCLE
  5
41E
  8
DATA
  6
CONTINUOUS
 62
     7
 10
-146.25
 20
-400.0
 30
0.0
 40
1.5
  0
CIRCLE
  5
41F
  8
DATA
  6
CONTINUOUS
 62
     7
 10
-150.0
 20
-404.0
 30
0.0
 40
1.5
  0
CIRCLE
  5
420
  8
DATA
  6
CONTINUOUS
 62
     7
 10
175.0
 20
-100.0
 30
0.0
 40
33.25
  0
CIRCLE
  5
421
  8
DATA
  6
CONTINUOUS
 62
     7
 10
175.0
 20
-100.0
 30
0.0
 40
17.75
  0
CIRCLE
  5
422
  8
DATA
  6
CONTINUOUS
 62
     7
 10
175.0
 20
-100.0
 30
0.0
 40
15.5
  0
CIRCLE
  5
423
  8
DATA
  6
CONTINUOUS
 62
     7
 10
175.0
 20
-100.0
 30
0.0
 40
10.0
  0
CIRCLE
  5
424
  8
DATA
  6
CONTINUOUS
 62
     7
 10
175.0
 20
-100.0
 30
0.0
 40
32.5
  0
LINE
  5
425
  8
DATA
  6
CONTINUOUS
 62
     7
 10
207.5
 20
-194.0
 30
0.0
 11
208.25
 21
-199.0
 31
0.0
  0
LINE
  5
426
  8
DATA
  6
CONTINUOUS
 62
     7
 10
141.75
 20
-199.0
 30
0.0
 11
208.25
 21
-199.0
 31
0.0
  0
LINE
  5
427
  8
DATA
  6
CONTINUOUS
 62
     7
 10
142.5
 20
-194.0
 30
0.0
 11
207.5
 21
-194.0
 31
0.0
  0
LINE
  5
428
  8
DATA
  6
CONTINUOUS
 62
     7
 10
157.25
 20
-189.0
 30
0.0
 11
192.75
 21
-189.0
 31
0.0
  0
LINE
  5
429
  8
DATA
  6
CONTINUOUS
 62
     7
 10
159.5
 20
-184.0
 30
0.0
 11
190.5
 21
-184.0
 31
0.0
  0
LINE
  5
42A
  8
DATA
  6
CONTINUOUS
 62
     7
 10
142.5
 20
-194.0
 30
0.0
 11
141.75
 21
-199.0
 31
0.0
  0
LINE
  5
42B
  8
DATA
  6
CONTINUOUS
 62
     7
 10
192.75
 20
-189.0
 30
0.0
 11
207.5
 21
-194.0
 31
0.0
  0
LINE
  5
42C
  8
DATA
  6
CONTINUOUS
 62
     7
 10
142.5
 20
-194.0
 30
0.0
 11
157.25
 21
-189.0
 31
0.0
  0
LINE
  5
42D
  8
DATA
  6
CONTINUOUS
 62
     7
 10
157.25
 20
-189.0
 30
0.0
 11
159.5
 21
-184.0
 31
0.0
  0
LINE
  5
42E
  8
DATA
  6
CONTINUOUS
 62
     7
 10
192.75
 20
-189.0
 30
0.0
 11
190.5
 21
-184.0
 31
0.0
  0
LINE
  5
42F
  8
DATA
  6
CONTINUOUS
 62
     7
 10
164.5
 20
-126.75
 30
0.0
 11
185.5
 21
-126.75
 31
0.0
  0
LINE
  5
430
  8
DATA
  6
CONTINUOUS
 62
     7
 10
164.5
 20
-122.25
 30
0.0
 11
185.5
 21
-122.25
 31
0.0
  0
LINE
  5
431
  8
DATA
  6
CONTINUOUS
 62
     7
 10
185.5
 20
-126.75
 30
0.0
 11
185.5
 21
-122.25
 31
0.0
  0
LINE
  5
432
  8
DATA
  6
CONTINUOUS
 62
     7
 10
164.5
 20
-126.75
 30
0.0
 11
164.5
 21
-122.25
 31
0.0
  0
TEXT
  5
433
  8
DATA
 62
     7
 10
165.00000005828011
 20
-125.94
 30
0.0
 40
3.078125
  1
ＳＨＵＲＥ
 41
0.7
 11
165.00000005828011
 21
-122.861875
 31
0.0
 73
     3
  0
CIRCLE
  5
434
  8
DATA
  6
CONTINUOUS
 62
     7
 10
175.0
 20
-74.5
 30
0.0
 40
4.25
  0
CIRCLE
  5
435
  8
DATA
  6
CONTINUOUS
 62
     7
 10
152.91635220349681
 20
-112.75
 30
0.0
 40
4.2500000000000044
  0
CIRCLE
  5
436
  8
DATA
  6
CONTINUOUS
 62
     7
 10
197.08364779650319
 20
-112.75
 30
0.0
 40
4.2500000000000044
  0
CIRCLE
  5
437
  8
DATA
  6
CONTINUOUS
 62
     7
 10
175.0
 20
-74.5
 30
0.0
 40
2.1500000000000048
  0
CIRCLE
  5
438
  8
DATA
  6
CONTINUOUS
 62
     7
 10
197.08364779650319
 20
-112.75
 30
0.0
 40
2.1500000000000048
  0
CIRCLE
  5
439
  8
DATA
  6
CONTINUOUS
 62
     7
 10
152.91635220349681
 20
-112.75
 30
0.0
 40
2.1500000000000048
  0
LINE
  5
43A
  8
DATA
  6
CONTINUOUS
 62
     7
 10
193.90000000000001
 20
-199.0
 30
0.0
 11
193.90000000000001
 21
-200.0
 31
0.0
  0
LINE
  5
43B
  8
DATA
  6
CONTINUOUS
 62
     7
 10
156.09999999999999
 20
-199.0
 30
0.0
 11
156.09999999999999
 21
-200.0
 31
0.0
  0
LINE
  5
43C
  8
DATA
  6
CONTINUOUS
 62
     7
 10
156.09999999999999
 20
-200.0
 30
0.0
 11
193.90000000000001
 21
-200.0
 31
0.0
  0
LINE
  5
43D
  8
DATA
  6
CONTINUOUS
 62
     7
 10
193.27827879412521
 20
-189.17907755733049
 30
0.0
 11
201.33364779650319
 21
-191.9097111174587
 31
0.0
  0
ARC
  5
43E
  8
DATA
  6
CONTINUOUS
 62
     7
 10
193.06676461940199
 20
-203.0676223315011
 30
0.0
 40
13.20755274806594
 50
52.561864938816171
 51
89.989437808057446
  0
ARC
  5
43F
  8
DATA
  6
CONTINUOUS
 62
     7
 10
201.09812950172409
 20
-179.37313839445849
 30
0.0
 40
13.207552748065901
 50
232.5618649388187
 51
269.98943780805752
  0
LINE
  5
440
  8
DATA
  6
CONTINUOUS
 62
     7
 10
156.72172120587479
 20
-189.17907755733049
 30
0.0
 11
148.66635220349681
 21
-191.9097111174587
 31
0.0
  0
ARC
  5
441
  8
DATA
  6
CONTINUOUS
 62
     7
 10
156.93323538059801
 20
-203.0676223315011
 30
0.0
 40
13.20755274806592
 50
90.010562191939087
 51
127.4381350611758
  0
ARC
  5
442
  8
DATA
  6
CONTINUOUS
 62
     7
 10
148.90187049827591
 20
-179.37313839445849
 30
0.0
 40
13.207552748065901
 50
270.01056219192731
 51
307.4381350611759
  0
LINE
  5
443
  8
DATA
  6
CONTINUOUS
 62
     7
 10
185.5
 20
-190.52542372881359
 30
0.0
 11
185.5
 21
-192.0508474576271
 31
0.0
  0
LINE
  5
444
  8
DATA
  6
CONTINUOUS
 62
     7
 10
164.5
 20
-190.52542372881359
 30
0.0
 11
164.5
 21
-192.0508474576271
 31
0.0
  0
LINE
  5
445
  8
DATA
  6
CONTINUOUS
 62
     7
 10
185.5
 20
-192.0508474576271
 30
0.0
 11
164.5
 21
-192.0508474576271
 31
0.0
  0
LINE
  5
446
  8
DATA
  6
CONTINUOUS
 62
     7
 10
185.5
 20
-190.52542372881359
 30
0.0
 11
164.5
 21
-190.52542372881359
 31
0.0
  0
LINE
  5
447
  8
DATA
  6
CONTINUOUS
 62
     7
 10
183.5
 20
50.0
 30
0.0
 11
166.5
 21
50.0
 31
0.0
  0
LINE
  5
448
  8
DATA
  6
CONTINUOUS
 62
     7
 10
165.5
 20
51.0
 30
0.0
 11
166.5
 21
50.0
 31
0.0
  0
LINE
  5
449
  8
DATA
  6
CONTINUOUS
 62
     7
 10
183.5
 20
50.0
 30
0.0
 11
184.5
 21
51.0
 31
0.0
  0
LINE
  5
44A
  8
DATA
  6
CONTINUOUS
 62
     7
 10
184.5
 20
51.0
 30
0.0
 11
165.5
 21
51.0
 31
0.0
  0
ARC
  5
44B
  8
DATA
  6
CONTINUOUS
 62
     7
 10
175.0
 20
62.700000000000003
 30
0.0
 40
15.07116452036802
 50
309.07541801801761
 51
333.60496547380239
  0
LINE
  5
44C
  8
DATA
  6
CONTINUOUS
 62
     7
 10
185.31868580406879
 20
87.359460480572565
 30
0.0
 11
188.48197273645741
 21
61.14936875506671
 31
0.0
  0
LINE
  5
44D
  8
DATA
  6
CONTINUOUS
 62
     7
 10
188.49638151043749
 20
60.909728434685
 30
0.0
 11
188.49638151043749
 21
55.992713952370863
 31
0.0
  0
ARC
  5
44E
  8
DATA
  6
CONTINUOUS
 62
     7
 10
186.4963815104376
 20
60.909728434684638
 30
0.0
 40
1.9999999999999429
 50
0.0000000000101778
 51
6.8817236306472269
  0
ARC
  5
44F
  8
DATA
  6
CONTINUOUS
 62
     7
 10
175.0
 20
62.700000000000003
 30
0.0
 40
15.07116452036801
 50
206.39503452619761
 51
230.9245819819825
  0
LINE
  5
450
  8
DATA
  6
CONTINUOUS
 62
     7
 10
164.68131419593109
 20
87.359460480572565
 30
0.0
 11
161.51802726354251
 21
61.14936875506671
 31
0.0
  0
LINE
  5
451
  8
DATA
  6
CONTINUOUS
 62
     7
 10
161.50361848956251
 20
60.909728434685
 30
0.0
 11
161.50361848956251
 21
55.992713952370863
 31
0.0
  0
LINE
  5
452
  8
DATA
  6
CONTINUOUS
 62
     7
 10
167.6597010349611
 20
90.0
 30
0.0
 11
182.3402989650389
 21
90.0
 31
0.0
  0
ARC
  5
453
  8
DATA
  6
CONTINUOUS
 62
     7
 10
182.3402989650389
 20
87.0
 30
0.0
 40
2.9999999999999929
 50
6.8817236306370591
 51
90.0
  0
ARC
  5
454
  8
DATA
  6
CONTINUOUS
 62
     7
 10
167.6597010349611
 20
87.0
 30
0.0
 40
3.0
 50
90.0
 51
173.11827636936289
  0
CIRCLE
  5
455
  8
DATA
  6
CONTINUOUS
 62
     7
 10
175.0
 20
125.0
 30
0.0
 40
13.49638151043751
  0
CIRCLE
  5
456
  8
DATA
  6
CONTINUOUS
 62
     7
 10
175.0
 20
125.0
 30
0.0
 40
10.318685804068821
  0
ARC
  5
457
  8
DATA
  6
CONTINUOUS
 62
     7
 10
-150.0
 20
149.90000000000009
 30
0.0
 40
12.40000000000015
 50
180.0
 51
0.0
  0
ARC
  5
458
  8
DATA
  6
CONTINUOUS
 62
     7
 10
-150.0
 20
160.60000000000011
 30
0.0
 40
12.40000000000002
 50
29.712715904201069
 51
150.28728409596181
  0
LINE
  5
459
  8
DATA
  6
CONTINUOUS
 62
     7
 10
-137.59999999999991
 20
149.9000000000002
 30
0.0
 11
-137.59999999999991
 21
156.6251133647402
 31
0.0
  0
LINE
  5
45A
  8
DATA
  6
CONTINUOUS
 62
     7
 10
-162.40000000000001
 20
149.9000000000002
 30
0.0
 11
-162.40000000000001
 21
156.62511336474091
 31
0.0
  0
CIRCLE
  5
45B
  8
DATA
  6
CONTINUOUS
 62
     7
 10
-150.0
 20
149.90000000000009
 30
0.0
 40
10.400000000000089
  0
CIRCLE
  5
45C
  8
DATA
  6
CONTINUOUS
 62
     7
 10
-150.0
 20
149.90000000000009
 30
0.0
 40
7.5000000000000844
  0
CIRCLE
  5
45D
  8
DATA
  6
CONTINUOUS
 62
     7
 10
-150.0
 20
149.90000000000009
 30
0.0
 40
6.0000000000000844
  0
CIRCLE
  5
45E
  8
DATA
  6
CONTINUOUS
 62
     7
 10
-150.0
 20
166.69785056316519
 30
0.0
 40
3.5547381988641571
  0
LINE
  5
45F
  8
DATA
  6
CONTINUOUS
 62
     7
 10
-160.76966701823321
 20
166.74607779941741
 30
0.0
 11
-162.24807753012209
 21
158.36159514141019
 31
0.0
  0
LINE
  5
460
  8
DATA
  6
CONTINUOUS
 62
     7
 10
-139.23033298177339
 20
166.7460777994543
 30
0.0
 11
-137.75192246987791
 21
158.36159514140951
 31
0.0
  0
ARC
  5
461
  8
DATA
  6
CONTINUOUS
 62
     7
 10
-152.40000000000001
 20
156.62511336474071
 30
0.0
 40
10.00000000000003
 50
169.99999999999901
 51
179.99999999999901
  0
ARC
  5
462
  8
DATA
  6
CONTINUOUS
 62
     7
 10
-147.59999999999999
 20
156.6251133647404
 30
0.0
 40
10.00000000000002
 50
359.99999999999909
 51
9.9999999999990319
  0
LINE
  5
463
  8
DATA
  6
CONTINUOUS
 62
     7
 10
-138.59999999999991
 20
149.90000000000001
 30
0.0
 11
-138.59999999999991
 21
157.49999999999949
 31
0.0
  0
LINE
  5
464
  8
DATA
  6
CONTINUOUS
 62
     7
 10
-140.16228362966871
 20
166.36015074602611
 30
0.0
 11
-138.59999999999991
 21
157.49999999999949
 31
0.0
  0
LINE
  5
465
  8
DATA
  6
CONTINUOUS
 62
     7
 10
-159.837716370322
 20
166.36015074607971
 30
0.0
 11
-161.40000000000001
 21
157.5000000000002
 31
0.0
  0
LINE
  5
466
  8
DATA
  6
CONTINUOUS
 62
     7
 10
-161.40000000000001
 20
149.90000000000001
 30
0.0
 11
-161.40000000000001
 21
157.5000000000002
 31
0.0
  0
ARC
  5
467
  8
DATA
  6
CONTINUOUS
 62
     7
 10
-150.0
 20
149.90000000000001
 30
0.0
 40
11.400000000000089
 50
179.99999999999989
 51
0.0000000000001137
  0
ARC
  5
468
  8
DATA
  6
CONTINUOUS
 62
     7
 10
-150.00000000000011
 20
160.60000000000011
 30
0.0
 40
11.399999999999769
 50
30.349700882515091
 51
149.6502991173549
  0
TEXT
  5
469
  8
DATA
 62
     7
 10
190.0
 20
-460.38425999999993
 30
0.0
 40
6.5153645833333318
  1
一体型グースネック・マイクロホン
 41
0.7
 11
190.0
 21
-453.86889541666659
 31
0.0
 73
     3
  0
TEXT
  5
46A
  8
DATA
 62
     7
 10
134.71332899305551
 20
-242.92947048611109
 30
0.0
 40
10.85894097222222
  1
マウント用フランジ
 41
0.7
 72
     1
 11
175.0
 21
-237.5
 31
0.0
 73
     2
  0
TEXT
  5
46B
  8
DATA
 62
     7
 10
93.919907407407365
 20
7.0705295138888866
 30
0.0
 40
10.85894097222222
  1
スナップフィット・ウインドスクリーン
 41
0.7
 72
     1
 11
175.0
 21
12.5
 31
0.0
 73
     2
  0
LINE
  5
46C
  8
DATA
  6
CONTINUOUS
 62
     7
 10
37.5
 20
0.0
 30
0.0
 11
312.5
 21
0.0
 31
0.0
  0
LINE
  5
46D
  8
DATA
  6
CONTINUOUS
 62
     7
 10
100.0
 20
-250.0
 30
0.0
 11
250.0
 21
-250.0
 31
0.0
  0
ARC
  5
46E
  8
DATA
  6
CONTINUOUS
 62
     7
 10
-81.25
 20
-70.3125
 30
0.0
 40
7.8125
 50
216.86989764584399
 51
323.13010235415612
  0
ARC
  5
46F
  8
DATA
  6
CONTINUOUS
 62
     7
 10
-68.75
 20
-79.6875
 30
0.0
 40
7.8125
 50
36.869897645844027
 51
143.13010235415601
  0
ARC
  5
470
  8
DATA
  6
CONTINUOUS
 62
     7
 10
-256.25
 20
-70.3125
 30
0.0
 40
7.8125
 50
216.86989764584399
 51
323.13010235415612
  0
ARC
  5
471
  8
DATA
  6
CONTINUOUS
 62
     7
 10
-243.75
 20
-79.6875
 30
0.0
 40
7.8125
 50
36.869897645844027
 51
143.13010235415601
  0
ENDSEC
  0
EOF
