  0
SECTION
  2
HEADER
  9
$ACADVER
  1
AC1009
  9
$INSBASE
 10
0.0
 20
0.0
 30
0.0
  9
$EXTMIN
 10
-180.01098548994739
 20
-275.10380054398138
 30
-0.0015258207003583
  9
$EXTMAX
 10
183.8853190104164
 20
260.01629870255692
 30
0.0000000349246037
  9
$LIMMIN
 10
0.0
 20
0.0
  9
$LIMMAX
 10
0.0
 20
0.0
  9
$ORTHOMODE
 70
     0
  9
$REGENMODE
 70
     1
  9
$FILLMODE
 70
     1
  9
$QTEXTMODE
 70
     0
  9
$MIRRTEXT
 70
     1
  9
$DRAGMODE
 70
     2
  9
$LTSCALE
 40
10.16
  9
$OSMODE
 70
   231
  9
$ATTMODE
 70
     1
  9
$TEXTSIZE
 40
0.0
  9
$TRACEWID
 40
1.0
  9
$TEXTSTYLE
  7
STANDARD
  9
$CLAYER
  8
DATA
  9
$CELTYPE
  6
BYLAYER
  9
$CECOLOR
 62
   256
  9
$DIMSCALE
 40
1.0
  9
$DIMASZ
 40
0.18
  9
$DIMEXO
 40
0.0625
  9
$DIMDLI
 40
0.38
  9
$DIMRND
 40
0.0
  9
$DIMDLE
 40
0.0
  9
$DIMEXE
 40
0.18
  9
$DIMTP
 40
0.0
  9
$DIMTM
 40
0.0
  9
$DIMTXT
 40
0.18
  9
$DIMCEN
 40
0.09
  9
$DIMTSZ
 40
0.0
  9
$DIMTOL
 70
     0
  9
$DIMLIM
 70
     0
  9
$DIMTIH
 70
     1
  9
$DIMTOH
 70
     1
  9
$DIMSE1
 70
     0
  9
$DIMSE2
 70
     0
  9
$DIMTAD
 70
     0
  9
$DIMZIN
 70
     0
  9
$DIMBLK
  1

  9
$DIMASO
 70
     1
  9
$DIMSHO
 70
     1
  9
$DIMPOST
  1

  9
$DIMAPOST
  1

  9
$DIMALT
 70
     0
  9
$DIMALTD
 70
     2
  9
$DIMALTF
 40
25.399999999999999
  9
$DIMLFAC
 40
1.0
  9
$DIMTOFL
 70
     0
  9
$DIMTVP
 40
0.0
  9
$DIMTIX
 70
     0
  9
$DIMSOXD
 70
     0
  9
$DIMSAH
 70
     0
  9
$DIMBLK1
  1

  9
$DIMBLK2
  1

  9
$DIMSTYLE
  2
STANDARD
  9
$DIMCLRD
 70
     0
  9
$DIMCLRE
 70
     0
  9
$DIMCLRT
 70
     0
  9
$DIMTFAC
 40
1.0
  9
$DIMGAP
 40
0.09
  9
$LUNITS
 70
     2
  9
$LUPREC
 70
     4
  9
$SKETCHINC
 40
0.1
  9
$FILLETRAD
 40
0.0
  9
$AUNITS
 70
     0
  9
$AUPREC
 70
     0
  9
$MENU
  1
acad
  9
$ELEVATION
 40
0.0
  9
$PELEVATION
 40
0.0
  9
$THICKNESS
 40
0.0
  9
$LIMCHECK
 70
     0
  9
$BLIPMODE
 70
     0
  9
$CHAMFERA
 40
0.0
  9
$CHAMFERB
 40
0.0
  9
$SKPOLY
 70
     0
  9
$TDCREATE
 40
2456421.4880208331
  9
$TDUPDATE
 40
2456421.5432667602
  9
$TDINDWG
 40
0.0002745602
  9
$TDUSRTIMER
 40
0.0002744907
  9
$USRTIMER
 70
     1
  9
$ANGBASE
 50
0.0
  9
$ANGDIR
 70
     0
  9
$PDMODE
 70
     1
  9
$PDSIZE
 40
-2.0
  9
$PLINEWID
 40
0.0
  9
$COORDS
 70
     2
  9
$SPLFRAME
 70
     0
  9
$SPLINETYPE
 70
     6
  9
$SPLINESEGS
 70
     8
  9
$ATTDIA
 70
     0
  9
$ATTREQ
 70
     1
  9
$HANDLING
 70
     1
  9
$HANDSEED
  5
27C
  9
$SURFTAB1
 70
     6
  9
$SURFTAB2
 70
     6
  9
$SURFTYPE
 70
     6
  9
$SURFU
 70
     6
  9
$SURFV
 70
     6
  9
$UCSNAME
  2

  9
$UCSORG
 10
0.0
 20
0.0
 30
0.0
  9
$UCSXDIR
 10
1.0
 20
0.0
 30
0.0
  9
$UCSYDIR
 10
0.0
 20
1.0
 30
0.0
  9
$PUCSNAME
  2

  9
$PUCSORG
 10
0.0
 20
0.0
 30
0.0
  9
$PUCSXDIR
 10
1.0
 20
0.0
 30
0.0
  9
$PUCSYDIR
 10
0.0
 20
1.0
 30
0.0
  9
$USERI1
 70
     0
  9
$USERI2
 70
     0
  9
$USERI3
 70
     0
  9
$USERI4
 70
     0
  9
$USERI5
 70
     0
  9
$USERR1
 40
0.0
  9
$USERR2
 40
0.0
  9
$USERR3
 40
0.0
  9
$USERR4
 40
0.0
  9
$USERR5
 40
0.0
  9
$WORLDVIEW
 70
     1
  9
$SHADEDGE
 70
     3
  9
$SHADEDIF
 70
    70
  9
$TILEMODE
 70
     1
  9
$MAXACTVP
 70
    64
  9
$PLIMCHECK
 70
     0
  9
$PEXTMIN
 10
1.0000000000000000E+020
 20
1.0000000000000000E+020
 30
1.0000000000000000E+020
  9
$PEXTMAX
 10
-1.0000000000000000E+020
 20
-1.0000000000000000E+020
 30
-1.0000000000000000E+020
  9
$PLIMMIN
 10
0.0
 20
0.0
  9
$PLIMMAX
 10
12.0
 20
9.0
  9
$UNITMODE
 70
     0
  9
$VISRETAIN
 70
     0
  9
$PLINEGEN
 70
     1
  9
$PSLTSCALE
 70
     0
  0
ENDSEC
  0
SECTION
  2
TABLES
  0
TABLE
  2
VPORT
 70
     1
  0
VPORT
  2
*ACTIVE
 70
     0
 10
0.0
 20
0.0
 11
1.0
 21
1.0
 12
0.000000838190374
 22
-7.0175693121580016
 13
0.0
 23
0.0
 14
1.0
 24
1.0
 15
0.0
 25
0.0
 16
0.0
 26
0.0
 36
1.0
 17
0.0
 27
0.0
 37
0.0
 40
538.19181121112433
 41
2.1585051546391751
 42
50.0
 43
0.0
 44
0.0
 50
0.0
 51
0.0
 71
     0
 72
  2000
 73
     1
 74
     1
 75
     0
 76
     0
 77
     0
 78
     0
  0
ENDTAB
  0
TABLE
  2
LTYPE
 70
    11
  0
LTYPE
  2
CONTINUOUS
 70
     0
  3
Solid line
 72
    65
 73
     0
 40
0.0
  0
ENDTAB
  0
TABLE
  2
LAYER
 70
     5
  0
LAYER
  2
0
 70
     0
 62
     7
  6
CONTINUOUS
  0
LAYER
  2
DATA
 70
     0
 62
     7
  6
CONTINUOUS
  0
LAYER
  2
HIBINO-BASE
 70
     0
 62
     7
  6
CONTINUOUS
  0
LAYER
  2
SPEC
 70
     0
 62
     7
  6
CONTINUOUS
  0
LAYER
  2
DIMNSIONS
 70
     0
 62
     7
  6
CONTINUOUS
  0
ENDTAB
  0
TABLE
  2
STYLE
 70
     3
  0
STYLE
  2
STANDARD
 70
     0
 40
0.0
 41
1.0
 50
0.0
 71
     0
 42
0.0
  3
txt
  4
BIGFONT.SHX
  0
ENDTAB
  0
TABLE
  2
VIEW
 70
     0
  0
ENDTAB
  0
TABLE
  2
UCS
 70
     0
  0
ENDTAB
  0
TABLE
  2
APPID
 70
     4
  0
APPID
  2
ACAD
 70
     0
  0
APPID
  2
ACADANNOTATIVE
 70
     0
  0
APPID
  2
ACAD_NAV_VCDISPLAY
 70
     0
  0
APPID
  2
ACAD_MLEADERVER
 70
     0
  0
ENDTAB
  0
TABLE
  2
DIMSTYLE
 70
     2
  0
DIMSTYLE
  2
STANDARD
 70
     0
  3

  4

  5

  6

  7

 40
1.0
 41
0.18
 42
0.0625
 43
0.38
 44
0.18
 45
0.0
 46
0.0
 47
0.0
 48
0.0
140
0.18
141
0.09
142
0.0
143
25.399999999999999
144
1.0
145
0.0
146
1.0
147
0.09
 71
     0
 72
     0
 73
     1
 74
     1
 75
     0
 76
     0
 77
     0
 78
     0
170
     0
171
     2
172
     0
173
     0
174
     0
175
     0
176
     0
177
     0
178
     0
  0
ENDTAB
  0
ENDSEC
  0
SECTION
  2
BLOCKS
  0
BLOCK
  8
0
  2
$MODEL_SPACE
 70
     0
 10
0.0
 20
0.0
 30
0.0
  3
$MODEL_SPACE
  1

  0
ENDBLK
  5
20B
  8
0
  0
BLOCK
 67
     1
  8
0
  2
$PAPER_SPACE
 70
     0
 10
0.0
 20
0.0
 30
0.0
  3
$PAPER_SPACE
  1

  0
ENDBLK
  5
207
 67
     1
  8
0
  0
ENDSEC
  0
SECTION
  2
ENTITIES
  0
LINE
  5
2C
  8
HIBINO-BASE
  6
CONTINUOUS
 62
     7
 10
-180.0
 20
260.0
 30
0.0
 11
180.0
 21
260.0
 31
0.0
  0
LINE
  5
2D
  8
HIBINO-BASE
  6
CONTINUOUS
 62
     7
 10
180.0
 20
-260.0
 30
0.0
 11
-180.0
 21
-260.0
 31
0.0
  0
LINE
  5
2E
  8
HIBINO-BASE
  6
CONTINUOUS
 62
     7
 10
-180.0
 20
-260.0
 30
0.0
 11
-180.0
 21
260.0
 31
0.0
  0
LINE
  5
2F
  8
HIBINO-BASE
  6
CONTINUOUS
 62
     7
 10
180.0
 20
260.0
 30
0.0
 11
180.0
 21
-260.0
 31
0.0
  0
LINE
  5
30
  8
HIBINO-BASE
  6
CONTINUOUS
 62
     7
 10
0.0000000000000142
 20
-215.0
 30
0.0
 11
180.0
 21
-215.0
 31
0.0
  0
LINE
  5
31
  8
HIBINO-BASE
  6
CONTINUOUS
 62
     7
 10
0.0000000000000142
 20
-260.0
 30
0.0
 11
0.0000000000000142
 21
-215.0
 31
0.0
  0
TEXT
  5
32
  8
HIBINO-BASE
 62
     7
 10
1.8000000000000249
 20
-220.0173866666666
 30
0.0
 40
3.2576822916666659
  1
NOTE
 41
0.7
 11
1.8000000000000249
 21
-216.7597043749999
 31
0.0
 73
     3
  0
LINE
  5
33
  8
HIBINO-BASE
  6
CONTINUOUS
 62
     7
 10
70.000000000000043
 20
-260.0
 30
0.0
 11
70.000000000000043
 21
-215.0
 31
0.0
  0
TEXT
  5
34
  8
HIBINO-BASE
 62
     7
 10
71.799999999999983
 20
-220.0173866666666
 30
0.0
 40
3.2576822916666659
  1
TITLE
 41
0.7
 11
71.799999999999983
 21
-216.7597043749999
 31
0.0
 73
     3
  0
LINE
  5
35
  8
HIBINO-BASE
  6
CONTINUOUS
 62
     7
 10
0.0000000000000142
 20
-240.0
 30
0.0
 11
180.0
 21
-240.0
 31
0.0
  0
TEXT
  5
36
  8
HIBINO-BASE
 62
     7
 10
96.799999999999983
 20
-244.9047466666666
 30
0.0
 40
3.2576822916666659
  1
DRAWN
 41
0.7
 11
96.799999999999983
 21
-241.6470643749999
 31
0.0
 73
     3
  0
TEXT
  5
37
  8
HIBINO-BASE
 62
     7
 10
46.79999999999999
 20
-244.9047466666666
 30
0.0
 40
3.2576822916666659
  1
DATE
 41
0.7
 11
46.79999999999999
 21
-241.6470643749999
 31
0.0
 73
     3
  0
TEXT
  5
38
  8
HIBINO-BASE
 62
     7
 10
26.800000000000001
 20
-244.9047466666666
 30
0.0
 40
3.2576822916666659
  1
SCALE
 41
0.7
 11
26.800000000000001
 21
-241.6470643749999
 31
0.0
 73
     3
  0
TEXT
  5
39
  8
HIBINO-BASE
 62
     7
 10
71.799999999999983
 20
-244.9047466666666
 30
0.0
 40
3.2576822916666659
  1
DESIGN
 41
0.7
 11
71.799999999999983
 21
-241.6470643749999
 31
0.0
 73
     3
  0
TEXT
  5
3A
  8
HIBINO-BASE
 62
     7
 10
146.7999999999999
 20
-244.9047466666666
 30
0.0
 40
3.2576822916666659
  1
DRAWING NO.
 41
0.7
 11
146.7999999999999
 21
-241.6470643749999
 31
0.0
 73
     3
  0
TEXT
  5
3B
  8
HIBINO-BASE
 62
     7
 10
121.7999999999999
 20
-244.9047466666666
 30
0.0
 40
3.2576822916666659
  1
CHECK
 41
0.7
 11
121.7999999999999
 21
-241.6470643749999
 31
0.0
 73
     3
  0
LINE
  5
3C
  8
HIBINO-BASE
  6
CONTINUOUS
 62
     7
 10
28.750000000000011
 20
-257.49999999999989
 30
0.0
 11
36.250000000000028
 21
-250.0
 31
0.0
  0
TEXT
  5
3D
  8
HIBINO-BASE
 62
     7
 10
27.500000000000011
 20
-252.21788666666669
 30
0.0
 40
3.2576822916666659
  1
1
 41
0.7
 11
27.500000000000011
 21
-248.96020437499999
 31
0.0
 73
     3
  0
LINE
  5
3E
  8
HIBINO-BASE
  6
CONTINUOUS
 62
     7
 10
25.000000000000011
 20
-260.0
 30
0.0
 11
25.000000000000011
 21
-240.0
 31
0.0
  0
LINE
  5
3F
  8
HIBINO-BASE
  6
CONTINUOUS
 62
     7
 10
44.999999999999993
 20
-260.0
 30
0.0
 11
44.999999999999993
 21
-240.0
 31
0.0
  0
LINE
  5
40
  8
HIBINO-BASE
  6
CONTINUOUS
 62
     7
 10
94.999999999999957
 20
-240.0
 30
0.0
 11
94.999999999999957
 21
-260.0
 31
0.0
  0
LINE
  5
41
  8
HIBINO-BASE
  6
CONTINUOUS
 62
     7
 10
145.0
 20
-240.0
 30
0.0
 11
145.0
 21
-260.0
 31
0.0
  0
LINE
  5
42
  8
HIBINO-BASE
  6
CONTINUOUS
 62
     7
 10
119.9999999999999
 20
-260.0
 30
0.0
 11
119.9999999999999
 21
-240.0
 31
0.0
  0
TEXT
  5
43
  8
HIBINO-BASE
 62
     7
 10
46.713080000000019
 20
-254.27270666666661
 30
0.0
 40
3.2576822916666659
  1
'13.05.
 41
0.7
 11
46.713080000000019
 21
-251.01502437499991
 31
0.0
 73
     3
  0
TEXT
  5
44
  8
HIBINO-BASE
 62
     7
 10
35.000000000000007
 20
-255.96788666666669
 30
0.0
 40
3.2576822916666659
  1
2
 41
0.7
 11
35.000000000000007
 21
-252.71020437499999
 31
0.0
 73
     3
  0
TEXT
  5
45
  8
HIBINO-BASE
 62
     7
 10
98.011620022069224
 20
-254.27270666666661
 30
0.0
 40
3.2576822916666659
  1
N.Sasaki
 41
0.7
 11
98.011620022069224
 21
-251.01502437499991
 31
0.0
 73
     3
  0
TEXT
  5
46
  8
HIBINO-BASE
 62
     7
 10
7.7666666666667208
 20
-256.04799999999989
 30
0.0
 40
6.5153645833333318
  1
A4
 41
0.7
 11
7.7666666666667208
 21
-249.53263541666661
 31
0.0
 73
     3
  0
TEXT
  5
47
  8
HIBINO-BASE
 62
     7
 10
1.916666666666671
 20
-245.23890999999989
 30
0.0
 40
3.2576822916666659
  1
PAPER SIZE
 41
0.7
 11
1.916666666666671
 21
-241.98122770833331
 31
0.0
 73
     3
  0
TEXT
  5
48
  8
HIBINO-BASE
 62
     7
 10
-165.63199999999989
 20
-272.7510299999999
 30
0.0
 40
7.0583116319444441
  1
Hibino-Intersound Corporation
 41
0.7
 11
-165.63199999999989
 21
-265.69271836805552
 31
0.0
 73
     3
  0
TEXT
  5
49
  8
HIBINO-BASE
 62
     7
 10
28.048668334486258
 20
-272.7510299999999
 30
0.0
 40
7.0583116319444441
  1
ヒビノインターサウンド株式会社
 41
0.7
 11
28.048668334486258
 21
-265.69271836805552
 31
0.0
 73
     3
  0
LINE
  5
4A
  8
SPEC
  6
CONTINUOUS
 62
     7
 10
-164.99999999999989
 20
240.00000000000011
 30
0.0
 11
130.0
 21
240.00000000000011
 31
0.0
  0
LINE
  5
4B
  8
SPEC
  6
CONTINUOUS
 62
     7
 10
-164.99999999999989
 20
232.5
 30
0.0
 11
130.0
 21
232.5
 31
0.0
  0
LINE
  5
4C
  8
SPEC
  6
CONTINUOUS
 62
     7
 10
-164.99999999999989
 20
202.5
 30
0.0
 11
130.0
 21
202.5
 31
0.0
  0
LINE
  5
4D
  8
SPEC
  6
CONTINUOUS
 62
     7
 10
-164.99999999999989
 20
210.0
 30
0.0
 11
130.0
 21
210.0
 31
0.0
  0
LINE
  5
4E
  8
SPEC
  6
CONTINUOUS
 62
     7
 10
-164.99999999999989
 20
217.5
 30
0.0
 11
130.0
 21
217.5
 31
0.0
  0
LINE
  5
4F
  8
SPEC
  6
CONTINUOUS
 62
     7
 10
-164.99999999999989
 20
195.0
 30
0.0
 11
130.0
 21
195.0
 31
0.0
  0
LINE
  5
50
  8
SPEC
  6
CONTINUOUS
 62
     7
 10
-164.99999999999989
 20
180.0
 30
0.0
 11
130.0
 21
180.0
 31
0.0
  0
LINE
  5
51
  8
SPEC
  6
CONTINUOUS
 62
     7
 10
-164.99999999999989
 20
187.5
 30
0.0
 11
130.0
 21
187.5
 31
0.0
  0
LINE
  5
52
  8
SPEC
  6
CONTINUOUS
 62
     7
 10
-164.99999999999989
 20
172.5
 30
0.0
 11
130.0
 21
172.5
 31
0.0
  0
LINE
  5
53
  8
SPEC
  6
CONTINUOUS
 62
     7
 10
-164.99999999999989
 20
157.5
 30
0.0
 11
130.0
 21
157.5
 31
0.0
  0
LINE
  5
54
  8
SPEC
  6
CONTINUOUS
 62
     7
 10
-164.99999999999989
 20
225.0
 30
0.0
 11
130.0
 21
225.0
 31
0.0
  0
TEXT
  5
55
  8
SPEC
 62
     7
 10
-88.200000000000003
 20
234.07584320000001
 30
0.0
 40
3.8006224999999989
  1
エレクトレットコンデンサー型 
 41
0.7
 11
-88.200000000000003
 21
237.87646570000001
 31
0.0
 73
     3
  0
LINE
  5
56
  8
SPEC
  6
CONTINUOUS
 62
     7
 10
-164.99999999999989
 20
127.5
 30
0.0
 11
130.0
 21
127.5
 31
0.0
  0
LINE
  5
57
  8
SPEC
  6
CONTINUOUS
 62
     7
 10
-164.99999999999989
 20
240.00000000000011
 30
0.0
 11
-164.99999999999989
 21
120.0
 31
0.0
  0
TEXT
  5
58
  8
SPEC
 62
     7
 10
-162.49999999999989
 20
242.78654
 30
0.0
 40
4.8865234375000002
  1
仕様
 41
0.7
 11
-162.49999999999989
 21
247.67306343749999
 31
0.0
 73
     3
  0
LINE
  5
59
  8
SPEC
  6
CONTINUOUS
 62
     7
 10
-90.0
 20
240.00000000000011
 30
0.0
 11
-90.0
 21
120.0
 31
0.0
  0
LINE
  5
5A
  8
SPEC
  6
CONTINUOUS
 62
     7
 10
130.0
 20
240.00000000000011
 30
0.0
 11
130.0
 21
120.0
 31
0.0
  0
TEXT
  5
5B
  8
SPEC
 62
     7
 10
-88.200000000000003
 20
159.07584320000001
 30
0.0
 40
3.8006224999999989
  1
\U+03C615.0\U+00D756.0mm(マイク部のみ)
 41
0.7
 11
-88.200000000000003
 21
162.87646570000001
 31
0.0
 73
     3
  0
TEXT
  5
5C
  8
SPEC
 62
     7
 10
-88.200000000000003
 20
174.07584320000001
 30
0.0
 40
3.8006224999999989
  1
XLR3ピン、オス
 41
0.7
 11
-88.200000000000003
 21
177.87646570000001
 31
0.0
 73
     3
  0
TEXT
  5
5D
  8
SPEC
 62
     7
 10
-88.200000000000003
 20
136.74476027991659
 30
0.0
 40
3.6494748585411951
  1
スナップフィット・ウインドスクリーン(95A20541:黒、または95B20541:白)
 41
0.7
 11
-88.200000000000003
 21
140.39423513845779
 31
0.0
 73
     3
  0
TEXT
  5
5E
  8
SPEC
 62
     7
 10
-163.19999999999999
 20
121.57584319999999
 30
0.0
 40
3.8006224999999989
  1
オプション
 41
0.7
 11
-163.19999999999999
 21
125.3764657
 31
0.0
 73
     3
  0
TEXT
  5
5F
  8
SPEC
 62
     7
 10
-163.19999999999999
 20
204.07584320000001
 30
0.0
 40
3.8006224999999989
  1
開回路感度
 41
0.7
 11
-163.19999999999999
 21
207.87646570000001
 31
0.0
 73
     3
  0
TEXT
  5
60
  8
SPEC
 62
     7
 10
-163.19999999999999
 20
234.24476027991659
 30
0.0
 40
3.6494748585411951
  1
カートリッジタイプ
 41
0.7
 11
-163.19999999999999
 21
237.8942351384579
 31
0.0
 73
     3
  0
TEXT
  5
61
  8
SPEC
 62
     7
 10
-163.19999999999999
 20
151.57584320000001
 30
0.0
 40
3.8006224999999989
  1
質量
 41
0.7
 11
-163.19999999999999
 21
155.37646570000001
 31
0.0
 73
     3
  0
TEXT
  5
62
  8
SPEC
 62
     7
 10
-163.19999999999999
 20
189.07584320000001
 30
0.0
 40
3.8006224999999989
  1
最大音圧レベル(1kHz,THD1%%%)
 41
0.7
 11
-163.19999999999999
 21
192.87646570000001
 31
0.0
 73
     3
  0
TEXT
  5
63
  8
SPEC
 62
     7
 10
-163.19999999999999
 20
181.57584320000001
 30
0.0
 40
3.8006224999999989
  1
電源
 41
0.7
 11
-163.19999999999999
 21
185.37646570000001
 31
0.0
 73
     3
  0
TEXT
  5
64
  8
SPEC
 62
     7
 10
-163.19999999999999
 20
211.57584320000001
 30
0.0
 40
3.8006224999999989
  1
インピーダンス
 41
0.7
 11
-163.19999999999999
 21
215.37646570000001
 31
0.0
 73
     3
  0
TEXT
  5
65
  8
SPEC
 62
     7
 10
-163.19999999999999
 20
196.57584320000001
 30
0.0
 40
3.8006224999999989
  1
等価雑音レベル
 41
0.7
 11
-163.19999999999999
 21
200.37646570000001
 31
0.0
 73
     3
  0
TEXT
  5
66
  8
SPEC
 62
     7
 10
-163.19999999999999
 20
226.74476027991659
 30
0.0
 40
3.6494748585411951
  1
指向特性
 41
0.7
 11
-163.19999999999999
 21
230.39423513845779
 31
0.0
 73
     3
  0
TEXT
  5
67
  8
SPEC
 62
     7
 10
-163.19999999999999
 20
219.07584320000001
 30
0.0
 40
3.8006224999999989
  1
周波数特性
 41
0.7
 11
-163.19999999999999
 21
222.8764657000001
 31
0.0
 73
     3
  0
TEXT
  5
68
  8
SPEC
 62
     7
 10
-163.19999999999999
 20
174.07584320000001
 30
0.0
 40
3.8006224999999989
  1
コネクター
 41
0.7
 11
-163.19999999999999
 21
177.87646570000001
 31
0.0
 73
     3
  0
TEXT
  5
69
  8
SPEC
 62
     7
 10
-163.19999999999999
 20
159.07584320000001
 30
0.0
 40
3.8006224999999989
  1
寸法(マイクヘッド\U+03C6\U+00D7全長)
 41
0.7
 11
-163.19999999999999
 21
162.87646570000001
 31
0.0
 73
     3
  0
TEXT
  5
6A
  8
SPEC
 62
     7
 10
-88.200000000000003
 20
121.57584319999999
 30
0.0
 40
3.8006224999999989
  1
スナップフィット・ウインドスクリーン4個セット(ACVO4WS-B:黒、またはACVO4WS-W:白)
 41
0.7
 11
-88.200000000000003
 21
125.3764657
 31
0.0
 73
     3
  0
TEXT
  5
6B
  8
SPEC
 62
     7
 10
-88.200000000000003
 20
204.07584320000001
 30
0.0
 40
3.8006224999999989
  1
－33dB re 1V/Pa
 41
0.7
 11
-88.200000000000003
 21
207.87646570000001
 31
0.0
 73
     3
  0
TEXT
  5
6C
  8
SPEC
 62
     7
 10
-88.200000000000003
 20
189.07584320000001
 30
0.0
 40
3.8006224999999989
  1
120dB SPL
 41
0.7
 11
-88.200000000000003
 21
192.87646570000001
 31
0.0
 73
     3
  0
TEXT
  5
6D
  8
SPEC
 62
     7
 10
-88.200000000000003
 20
151.57584320000001
 30
0.0
 40
3.8006224999999989
  1
136g(含ケーブル)
 41
0.7
 11
-88.200000000000003
 21
155.37646570000001
 31
0.0
 73
     3
  0
TEXT
  5
6E
  8
SPEC
 62
     7
 10
-88.200000000000003
 20
211.57584320000001
 30
0.0
 40
3.8006224999999989
  1
180\U+03A9
 41
0.7
 11
-88.200000000000003
 21
215.37646570000001
 31
0.0
 73
     3
  0
TEXT
  5
6F
  8
SPEC
 62
     7
 10
-88.200000000000003
 20
196.57584320000001
 30
0.0
 40
3.8006224999999989
  1
27dB SPL
 41
0.7
 11
-88.200000000000003
 21
200.37646570000001
 31
0.0
 73
     3
  0
TEXT
  5
70
  8
SPEC
 62
     7
 10
-88.200000000000003
 20
219.07584320000001
 30
0.0
 40
3.8006224999999989
  1
70Hz～16kHz
 41
0.7
 11
-88.200000000000003
 21
222.8764657000001
 31
0.0
 73
     3
  0
TEXT
  5
71
  8
SPEC
 62
     7
 10
-88.200000000000003
 20
226.57584320000009
 30
0.0
 40
3.8006224999999989
  1
カーディオイド
 41
0.7
 11
-88.200000000000003
 21
230.37646570000001
 31
0.0
 73
     3
  0
TEXT
  5
72
  8
SPEC
 62
     7
 10
-88.200000000000003
 20
181.57584320000001
 30
0.0
 40
3.8006224999999989
  1
ファンタムDC11～52V/2.0mA
 41
0.7
 11
-88.200000000000003
 21
185.37646570000001
 31
0.0
 73
     3
  0
LINE
  5
73
  8
SPEC
  6
CONTINUOUS
 62
     7
 10
-164.99999999999989
 20
150.0
 30
0.0
 11
130.0
 21
150.0
 31
0.0
  0
TEXT
  5
74
  8
SPEC
 62
     7
 10
-163.19999999999999
 20
144.07584320000001
 30
0.0
 40
3.8006224999999989
  1
付属品
 41
0.7
 11
-163.19999999999999
 21
147.87646570000001
 31
0.0
 73
     3
  0
TEXT
  5
75
  8
SPEC
 62
     7
 10
-88.200000000000003
 20
144.07584320000001
 30
0.0
 40
3.8006224999999989
  1
固定用ワイヤーハンガー(44A16928:黒、または44B16928:白)、
 41
0.7
 11
-88.200000000000003
 21
147.87646570000001
 31
0.0
 73
     3
  0
LINE
  5
76
  8
SPEC
  6
CONTINUOUS
 62
     7
 10
-164.99999999999989
 20
135.0
 30
0.0
 11
130.0
 21
135.0
 31
0.0
  0
TEXT
  5
77
  8
SPEC
 62
     7
 10
-163.19999999999999
 20
129.07584320000001
 30
0.0
 40
3.8006224999999989
  1
ケーブル長
 41
0.7
 11
-163.19999999999999
 21
132.87646570000001
 31
0.0
 73
     3
  0
TEXT
  5
78
  8
SPEC
 62
     7
 10
-88.200000000000003
 20
129.07584320000001
 30
0.0
 40
3.8006224999999989
  1
7.4m(除コネクタ ー)
 41
0.7
 11
-88.200000000000003
 21
132.87646570000001
 31
0.0
 73
     3
  0
LINE
  5
79
  8
SPEC
  6
CONTINUOUS
 62
     7
 10
-164.99999999999989
 20
120.0
 30
0.0
 11
130.0
 21
120.0
 31
0.0
  0
LINE
  5
7A
  8
SPEC
  6
CONTINUOUS
 62
     7
 10
-164.99999999999989
 20
165.0
 30
0.0
 11
130.0
 21
165.0
 31
0.0
  0
TEXT
  5
7B
  8
SPEC
 62
     7
 10
-163.19999999999999
 20
166.57584320000001
 30
0.0
 40
3.8006224999999989
  1
仕上げ
 41
0.7
 11
-163.19999999999999
 21
170.37646570000001
 31
0.0
 73
     3
  0
TEXT
  5
7C
  8
SPEC
 62
     7
 10
-88.200000000000003
 20
166.57584
 30
0.0
 40
3.8006293402777769
  1
CVO-B/C：黒、CVO-W/C：白
 41
0.7
 11
-88.200000000000003
 21
170.37646934027779
 31
0.0
 73
     3
  0
TEXT
  5
7D
  8
DIMNSIONS
 62
     7
 10
-40.0
 20
-235.46101999999991
 30
0.0
 40
4.8865234375000002
  1
(単位：mm)
 41
0.7
 11
-40.0
 21
-230.57449656249989
 31
0.0
 73
     3
  0
LINE
  5
7E
  8
DIMNSIONS
  6
CONTINUOUS
 62
     7
 10
-144.0
 20
-83.999999999999872
 30
0.0
 11
-164.0
 21
-83.999999999999872
 31
0.0
  0
LINE
  5
7F
  8
DIMNSIONS
  6
CONTINUOUS
 62
     7
 10
-150.0
 20
-139.99999999999989
 30
0.0
 11
-164.0
 21
-139.99999999999989
 31
0.0
  0
LINE
  5
80
  8
DIMNSIONS
  6
CONTINUOUS
 62
     7
 10
-160.0
 20
-83.999999999999872
 30
0.0
 11
-160.0
 21
-139.99999999999989
 31
0.0
  0
LINE
  5
81
  8
DIMNSIONS
  6
CONTINUOUS
 62
     7
 10
-160.0
 20
-83.999999999999872
 30
0.0
 11
-158.65992040969951
 21
-89.001245117187366
 31
0.0
  0
LINE
  5
82
  8
DIMNSIONS
  6
CONTINUOUS
 62
     7
 10
-160.0
 20
-83.999999999999872
 30
0.0
 11
-161.34007959030041
 21
-89.001245117187366
 31
0.0
  0
LINE
  5
83
  8
DIMNSIONS
  6
CONTINUOUS
 62
     7
 10
-160.0
 20
-139.99999999999989
 30
0.0
 11
-161.34007959030041
 21
-134.99875488281239
 31
0.0
  0
LINE
  5
84
  8
DIMNSIONS
  6
CONTINUOUS
 62
     7
 10
-160.0
 20
-139.99999999999989
 30
0.0
 11
-158.65992040969951
 21
-134.99875488281239
 31
0.0
  0
TEXT
  5
85
  8
DIMNSIONS
 62
     7
 10
-161.98777777777769
 20
-119.0555555555554
 30
0.0
 40
5.4294704861111107
  1
56.0
 50
90.0
 41
0.7
 11
-167.41724826388881
 21
-119.0555555555554
 31
0.0
 73
     3
  0
LINE
  5
86
  8
DIMNSIONS
  6
CONTINUOUS
 62
     7
 10
-147.50000000000011
 20
-174.0
 30
0.0
 11
-147.50000000000011
 21
-204.0
 31
0.0
  0
LINE
  5
87
  8
DIMNSIONS
  6
CONTINUOUS
 62
     7
 10
-132.49999999999989
 20
-174.0
 30
0.0
 11
-132.49999999999989
 21
-204.0
 31
0.0
  0
LINE
  5
88
  8
DIMNSIONS
  6
CONTINUOUS
 62
     7
 10
-132.49999999999989
 20
-200.0
 30
0.0
 11
-147.50000000000011
 21
-200.0
 31
0.0
  0
LINE
  5
89
  8
DIMNSIONS
  6
CONTINUOUS
 62
     7
 10
-147.50000000000011
 20
-200.0
 30
0.0
 11
-157.50000000000011
 21
-200.0
 31
0.0
  0
LINE
  5
8A
  8
DIMNSIONS
  6
CONTINUOUS
 62
     7
 10
-147.50000000000011
 20
-200.0
 30
0.0
 11
-152.50124511718761
 21
-201.34007959030049
 31
0.0
  0
LINE
  5
8B
  8
DIMNSIONS
  6
CONTINUOUS
 62
     7
 10
-147.50000000000011
 20
-200.0
 30
0.0
 11
-152.50124511718761
 21
-198.65992040969951
 31
0.0
  0
LINE
  5
8C
  8
DIMNSIONS
  6
CONTINUOUS
 62
     7
 10
-132.49999999999989
 20
-200.0
 30
0.0
 11
-122.4999999999999
 21
-200.0
 31
0.0
  0
LINE
  5
8D
  8
DIMNSIONS
  6
CONTINUOUS
 62
     7
 10
-132.49999999999989
 20
-200.0
 30
0.0
 11
-127.49875488281241
 21
-198.65992040969951
 31
0.0
  0
LINE
  5
8E
  8
DIMNSIONS
  6
CONTINUOUS
 62
     7
 10
-132.49999999999989
 20
-200.0
 30
0.0
 11
-127.49875488281241
 21
-201.34007959030049
 31
0.0
  0
TEXT
  5
8F
  8
DIMNSIONS
 62
     7
 10
-147.05555555555549
 20
-198.01222222222219
 30
0.0
 40
5.4294704861111107
  1
15.0
 41
0.7
 11
-147.05555555555549
 21
-192.58275173611111
 31
0.0
 73
     3
  0
LINE
  5
90
  8
DIMNSIONS
  6
CONTINUOUS
 62
     7
 10
-24.0
 20
-139.99999999999989
 30
0.0
 11
-54.000000000000021
 21
-139.99999999999989
 31
0.0
  0
LINE
  5
91
  8
DIMNSIONS
  6
CONTINUOUS
 62
     7
 10
-16.75
 20
-20.99999999999995
 30
0.0
 11
-54.000000000000021
 21
-20.99999999999995
 31
0.0
  0
LINE
  5
92
  8
DIMNSIONS
  6
CONTINUOUS
 62
     7
 10
-50.000000000000021
 20
-139.99999999999989
 30
0.0
 11
-50.000000000000021
 21
-20.99999999999995
 31
0.0
  0
LINE
  5
93
  8
DIMNSIONS
  6
CONTINUOUS
 62
     7
 10
-50.000000000000021
 20
-139.99999999999989
 30
0.0
 11
-51.340079590300498
 21
-134.99875488281239
 31
0.0
  0
LINE
  5
94
  8
DIMNSIONS
  6
CONTINUOUS
 62
     7
 10
-50.000000000000021
 20
-139.99999999999989
 30
0.0
 11
-48.659920409699531
 21
-134.99875488281239
 31
0.0
  0
LINE
  5
95
  8
DIMNSIONS
  6
CONTINUOUS
 62
     7
 10
-50.000000000000021
 20
-20.99999999999995
 30
0.0
 11
-48.659920409699531
 21
-26.001245117187452
 31
0.0
  0
LINE
  5
96
  8
DIMNSIONS
  6
CONTINUOUS
 62
     7
 10
-50.000000000000021
 20
-20.99999999999995
 30
0.0
 11
-51.340079590300498
 21
-26.001245117187452
 31
0.0
  0
TEXT
  5
97
  8
DIMNSIONS
 62
     7
 10
-51.987777777777779
 20
-85.791666666666615
 30
0.0
 40
5.4294704861111107
  1
119
 50
90.0
 41
0.7
 11
-57.417248263888901
 21
-85.791666666666615
 31
0.0
 73
     3
  0
LINE
  5
98
  8
DIMNSIONS
  6
CONTINUOUS
 62
     7
 10
-22.250000000000011
 20
-173.99999999999989
 30
0.0
 11
-22.250000000000011
 21
-204.0
 31
0.0
  0
LINE
  5
99
  8
DIMNSIONS
  6
CONTINUOUS
 62
     7
 10
1.2499999999999849
 20
-173.99999999999989
 30
0.0
 11
1.2499999999999849
 21
-204.0
 31
0.0
  0
LINE
  5
9A
  8
DIMNSIONS
  6
CONTINUOUS
 62
     7
 10
-22.250000000000011
 20
-200.0
 30
0.0
 11
1.2499999999999849
 21
-200.0
 31
0.0
  0
LINE
  5
9B
  8
DIMNSIONS
  6
CONTINUOUS
 62
     7
 10
-22.250000000000011
 20
-200.0
 30
0.0
 11
-17.248754882812509
 21
-198.65992040969951
 31
0.0
  0
LINE
  5
9C
  8
DIMNSIONS
  6
CONTINUOUS
 62
     7
 10
-22.250000000000011
 20
-200.0
 30
0.0
 11
-17.248754882812509
 21
-201.34007959030049
 31
0.0
  0
LINE
  5
9D
  8
DIMNSIONS
  6
CONTINUOUS
 62
     7
 10
1.2499999999999849
 20
-200.0
 30
0.0
 11
-3.751245117187513
 21
-201.34007959030049
 31
0.0
  0
LINE
  5
9E
  8
DIMNSIONS
  6
CONTINUOUS
 62
     7
 10
1.2499999999999849
 20
-200.0
 30
0.0
 11
-3.751245117187513
 21
-198.65992040969951
 31
0.0
  0
TEXT
  5
9F
  8
DIMNSIONS
 62
     7
 10
-17.555555555555571
 20
-198.01222222222219
 30
0.0
 40
5.4294704861111107
  1
23.5
 41
0.7
 11
-17.555555555555571
 21
-192.58275173611111
 31
0.0
 73
     3
  0
LINE
  5
A0
  8
DIMNSIONS
  6
CONTINUOUS
 62
     7
 10
89.500000000000014
 20
-124.0
 30
0.0
 11
89.500000000000014
 21
-154.0
 31
0.0
  0
LINE
  5
A1
  8
DIMNSIONS
  6
CONTINUOUS
 62
     7
 10
110.5
 20
-124.0
 30
0.0
 11
110.5
 21
-154.0
 31
0.0
  0
LINE
  5
A2
  8
DIMNSIONS
  6
CONTINUOUS
 62
     7
 10
89.500000000000014
 20
-150.0
 30
0.0
 11
110.5
 21
-150.0
 31
0.0
  0
LINE
  5
A3
  8
DIMNSIONS
  6
CONTINUOUS
 62
     7
 10
89.500000000000014
 20
-150.0
 30
0.0
 11
94.50124511718748
 21
-148.65992040969951
 31
0.0
  0
LINE
  5
A4
  8
DIMNSIONS
  6
CONTINUOUS
 62
     7
 10
89.500000000000014
 20
-150.0
 30
0.0
 11
94.50124511718748
 21
-151.34007959030041
 31
0.0
  0
LINE
  5
A5
  8
DIMNSIONS
  6
CONTINUOUS
 62
     7
 10
110.5
 20
-150.0
 30
0.0
 11
105.49875488281251
 21
-151.34007959030041
 31
0.0
  0
LINE
  5
A6
  8
DIMNSIONS
  6
CONTINUOUS
 62
     7
 10
110.5
 20
-150.0
 30
0.0
 11
105.49875488281251
 21
-148.65992040969951
 31
0.0
  0
TEXT
  5
A7
  8
DIMNSIONS
 62
     7
 10
92.944444444444443
 20
-148.01222222222219
 30
0.0
 40
5.4294704861111107
  1
21.0
 41
0.7
 11
92.944444444444443
 21
-142.58275173611111
 31
0.0
 73
     3
  0
LINE
  5
A8
  8
DIMNSIONS
  6
CONTINUOUS
 62
     7
 10
87.5
 20
-95.0
 30
0.0
 11
71.0
 21
-95.0
 31
0.0
  0
LINE
  5
A9
  8
DIMNSIONS
  6
CONTINUOUS
 62
     7
 10
89.232091952673159
 20
-72.0
 30
0.0
 11
71.0
 21
-72.0
 31
0.0
  0
LINE
  5
AA
  8
DIMNSIONS
  6
CONTINUOUS
 62
     7
 10
75.0
 20
-95.0
 30
0.0
 11
75.0
 21
-72.0
 31
0.0
  0
LINE
  5
AB
  8
DIMNSIONS
  6
CONTINUOUS
 62
     7
 10
75.0
 20
-95.0
 30
0.0
 11
73.659920409699509
 21
-89.998754882812506
 31
0.0
  0
LINE
  5
AC
  8
DIMNSIONS
  6
CONTINUOUS
 62
     7
 10
75.0
 20
-95.0
 30
0.0
 11
76.340079590300505
 21
-89.998754882812506
 31
0.0
  0
LINE
  5
AD
  8
DIMNSIONS
  6
CONTINUOUS
 62
     7
 10
75.0
 20
-72.0
 30
0.0
 11
76.340079590300505
 21
-77.00124511718748
 31
0.0
  0
LINE
  5
AE
  8
DIMNSIONS
  6
CONTINUOUS
 62
     7
 10
75.0
 20
-72.0
 30
0.0
 11
73.659920409699509
 21
-77.00124511718748
 31
0.0
  0
TEXT
  5
AF
  8
DIMNSIONS
 62
     7
 10
73.012222222222221
 20
-90.555555555555543
 30
0.0
 40
5.4294704861111107
  1
23.0
 50
90.0
 41
0.7
 11
67.582751736111106
 21
-90.555555555555543
 31
0.0
 73
     3
  0
LINE
  5
B0
  8
DIMNSIONS
  6
CONTINUOUS
 62
     7
 10
40.0
 20
53.500000953674309
 30
0.0
 11
40.0
 21
99.0
 31
0.0
  0
LINE
  5
B1
  8
DIMNSIONS
  6
CONTINUOUS
 62
     7
 10
167.14281235168301
 20
80.555430760120188
 30
0.0
 11
167.14281235168301
 21
99.0
 31
0.0
  0
LINE
  5
B2
  8
DIMNSIONS
  6
CONTINUOUS
 62
     7
 10
40.0
 20
95.0
 30
0.0
 11
167.14281235168301
 21
95.0
 31
0.0
  0
LINE
  5
B3
  8
DIMNSIONS
  6
CONTINUOUS
 62
     7
 10
40.0
 20
95.0
 30
0.0
 11
45.00124511718748
 21
96.340079590300505
 31
0.0
  0
LINE
  5
B4
  8
DIMNSIONS
  6
CONTINUOUS
 62
     7
 10
40.0
 20
95.0
 30
0.0
 11
45.00124511718748
 21
93.659920409699509
 31
0.0
  0
LINE
  5
B5
  8
DIMNSIONS
  6
CONTINUOUS
 62
     7
 10
167.14281235168301
 20
95.0
 30
0.0
 11
162.1415672344954
 21
93.659920409699509
 31
0.0
  0
LINE
  5
B6
  8
DIMNSIONS
  6
CONTINUOUS
 62
     7
 10
167.14281235168301
 20
95.0
 30
0.0
 11
162.1415672344954
 21
96.340079590300505
 31
0.0
  0
TEXT
  5
B7
  8
DIMNSIONS
 62
     7
 10
98.279739509174803
 20
96.987777777777765
 30
0.0
 40
5.4294704861111107
  1
127
 41
0.7
 11
98.279739509174803
 21
102.41724826388879
 31
0.0
 73
     3
  0
LINE
  5
B8
  8
DIMNSIONS
  6
CONTINUOUS
 62
     7
 10
73.976659402886611
 20
80.577164466275363
 30
0.0
 11
21.0
 21
80.577164466275363
 31
0.0
  0
LINE
  5
B9
  8
DIMNSIONS
  6
CONTINUOUS
 62
     7
 10
50.405656425582919
 20
35.594343574416691
 30
0.0
 11
21.0
 21
35.594343574416691
 31
0.0
  0
LINE
  5
BA
  8
DIMNSIONS
  6
CONTINUOUS
 62
     7
 10
25.0
 20
80.577164466275363
 30
0.0
 11
25.0
 21
35.594343574416691
 31
0.0
  0
LINE
  5
BB
  8
DIMNSIONS
  6
CONTINUOUS
 62
     7
 10
25.0
 20
80.577164466275363
 30
0.0
 11
26.340079590300491
 21
75.575919349087883
 31
0.0
  0
LINE
  5
BC
  8
DIMNSIONS
  6
CONTINUOUS
 62
     7
 10
25.0
 20
80.577164466275363
 30
0.0
 11
23.65992040969952
 21
75.575919349087883
 31
0.0
  0
LINE
  5
BD
  8
DIMNSIONS
  6
CONTINUOUS
 62
     7
 10
25.0
 20
35.594343574416691
 30
0.0
 11
23.65992040969952
 21
40.595588691604192
 31
0.0
  0
LINE
  5
BE
  8
DIMNSIONS
  6
CONTINUOUS
 62
     7
 10
25.0
 20
35.594343574416691
 30
0.0
 11
26.340079590300491
 21
40.595588691604192
 31
0.0
  0
TEXT
  5
BF
  8
DIMNSIONS
 62
     7
 10
23.012222222222221
 20
51.030198464790459
 30
0.0
 40
5.4294704861111107
  1
45.0
 50
90.0
 41
0.7
 11
17.582751736111099
 21
51.030198464790459
 31
0.0
 73
     3
  0
TEXT
  5
C0
  8
DATA
 62
     7
 10
99.999999999999957
 20
-237.7382199999999
 30
0.0
 40
4.8865234375000002
  1
CVO-B/C , CVO-W/C
 41
0.7
 11
99.999999999999957
 21
-232.85169656249991
 31
0.0
 73
     3
  0
TEXT
  5
C1
  8
DATA
 62
     7
 10
99.999999999999957
 20
-223.2382199999999
 30
0.0
 40
4.8865234375000002
  1
SHURE
 41
0.7
 11
99.999999999999957
 21
-218.35169656249991
 31
0.0
 73
     3
  0
TEXT
  5
C2
  8
DATA
 62
     7
 10
-175.0
 20
-244.2474444444444
 30
0.0
 40
3.8006293402777769
  1
※仕様及び外観は予告なく変更されることがあります。
 41
0.7
 11
-175.0
 21
-240.4468151041666
 31
0.0
 73
     3
  0
TEXT
  5
C3
  8
DATA
 62
     7
 10
-175.0
 20
-249.18633333333329
 30
0.0
 40
3.8006293402777769
  1
　また、同一商品でも若干の個体差があることがあります。ご了承ください。
 41
0.7
 11
-175.0
 21
-245.3857039930555
 31
0.0
 73
     3
  0
LINE
  5
C4
  8
DATA
  6
CONTINUOUS
 62
     7
 10
-9.5
 20
-20.99999999999995
 30
0.0
 11
-9.5
 21
9.9999999999999911
 31
0.0
  0
LINE
  5
C5
  8
DATA
  6
CONTINUOUS
 62
     7
 10
-11.5
 20
-20.99999999999995
 30
0.0
 11
-11.5
 21
7.9999999999999929
 31
0.0
  0
LINE
  5
C6
  8
DATA
  6
CONTINUOUS
 62
     7
 10
3.4756097560975401
 20
-92.590598923241444
 30
0.0
 11
3.4999999999999849
 21
-92.590598923241444
 31
0.0
  0
LINE
  5
C7
  8
DATA
  6
CONTINUOUS
 62
     7
 10
-20.0
 20
-139.99999999999989
 30
0.0
 11
-1.0
 21
-139.99999999999989
 31
0.0
  0
LINE
  5
C8
  8
DATA
  6
CONTINUOUS
 62
     7
 10
-22.25
 20
-53.99999999999995
 30
0.0
 11
1.25
 21
-53.99999999999995
 31
0.0
  0
LINE
  5
C9
  8
DATA
  6
CONTINUOUS
 62
     7
 10
-20.0
 20
-120.9999999999999
 30
0.0
 11
-20.0
 21
-139.99999999999989
 31
0.0
  0
LINE
  5
CA
  8
DATA
  6
CONTINUOUS
 62
     7
 10
-1.0
 20
-120.9999999999999
 30
0.0
 11
-1.0
 21
-139.99999999999989
 31
0.0
  0
LINE
  5
CB
  8
DATA
  6
CONTINUOUS
 62
     7
 10
1.25
 20
-53.99999999999995
 30
0.0
 11
1.25
 21
-114.4999999999999
 31
0.0
  0
LINE
  5
CC
  8
DATA
  6
CONTINUOUS
 62
     7
 10
-22.25
 20
-53.99999999999995
 30
0.0
 11
-22.25
 21
-114.4999999999999
 31
0.0
  0
LINE
  5
CD
  8
DATA
  6
CONTINUOUS
 62
     7
 10
-17.5
 20
-35.99999999999995
 30
0.0
 11
-3.5
 21
-35.99999999999995
 31
0.0
  0
LINE
  5
CE
  8
DATA
  6
CONTINUOUS
 62
     7
 10
-3.5
 20
-35.99999999999995
 30
0.0
 11
-3.500000000000028
 21
-41.000000000000568
 31
0.0
  0
ARC
  5
CF
  8
DATA
  6
CONTINUOUS
 62
     7
 10
23.499999999999989
 20
-38.502403846153619
 30
0.0
 40
27.115272201246881
 50
185.28502340619639
 51
214.85802832288309
  0
LINE
  5
D0
  8
DATA
  6
CONTINUOUS
 62
     7
 10
-17.5
 20
-35.99999999999995
 30
0.0
 11
-17.499999999999972
 21
-41.000000000000568
 31
0.0
  0
ARC
  5
D1
  8
DATA
  6
CONTINUOUS
 62
     7
 10
-44.499999999999993
 20
-38.502403846153619
 30
0.0
 40
27.115272201246881
 50
325.14197167711689
 51
354.71497659380361
  0
LINE
  5
D2
  8
DATA
  6
CONTINUOUS
 62
     7
 10
-21.650000000000009
 20
-120.9999999999999
 30
0.0
 11
0.6500000000000057
 21
-120.9999999999999
 31
0.0
  0
LINE
  5
D3
  8
DATA
  6
CONTINUOUS
 62
     7
 10
-22.25
 20
-114.4999999999999
 30
0.0
 11
1.25
 21
-114.4999999999999
 31
0.0
  0
LINE
  5
D4
  8
DATA
  6
CONTINUOUS
 62
     7
 10
0.6500000000000057
 20
-120.9999999999999
 30
0.0
 11
0.6500000000000057
 21
-114.4999999999999
 31
0.0
  0
LINE
  5
D5
  8
DATA
  6
CONTINUOUS
 62
     7
 10
-21.650000000000009
 20
-120.9999999999999
 30
0.0
 11
-21.650000000000009
 21
-114.4999999999999
 31
0.0
  0
LINE
  5
D6
  8
DATA
  6
CONTINUOUS
 62
     7
 10
-22.25
 20
-113.4999999999999
 30
0.0
 11
1.25
 21
-113.4999999999999
 31
0.0
  0
LINE
  5
D7
  8
DATA
  6
CONTINUOUS
 62
     7
 10
-11.0
 20
-116.8357864376309
 30
0.0
 11
-11.0
 21
-119.664213562369
 31
0.0
  0
CIRCLE
  5
D8
  8
DATA
  6
CONTINUOUS
 62
     7
 10
-10.5
 20
-118.2499999999999
 30
0.0
 40
1.75
  0
CIRCLE
  5
D9
  8
DATA
  6
CONTINUOUS
 62
     7
 10
-10.5
 20
-118.2499999999999
 30
0.0
 40
1.5
  0
LINE
  5
DA
  8
DATA
  6
CONTINUOUS
 62
     7
 10
-10.0
 20
-116.8357864376309
 30
0.0
 11
-10.0
 21
-119.664213562369
 31
0.0
  0
LINE
  5
DB
  8
DATA
  6
CONTINUOUS
 62
     7
 10
-9.0
 20
-138.5
 30
0.0
 11
-12.0
 21
-138.5
 31
0.0
  0
LINE
  5
DC
  8
DATA
  6
CONTINUOUS
 62
     7
 10
-9.0
 20
-134.99999999999989
 30
0.0
 11
-12.0
 21
-134.99999999999989
 31
0.0
  0
ARC
  5
DD
  8
DATA
  6
CONTINUOUS
 62
     7
 10
-12.000000000000011
 20
-136.74999999999989
 30
0.0
 40
1.75
 50
90.0
 51
270.0
  0
ARC
  5
DE
  8
DATA
  6
CONTINUOUS
 62
     7
 10
-9.0000000000000142
 20
-136.74999999999989
 30
0.0
 40
1.75
 50
270.0
 51
90.0
  0
LINE
  5
DF
  8
DATA
  6
CONTINUOUS
 62
     7
 10
-14.75
 20
-34.99999999999995
 30
0.0
 11
-6.25
 21
-34.99999999999995
 31
0.0
  0
LINE
  5
E0
  8
DATA
  6
CONTINUOUS
 62
     7
 10
-13.5
 20
-33.99999999999995
 30
0.0
 11
-7.5
 21
-33.99999999999995
 31
0.0
  0
LINE
  5
E1
  8
DATA
  6
CONTINUOUS
 62
     7
 10
-12.75
 20
-20.99999999999995
 30
0.0
 11
-8.25
 21
-20.99999999999995
 31
0.0
  0
LINE
  5
E2
  8
DATA
  6
CONTINUOUS
 62
     7
 10
-6.25
 20
-34.99999999999995
 30
0.0
 11
-6.25
 21
-35.99999999999995
 31
0.0
  0
LINE
  5
E3
  8
DATA
  6
CONTINUOUS
 62
     7
 10
-7.5
 20
-33.99999999999995
 30
0.0
 11
-6.25
 21
-34.99999999999995
 31
0.0
  0
LINE
  5
E4
  8
DATA
  6
CONTINUOUS
 62
     7
 10
-7.5
 20
-33.99999999999995
 30
0.0
 11
-8.25
 21
-20.99999999999995
 31
0.0
  0
LINE
  5
E5
  8
DATA
  6
CONTINUOUS
 62
     7
 10
-14.75
 20
-34.99999999999995
 30
0.0
 11
-14.75
 21
-35.99999999999995
 31
0.0
  0
LINE
  5
E6
  8
DATA
  6
CONTINUOUS
 62
     7
 10
-13.5
 20
-33.99999999999995
 30
0.0
 11
-14.75
 21
-34.99999999999995
 31
0.0
  0
LINE
  5
E7
  8
DATA
  6
CONTINUOUS
 62
     7
 10
-13.5
 20
-33.99999999999995
 30
0.0
 11
-12.75
 21
-20.99999999999995
 31
0.0
  0
CIRCLE
  5
E8
  8
DATA
  6
CONTINUOUS
 62
     7
 10
-10.500000000000011
 20
-169.99999999999989
 30
0.0
 40
9.5
  0
CIRCLE
  5
E9
  8
DATA
  6
CONTINUOUS
 62
     7
 10
-10.500000000000011
 20
-169.99999999999989
 30
0.0
 40
8.0
  0
CIRCLE
  5
EA
  8
DATA
  6
CONTINUOUS
 62
     7
 10
-6.5000000000000142
 20
-169.99999999999989
 30
0.0
 40
1.5
  0
CIRCLE
  5
EB
  8
DATA
  6
CONTINUOUS
 62
     7
 10
-10.500000000000011
 20
-173.74999999999989
 30
0.0
 40
1.5
  0
CIRCLE
  5
EC
  8
DATA
  6
CONTINUOUS
 62
     7
 10
-14.500000000000011
 20
-169.99999999999989
 30
0.0
 40
1.5
  0
CIRCLE
  5
ED
  8
DATA
  6
CONTINUOUS
 62
     7
 10
-10.500000000000011
 20
-169.99999999999989
 30
0.0
 40
11.150000000000031
  0
CIRCLE
  5
EE
  8
DATA
  6
CONTINUOUS
 62
     7
 10
-10.500000000000011
 20
-169.99999999999989
 30
0.0
 40
11.75
  0
LINE
  5
EF
  8
DATA
  6
CONTINUOUS
 62
     7
 10
-144.0
 20
-96.199999999999861
 30
0.0
 11
-136.0
 21
-96.199999999999861
 31
0.0
  0
LINE
  5
F0
  8
DATA
  6
CONTINUOUS
 62
     7
 10
-146.0
 20
-139.99999999999989
 30
0.0
 11
-134.0
 21
-139.99999999999989
 31
0.0
  0
LINE
  5
F1
  8
DATA
  6
CONTINUOUS
 62
     7
 10
-147.5
 20
-116.1999999999998
 30
0.0
 11
-132.5
 21
-116.1999999999998
 31
0.0
  0
LINE
  5
F2
  8
DATA
  6
CONTINUOUS
 62
     7
 10
-147.5
 20
-118.1999999999999
 30
0.0
 11
-132.5
 21
-118.1999999999999
 31
0.0
  0
LINE
  5
F3
  8
DATA
  6
CONTINUOUS
 62
     7
 10
-147.09999999999999
 20
-127.9999999999999
 30
0.0
 11
-132.90000000000001
 21
-127.9999999999999
 31
0.0
  0
LINE
  5
F4
  8
DATA
  6
CONTINUOUS
 62
     7
 10
-134.0
 20
-139.99999999999989
 30
0.0
 11
-133.0
 21
-127.9999999999999
 31
0.0
  0
LINE
  5
F5
  8
DATA
  6
CONTINUOUS
 62
     7
 10
-146.0
 20
-139.99999999999989
 30
0.0
 11
-147.0
 21
-127.9999999999999
 31
0.0
  0
LINE
  5
F6
  8
DATA
  6
CONTINUOUS
 62
     7
 10
-132.90000000000001
 20
-127.9999999999999
 30
0.0
 11
-132.5
 21
-118.1999999999999
 31
0.0
  0
LINE
  5
F7
  8
DATA
  6
CONTINUOUS
 62
     7
 10
-132.5
 20
-118.1999999999999
 30
0.0
 11
-132.5
 21
-116.1999999999998
 31
0.0
  0
LINE
  5
F8
  8
DATA
  6
CONTINUOUS
 62
     7
 10
-147.09999999999999
 20
-127.9999999999999
 30
0.0
 11
-147.5
 21
-118.1999999999999
 31
0.0
  0
LINE
  5
F9
  8
DATA
  6
CONTINUOUS
 62
     7
 10
-147.5
 20
-118.1999999999999
 30
0.0
 11
-147.5
 21
-116.1999999999998
 31
0.0
  0
ARC
  5
FA
  8
DATA
  6
CONTINUOUS
 62
     7
 10
-76.100000000000051
 20
-96.023749999999865
 30
0.0
 40
59.900259298791859
 50
180.168586844679
 51
199.68390416862439
  0
ARC
  5
FB
  8
DATA
  6
CONTINUOUS
 62
     7
 10
-203.89999999999989
 20
-96.023749999999865
 30
0.0
 40
59.900259298791752
 50
340.31609583137561
 51
359.83141315532089
  0
LINE
  5
FC
  8
DATA
  6
CONTINUOUS
 62
     7
 10
-146.83333333333329
 20
-130.0
 30
0.0
 11
-133.1666666666666
 21
-130.0
 31
0.0
  0
LINE
  5
FD
  8
DATA
  6
CONTINUOUS
 62
     7
 10
-146.7916666666666
 20
-130.49999999999989
 30
0.0
 11
-141.90000000000001
 21
-130.49999999999989
 31
0.0
  0
LINE
  5
FE
  8
DATA
  6
CONTINUOUS
 62
     7
 10
-138.09999999999999
 20
-130.49999999999989
 30
0.0
 11
-133.20833333333329
 21
-130.49999999999989
 31
0.0
  0
LINE
  5
FF
  8
DATA
  6
CONTINUOUS
 62
     7
 10
-146.64166666666671
 20
-132.30000000000001
 30
0.0
 11
-141.90000000000001
 21
-132.30000000000001
 31
0.0
  0
LINE
  5
100
  8
DATA
  6
CONTINUOUS
 62
     7
 10
-138.09999999999999
 20
-132.30000000000001
 30
0.0
 11
-133.35833333333329
 21
-132.30000000000001
 31
0.0
  0
ARC
  5
101
  8
DATA
  6
CONTINUOUS
 62
     7
 10
-138.09999999999999
 20
-131.39999999999989
 30
0.0
 40
0.8999999999999772
 50
90.0
 51
270.0
  0
ARC
  5
102
  8
DATA
  6
CONTINUOUS
 62
     7
 10
-141.90000000000001
 20
-131.39999999999989
 30
0.0
 40
0.9000000000000341
 50
270.0
 51
90.0
  0
LINE
  5
103
  8
DATA
  6
CONTINUOUS
 62
     7
 10
-134.70833333333329
 20
-130.49999999999989
 30
0.0
 11
-134.85833333333329
 21
-132.30000000000001
 31
0.0
  0
LINE
  5
104
  8
DATA
  6
CONTINUOUS
 62
     7
 10
-145.2916666666666
 20
-130.49999999999989
 30
0.0
 11
-145.14166666666659
 21
-132.30000000000001
 31
0.0
  0
LINE
  5
105
  8
DATA
  6
CONTINUOUS
 62
     7
 10
-143.0
 20
-83.999999999999872
 30
0.0
 11
-137.0
 21
-83.999999999999872
 31
0.0
  0
LINE
  5
106
  8
DATA
  6
CONTINUOUS
 62
     7
 10
-137.0
 20
-83.999999999999872
 30
0.0
 11
-136.0
 21
-96.199999999999861
 31
0.0
  0
LINE
  5
107
  8
DATA
  6
CONTINUOUS
 62
     7
 10
-143.0
 20
-83.999999999999872
 30
0.0
 11
-144.0
 21
-96.199999999999861
 31
0.0
  0
CIRCLE
  5
108
  8
DATA
  6
CONTINUOUS
 62
     7
 10
-140.0
 20
-170.0
 30
0.0
 40
7.5000000000000844
  0
CIRCLE
  5
109
  8
DATA
  6
CONTINUOUS
 62
     7
 10
-140.0
 20
-170.0
 30
0.0
 40
6.0000000000000844
  0
CIRCLE
  5
10A
  8
DATA
  6
CONTINUOUS
 62
     7
 10
-140.0
 20
-170.0
 30
0.0
 40
4.0
  0
LINE
  5
10B
  8
DATA
  6
CONTINUOUS
 62
     7
 10
-139.0
 20
-83.999999999999872
 30
0.0
 11
-139.0
 21
7.9999999999999929
 31
0.0
  0
LINE
  5
10C
  8
DATA
  6
CONTINUOUS
 62
     7
 10
-141.0
 20
-83.999999999999872
 30
0.0
 11
-141.0
 21
9.9999999999999911
 31
0.0
  0
LINE
  5
10D
  8
DATA
  6
CONTINUOUS
 62
     7
 10
-111.0
 20
40.0
 30
0.0
 11
-81.052343178074651
 21
40.0
 31
0.0
  0
LINE
  5
10E
  8
DATA
  6
CONTINUOUS
 62
     7
 10
-76.052343178074651
 20
40.0
 30
0.0
 11
-39.5
 21
40.0
 31
0.0
  0
LINE
  5
10F
  8
DATA
  6
CONTINUOUS
 62
     7
 10
-109.0
 20
37.999999999999993
 30
0.0
 11
-78.947656821925392
 21
37.999999999999993
 31
0.0
  0
LINE
  5
110
  8
DATA
  6
CONTINUOUS
 62
     7
 10
-73.947656821925378
 20
37.999999999999993
 30
0.0
 11
-41.5
 21
37.999999999999993
 31
0.0
  0
ARC
  5
111
  8
DATA
  6
CONTINUOUS
 62
     7
 10
-109.0
 20
7.9999999999999956
 30
0.0
 40
30.0
 50
90.0
 51
180.0
  0
ARC
  5
112
  8
DATA
  6
CONTINUOUS
 62
     7
 10
-111.0
 20
9.9999999999999964
 30
0.0
 40
30.0
 50
90.0
 51
180.0
  0
ARC
  5
113
  8
DATA
  6
CONTINUOUS
 62
     7
 10
-41.5
 20
7.9999999999999956
 30
0.0
 40
30.0
 50
0.0
 51
90.0
  0
ARC
  5
114
  8
DATA
  6
CONTINUOUS
 62
     7
 10
-39.5
 20
9.9999999999999964
 30
0.0
 40
30.0
 50
0.0
 51
90.0
  0
LINE
  5
115
  8
DATA
  6
CONTINUOUS
 62
     7
 10
93.232091952673144
 20
-72.0
 30
0.0
 11
106.7679080473268
 21
-72.0
 31
0.0
  0
LINE
  5
116
  8
DATA
  6
CONTINUOUS
 62
     7
 10
109.64138690299031
 20
-74.137956343300914
 30
0.0
 11
110.0782628522114
 21
-75.594209507371659
 31
0.0
  0
LINE
  5
117
  8
DATA
  6
CONTINUOUS
 62
     7
 10
91.5
 20
-95.0
 30
0.0
 11
108.5
 21
-95.0
 31
0.0
  0
LINE
  5
118
  8
DATA
  6
CONTINUOUS
 62
     7
 10
109.5
 20
-94.0
 30
0.0
 11
108.5
 21
-95.0
 31
0.0
  0
LINE
  5
119
  8
DATA
  6
CONTINUOUS
 62
     7
 10
90.5
 20
-94.0
 30
0.0
 11
109.5
 21
-94.0
 31
0.0
  0
LINE
  5
11A
  8
DATA
  6
CONTINUOUS
 62
     7
 10
109.5
 20
-94.0
 30
0.0
 11
109.9868329805051
 21
-92.539501058484561
 31
0.0
  0
LINE
  5
11B
  8
DATA
  6
CONTINUOUS
 62
     7
 10
110.5
 20
-89.37722339831619
 30
0.0
 11
110.5
 21
-78.467688363035151
 31
0.0
  0
ARC
  5
11C
  8
DATA
  6
CONTINUOUS
 62
     7
 10
100.5
 20
-89.37722339831619
 30
0.0
 40
10.0
 50
341.56505117707798
 51
0.0
  0
ARC
  5
11D
  8
DATA
  6
CONTINUOUS
 62
     7
 10
100.5
 20
-78.467688363035151
 30
0.0
 40
10.0
 50
0.0
 51
16.699244233993682
  0
LINE
  5
11E
  8
DATA
  6
CONTINUOUS
 62
     7
 10
90.358613097009723
 20
-74.137956343300914
 30
0.0
 11
89.921737147788448
 21
-75.594209507371659
 31
0.0
  0
LINE
  5
11F
  8
DATA
  6
CONTINUOUS
 62
     7
 10
90.5
 20
-94.0
 30
0.0
 11
91.5
 21
-95.0
 31
0.0
  0
LINE
  5
120
  8
DATA
  6
CONTINUOUS
 62
     7
 10
90.5
 20
-94.0
 30
0.0
 11
90.013167019494844
 21
-92.539501058484561
 31
0.0
  0
LINE
  5
121
  8
DATA
  6
CONTINUOUS
 62
     7
 10
89.500000000000014
 20
-89.37722339831619
 30
0.0
 11
89.500000000000014
 21
-78.467688363035151
 31
0.0
  0
ARC
  5
122
  8
DATA
  6
CONTINUOUS
 62
     7
 10
99.500000000000014
 20
-89.37722339831619
 30
0.0
 40
10.0
 50
180.0
 51
198.434948822922
  0
ARC
  5
123
  8
DATA
  6
CONTINUOUS
 62
     7
 10
99.500000000000014
 20
-78.467688363035151
 30
0.0
 40
10.00000000000002
 50
163.3007557660064
 51
180.0
  0
ARC
  5
124
  8
DATA
  6
CONTINUOUS
 62
     7
 10
106.7679080473268
 20
-75.0
 30
0.0
 40
2.9999999999999969
 50
16.69924423399377
 51
90.0
  0
ARC
  5
125
  8
DATA
  6
CONTINUOUS
 62
     7
 10
93.232091952673144
 20
-75.000000000000014
 30
0.0
 40
3.0000000000000142
 50
90.0
 51
163.30075576600601
  0
CIRCLE
  5
126
  8
DATA
  6
CONTINUOUS
 62
     7
 10
100.0
 20
-120.0
 30
0.0
 40
10.5
  0
CIRCLE
  5
127
  8
DATA
  6
CONTINUOUS
 62
     7
 10
100.0
 20
-120.0
 30
0.0
 40
9.5
  0
CIRCLE
  5
128
  8
DATA
  6
CONTINUOUS
 62
     7
 10
100.0
 20
-120.0
 30
0.0
 40
8.5
  0
LINE
  5
129
  8
DATA
  6
CONTINUOUS
 62
     7
 10
77.976659402886611
 20
80.577164466275363
 30
0.0
 11
152.1301591688042
 21
80.577164466275477
 31
0.0
  0
LINE
  5
12A
  8
DATA
  6
CONTINUOUS
 62
     7
 10
78.976659402886526
 20
79.577164466275391
 30
0.0
 11
151.50515916880411
 21
79.57716446627542
 31
0.0
  0
LINE
  5
12B
  8
DATA
  6
CONTINUOUS
 62
     7
 10
77.47665940288654
 20
80.077164466275377
 30
0.0
 11
77.47665940288654
 21
78.284271247461945
 31
0.0
  0
LINE
  5
12C
  8
DATA
  6
CONTINUOUS
 62
     7
 10
78.47665940288654
 20
79.077164466275391
 30
0.0
 11
78.476659402886582
 21
77.077164466275391
 31
0.0
  0
ARC
  5
12D
  8
DATA
  6
CONTINUOUS
 62
     7
 10
77.976659402886582
 20
77.077164466275391
 30
0.0
 40
0.5
 50
270.0
 51
0.0
  0
ARC
  5
12E
  8
DATA
  6
CONTINUOUS
 62
     7
 10
77.976659402886582
 20
77.077164466275391
 30
0.0
 40
0.500000000000004
 50
225.0
 51
270.0
  0
ARC
  5
12F
  8
DATA
  6
CONTINUOUS
 62
     7
 10
78.976659402886526
 20
79.077164466275377
 30
0.0
 40
0.5000000000000285
 50
90.0
 51
179.99999999999679
  0
ARC
  5
130
  8
DATA
  6
CONTINUOUS
 62
     7
 10
77.97665940288654
 20
80.077164466275377
 30
0.0
 40
0.4999999999999716
 50
89.999999999993491
 51
180.0
  0
LINE
  5
131
  8
DATA
  6
CONTINUOUS
 62
     7
 10
152.5983237575887
 20
80.252726187069683
 30
0.0
 11
154.00849481410199
 21
76.492270036367401
 31
0.0
  0
LINE
  5
132
  8
DATA
  6
CONTINUOUS
 62
     7
 10
155.2333306934822
 20
79.928287907863847
 30
0.0
 11
154.21074169727879
 21
77.201383917988139
 31
0.0
  0
LINE
  5
133
  8
DATA
  6
CONTINUOUS
 62
     7
 10
151.9733237575887
 20
79.252726187069626
 30
0.0
 11
153.04033022531749
 21
76.407375606459553
 31
0.0
  0
LINE
  5
134
  8
DATA
  6
CONTINUOUS
 62
     7
 10
155.93557757665889
 20
79.13427959633529
 30
0.0
 11
154.944823991671
 21
76.492270036367444
 31
0.0
  0
ARC
  5
135
  8
DATA
  6
CONTINUOUS
 62
     7
 10
153.97665940288661
 20
77.28916477838527
 30
0.0
 40
0.2500000000000913
 50
200.5560452195804
 51
339.44395478040587
  0
ARC
  5
136
  8
DATA
  6
CONTINUOUS
 62
     7
 10
153.97665940288661
 20
76.758499048047952
 30
0.0
 40
1.0000000000000691
 50
200.55604521958159
 51
339.44395478041918
  0
ARC
  5
137
  8
DATA
  6
CONTINUOUS
 62
     7
 10
156.16965987105121
 20
79.046498735938187
 30
0.0
 40
0.2499999999999749
 50
20.55604521958346
 51
159.443954780415
  0
ARC
  5
138
  8
DATA
  6
CONTINUOUS
 62
     7
 10
156.16965987105121
 20
79.577164466275448
 30
0.0
 40
1.0000000000000251
 50
20.556045219584231
 51
159.4439547804173
  0
LINE
  5
139
  8
DATA
  6
CONTINUOUS
 62
     7
 10
157.1059890486203
 20
79.928287907863876
 30
0.0
 11
158.39449575043139
 21
76.492270036367444
 31
0.0
  0
LINE
  5
13A
  8
DATA
  6
CONTINUOUS
 62
     7
 10
159.61933162981151
 20
79.928287907863876
 30
0.0
 11
158.59674263360819
 21
77.201383917988139
 31
0.0
  0
LINE
  5
13B
  8
DATA
  6
CONTINUOUS
 62
     7
 10
156.4037421654435
 20
79.134279596335261
 30
0.0
 11
157.42633116164691
 21
76.407375606459581
 31
0.0
  0
LINE
  5
13C
  8
DATA
  6
CONTINUOUS
 62
     7
 10
160.32157851298831
 20
79.134279596335233
 30
0.0
 11
159.3308249280004
 21
76.492270036367444
 31
0.0
  0
ARC
  5
13D
  8
DATA
  6
CONTINUOUS
 62
     7
 10
158.36266033921589
 20
77.289164778385313
 30
0.0
 40
0.250000000000058
 50
200.55604521959719
 51
339.44395478040423
  0
ARC
  5
13E
  8
DATA
  6
CONTINUOUS
 62
     7
 10
158.36266033921589
 20
76.758499048047952
 30
0.0
 40
0.9999999999999527
 50
200.5560452195823
 51
339.44395478041878
  0
LINE
  5
13F
  8
DATA
  6
CONTINUOUS
 62
     7
 10
162.78049668676081
 20
76.492270036367501
 30
0.0
 11
161.4919899849497
 21
79.928287907863847
 31
0.0
  0
ARC
  5
140
  8
DATA
  6
CONTINUOUS
 62
     7
 10
160.55566080738069
 20
79.046498735938229
 30
0.0
 40
0.2499999999999649
 50
20.556045219577371
 51
159.44395478044399
  0
ARC
  5
141
  8
DATA
  6
CONTINUOUS
 62
     7
 10
160.55566080738069
 20
79.577164466275519
 30
0.0
 40
0.9999999999999428
 50
20.556045219580799
 51
159.44395478041989
  0
LINE
  5
142
  8
DATA
  6
CONTINUOUS
 62
     7
 10
164.00533256614099
 20
79.928287907863904
 30
0.0
 11
162.98274356993761
 21
77.201383917988139
 31
0.0
  0
LINE
  5
143
  8
DATA
  6
CONTINUOUS
 62
     7
 10
160.7897431017729
 20
79.13427959633529
 30
0.0
 11
161.81233209797631
 21
76.407375606459581
 31
0.0
  0
LINE
  5
144
  8
DATA
  6
CONTINUOUS
 62
     7
 10
164.70757944931771
 20
79.134279596335233
 30
0.0
 11
163.71682586432979
 21
76.492270036367444
 31
0.0
  0
ARC
  5
145
  8
DATA
  6
CONTINUOUS
 62
     7
 10
162.74866127554529
 20
77.289164778385313
 30
0.0
 40
0.2499999999999948
 50
200.55604521959569
 51
339.44395478040889
  0
ARC
  5
146
  8
DATA
  6
CONTINUOUS
 62
     7
 10
162.74866127554529
 20
76.758499048048023
 30
0.0
 40
0.9999999999999728
 50
200.5560452195854
 51
339.44395478041582
  0
LINE
  5
147
  8
DATA
  6
CONTINUOUS
 62
     7
 10
166.26610002291579
 20
76.226663636832484
 30
0.0
 11
165.17574403810241
 21
79.13427959633529
 31
0.0
  0
LINE
  5
148
  8
DATA
  6
CONTINUOUS
 62
     7
 10
167.14281235168301
 20
76.555430760120188
 30
0.0
 11
165.87799092127909
 21
79.928287907863876
 31
0.0
  0
ARC
  5
149
  8
DATA
  6
CONTINUOUS
 62
     7
 10
164.94166174371
 20
79.046498735938229
 30
0.0
 40
0.2500000000000181
 50
20.556045219572798
 51
159.44395478043941
  0
ARC
  5
14A
  8
DATA
  6
CONTINUOUS
 62
     7
 10
164.94166174371
 20
79.577164466275519
 30
0.0
 40
1.0000000000000051
 50
20.556045219581179
 51
159.4439547804173
  0
ARC
  5
14B
  8
DATA
  6
CONTINUOUS
 62
     7
 10
166.6746477628985
 20
76.379869039325953
 30
0.0
 40
0.4999999999999564
 50
290.55604521957628
 51
20.556045219586512
  0
ARC
  5
14C
  8
DATA
  6
CONTINUOUS
 62
     7
 10
166.73426461170041
 20
76.402225357626691
 30
0.0
 40
0.5000000000000662
 50
200.5560452195819
 51
290.55604521958122
  0
ARC
  5
14D
  8
DATA
  6
CONTINUOUS
 62
     7
 10
152.13015916880411
 20
80.07716446627542
 30
0.0
 40
0.5000000000000762
 50
20.556045219584998
 51
89.999999999993477
  0
ARC
  5
14E
  8
DATA
  6
CONTINUOUS
 62
     7
 10
151.5051591688042
 20
79.077164466275448
 30
0.0
 40
0.4999999999999398
 50
20.556045219580412
 51
90.000000000006537
  0
ARC
  5
14F
  8
DATA
  6
CONTINUOUS
 62
     7
 10
154.4766594028865
 20
76.667831757161707
 30
0.0
 40
0.5000000000000129
 50
200.55604521958421
 51
339.44395478041042
  0
ARC
  5
150
  8
DATA
  6
CONTINUOUS
 62
     7
 10
158.86266033921601
 20
76.667831757161707
 30
0.0
 40
0.5000000000000762
 50
200.556045219585
 51
339.44395478041042
  0
ARC
  5
151
  8
DATA
  6
CONTINUOUS
 62
     7
 10
163.2486612755454
 20
76.667831757161707
 30
0.0
 40
0.5000000000000129
 50
200.55604521958421
 51
339.4439547804127
  0
LINE
  5
152
  8
DATA
  6
CONTINUOUS
 62
     7
 10
40.853553390592793
 20
49.853553390593277
 30
0.0
 11
41.914213562372623
 21
48.792893218813461
 31
0.0
  0
LINE
  5
153
  8
DATA
  6
CONTINUOUS
 62
     7
 10
43.328427124745751
 20
47.378679656440312
 30
0.0
 11
54.405656425582947
 21
36.30145035560323
 31
0.0
  0
LINE
  5
154
  8
DATA
  6
CONTINUOUS
 62
     7
 10
43.328427124745687
 20
48.792893218813461
 30
0.0
 11
74.441125496953845
 21
79.905591591021533
 31
0.0
  0
LINE
  5
155
  8
DATA
  6
CONTINUOUS
 62
     7
 10
40.14644660940624
 20
49.146446609406709
 30
0.0
 11
41.914213562372638
 21
47.37867965644034
 31
0.0
  0
LINE
  5
156
  8
DATA
  6
CONTINUOUS
 62
     7
 10
41.914213562372638
 20
47.37867965644034
 30
0.0
 11
53.698549644396401
 21
35.594343574416691
 31
0.0
  0
LINE
  5
157
  8
DATA
  6
CONTINUOUS
 62
     7
 10
75.855339059326937
 20
78.491378028648526
 30
0.0
 11
77.623106012293306
 21
76.723611075682129
 31
0.0
  0
LINE
  5
158
  8
DATA
  6
CONTINUOUS
 62
     7
 10
75.855339059326909
 20
79.905591591021562
 30
0.0
 11
78.330212793479816
 21
77.430717856868654
 31
0.0
  0
LINE
  5
159
  8
DATA
  6
CONTINUOUS
 62
     7
 10
43.328427124745751
 20
47.378679656440312
 30
0.0
 11
74.441125496953845
 21
78.491378028648526
 31
0.0
  0
ARC
  5
15A
  8
DATA
  6
CONTINUOUS
 62
     7
 10
75.14823227814037
 20
77.784271247461973
 30
0.0
 40
1.0000000000000071
 50
45.0
 51
135.0
  0
ARC
  5
15B
  8
DATA
  6
CONTINUOUS
 62
     7
 10
75.14823227814037
 20
79.19848480983498
 30
0.0
 40
0.9999999999999879
 50
45.000000000003453
 51
135.0
  0
ARC
  5
15C
  8
DATA
  6
CONTINUOUS
 62
     7
 10
42.621320343559212
 20
48.085786437626858
 30
0.0
 40
0.9999999999999879
 50
224.99999999999889
 51
315.0
  0
ARC
  5
15D
  8
DATA
  6
CONTINUOUS
 62
     7
 10
42.621320343559212
 20
49.500000000000057
 30
0.0
 40
1.0000000000000679
 50
225.00000000000119
 51
314.9999999999954
  0
ARC
  5
15E
  8
DATA
  6
CONTINUOUS
 62
     7
 10
54.052103034989642
 20
35.94789696500996
 30
0.0
 40
0.500000000000004
 50
225.0
 51
315.0
  0
ARC
  5
15F
  8
DATA
  6
CONTINUOUS
 62
     7
 10
54.052103034989642
 20
35.94789696500996
 30
0.0
 40
0.500000000000004
 50
315.0
 51
44.999999999999417
  0
ARC
  5
160
  8
DATA
  6
CONTINUOUS
 62
     7
 10
40.499999999999517
 20
49.5
 30
0.0
 40
0.500000000000004
 50
135.0
 51
225.0
  0
ARC
  5
161
  8
DATA
  6
CONTINUOUS
 62
     7
 10
40.499999999999517
 20
49.5
 30
0.0
 40
0.500000000000004
 50
45.0
 51
135.0
  0
ARC
  5
162
  8
DATA
  6
CONTINUOUS
 62
     7
 10
77.976659402886582
 20
77.077164466275391
 30
0.0
 40
0.500000000000004
 50
225.0
 51
315.0
  0
ARC
  5
163
  8
DATA
  6
CONTINUOUS
 62
     7
 10
77.976659402886582
 20
77.077164466275391
 30
0.0
 40
0.500000000000004
 50
315.0
 51
45.0
  0
TEXT
  5
164
  8
DATA
 62
     7
 10
94.999999999999957
 20
-230.19212999999999
 30
0.0
 40
3.2576822916666659
  1
ハンギングタイプ
 41
0.7
 11
94.999999999999957
 21
-226.93444770833329
 31
0.0
 73
     3
  0
LINE
  5
165
  8
DATA
  6
CONTINUOUS
 62
     7
 10
60.0
 20
-30.0
 30
0.0
 11
140.0
 21
-30.0
 31
0.0
  0
TEXT
  5
166
  8
DATA
 62
     7
 10
75.422562140820474
 20
-27.714739086065482
 30
0.0
 40
5.4294781721309686
  1
固定用ワイヤーハンガー
 41
0.7
 72
     1
 11
100.0
 21
-25.0
 31
0.0
 73
     2
  0
TEXT
  5
167
  8
DATA
 62
     7
 10
59.45989631475544
 20
-167.71473908606549
 30
0.0
 40
5.4294781721309686
  1
スナップフィット・ウインドスクリーン
 41
0.7
 72
     1
 11
100.0
 21
-165.0
 31
0.0
 73
     2
  0
LINE
  5
168
  8
DATA
  6
CONTINUOUS
 62
     7
 10
35.0
 20
-170.0
 30
0.0
 11
165.0
 21
-170.0
 31
0.0
  0
ARC
  5
169
  8
DATA
  6
CONTINUOUS
 62
     7
 10
-76.250000000000014
 20
43.999999999999993
 30
0.0
 40
6.25
 50
126.86989764584401
 51
233.13010235415601
  0
ARC
  5
16A
  8
DATA
  6
CONTINUOUS
 62
     7
 10
-83.750000000000014
 20
33.999999999999993
 30
0.0
 40
6.25
 50
306.86989764584411
 51
53.130102354155952
  0
ARC
  5
16B
  8
DATA
  6
CONTINUOUS
 62
     7
 10
-71.250000000000014
 20
43.999999999999993
 30
0.0
 40
6.25
 50
126.86989764584401
 51
233.13010235415601
  0
ARC
  5
16C
  8
DATA
  6
CONTINUOUS
 62
     7
 10
-78.750000000000014
 20
33.999999999999993
 30
0.0
 40
6.25
 50
306.86989764584411
 51
53.130102354155952
  0
ARC
  5
16D
  8
DATA
  6
CONTINUOUS
 62
     7
 10
48.00000000000005
 20
-1.9999999999999709
 30
0.0
 40
8.0000000000000568
 50
126.88117003095969
 51
9.0945949465025411
  0
ARC
  5
16E
  8
DATA
  6
CONTINUOUS
 62
     7
 10
48.000000000000107
 20
-1.9999999999999709
 30
0.0
 40
7.0000000000000071
 50
125.7337938746289
 51
20.698529391033951
  0
ARC
  5
16F
  8
DATA
  6
CONTINUOUS
 62
     7
 10
57.131154413784458
 20
1.999999999999744
 30
0.0
 40
2.9999999999996181
 50
245.7590471260169
 51
210.57160101602261
  0
CIRCLE
  5
170
  8
DATA
  6
CONTINUOUS
 62
     7
 10
57.13115441378477
 20
2.000000000000028
 30
0.0
 40
2.0
  0
LINE
  5
171
  8
DATA
  6
CONTINUOUS
 62
     7
 10
55.899429778828029
 20
-0.7354806567842048
 30
0.0
 11
56.310004657146557
 21
0.176346228809706
 31
0.0
  0
LINE
  5
172
  8
DATA
  6
CONTINUOUS
 62
     7
 10
43.910595341299803
 20
4.2517790465496432
 30
0.0
 11
43.89523156169782
 21
4.2738435951524414
 31
0.0
  0
ARC
  5
173
  8
DATA
  6
CONTINUOUS
 62
     7
 10
43.484905658373648
 20
3.9881293094381638
 30
0.0
 40
0.5000000000000111
 50
34.84990457904447
 51
124.8499045790449
  0
ARC
  5
174
  8
DATA
  6
CONTINUOUS
 62
     7
 10
43.500269437975653
 20
3.9660647608353932
 30
0.0
 40
0.49999999999998
 50
325.40439127286589
 51
34.849904579042743
  0
LINE
  5
175
  8
DATA
  6
CONTINUOUS
 62
     7
 10
43.964904639859363
 20
4.150764866873458
 30
0.0
 11
47.84034984447306
 21
-5.5983809439244681
 31
0.0
  0
LINE
  5
176
  8
DATA
  6
CONTINUOUS
 62
     7
 10
47.656027799121027
 20
-6.197115510213421
 30
0.0
 11
50.631811343582577
 21
-4.4962342761921832
 31
0.0
  0
LINE
  5
177
  8
DATA
  6
CONTINUOUS
 62
     7
 10
43.335223953504851
 20
3.2191823532085659
 30
0.0
 11
46.972984814884157
 21
-5.9320400715543533
 31
0.0
  0
ARC
  5
178
  8
DATA
  6
CONTINUOUS
 62
     7
 10
47.437620016767902
 20
-5.7473399655162876
 30
0.0
 40
0.5000000000000141
 50
201.6786315699307
 51
295.90087746336042
  0
ARC
  5
179
  8
DATA
  6
CONTINUOUS
 62
     7
 10
47.375714642589351
 20
-5.7830810499625596
 30
0.0
 40
0.4999999999999815
 50
304.0991225365816
 51
21.67863156993554
  0
LINE
  5
17A
  8
DATA
  6
CONTINUOUS
 62
     7
 10
47.676065952581247
 20
-5.1851051699535438
 30
0.0
 11
50.367910448328679
 21
-3.6469083152407511
 31
0.0
  0
LINE
  5
17B
  8
DATA
  6
CONTINUOUS
 62
     7
 10
50.744408703864863
 20
-7.4302426235645669
 30
0.0
 11
52.000000000000028
 21
-6.7119147079742438
 31
0.0
  0
LINE
  5
17C
  8
DATA
  6
CONTINUOUS
 62
     7
 10
50.336209679088611
 20
-6.6651925745264284
 30
0.0
 11
51.49346128261385
 21
-6.0037373624561488
 31
0.0
  0
ARC
  5
17D
  8
DATA
  6
CONTINUOUS
 62
     7
 10
51.128045619774817
 20
-5.3644229326096706
 30
0.0
 40
0.9999999999999952
 50
37.325448374470461
 51
119.7511728836255
  0
ARC
  5
17E
  8
DATA
  6
CONTINUOUS
 62
     7
 10
50.99722700642161
 20
-5.1355487060386622
 30
0.0
 40
1.0000000000000051
 50
299.75117288362469
 51
22.176897392770051
  0
ARC
  5
17F
  8
DATA
  6
CONTINUOUS
 62
     7
 10
51.210886899181993
 20
-5.1650706262148267
 30
0.0
 40
1.7364982289529689
 50
297.02812506314092
 51
119.7448812969417
  0
LINE
  5
180
  8
DATA
  6
CONTINUOUS
 62
     7
 10
55.932003178676169
 20
-0.9591707279900559
 30
0.0
 11
56.080987265179651
 21
-0.8101866414865808
 31
0.0
  0
ARC
  5
181
  8
DATA
  6
CONTINUOUS
 62
     7
 10
50.540309191476737
 20
-7.047717599045483
 30
0.0
 40
0.4333261450108197
 50
120.0000000000003
 51
298.08253408049768
  0
LINE
  5
182
  8
DATA
  6
CONTINUOUS
 62
     7
 10
50.283639130663573
 20
-6.698587211038955
 30
0.0
 11
51.724788181441667
 21
-5.8215915156381044
 31
0.0
  0
LINE
  5
183
  8
DATA
  6
CONTINUOUS
 62
     7
 10
52.944895057783121
 20
-5.0721093167289553
 30
0.0
 11
54.688311806049512
 21
-4.0655471878076517
 31
0.0
  0
LINE
  5
184
  8
DATA
  6
CONTINUOUS
 62
     7
 10
55.880566189648249
 20
-3.3771987984944181
 30
0.0
 11
115.9033361014498
 21
31.276963567591199
 31
0.0
  0
LINE
  5
185
  8
DATA
  6
CONTINUOUS
 62
     7
 10
52.388380214608453
 20
-6.4413682369950029
 30
0.0
 11
54.083598317676831
 21
-5.462633608853352
 31
0.0
  0
LINE
  5
186
  8
DATA
  6
CONTINUOUS
 62
     7
 10
55.562732149321292
 20
-4.608655292985901
 30
0.0
 11
117.14308008962379
 21
30.944775167138602
 31
0.0
  0
ARC
  5
187
  8
DATA
  6
CONTINUOUS
 62
     7
 10
118.7932233218751
 20
32.082290739130912
 30
0.0
 40
2.999999999999563
 50
322.4384834224295
 51
195.5716010160219
  0
ARC
  5
188
  8
DATA
  6
CONTINUOUS
 62
     7
 10
118.7932233218755
 20
32.082290739131047
 30
0.0
 40
2.0042241300489909
 50
334.78666942250783
 51
214.58018668765169
  0
ARC
  5
189
  8
DATA
  6
CONTINUOUS
 62
     7
 10
120.74830346017789
 20
33.223478381933347
 30
0.0
 40
2.999999999999595
 50
326.00695737127648
 51
142.43848342242941
  0
ARC
  5
18A
  8
DATA
  6
CONTINUOUS
 62
     7
 10
120.74830346017789
 20
33.223478381933347
 30
0.0
 40
2.9999999999996199
 50
168.3598869839733
 51
278.10605732767641
  0
ARC
  5
18B
  8
DATA
  6
CONTINUOUS
 62
     7
 10
120.74830346017831
 20
33.22347838193302
 30
0.0
 40
1.99999999999945
 50
341.255838196593
 51
121.0610001172037
  0
ARC
  5
18C
  8
DATA
  6
CONTINUOUS
 62
     7
 10
120.74830346017831
 20
33.22347838193302
 30
0.0
 40
1.9999999999994289
 50
154.61029497665069
 51
265.93424577343308
  0
ARC
  5
18D
  8
DATA
  6
CONTINUOUS
 62
     7
 10
123.0438000012844
 20
34.540062934096852
 30
0.0
 40
2.9999999999996141
 50
245.11918824958039
 51
273.6659904188071
  0
ARC
  5
18E
  8
DATA
  6
CONTINUOUS
 62
     7
 10
123.0438000012844
 20
34.540062934096852
 30
0.0
 40
2.9999999999996319
 50
326.70618258230769
 51
146.00695737127691
  0
ARC
  5
18F
  8
DATA
  6
CONTINUOUS
 62
     7
 10
123.0438000012844
 20
34.540062934096852
 30
0.0
 40
2.9999999999996092
 50
168.94520607708779
 51
174.95560716981731
  0
ARC
  5
190
  8
DATA
  6
CONTINUOUS
 62
     7
 10
123.04380000128469
 20
34.540062934097492
 30
0.0
 40
2.0000000000004499
 50
342.63174996941319
 51
130.7426223605745
  0
ARC
  5
191
  8
DATA
  6
CONTINUOUS
 62
     7
 10
123.04380000128469
 20
34.540062934097492
 30
0.0
 40
2.0000000000004561
 50
161.25583819662481
 51
196.6720507629762
  0
ARC
  5
192
  8
DATA
  6
CONTINUOUS
 62
     7
 10
123.04380000128469
 20
34.540062934097492
 30
0.0
 40
2.000000000000457
 50
223.40274465643131
 51
258.41710959350092
  0
ARC
  5
193
  8
DATA
  6
CONTINUOUS
 62
     7
 10
125.4206210766268
 20
35.890413188683482
 30
0.0
 40
2.9999999999996212
 50
27.055784566136229
 51
146.70618258230741
  0
ARC
  5
194
  8
DATA
  6
CONTINUOUS
 62
     7
 10
125.4206210766268
 20
35.890413188683482
 30
0.0
 40
2.9999999999996358
 50
169.10620581610829
 51
183.43819895475639
  0
ARC
  5
195
  8
DATA
  6
CONTINUOUS
 62
     7
 10
125.4206210766268
 20
35.890413188683482
 30
0.0
 40
2.9999999999996261
 50
235.99680455946989
 51
272.49848138854412
  0
ARC
  5
196
  8
DATA
  6
CONTINUOUS
 62
     7
 10
125.4206210766265
 20
35.890413188683247
 30
0.0
 40
2.000000000000083
 50
162.7127950036114
 51
256.4918689672196
  0
ARC
  5
197
  8
DATA
  6
CONTINUOUS
 62
     7
 10
125.4206210766265
 20
35.890413188683247
 30
0.0
 40
2.0000000000000591
 50
25.863155849146121
 51
132.67221940770241
  0
LINE
  5
198
  8
DATA
  6
CONTINUOUS
 62
     7
 10
127.22029803481939
 20
36.76285966047962
 30
0.0
 11
128.11099075159541
 21
37.21778314916881
 31
0.0
  0
ENDSEC
  0
EOF
