  0
SECTION
  2
HEADER
  9
$ACADVER
  1
AC1009
  9
$INSBASE
 10
0.0
 20
0.0
 30
0.0
  9
$EXTMIN
 10
-89.999999999990976
 20
-137.5519002719773
 30
0.0
  9
$EXTMAX
 10
89.999999999990976
 20
129.9999999999867
 30
0.0
  9
$LIMMIN
 10
0.0
 20
0.0
  9
$LIMMAX
 10
0.0
 20
0.0
  9
$ORTHOMODE
 70
     0
  9
$REGENMODE
 70
     1
  9
$FILLMODE
 70
     1
  9
$QTEXTMODE
 70
     0
  9
$MIRRTEXT
 70
     1
  9
$DRAGMODE
 70
     2
  9
$LTSCALE
 40
5.0800000000000001
  9
$OSMODE
 70
   231
  9
$ATTMODE
 70
     1
  9
$TEXTSIZE
 40
0.0
  9
$TRACEWID
 40
1.0
  9
$TEXTSTYLE
  7
STANDARD
  9
$CLAYER
  8
DATA
  9
$CELTYPE
  6
BYLAYER
  9
$CECOLOR
 62
   256
  9
$DIMSCALE
 40
1.0
  9
$DIMASZ
 40
0.18
  9
$DIMEXO
 40
0.0625
  9
$DIMDLI
 40
0.38
  9
$DIMRND
 40
0.0
  9
$DIMDLE
 40
0.0
  9
$DIMEXE
 40
0.18
  9
$DIMTP
 40
0.0
  9
$DIMTM
 40
0.0
  9
$DIMTXT
 40
0.18
  9
$DIMCEN
 40
0.09
  9
$DIMTSZ
 40
0.0
  9
$DIMTOL
 70
     0
  9
$DIMLIM
 70
     0
  9
$DIMTIH
 70
     1
  9
$DIMTOH
 70
     1
  9
$DIMSE1
 70
     0
  9
$DIMSE2
 70
     0
  9
$DIMTAD
 70
     0
  9
$DIMZIN
 70
     0
  9
$DIMBLK
  1

  9
$DIMASO
 70
     1
  9
$DIMSHO
 70
     1
  9
$DIMPOST
  1

  9
$DIMAPOST
  1

  9
$DIMALT
 70
     0
  9
$DIMALTD
 70
     2
  9
$DIMALTF
 40
25.399999999999999
  9
$DIMLFAC
 40
1.0
  9
$DIMTOFL
 70
     0
  9
$DIMTVP
 40
0.0
  9
$DIMTIX
 70
     0
  9
$DIMSOXD
 70
     0
  9
$DIMSAH
 70
     0
  9
$DIMBLK1
  1

  9
$DIMBLK2
  1

  9
$DIMSTYLE
  2
STANDARD
  9
$DIMCLRD
 70
     0
  9
$DIMCLRE
 70
     0
  9
$DIMCLRT
 70
     0
  9
$DIMTFAC
 40
1.0
  9
$DIMGAP
 40
0.09
  9
$LUNITS
 70
     2
  9
$LUPREC
 70
     4
  9
$SKETCHINC
 40
0.1
  9
$FILLETRAD
 40
0.0
  9
$AUNITS
 70
     0
  9
$AUPREC
 70
     0
  9
$MENU
  1
acad
  9
$ELEVATION
 40
0.0
  9
$PELEVATION
 40
0.0
  9
$THICKNESS
 40
0.0
  9
$LIMCHECK
 70
     0
  9
$BLIPMODE
 70
     0
  9
$CHAMFERA
 40
0.0
  9
$CHAMFERB
 40
0.0
  9
$SKPOLY
 70
     0
  9
$TDCREATE
 40
2456457.546898148
  9
$TDUPDATE
 40
2456457.5726308222
  9
$TDINDWG
 40
0.0004695486
  9
$TDUSRTIMER
 40
0.0004693634
  9
$USRTIMER
 70
     1
  9
$ANGBASE
 50
0.0
  9
$ANGDIR
 70
     0
  9
$PDMODE
 70
     1
  9
$PDSIZE
 40
-2.0
  9
$PLINEWID
 40
0.0
  9
$COORDS
 70
     2
  9
$SPLFRAME
 70
     0
  9
$SPLINETYPE
 70
     6
  9
$SPLINESEGS
 70
     8
  9
$ATTDIA
 70
     0
  9
$ATTREQ
 70
     1
  9
$HANDLING
 70
     1
  9
$HANDSEED
  5
23D
  9
$SURFTAB1
 70
     6
  9
$SURFTAB2
 70
     6
  9
$SURFTYPE
 70
     6
  9
$SURFU
 70
     6
  9
$SURFV
 70
     6
  9
$UCSNAME
  2

  9
$UCSORG
 10
0.0
 20
0.0
 30
0.0
  9
$UCSXDIR
 10
1.0
 20
0.0
 30
0.0
  9
$UCSYDIR
 10
0.0
 20
1.0
 30
0.0
  9
$PUCSNAME
  2

  9
$PUCSORG
 10
0.0
 20
0.0
 30
0.0
  9
$PUCSXDIR
 10
1.0
 20
0.0
 30
0.0
  9
$PUCSYDIR
 10
0.0
 20
1.0
 30
0.0
  9
$USERI1
 70
     0
  9
$USERI2
 70
     0
  9
$USERI3
 70
     0
  9
$USERI4
 70
     0
  9
$USERI5
 70
     0
  9
$USERR1
 40
0.0
  9
$USERR2
 40
0.0
  9
$USERR3
 40
0.0
  9
$USERR4
 40
0.0
  9
$USERR5
 40
0.0
  9
$WORLDVIEW
 70
     1
  9
$SHADEDGE
 70
     3
  9
$SHADEDIF
 70
    70
  9
$TILEMODE
 70
     1
  9
$MAXACTVP
 70
    64
  9
$PLIMCHECK
 70
     0
  9
$PEXTMIN
 10
1.0000000000000000E+020
 20
1.0000000000000000E+020
 30
1.0000000000000000E+020
  9
$PEXTMAX
 10
-1.0000000000000000E+020
 20
-1.0000000000000000E+020
 30
-1.0000000000000000E+020
  9
$PLIMMIN
 10
0.0
 20
0.0
  9
$PLIMMAX
 10
12.0
 20
9.0
  9
$UNITMODE
 70
     0
  9
$VISRETAIN
 70
     0
  9
$PLINEGEN
 70
     1
  9
$PSLTSCALE
 70
     0
  0
ENDSEC
  0
SECTION
  2
TABLES
  0
TABLE
  2
VPORT
 70
     1
  0
VPORT
  2
*ACTIVE
 70
     0
 10
0.0
 20
0.0
 11
1.0
 21
1.0
 12
0.0000004190950449
 22
17.07403599785059
 13
0.0
 23
0.0
 14
1.0
 24
1.0
 15
0.0
 25
0.0
 16
0.0
 26
0.0
 36
1.0
 17
0.0
 27
0.0
 37
0.0
 40
269.67614618850092
 41
2.1585051546391751
 42
50.0
 43
0.0
 44
0.0
 50
0.0
 51
0.0
 71
     0
 72
  2000
 73
     1
 74
     1
 75
     0
 76
     0
 77
     0
 78
     0
  0
ENDTAB
  0
TABLE
  2
LTYPE
 70
     1
  0
LTYPE
  2
CONTINUOUS
 70
     0
  3
Solid line
 72
    65
 73
     0
 40
0.0
  0
ENDTAB
  0
TABLE
  2
LAYER
 70
     5
  0
LAYER
  2
0
 70
     0
 62
     7
  6
CONTINUOUS
  0
LAYER
  2
DATA
 70
     0
 62
     7
  6
CONTINUOUS
  0
LAYER
  2
HIBINO-BASE
 70
     0
 62
     7
  6
CONTINUOUS
  0
LAYER
  2
SPEC
 70
     0
 62
     7
  6
CONTINUOUS
  0
LAYER
  2
DIMNSIONS
 70
     0
 62
     7
  6
CONTINUOUS
  0
ENDTAB
  0
TABLE
  2
STYLE
 70
     2
  0
STYLE
  2
STANDARD
 70
     0
 40
0.0
 41
1.0
 50
0.0
 71
     0
 42
0.0
  3
txt
  4
BIGFONT.SHX
  0
ENDTAB
  0
TABLE
  2
VIEW
 70
     0
  0
ENDTAB
  0
TABLE
  2
UCS
 70
     0
  0
ENDTAB
  0
TABLE
  2
APPID
 70
     4
  0
APPID
  2
ACAD
 70
     0
  0
APPID
  2
ACADANNOTATIVE
 70
     0
  0
APPID
  2
ACAD_NAV_VCDISPLAY
 70
     0
  0
APPID
  2
ACAD_MLEADERVER
 70
     0
  0
ENDTAB
  0
TABLE
  2
DIMSTYLE
 70
     2
  0
DIMSTYLE
  2
STANDARD
 70
     0
  3

  4

  5

  6

  7

 40
1.0
 41
0.18
 42
0.0625
 43
0.38
 44
0.18
 45
0.0
 46
0.0
 47
0.0
 48
0.0
140
0.18
141
0.09
142
0.0
143
25.399999999999999
144
1.0
145
0.0
146
1.0
147
0.09
 71
     0
 72
     0
 73
     1
 74
     1
 75
     0
 76
     0
 77
     0
 78
     0
170
     0
171
     2
172
     0
173
     0
174
     0
175
     0
176
     0
177
     0
178
     0
  0
ENDTAB
  0
ENDSEC
  0
SECTION
  2
BLOCKS
  0
BLOCK
  8
0
  2
$MODEL_SPACE
 70
     0
 10
0.0
 20
0.0
 30
0.0
  3
$MODEL_SPACE
  1

  0
ENDBLK
  5
1D4
  8
0
  0
BLOCK
 67
     1
  8
0
  2
$PAPER_SPACE
 70
     0
 10
0.0
 20
0.0
 30
0.0
  3
$PAPER_SPACE
  1

  0
ENDBLK
  5
1D0
 67
     1
  8
0
  0
ENDSEC
  0
SECTION
  2
ENTITIES
  0
LINE
  5
2C
  8
HIBINO-BASE
  6
CONTINUOUS
 62
     7
 10
-89.999999999990976
 20
129.9999999999867
 30
0.0
 11
89.999999999990976
 21
129.9999999999867
 31
0.0
  0
LINE
  5
2D
  8
HIBINO-BASE
  6
CONTINUOUS
 62
     7
 10
89.999999999990976
 20
-129.9999999999873
 30
0.0
 11
-89.999999999990976
 21
-129.9999999999873
 31
0.0
  0
LINE
  5
2E
  8
HIBINO-BASE
  6
CONTINUOUS
 62
     7
 10
-89.999999999990976
 20
-129.9999999999873
 30
0.0
 11
-89.999999999990976
 21
129.9999999999867
 31
0.0
  0
LINE
  5
2F
  8
HIBINO-BASE
  6
CONTINUOUS
 62
     7
 10
89.999999999990976
 20
129.9999999999867
 30
0.0
 11
89.999999999990976
 21
-129.9999999999873
 31
0.0
  0
LINE
  5
30
  8
HIBINO-BASE
  6
CONTINUOUS
 62
     7
 10
0.0
 20
-107.4999999999896
 30
0.0
 11
89.999999999990976
 21
-107.4999999999896
 31
0.0
  0
LINE
  5
31
  8
HIBINO-BASE
  6
CONTINUOUS
 62
     7
 10
0.0
 20
-129.9999999999873
 30
0.0
 11
0.0
 21
-107.4999999999896
 31
0.0
  0
TEXT
  5
32
  8
HIBINO-BASE
 62
     7
 10
0.8999999999999097
 20
-110.0086933333226
 30
0.0
 40
1.6288411458331691
  1
NOTE
 41
0.7
 11
0.8999999999999099
 21
-108.3798521874894
 31
0.0
 73
     3
  0
LINE
  5
33
  8
HIBINO-BASE
  6
CONTINUOUS
 62
     7
 10
34.999999999996497
 20
-129.9999999999873
 30
0.0
 11
34.999999999996497
 21
-107.4999999999896
 31
0.0
  0
TEXT
  5
34
  8
HIBINO-BASE
 62
     7
 10
35.89999999999641
 20
-110.0086933333226
 30
0.0
 40
1.6288411458331691
  1
TITLE
 41
0.7
 11
35.89999999999641
 21
-108.3798521874894
 31
0.0
 73
     3
  0
LINE
  5
35
  8
HIBINO-BASE
  6
CONTINUOUS
 62
     7
 10
0.0
 20
-119.9999999999883
 30
0.0
 11
89.999999999990976
 21
-119.9999999999883
 31
0.0
  0
TEXT
  5
36
  8
HIBINO-BASE
 62
     7
 10
48.399999999995138
 20
-122.4523733333213
 30
0.0
 40
1.6288411458331691
  1
DRAWN
 41
0.7
 11
48.399999999995138
 21
-120.8235321874882
 31
0.0
 73
     3
  0
TEXT
  5
37
  8
HIBINO-BASE
 62
     7
 10
23.39999999999765
 20
-122.4523733333213
 30
0.0
 40
1.6288411458331691
  1
DATE
 41
0.7
 11
23.39999999999765
 21
-120.8235321874882
 31
0.0
 73
     3
  0
TEXT
  5
38
  8
HIBINO-BASE
 62
     7
 10
13.399999999998659
 20
-122.4523733333213
 30
0.0
 40
1.6288411458331691
  1
SCALE
 41
0.7
 11
13.399999999998659
 21
-120.8235321874882
 31
0.0
 73
     3
  0
TEXT
  5
39
  8
HIBINO-BASE
 62
     7
 10
35.89999999999641
 20
-122.4523733333213
 30
0.0
 40
1.6288411458331691
  1
DESIGN
 41
0.7
 11
35.89999999999641
 21
-120.8235321874882
 31
0.0
 73
     3
  0
TEXT
  5
3A
  8
HIBINO-BASE
 62
     7
 10
73.399999999992673
 20
-122.4523733333213
 30
0.0
 40
1.6288411458331691
  1
DRAWING NO.
 41
0.7
 11
73.399999999992673
 21
-120.8235321874882
 31
0.0
 73
     3
  0
TEXT
  5
3B
  8
HIBINO-BASE
 62
     7
 10
60.899999999993909
 20
-122.4523733333213
 30
0.0
 40
1.6288411458331691
  1
CHECK
 41
0.7
 11
60.899999999993909
 21
-120.8235321874882
 31
0.0
 73
     3
  0
LINE
  5
3C
  8
HIBINO-BASE
  6
CONTINUOUS
 62
     7
 10
14.374999999998559
 20
-128.74999999998741
 30
0.0
 11
18.124999999998181
 21
-124.99999999998781
 31
0.0
  0
TEXT
  5
3D
  8
HIBINO-BASE
 62
     7
 10
13.74999999999862
 20
-126.10894333332099
 30
0.0
 40
1.6288411458331691
  1
1
 41
0.7
 11
13.74999999999862
 21
-124.4801021874879
 31
0.0
 73
     3
  0
LINE
  5
3E
  8
HIBINO-BASE
  6
CONTINUOUS
 62
     7
 10
12.499999999998741
 20
-129.9999999999873
 30
0.0
 11
12.499999999998741
 21
-119.9999999999883
 31
0.0
  0
LINE
  5
3F
  8
HIBINO-BASE
  6
CONTINUOUS
 62
     7
 10
22.49999999999774
 20
-129.9999999999873
 30
0.0
 11
22.49999999999774
 21
-119.9999999999883
 31
0.0
  0
LINE
  5
40
  8
HIBINO-BASE
  6
CONTINUOUS
 62
     7
 10
47.499999999995232
 20
-119.9999999999883
 30
0.0
 11
47.499999999995232
 21
-129.9999999999873
 31
0.0
  0
LINE
  5
41
  8
HIBINO-BASE
  6
CONTINUOUS
 62
     7
 10
72.499999999992752
 20
-119.9999999999883
 30
0.0
 11
72.499999999992752
 21
-129.9999999999873
 31
0.0
  0
LINE
  5
42
  8
HIBINO-BASE
  6
CONTINUOUS
 62
     7
 10
59.999999999993989
 20
-129.9999999999873
 30
0.0
 11
59.999999999993989
 21
-119.9999999999883
 31
0.0
  0
TEXT
  5
43
  8
HIBINO-BASE
 62
     7
 10
23.356539999997668
 20
-127.1363533333209
 30
0.0
 40
1.6288411458331691
  1
'13.6.
 41
0.7
 11
23.356539999997668
 21
-125.50751218748771
 31
0.0
 73
     3
  0
TEXT
  5
44
  8
HIBINO-BASE
 62
     7
 10
17.499999999998249
 20
-127.98394333332079
 30
0.0
 40
1.6288411458331691
  1
1
 41
0.7
 11
17.499999999998249
 21
-126.3551021874877
 31
0.0
 73
     3
  0
TEXT
  5
45
  8
HIBINO-BASE
 62
     7
 10
49.00581001102973
 20
-127.1363533333209
 30
0.0
 40
1.6288411458331691
  1
Ootake
 41
0.7
 11
49.00581001102973
 21
-125.50751218748771
 31
0.0
 73
     3
  0
TEXT
  5
46
  8
HIBINO-BASE
 62
     7
 10
3.8833333333329589
 20
-128.02399999998741
 30
0.0
 40
3.257682291666339
  1
A4
 41
0.7
 11
3.8833333333329589
 21
-124.7663177083211
 31
0.0
 73
     3
  0
TEXT
  5
47
  8
HIBINO-BASE
 62
     7
 10
0.9583333333332365
 20
-122.61945499998799
 30
0.0
 40
1.6288411458331691
  1
PAPER SIZE
 41
0.7
 11
0.9583333333332365
 21
-120.9906138541549
 31
0.0
 73
     3
  0
TEXT
  5
48
  8
HIBINO-BASE
 62
     7
 10
-82.815999999991703
 20
-136.37551499998671
 30
0.0
 40
3.5291558159718681
  1
Hibino-Intersound Corporation
 41
0.7
 11
-82.815999999991703
 21
-132.8463591840148
 31
0.0
 73
     3
  0
TEXT
  5
49
  8
HIBINO-BASE
 62
     7
 10
14.024334167241721
 20
-136.37551499998671
 30
0.0
 40
3.5291558159718681
  1
ヒビノインターサウンド株式会社
 41
0.7
 11
14.024334167241721
 21
-132.8463591840148
 31
0.0
 73
     3
  0
LINE
  5
4A
  8
SPEC
  6
CONTINUOUS
 62
     7
 10
-82.499999999991729
 20
119.99999999998759
 30
0.0
 11
64.999999999993506
 21
119.99999999998759
 31
0.0
  0
LINE
  5
4B
  8
SPEC
  6
CONTINUOUS
 62
     7
 10
-82.499999999991729
 20
116.24999999998801
 30
0.0
 11
64.999999999993506
 21
116.24999999998801
 31
0.0
  0
LINE
  5
4C
  8
SPEC
  6
CONTINUOUS
 62
     7
 10
-82.499999999991729
 20
112.4999999999884
 30
0.0
 11
64.999999999993506
 21
112.4999999999884
 31
0.0
  0
LINE
  5
4D
  8
SPEC
  6
CONTINUOUS
 62
     7
 10
-82.499999999991729
 20
119.99999999998759
 30
0.0
 11
-82.499999999991729
 21
112.4999999999884
 31
0.0
  0
TEXT
  5
4E
  8
SPEC
 62
     7
 10
-81.249999999991857
 20
121.3932699999874
 30
0.0
 40
2.4432617187497541
  1
仕様
 41
0.7
 11
-81.249999999991857
 21
123.83653171873721
 31
0.0
 73
     3
  0
LINE
  5
4F
  8
SPEC
  6
CONTINUOUS
 62
     7
 10
-49.999999999994991
 20
119.99999999998759
 30
0.0
 11
-49.999999999994991
 21
112.4999999999884
 31
0.0
  0
LINE
  5
50
  8
SPEC
  6
CONTINUOUS
 62
     7
 10
64.999999999993506
 20
119.99999999998759
 30
0.0
 11
64.999999999993506
 21
112.4999999999884
 31
0.0
  0
TEXT
  5
51
  8
SPEC
 62
     7
 10
-81.696572349755328
 20
117.28733198704261
 30
0.0
 40
1.900311249999808
  1
寸法
 41
0.7
 11
-81.696572349755328
 21
119.18764323704239
 31
0.0
 73
     3
  0
TEXT
  5
52
  8
SPEC
 62
     7
 10
-81.673159373888609
 20
113.5025500369545
 30
0.0
 40
1.900311249999808
  1
質量
 41
0.7
 11
-81.673159373888609
 21
115.40286128695431
 31
0.0
 73
     3
  0
TEXT
  5
53
  8
SPEC
 62
     7
 10
-49.104884594318243
 20
117.15812758742091
 30
0.0
 40
1.900311249999808
  1
\U+03C630.0\U+00D724.0mm
 41
0.7
 11
-49.104884594318243
 21
119.0584388374207
 31
0.0
 73
     3
  0
TEXT
  5
54
  8
SPEC
 62
     7
 10
-49.224775655832737
 20
113.5073313103608
 30
0.0
 40
1.900311249999808
  1
10g
 41
0.7
 11
-49.224775655832737
 21
115.4076425603606
 31
0.0
 73
     3
  0
TEXT
  5
55
  8
DIMNSIONS
 62
     7
 10
-19.999999999998
 20
-117.7305099999885
 30
0.0
 40
2.4432617187497541
  1
(単位：mm)
 41
0.7
 11
-19.999999999998
 21
-115.2872482812388
 31
0.0
 73
     3
  0
LINE
  5
56
  8
DIMNSIONS
  6
CONTINUOUS
 62
     7
 10
-10.999999999999901
 20
-12.000000000000011
 30
0.0
 11
-31.999999999999929
 21
-12.000000000000091
 31
0.0
  0
LINE
  5
57
  8
DIMNSIONS
  6
CONTINUOUS
 62
     7
 10
-10.99999999999998
 20
11.999999999999989
 30
0.0
 11
-32.000000000000007
 21
11.999999999999909
 31
0.0
  0
LINE
  5
58
  8
DIMNSIONS
  6
CONTINUOUS
 62
     7
 10
-29.999999999999929
 20
-12.00000000000008
 30
0.0
 11
-30.000000000000011
 21
11.99999999999992
 31
0.0
  0
LINE
  5
59
  8
DIMNSIONS
  6
CONTINUOUS
 62
     7
 10
-29.999999999999929
 20
-12.00000000000008
 30
0.0
 11
-30.670039795150171
 21
-9.4993774414063346
 31
0.0
  0
LINE
  5
5A
  8
DIMNSIONS
  6
CONTINUOUS
 62
     7
 10
-29.999999999999929
 20
-12.00000000000008
 30
0.0
 11
-29.32996020484968
 21
-9.4993774414063346
 31
0.0
  0
LINE
  5
5B
  8
DIMNSIONS
  6
CONTINUOUS
 62
     7
 10
-30.000000000000011
 20
11.99999999999992
 30
0.0
 11
-29.28642037391716
 21
9.5114521051679972
 31
0.0
  0
LINE
  5
5C
  8
DIMNSIONS
  6
CONTINUOUS
 62
     7
 10
-30.000000000000011
 20
11.99999999999992
 30
0.0
 11
-30.626295863605229
 21
9.4880644914997632
 31
0.0
  0
TEXT
  5
5D
  8
DIMNSIONS
 62
     7
 10
-33.52777811421285
 20
-1.270000075697989
 30
0.0
 40
2.7147354048664041
  1
24.0
 41
0.7
 11
-33.52777811421285
 21
1.4447353291684151
 31
0.0
 73
     3
  0
LINE
  5
5E
  8
DIMNSIONS
  6
CONTINUOUS
 62
     7
 10
10.60660171779822
 20
50.606601717798199
 30
0.0
 11
20.000000000000039
 21
60.0
 31
0.0
  0
LINE
  5
5F
  8
DIMNSIONS
  6
CONTINUOUS
 62
     7
 10
10.60660171779822
 20
50.606601717798199
 30
0.0
 11
11.93995029757763
 21
52.825666401946279
 31
0.0
  0
LINE
  5
60
  8
DIMNSIONS
  6
CONTINUOUS
 62
     7
 10
10.60660171779822
 20
50.606601717798199
 30
0.0
 11
12.870847802061119
 21
51.86169381702161
 31
0.0
  0
LINE
  5
61
  8
DIMNSIONS
  6
CONTINUOUS
 62
     7
 10
20.000000000000039
 20
60.0
 30
0.0
 11
32.583334006203593
 21
60.0
 31
0.0
  0
TEXT
  5
62
  8
DIMNSIONS
 62
     7
 10
22.000000000000039
 20
60.993888918326967
 30
0.0
 40
2.7147354048664041
  1
\U+03C630.0
 41
0.7
 11
22.000000000000039
 21
63.708624323193384
 31
0.0
 73
     3
  0
LINE
  5
63
  8
DIMNSIONS
  6
CONTINUOUS
 62
     7
 10
9.2416590395109832
 20
42.20039500940738
 30
0.0
 11
21.0
 21
45.0
 31
0.0
  0
LINE
  5
64
  8
DIMNSIONS
  6
CONTINUOUS
 62
     7
 10
9.2416590395109832
 20
42.20039500940738
 30
0.0
 11
11.52746464556
 21
43.415779409088309
 31
0.0
  0
LINE
  5
65
  8
DIMNSIONS
  6
CONTINUOUS
 62
     7
 10
9.2416590395109832
 20
42.20039500940738
 30
0.0
 11
11.82891696230279
 21
42.110045971869852
 31
0.0
  0
LINE
  5
66
  8
DIMNSIONS
  6
CONTINUOUS
 62
     7
 10
21.0
 20
45.0
 30
0.0
 11
33.58333400620355
 21
45.0
 31
0.0
  0
TEXT
  5
67
  8
DIMNSIONS
 62
     7
 10
23.0
 20
45.993888918326959
 30
0.0
 40
2.7147354048664041
  1
\U+03C619.0
 41
0.7
 11
23.0
 21
48.708624323193369
 31
0.0
 73
     3
  0
LINE
  5
68
  8
DIMNSIONS
  6
CONTINUOUS
 62
     7
 10
10.60660171779822
 20
-29.393398282201801
 30
0.0
 11
20.000000000000039
 21
-20.0
 31
0.0
  0
LINE
  5
69
  8
DIMNSIONS
  6
CONTINUOUS
 62
     7
 10
10.60660171779822
 20
-29.393398282201801
 30
0.0
 11
11.93995029757763
 21
-27.174333598053732
 31
0.0
  0
LINE
  5
6A
  8
DIMNSIONS
  6
CONTINUOUS
 62
     7
 10
10.60660171779822
 20
-29.393398282201801
 30
0.0
 11
12.870847802061119
 21
-28.13830618297839
 31
0.0
  0
LINE
  5
6B
  8
DIMNSIONS
  6
CONTINUOUS
 62
     7
 10
20.000000000000039
 20
-20.0
 30
0.0
 11
32.583334006203593
 21
-20.0
 31
0.0
  0
TEXT
  5
6C
  8
DIMNSIONS
 62
     7
 10
22.000000000000039
 20
-19.006111081673041
 30
0.0
 40
2.7147354048664041
  1
\U+03C630.0
 41
0.7
 11
22.000000000000039
 21
-16.291375676806631
 31
0.0
 73
     3
  0
LINE
  5
6D
  8
DIMNSIONS
  6
CONTINUOUS
 62
     7
 10
7.6626102817692088
 20
-37.701216915469239
 30
0.0
 11
20.0
 21
-34.0
 31
0.0
  0
LINE
  5
6E
  8
DIMNSIONS
  6
CONTINUOUS
 62
     7
 10
7.6626102817692088
 20
-37.701216915469239
 30
0.0
 11
9.8816749659172807
 21
-36.367868335689842
 31
0.0
  0
LINE
  5
6F
  8
DIMNSIONS
  6
CONTINUOUS
 62
     7
 10
7.6626102817692088
 20
-37.701216915469239
 30
0.0
 11
10.25105096077203
 21
-37.656035515354397
 31
0.0
  0
LINE
  5
70
  8
DIMNSIONS
  6
CONTINUOUS
 62
     7
 10
20.0
 20
-34.0
 30
0.0
 11
32.58333400620355
 21
-34.0
 31
0.0
  0
TEXT
  5
71
  8
DIMNSIONS
 62
     7
 10
22.0
 20
-33.006111066953999
 30
0.0
 40
2.7147354857718322
  1
\U+03C616.0
 41
0.7
 11
22.0
 21
-30.291375581182169
 31
0.0
 73
     3
  0
TEXT
  5
72
  8
DATA
 62
     7
 10
49.999999999994991
 20
-111.61910999998911
 30
0.0
 40
2.4432617187497541
  1
DPA
 41
0.7
 11
49.999999999994991
 21
-109.1758482812394
 31
0.0
 73
     3
  0
TEXT
  5
73
  8
DATA
 62
     7
 10
42.174759399600632
 20
-114.8785911158908
 30
0.0
 40
1.628843710937337
  1
アコースティックプレッシャーイコライザー30mm
 41
0.7
 11
42.174759399600632
 21
-113.2497474049535
 31
0.0
 73
     3
  0
TEXT
  5
74
  8
DATA
 62
     7
 10
-87.499999999991246
 20
-122.1237222222103
 30
0.0
 40
1.900314670138699
  1
※仕様及び外観は予告なく変更されることがあります。
 41
0.7
 11
-87.499999999991246
 21
-120.22340755207161
 31
0.0
 73
     3
  0
TEXT
  5
75
  8
DATA
 62
     7
 10
-87.499999999991246
 20
-124.5931666666544
 30
0.0
 40
1.900314670138699
  1
　また、同一製品でも若干の個体差があることがあります。ご了承ください。
 41
0.7
 11
-87.499999999991246
 21
-122.6928519965158
 31
0.0
 73
     3
  0
TEXT
  5
76
  8
DATA
 62
     7
 10
49.999999999994991
 20
-118.7309940367419
 30
0.0
 40
2.4432617187497541
  1
APE30RS
 41
0.7
 11
49.999999999994991
 21
-116.28773231799219
 31
0.0
 73
     3
  0
ARC
  5
77
  8
DATA
  6
CONTINUOUS
 62
     7
 10
-0.0000000000000107
 20
0.0000000000000338
 30
0.0
 40
14.999999999999959
 50
126.86989764584401
 51
233.13010235415641
  0
ARC
  5
78
  8
DATA
  6
CONTINUOUS
 62
     7
 10
-0.0000000000000107
 20
0.0000000000000338
 30
0.0
 40
14.999999999999959
 50
306.86989764584348
 51
53.130102354155852
  0
LINE
  5
79
  8
DATA
  6
CONTINUOUS
 62
     7
 10
-8.9999999999999964
 20
12.0
 30
0.0
 11
8.9999999999999751
 21
12.0
 31
0.0
  0
LINE
  5
7A
  8
DATA
  6
CONTINUOUS
 62
     7
 10
8.9999999999998792
 20
-12.0
 30
0.0
 11
-8.9999999999999076
 21
-12.0
 31
0.0
  0
CIRCLE
  5
7B
  8
DATA
  6
CONTINUOUS
 62
     7
 10
-1.7000000000000091
 20
0.0000000000000355
 30
0.0
 40
1.0
  0
CIRCLE
  5
7C
  8
DATA
  6
CONTINUOUS
 62
     7
 10
1.6999999999999891
 20
0.0000000000000355
 30
0.0
 40
1.0
  0
CIRCLE
  5
7D
  8
DATA
  6
CONTINUOUS
 62
     7
 10
0.0
 20
40.0
 30
0.0
 40
15.0
  0
CIRCLE
  5
7E
  8
DATA
  6
CONTINUOUS
 62
     7
 10
0.0
 20
40.0
 30
0.0
 40
9.5
  0
CIRCLE
  5
7F
  8
DATA
  6
CONTINUOUS
 62
     7
 10
0.0
 20
-40.0
 30
0.0
 40
15.0
  0
CIRCLE
  5
80
  8
DATA
  6
CONTINUOUS
 62
     7
 10
0.0
 20
-40.0
 30
0.0
 40
8.0
  0
ENDSEC
  0
EOF
