  0
SECTION
  2
HEADER
  9
$ACADVER
  1
AC1009
  9
$INSBASE
 10
0.0
 20
0.0
 30
0.0
  9
$EXTMIN
 10
-360.02197097985891
 20
-539.69518851107148
 30
-0.0015258207003583
  9
$EXTMAX
 10
360.02197433262018
 20
530.5589532383932
 30
0.0000000349246037
  9
$LIMMIN
 10
0.0
 20
0.0
  9
$LIMMAX
 10
0.0
 20
0.0
  9
$ORTHOMODE
 70
     0
  9
$REGENMODE
 70
     1
  9
$FILLMODE
 70
     1
  9
$QTEXTMODE
 70
     0
  9
$MIRRTEXT
 70
     1
  9
$DRAGMODE
 70
     2
  9
$LTSCALE
 40
20.32
  9
$OSMODE
 70
   231
  9
$ATTMODE
 70
     1
  9
$TEXTSIZE
 40
0.0
  9
$TRACEWID
 40
1.0
  9
$TEXTSTYLE
  7
STANDARD
  9
$CLAYER
  8
DATA
  9
$CELTYPE
  6
BYLAYER
  9
$CECOLOR
 62
   256
  9
$DIMSCALE
 40
1.0
  9
$DIMASZ
 40
0.18
  9
$DIMEXO
 40
0.0625
  9
$DIMDLI
 40
0.38
  9
$DIMRND
 40
0.0
  9
$DIMDLE
 40
0.0
  9
$DIMEXE
 40
0.18
  9
$DIMTP
 40
0.0
  9
$DIMTM
 40
0.0
  9
$DIMTXT
 40
0.18
  9
$DIMCEN
 40
0.09
  9
$DIMTSZ
 40
0.0
  9
$DIMTOL
 70
     0
  9
$DIMLIM
 70
     0
  9
$DIMTIH
 70
     1
  9
$DIMTOH
 70
     1
  9
$DIMSE1
 70
     0
  9
$DIMSE2
 70
     0
  9
$DIMTAD
 70
     0
  9
$DIMZIN
 70
     0
  9
$DIMBLK
  1

  9
$DIMASO
 70
     1
  9
$DIMSHO
 70
     1
  9
$DIMPOST
  1

  9
$DIMAPOST
  1

  9
$DIMALT
 70
     0
  9
$DIMALTD
 70
     2
  9
$DIMALTF
 40
25.399999999999999
  9
$DIMLFAC
 40
1.0
  9
$DIMTOFL
 70
     0
  9
$DIMTVP
 40
0.0
  9
$DIMTIX
 70
     0
  9
$DIMSOXD
 70
     0
  9
$DIMSAH
 70
     0
  9
$DIMBLK1
  1

  9
$DIMBLK2
  1

  9
$DIMSTYLE
  2
STANDARD
  9
$DIMCLRD
 70
     0
  9
$DIMCLRE
 70
     0
  9
$DIMCLRT
 70
     0
  9
$DIMTFAC
 40
1.0
  9
$DIMGAP
 40
0.09
  9
$LUNITS
 70
     2
  9
$LUPREC
 70
     4
  9
$SKETCHINC
 40
0.1
  9
$FILLETRAD
 40
0.0
  9
$AUNITS
 70
     0
  9
$AUPREC
 70
     0
  9
$MENU
  1
acad
  9
$ELEVATION
 40
0.0
  9
$PELEVATION
 40
0.0
  9
$THICKNESS
 40
0.0
  9
$LIMCHECK
 70
     0
  9
$BLIPMODE
 70
     0
  9
$CHAMFERA
 40
0.0
  9
$CHAMFERB
 40
0.0
  9
$SKPOLY
 70
     0
  9
$TDCREATE
 40
2456457.494710648
  9
$TDUPDATE
 40
2456457.5734887389
  9
$TDINDWG
 40
0.0002990856
  9
$TDUSRTIMER
 40
0.0002989468
  9
$USRTIMER
 70
     1
  9
$ANGBASE
 50
0.0
  9
$ANGDIR
 70
     0
  9
$PDMODE
 70
     1
  9
$PDSIZE
 40
-2.0
  9
$PLINEWID
 40
0.0
  9
$COORDS
 70
     2
  9
$SPLFRAME
 70
     0
  9
$SPLINETYPE
 70
     6
  9
$SPLINESEGS
 70
     8
  9
$ATTDIA
 70
     0
  9
$ATTREQ
 70
     1
  9
$HANDLING
 70
     1
  9
$HANDSEED
  5
356
  9
$SURFTAB1
 70
     6
  9
$SURFTAB2
 70
     6
  9
$SURFTYPE
 70
     6
  9
$SURFU
 70
     6
  9
$SURFV
 70
     6
  9
$UCSNAME
  2

  9
$UCSORG
 10
0.0
 20
0.0
 30
0.0
  9
$UCSXDIR
 10
1.0
 20
0.0
 30
0.0
  9
$UCSYDIR
 10
0.0
 20
1.0
 30
0.0
  9
$PUCSNAME
  2

  9
$PUCSORG
 10
0.0
 20
0.0
 30
0.0
  9
$PUCSXDIR
 10
1.0
 20
0.0
 30
0.0
  9
$PUCSYDIR
 10
0.0
 20
1.0
 30
0.0
  9
$USERI1
 70
     0
  9
$USERI2
 70
     0
  9
$USERI3
 70
     0
  9
$USERI4
 70
     0
  9
$USERI5
 70
     0
  9
$USERR1
 40
0.0
  9
$USERR2
 40
0.0
  9
$USERR3
 40
0.0
  9
$USERR4
 40
0.0
  9
$USERR5
 40
0.0
  9
$WORLDVIEW
 70
     1
  9
$SHADEDGE
 70
     3
  9
$SHADEDIF
 70
    70
  9
$TILEMODE
 70
     1
  9
$MAXACTVP
 70
    64
  9
$PLIMCHECK
 70
     0
  9
$PEXTMIN
 10
1.0000000000000000E+020
 20
1.0000000000000000E+020
 30
1.0000000000000000E+020
  9
$PEXTMAX
 10
-1.0000000000000000E+020
 20
-1.0000000000000000E+020
 30
-1.0000000000000000E+020
  9
$PLIMMIN
 10
0.0
 20
0.0
  9
$PLIMMAX
 10
12.0
 20
9.0
  9
$UNITMODE
 70
     0
  9
$VISRETAIN
 70
     0
  9
$PLINEGEN
 70
     1
  9
$PSLTSCALE
 70
     0
  0
ENDSEC
  0
SECTION
  2
TABLES
  0
TABLE
  2
VPORT
 70
     1
  0
VPORT
  2
*ACTIVE
 70
     0
 10
0.0
 20
0.0
 11
1.0
 21
1.0
 12
0.0000016763806343
 22
-4.5681176363391378
 13
0.0
 23
0.0
 14
1.0
 24
1.0
 15
0.0
 25
0.0
 16
0.0
 26
0.0
 36
1.0
 17
0.0
 27
0.0
 37
0.0
 40
1078.518652496565
 41
2.1585051546391751
 42
50.0
 43
0.0
 44
0.0
 50
0.0
 51
0.0
 71
     0
 72
  2000
 73
     1
 74
     1
 75
     0
 76
     0
 77
     0
 78
     0
  0
ENDTAB
  0
TABLE
  2
LTYPE
 70
    11
  0
LTYPE
  2
CONTINUOUS
 70
     0
  3
Solid line
 72
    65
 73
     0
 40
0.0
  0
ENDTAB
  0
TABLE
  2
LAYER
 70
     5
  0
LAYER
  2
0
 70
     0
 62
     7
  6
CONTINUOUS
  0
LAYER
  2
DATA
 70
     0
 62
     7
  6
CONTINUOUS
  0
LAYER
  2
HIBINO-BASE
 70
     0
 62
     7
  6
CONTINUOUS
  0
LAYER
  2
SPEC
 70
     0
 62
     7
  6
CONTINUOUS
  0
LAYER
  2
DIMNSIONS
 70
     0
 62
     7
  6
CONTINUOUS
  0
ENDTAB
  0
TABLE
  2
STYLE
 70
     3
  0
STYLE
  2
STANDARD
 70
     0
 40
0.0
 41
1.0
 50
0.0
 71
     0
 42
0.0
  3
txt
  4
BIGFONT.SHX
  0
ENDTAB
  0
TABLE
  2
VIEW
 70
     0
  0
ENDTAB
  0
TABLE
  2
UCS
 70
     0
  0
ENDTAB
  0
TABLE
  2
APPID
 70
     4
  0
APPID
  2
ACAD
 70
     0
  0
APPID
  2
ACADANNOTATIVE
 70
     0
  0
APPID
  2
ACAD_NAV_VCDISPLAY
 70
     0
  0
APPID
  2
ACAD_MLEADERVER
 70
     0
  0
ENDTAB
  0
TABLE
  2
DIMSTYLE
 70
     2
  0
DIMSTYLE
  2
STANDARD
 70
     0
  3

  4

  5

  6

  7

 40
1.0
 41
0.18
 42
0.0625
 43
0.38
 44
0.18
 45
0.0
 46
0.0
 47
0.0
 48
0.0
140
0.18
141
0.09
142
0.0
143
25.399999999999999
144
1.0
145
0.0
146
1.0
147
0.09
 71
     0
 72
     0
 73
     1
 74
     1
 75
     0
 76
     0
 77
     0
 78
     0
170
     0
171
     2
172
     0
173
     0
174
     0
175
     0
176
     0
177
     0
178
     0
  0
ENDTAB
  0
ENDSEC
  0
SECTION
  2
BLOCKS
  0
BLOCK
  8
0
  2
$MODEL_SPACE
 70
     0
 10
0.0
 20
0.0
 30
0.0
  3
$MODEL_SPACE
  1

  0
ENDBLK
  5
2DE
  8
0
  0
BLOCK
 67
     1
  8
0
  2
$PAPER_SPACE
 70
     0
 10
0.0
 20
0.0
 30
0.0
  3
$PAPER_SPACE
  1

  0
ENDBLK
  5
2DA
 67
     1
  8
0
  0
ENDSEC
  0
SECTION
  2
ENTITIES
  0
LINE
  5
2C
  8
HIBINO-BASE
  6
CONTINUOUS
 62
     7
 10
-359.9999999999639
 20
530.52635583328004
 30
0.0
 11
359.9999999999639
 21
530.52635583328004
 31
0.0
  0
LINE
  5
2D
  8
HIBINO-BASE
  6
CONTINUOUS
 62
     7
 10
359.9999999999639
 20
-509.473644166616
 30
0.0
 11
-359.9999999999639
 21
-509.473644166616
 31
0.0
  0
LINE
  5
2E
  8
HIBINO-BASE
  6
CONTINUOUS
 62
     7
 10
-359.9999999999639
 20
-509.473644166616
 30
0.0
 11
-359.9999999999639
 21
530.52635583328004
 31
0.0
  0
LINE
  5
2F
  8
HIBINO-BASE
  6
CONTINUOUS
 62
     7
 10
359.9999999999639
 20
530.52635583328004
 30
0.0
 11
359.9999999999639
 21
-509.473644166616
 31
0.0
  0
LINE
  5
30
  8
HIBINO-BASE
  6
CONTINUOUS
 62
     7
 10
0.0
 20
-419.47364416662492
 30
0.0
 11
359.9999999999639
 21
-419.47364416662492
 31
0.0
  0
LINE
  5
31
  8
HIBINO-BASE
  6
CONTINUOUS
 62
     7
 10
0.0
 20
-509.473644166616
 30
0.0
 11
0.0
 21
-419.47364416662492
 31
0.0
  0
TEXT
  5
32
  8
HIBINO-BASE
 62
     7
 10
3.599999999999639
 20
-429.5084174999572
 30
0.0
 40
6.5153645833326799
  1
NOTE
 41
0.7
 11
3.599999999999639
 21
-422.99305291662461
 31
0.0
 73
     3
  0
LINE
  5
33
  8
HIBINO-BASE
  6
CONTINUOUS
 62
     7
 10
139.99999999998599
 20
-509.473644166616
 30
0.0
 11
139.99999999998599
 21
-419.47364416662492
 31
0.0
  0
TEXT
  5
34
  8
HIBINO-BASE
 62
     7
 10
143.59999999998561
 20
-429.5084174999572
 30
0.0
 40
6.5153645833326799
  1
TITLE
 41
0.7
 11
143.59999999998561
 21
-422.99305291662461
 31
0.0
 73
     3
  0
LINE
  5
35
  8
HIBINO-BASE
  6
CONTINUOUS
 62
     7
 10
0.0
 20
-469.47364416661998
 30
0.0
 11
359.9999999999639
 21
-469.47364416661998
 31
0.0
  0
TEXT
  5
36
  8
HIBINO-BASE
 62
     7
 10
193.59999999998061
 20
-479.28313749995232
 30
0.0
 40
6.5153645833326799
  1
DRAWN
 41
0.7
 11
193.59999999998061
 21
-472.76777291661972
 31
0.0
 73
     3
  0
TEXT
  5
37
  8
HIBINO-BASE
 62
     7
 10
93.599999999990629
 20
-479.28313749995232
 30
0.0
 40
6.5153645833326799
  1
DATE
 41
0.7
 11
93.599999999990629
 21
-472.76777291661972
 31
0.0
 73
     3
  0
TEXT
  5
38
  8
HIBINO-BASE
 62
     7
 10
53.59999999999463
 20
-479.28313749995232
 30
0.0
 40
6.5153645833326799
  1
SCALE
 41
0.7
 11
53.59999999999463
 21
-472.76777291661972
 31
0.0
 73
     3
  0
TEXT
  5
39
  8
HIBINO-BASE
 62
     7
 10
143.59999999998561
 20
-479.28313749995232
 30
0.0
 40
6.5153645833326799
  1
DESIGN
 41
0.7
 11
143.59999999998561
 21
-472.76777291661972
 31
0.0
 73
     3
  0
TEXT
  5
3A
  8
HIBINO-BASE
 62
     7
 10
293.59999999997058
 20
-479.28313749995232
 30
0.0
 40
6.5153645833326799
  1
DRAWING NO.
 41
0.7
 11
293.59999999997058
 21
-472.76777291661972
 31
0.0
 73
     3
  0
TEXT
  5
3B
  8
HIBINO-BASE
 62
     7
 10
243.59999999997569
 20
-479.28313749995232
 30
0.0
 40
6.5153645833326799
  1
CHECK
 41
0.7
 11
243.59999999997569
 21
-472.76777291661972
 31
0.0
 73
     3
  0
LINE
  5
3C
  8
HIBINO-BASE
  6
CONTINUOUS
 62
     7
 10
57.499999999994252
 20
-504.47364416661651
 30
0.0
 11
72.499999999992752
 21
-489.47364416661799
 31
0.0
  0
TEXT
  5
3D
  8
HIBINO-BASE
 62
     7
 10
54.999999999994493
 20
-493.90941749995091
 30
0.0
 40
6.5153645833326799
  1
1
 41
0.7
 11
54.999999999994493
 21
-487.39405291661831
 31
0.0
 73
     3
  0
LINE
  5
3E
  8
HIBINO-BASE
  6
CONTINUOUS
 62
     7
 10
49.999999999994991
 20
-509.473644166616
 30
0.0
 11
49.999999999994991
 21
-469.47364416661998
 31
0.0
  0
LINE
  5
3F
  8
HIBINO-BASE
  6
CONTINUOUS
 62
     7
 10
89.999999999990976
 20
-509.473644166616
 30
0.0
 11
89.999999999990976
 21
-469.47364416661998
 31
0.0
  0
LINE
  5
40
  8
HIBINO-BASE
  6
CONTINUOUS
 62
     7
 10
189.9999999999809
 20
-469.47364416661998
 30
0.0
 11
189.9999999999809
 21
-509.473644166616
 31
0.0
  0
LINE
  5
41
  8
HIBINO-BASE
  6
CONTINUOUS
 62
     7
 10
289.99999999997101
 20
-469.47364416661998
 30
0.0
 11
289.99999999997101
 21
-509.473644166616
 31
0.0
  0
LINE
  5
42
  8
HIBINO-BASE
  6
CONTINUOUS
 62
     7
 10
239.99999999997601
 20
-509.473644166616
 30
0.0
 11
239.99999999997601
 21
-469.47364416661998
 31
0.0
  0
TEXT
  5
43
  8
HIBINO-BASE
 62
     7
 10
93.426159999990674
 20
-498.01905749995041
 30
0.0
 40
6.5153645833326799
  1
'13.6.
 41
0.7
 11
93.426159999990674
 21
-491.50369291661781
 31
0.0
 73
     3
  0
TEXT
  5
44
  8
HIBINO-BASE
 62
     7
 10
69.999999999993008
 20
-501.40941749995028
 30
0.0
 40
6.5153645833326799
  1
4
 41
0.7
 11
69.999999999993008
 21
-494.89405291661762
 31
0.0
 73
     3
  0
TEXT
  5
45
  8
HIBINO-BASE
 62
     7
 10
196.02324004411889
 20
-498.01905749995041
 30
0.0
 40
6.5153645833326799
  1
Ootake
 41
0.7
 11
196.02324004411889
 21
-491.50369291661781
 31
0.0
 73
     3
  0
TEXT
  5
46
  8
HIBINO-BASE
 62
     7
 10
15.533333333331839
 20
-501.56964416661668
 30
0.0
 40
13.03072916666536
  1
A4
 41
0.7
 11
15.533333333331839
 21
-488.53891499995137
 31
0.0
 73
     3
  0
TEXT
  5
47
  8
HIBINO-BASE
 62
     7
 10
3.833333333332944
 20
-479.9514641666189
 30
0.0
 40
6.5153645833326799
  1
PAPER SIZE
 41
0.7
 11
3.833333333332944
 21
-473.43609958328619
 31
0.0
 73
     3
  0
TEXT
  5
48
  8
HIBINO-BASE
 62
     7
 10
-331.26399999996693
 20
-534.97570416661347
 30
0.0
 40
14.116623263887471
  1
Hibino-Intersound Corporation
 41
0.7
 11
-331.26399999996693
 21
-520.85908090272608
 31
0.0
 73
     3
  0
TEXT
  5
49
  8
HIBINO-BASE
 62
     7
 10
56.097336668966904
 20
-534.97570416661347
 30
0.0
 40
14.116623263887471
  1
ヒビノインターサウンド株式会社
 41
0.7
 11
56.097336668966904
 21
-520.85908090272608
 31
0.0
 73
     3
  0
LINE
  5
4A
  8
SPEC
  6
CONTINUOUS
 62
     7
 10
-329.9999999999668
 20
490.52635583328379
 30
0.0
 11
259.99999999997402
 21
490.52635583328379
 31
0.0
  0
LINE
  5
4B
  8
SPEC
  6
CONTINUOUS
 62
     7
 10
-329.9999999999668
 20
475.52635583328521
 30
0.0
 11
259.99999999997402
 21
475.52635583328521
 31
0.0
  0
LINE
  5
4C
  8
SPEC
  6
CONTINUOUS
 62
     7
 10
-329.9999999999668
 20
430.52635583328981
 30
0.0
 11
259.99999999997402
 21
430.52635583328981
 31
0.0
  0
LINE
  5
4D
  8
SPEC
  6
CONTINUOUS
 62
     7
 10
-329.9999999999668
 20
445.52635583328828
 30
0.0
 11
259.99999999997402
 21
445.52635583328828
 31
0.0
  0
LINE
  5
4E
  8
SPEC
  6
CONTINUOUS
 62
     7
 10
-329.9999999999668
 20
460.52635583328691
 30
0.0
 11
259.99999999997402
 21
460.52635583328691
 31
0.0
  0
TEXT
  5
4F
  8
SPEC
 62
     7
 10
-196.58392542352661
 20
479.07890101150559
 30
0.0
 40
7.6012449999992384
  1
真鍮
 41
0.7
 11
-196.58392542352661
 21
486.6801460115048
 31
0.0
 73
     3
  0
LINE
  5
50
  8
SPEC
  6
CONTINUOUS
 62
     7
 10
-329.9999999999668
 20
490.52635583328379
 30
0.0
 11
-329.9999999999668
 21
430.52635583328993
 31
0.0
  0
TEXT
  5
51
  8
SPEC
 62
     7
 10
-324.99999999996737
 20
496.09943583328328
 30
0.0
 40
9.7730468749990234
  1
仕様
 41
0.7
 11
-324.99999999996737
 21
505.87248270828229
 31
0.0
 73
     3
  0
LINE
  5
52
  8
SPEC
  6
CONTINUOUS
 62
     7
 10
-199.99999999997999
 20
490.52635583328379
 30
0.0
 11
-199.99999999997999
 21
430.52635583328993
 31
0.0
  0
LINE
  5
53
  8
SPEC
  6
CONTINUOUS
 62
     7
 10
259.99999999997402
 20
490.52635583328379
 30
0.0
 11
259.99999999997402
 21
430.52635583328993
 31
0.0
  0
TEXT
  5
54
  8
SPEC
 62
     7
 10
-326.75021385211971
 20
479.55146423764319
 30
0.0
 40
7.6012449999992384
  1
主材質
 41
0.7
 11
-326.75021385211971
 21
487.15270923764251
 31
0.0
 73
     3
  0
TEXT
  5
55
  8
SPEC
 62
     7
 10
-326.39999999996729
 20
464.3923715840919
 30
0.0
 40
7.6012449999992384
  1
仕上
 41
0.7
 11
-326.39999999996729
 21
471.99361658409111
 31
0.0
 73
     3
  0
TEXT
  5
56
  8
SPEC
 62
     7
 10
-196.68138945715441
 20
464.37129311239062
 30
0.0
 40
7.6012449999992384
  1
黒アルマイトコート
 41
0.7
 11
-196.68138945715441
 21
471.97253811238988
 31
0.0
 73
     3
  0
TEXT
  5
57
  8
SPEC
 62
     7
 10
-326.69263749555449
 20
434.54836181479152
 30
0.0
 40
7.6012449999992384
  1
質量
 41
0.7
 11
-326.69263749555449
 21
442.14960681479067
 31
0.0
 73
     3
  0
TEXT
  5
58
  8
SPEC
 62
     7
 10
-196.48725122146729
 20
449.58023858869188
 30
0.0
 40
7.6012449999992384
  1
525\U+00D784.0\U+00D737.6mm(除突起部)
 41
0.7
 11
-196.48725122146729
 21
457.18148358869109
 31
0.0
 73
     3
  0
TEXT
  5
59
  8
SPEC
 62
     7
 10
-196.14056941762729
 20
434.60270364556328
 30
0.0
 40
7.6012449999992384
  1
360g
 41
0.7
 11
-196.14056941762729
 21
442.20394864556249
 31
0.0
 73
     3
  0
TEXT
  5
5A
  8
SPEC
 62
     7
 10
-326.69263749555449
 20
449.28870710120958
 30
0.0
 40
7.6012586805555546
  1
寸法(W\U+00D7H\U+00D7D)
 41
0.7
 11
-326.69263749555449
 21
456.88996578176511
 31
0.0
 73
     3
  0
TEXT
  5
5B
  8
DIMNSIONS
 62
     7
 10
-79.999999999991999
 20
-460.39568416662098
 30
0.0
 40
9.7730468749990234
  1
(単位：mm)
 41
0.7
 11
-79.999999999991999
 21
-450.62263729162203
 31
0.0
 73
     3
  0
LINE
  5
5C
  8
DIMNSIONS
  6
CONTINUOUS
 62
     7
 10
-258.0
 20
49.999999999999972
 30
0.0
 11
-288.0
 21
49.999999999999972
 31
0.0
  0
LINE
  5
5D
  8
DIMNSIONS
  6
CONTINUOUS
 62
     7
 10
-258.0
 20
69.999999999999972
 30
0.0
 11
-288.0
 21
69.999999999999972
 31
0.0
  0
LINE
  5
5E
  8
DIMNSIONS
  6
CONTINUOUS
 62
     7
 10
-280.0
 20
69.999999999999972
 30
0.0
 11
-280.0
 21
49.999999999999972
 31
0.0
  0
LINE
  5
5F
  8
DIMNSIONS
  6
CONTINUOUS
 62
     7
 10
-280.0
 20
49.999999999999972
 30
0.0
 11
-280.0
 21
29.999999999999972
 31
0.0
  0
LINE
  5
60
  8
DIMNSIONS
  6
CONTINUOUS
 62
     7
 10
-280.0
 20
49.999999999999972
 30
0.0
 11
-277.31984081939902
 21
39.997509765624969
 31
0.0
  0
LINE
  5
61
  8
DIMNSIONS
  6
CONTINUOUS
 62
     7
 10
-280.0
 20
49.999999999999972
 30
0.0
 11
-282.68015918060092
 21
39.997509765624969
 31
0.0
  0
LINE
  5
62
  8
DIMNSIONS
  6
CONTINUOUS
 62
     7
 10
-280.0
 20
69.999999999999972
 30
0.0
 11
-280.0
 21
111.6111124568515
 31
0.0
  0
LINE
  5
63
  8
DIMNSIONS
  6
CONTINUOUS
 62
     7
 10
-280.0
 20
69.999999999999972
 30
0.0
 11
-282.68015918060092
 21
80.002490234374974
 31
0.0
  0
LINE
  5
64
  8
DIMNSIONS
  6
CONTINUOUS
 62
     7
 10
-280.0
 20
69.999999999999972
 30
0.0
 11
-277.31984081939902
 21
80.002490234374974
 31
0.0
  0
TEXT
  5
65
  8
DIMNSIONS
 62
     7
 10
-283.97555567330772
 20
83.388887543148456
 30
0.0
 40
10.85894161946562
  1
20.0
 50
90.0
 41
0.7
 11
-294.83449729277328
 21
83.388887543148456
 31
0.0
 73
     3
  0
LINE
  5
66
  8
DIMNSIONS
  6
CONTINUOUS
 62
     7
 10
-250.0
 20
41.999999999999957
 30
0.0
 11
-250.0
 21
-58.000000000000021
 31
0.0
  0
LINE
  5
67
  8
DIMNSIONS
  6
CONTINUOUS
 62
     7
 10
275.0
 20
41.999999999999957
 30
0.0
 11
275.0
 21
-58.000000000000021
 31
0.0
  0
LINE
  5
68
  8
DIMNSIONS
  6
CONTINUOUS
 62
     7
 10
-250.0
 20
-50.000000000000021
 30
0.0
 11
275.0
 21
-50.000000000000021
 31
0.0
  0
LINE
  5
69
  8
DIMNSIONS
  6
CONTINUOUS
 62
     7
 10
-250.0
 20
-50.000000000000021
 30
0.0
 11
-239.99750976562501
 21
-47.319840819399062
 31
0.0
  0
LINE
  5
6A
  8
DIMNSIONS
  6
CONTINUOUS
 62
     7
 10
-250.0
 20
-50.000000000000021
 30
0.0
 11
-239.99750976562501
 21
-52.680159180601002
 31
0.0
  0
LINE
  5
6B
  8
DIMNSIONS
  6
CONTINUOUS
 62
     7
 10
275.0
 20
-50.000000000000021
 30
0.0
 11
264.99750976562501
 21
-52.680159180601002
 31
0.0
  0
LINE
  5
6C
  8
DIMNSIONS
  6
CONTINUOUS
 62
     7
 10
275.0
 20
-50.000000000000021
 30
0.0
 11
264.99750976562501
 21
-47.319840819399062
 31
0.0
  0
TEXT
  5
6D
  8
DIMNSIONS
 62
     7
 10
1.9166659937964541
 20
-46.024444326692169
 30
0.0
 40
10.85894161946562
  1
525
 41
0.7
 11
1.9166659937964541
 21
-35.165502707226551
 31
0.0
 73
     3
  0
LINE
  5
6E
  8
DIMNSIONS
  6
CONTINUOUS
 62
     7
 10
-147.26815265883221
 20
33.74431111674437
 30
0.0
 11
-132.037599450188
 21
15.593244613145419
 31
0.0
  0
LINE
  5
6F
  8
DIMNSIONS
  6
CONTINUOUS
 62
     7
 10
-147.26815265883221
 20
33.74431111674437
 30
0.0
 11
-138.6831868180596
 21
27.953678540341912
 31
0.0
  0
LINE
  5
70
  8
DIMNSIONS
  6
CONTINUOUS
 62
     7
 10
-147.26815265883221
 20
33.74431111674437
 30
0.0
 11
-142.72867043830269
 21
24.43699328121177
 31
0.0
  0
LINE
  5
71
  8
DIMNSIONS
  6
CONTINUOUS
 62
     7
 10
-132.037599450188
 20
15.593244613145419
 30
0.0
 11
-60.537594067226337
 21
15.593244613145419
 31
0.0
  0
TEXT
  5
72
  8
DIMNSIONS
 62
     7
 10
-124.037599450188
 20
19.568800286453271
 30
0.0
 40
10.85894161946562
  1
3/8インチ
 41
0.7
 11
-124.037599450188
 21
30.4277419059189
 31
0.0
 73
     3
  0
LINE
  5
73
  8
DIMNSIONS
  6
CONTINUOUS
 62
     7
 10
-250.0
 20
47.19999999999996
 30
0.0
 11
-250.0
 21
-32.999999999999972
 31
0.0
  0
LINE
  5
74
  8
DIMNSIONS
  6
CONTINUOUS
 62
     7
 10
12.5
 20
51.999999999999972
 30
0.0
 11
12.5
 21
-32.999999999999972
 31
0.0
  0
LINE
  5
75
  8
DIMNSIONS
  6
CONTINUOUS
 62
     7
 10
-250.0
 20
-24.999999999999972
 30
0.0
 11
12.5
 21
-24.999999999999972
 31
0.0
  0
LINE
  5
76
  8
DIMNSIONS
  6
CONTINUOUS
 62
     7
 10
-250.0
 20
-24.999999999999972
 30
0.0
 11
-239.99750976562501
 21
-22.319840819399001
 31
0.0
  0
LINE
  5
77
  8
DIMNSIONS
  6
CONTINUOUS
 62
     7
 10
-250.0
 20
-24.999999999999972
 30
0.0
 11
-239.99750976562501
 21
-27.680159180600938
 31
0.0
  0
LINE
  5
78
  8
DIMNSIONS
  6
CONTINUOUS
 62
     7
 10
12.5
 20
-24.999999999999972
 30
0.0
 11
2.4975097656249998
 21
-27.680159180600938
 31
0.0
  0
LINE
  5
79
  8
DIMNSIONS
  6
CONTINUOUS
 62
     7
 10
12.5
 20
-24.999999999999972
 30
0.0
 11
2.4975097656249998
 21
-22.319840819399001
 31
0.0
  0
TEXT
  5
7A
  8
DIMNSIONS
 62
     7
 10
-129.3333340062035
 20
-21.024444326692119
 30
0.0
 40
10.85894161946562
  1
263
 41
0.7
 11
-129.3333340062035
 21
-10.165502707226491
 31
0.0
 73
     3
  0
LINE
  5
7B
  8
DIMNSIONS
  6
CONTINUOUS
 62
     7
 10
-158.0
 20
27.0
 30
0.0
 11
-228.0
 21
27.0
 31
0.0
  0
LINE
  5
7C
  8
DIMNSIONS
  6
CONTINUOUS
 62
     7
 10
-166.0
 20
110.9999999999999
 30
0.0
 11
-228.0
 21
110.9999999999999
 31
0.0
  0
LINE
  5
7D
  8
DIMNSIONS
  6
CONTINUOUS
 62
     7
 10
-220.0
 20
27.0
 30
0.0
 11
-220.0
 21
110.9999999999999
 31
0.0
  0
LINE
  5
7E
  8
DIMNSIONS
  6
CONTINUOUS
 62
     7
 10
-220.0
 20
27.0
 30
0.0
 11
-222.68015918060101
 21
37.002490234375003
 31
0.0
  0
LINE
  5
7F
  8
DIMNSIONS
  6
CONTINUOUS
 62
     7
 10
-220.0
 20
27.0
 30
0.0
 11
-217.31984081939899
 21
37.002490234375003
 31
0.0
  0
LINE
  5
80
  8
DIMNSIONS
  6
CONTINUOUS
 62
     7
 10
-220.0
 20
110.9999999999999
 30
0.0
 11
-217.31984081939899
 21
100.9975097656249
 31
0.0
  0
LINE
  5
81
  8
DIMNSIONS
  6
CONTINUOUS
 62
     7
 10
-220.0
 20
110.9999999999999
 30
0.0
 11
-222.68015918060101
 21
100.9975097656249
 31
0.0
  0
TEXT
  5
82
  8
DIMNSIONS
 62
     7
 10
-223.97555567330789
 20
73.049497955503298
 30
0.0
 40
10.85894161946562
  1
84.0
 50
90.0
 41
0.7
 11
-234.83449729277351
 21
73.049497955503298
 31
0.0
 73
     3
  0
LINE
  5
83
  8
DIMNSIONS
  6
CONTINUOUS
 62
     7
 10
-166.0
 20
94.999999999999957
 30
0.0
 11
-195.5
 21
94.999999999999957
 31
0.0
  0
LINE
  5
84
  8
DIMNSIONS
  6
CONTINUOUS
 62
     7
 10
-166.0
 20
110.9999999999999
 30
0.0
 11
-195.5
 21
110.9999999999999
 31
0.0
  0
LINE
  5
85
  8
DIMNSIONS
  6
CONTINUOUS
 62
     7
 10
-187.5
 20
110.9999999999999
 30
0.0
 11
-187.5
 21
94.999999999999957
 31
0.0
  0
LINE
  5
86
  8
DIMNSIONS
  6
CONTINUOUS
 62
     7
 10
-187.5
 20
94.999999999999957
 30
0.0
 11
-187.5
 21
74.999999999999972
 31
0.0
  0
LINE
  5
87
  8
DIMNSIONS
  6
CONTINUOUS
 62
     7
 10
-187.5
 20
94.999999999999957
 30
0.0
 11
-184.81984081939899
 21
84.997509765624983
 31
0.0
  0
LINE
  5
88
  8
DIMNSIONS
  6
CONTINUOUS
 62
     7
 10
-187.5
 20
94.999999999999957
 30
0.0
 11
-190.18015918060101
 21
84.997509765624983
 31
0.0
  0
LINE
  5
89
  8
DIMNSIONS
  6
CONTINUOUS
 62
     7
 10
-187.5
 20
110.9999999999999
 30
0.0
 11
-187.5
 21
141.2737712305042
 31
0.0
  0
LINE
  5
8A
  8
DIMNSIONS
  6
CONTINUOUS
 62
     7
 10
-187.5
 20
110.9999999999999
 30
0.0
 11
-190.18015918060101
 21
121.0024902343749
 31
0.0
  0
LINE
  5
8B
  8
DIMNSIONS
  6
CONTINUOUS
 62
     7
 10
-187.5
 20
110.9999999999999
 30
0.0
 11
-184.81984081939899
 21
121.0024902343749
 31
0.0
  0
TEXT
  5
8C
  8
DIMNSIONS
 62
     7
 10
-191.47555567330789
 20
113.05154631680119
 30
0.0
 40
10.85894161946562
  1
16.0
 50
90.0
 41
0.7
 11
-202.33449729277351
 21
113.05154631680119
 31
0.0
 73
     3
  0
LINE
  5
8D
  8
DIMNSIONS
  6
CONTINUOUS
 62
     7
 10
-159.0
 20
117.9999999999999
 30
0.0
 11
-159.0
 21
137.99999999999989
 31
0.0
  0
LINE
  5
8E
  8
DIMNSIONS
  6
CONTINUOUS
 62
     7
 10
-141.0
 20
117.9999999999999
 30
0.0
 11
-141.0
 21
137.99999999999989
 31
0.0
  0
LINE
  5
8F
  8
DIMNSIONS
  6
CONTINUOUS
 62
     7
 10
-141.0
 20
130.0
 30
0.0
 11
-159.0
 21
130.0
 31
0.0
  0
LINE
  5
90
  8
DIMNSIONS
  6
CONTINUOUS
 62
     7
 10
-159.0
 20
130.0
 30
0.0
 11
-179.0
 21
130.0
 31
0.0
  0
LINE
  5
91
  8
DIMNSIONS
  6
CONTINUOUS
 62
     7
 10
-159.0
 20
130.0
 30
0.0
 11
-169.00249023437499
 21
127.319840819399
 31
0.0
  0
LINE
  5
92
  8
DIMNSIONS
  6
CONTINUOUS
 62
     7
 10
-159.0
 20
130.0
 30
0.0
 11
-169.00249023437499
 21
132.6801591806009
 31
0.0
  0
LINE
  5
93
  8
DIMNSIONS
  6
CONTINUOUS
 62
     7
 10
-141.0
 20
130.0
 30
0.0
 11
-110.8888875431485
 21
130.0
 31
0.0
  0
LINE
  5
94
  8
DIMNSIONS
  6
CONTINUOUS
 62
     7
 10
-141.0
 20
130.0
 30
0.0
 11
-130.99750976562501
 21
132.6801591806009
 31
0.0
  0
LINE
  5
95
  8
DIMNSIONS
  6
CONTINUOUS
 62
     7
 10
-141.0
 20
130.0
 30
0.0
 11
-130.99750976562501
 21
127.319840819399
 31
0.0
  0
TEXT
  5
96
  8
DIMNSIONS
 62
     7
 10
-139.11111245685149
 20
133.97555567330781
 30
0.0
 40
10.85894161946562
  1
18.0
 41
0.7
 11
-139.11111245685149
 21
144.83449729277339
 31
0.0
 73
     3
  0
LINE
  5
97
  8
DIMNSIONS
  6
CONTINUOUS
 62
     7
 10
-150.0
 20
158.0
 30
0.0
 11
-150.0
 21
183.0
 31
0.0
  0
LINE
  5
98
  8
DIMNSIONS
  6
CONTINUOUS
 62
     7
 10
175.0
 20
158.0
 30
0.0
 11
175.0
 21
183.0
 31
0.0
  0
LINE
  5
99
  8
DIMNSIONS
  6
CONTINUOUS
 62
     7
 10
-150.0
 20
175.0
 30
0.0
 11
175.0
 21
175.0
 31
0.0
  0
LINE
  5
9A
  8
DIMNSIONS
  6
CONTINUOUS
 62
     7
 10
-150.0
 20
175.0
 30
0.0
 11
-139.99750976562501
 21
177.68015918060101
 31
0.0
  0
LINE
  5
9B
  8
DIMNSIONS
  6
CONTINUOUS
 62
     7
 10
-150.0
 20
175.0
 30
0.0
 11
-139.99750976562501
 21
172.31984081939899
 31
0.0
  0
LINE
  5
9C
  8
DIMNSIONS
  6
CONTINUOUS
 62
     7
 10
175.0
 20
175.0
 30
0.0
 11
164.99750976562501
 21
172.31984081939899
 31
0.0
  0
LINE
  5
9D
  8
DIMNSIONS
  6
CONTINUOUS
 62
     7
 10
175.0
 20
175.0
 30
0.0
 11
164.99750976562501
 21
177.68015918060101
 31
0.0
  0
TEXT
  5
9E
  8
DIMNSIONS
 62
     7
 10
-114.50001076592331
 20
178.97555567330781
 30
0.0
 40
10.85894161946562
  1
マイクホルダー位置調整間隔116～490mm
 41
0.7
 11
-114.50001076592331
 21
189.83449729277339
 31
0.0
 73
     3
  0
LINE
  5
9F
  8
DIMNSIONS
  6
CONTINUOUS
 62
     7
 10
13.942307692307621
 20
63.461538461538417
 30
0.0
 11
24.999999999999929
 21
89.999999999999957
 31
0.0
  0
LINE
  5
A0
  8
DIMNSIONS
  6
CONTINUOUS
 62
     7
 10
13.942307692307621
 20
63.461538461538417
 30
0.0
 11
15.38349245551959
 21
73.716100890058343
 31
0.0
  0
LINE
  5
A1
  8
DIMNSIONS
  6
CONTINUOUS
 62
     7
 10
13.942307692307621
 20
63.461538461538417
 30
0.0
 11
20.317691523056219
 21
71.621657647724149
 31
0.0
  0
LINE
  5
A2
  8
DIMNSIONS
  6
CONTINUOUS
 62
     7
 10
24.999999999999929
 20
89.999999999999957
 30
0.0
 11
96.500005382961604
 21
89.999999999999957
 31
0.0
  0
TEXT
  5
A3
  8
DIMNSIONS
 62
     7
 10
32.999999999999929
 20
93.975555673307824
 30
0.0
 40
10.85894161946562
  1
3/8インチ
 41
0.7
 11
32.999999999999929
 21
104.83449729277341
 31
0.0
 73
     3
  0
LINE
  5
A4
  8
DIMNSIONS
  6
CONTINUOUS
 62
     7
 10
31.119932822797299
 20
-188.70392721301769
 30
0.0
 11
58.0
 21
-188.70392721301769
 31
0.0
  0
LINE
  5
A5
  8
DIMNSIONS
  6
CONTINUOUS
 62
     7
 10
31.119932822797299
 20
-178.70392721301769
 30
0.0
 11
58.0
 21
-178.70392721301769
 31
0.0
  0
LINE
  5
A6
  8
DIMNSIONS
  6
CONTINUOUS
 62
     7
 10
50.0
 20
-178.70392721301769
 30
0.0
 11
50.0
 21
-188.70392721301769
 31
0.0
  0
LINE
  5
A7
  8
DIMNSIONS
  6
CONTINUOUS
 62
     7
 10
50.0
 20
-188.70392721301769
 30
0.0
 11
50.0
 21
-231.1666686852773
 31
0.0
  0
LINE
  5
A8
  8
DIMNSIONS
  6
CONTINUOUS
 62
     7
 10
50.0
 20
-188.70392721301769
 30
0.0
 11
52.680159180600967
 21
-198.70641744739279
 31
0.0
  0
LINE
  5
A9
  8
DIMNSIONS
  6
CONTINUOUS
 62
     7
 10
50.0
 20
-188.70392721301769
 30
0.0
 11
47.319840819399033
 21
-198.70641744739279
 31
0.0
  0
LINE
  5
AA
  8
DIMNSIONS
  6
CONTINUOUS
 62
     7
 10
50.0
 20
-178.70392721301769
 30
0.0
 11
50.0
 21
-158.70392721301769
 31
0.0
  0
LINE
  5
AB
  8
DIMNSIONS
  6
CONTINUOUS
 62
     7
 10
50.0
 20
-178.70392721301769
 30
0.0
 11
47.319840819399033
 21
-168.70143697864279
 31
0.0
  0
LINE
  5
AC
  8
DIMNSIONS
  6
CONTINUOUS
 62
     7
 10
50.0
 20
-178.70392721301769
 30
0.0
 11
52.680159180600967
 21
-168.70143697864279
 31
0.0
  0
TEXT
  5
AD
  8
DIMNSIONS
 62
     7
 10
46.024444326692148
 20
-231.1666686852773
 30
0.0
 40
10.85894161946562
  1
10.0
 50
90.0
 41
0.7
 11
35.165502707226523
 21
-231.1666686852773
 31
0.0
 73
     3
  0
LINE
  5
AE
  8
DIMNSIONS
  6
CONTINUOUS
 62
     7
 10
31.119932822797299
 20
-178.70392721301769
 30
0.0
 11
82.999999999999986
 21
-178.70392721301769
 31
0.0
  0
LINE
  5
AF
  8
DIMNSIONS
  6
CONTINUOUS
 62
     7
 10
25.619932822797299
 20
-160.70392721301781
 30
0.0
 11
82.999999999999986
 21
-160.70392721301781
 31
0.0
  0
LINE
  5
B0
  8
DIMNSIONS
  6
CONTINUOUS
 62
     7
 10
74.999999999999986
 20
-160.70392721301781
 30
0.0
 11
74.999999999999986
 21
-178.70392721301769
 31
0.0
  0
LINE
  5
B1
  8
DIMNSIONS
  6
CONTINUOUS
 62
     7
 10
74.999999999999986
 20
-178.70392721301769
 30
0.0
 11
74.999999999999986
 21
-198.70392721301769
 31
0.0
  0
LINE
  5
B2
  8
DIMNSIONS
  6
CONTINUOUS
 62
     7
 10
74.999999999999986
 20
-178.70392721301769
 30
0.0
 11
77.680159180600924
 21
-188.70641744739279
 31
0.0
  0
LINE
  5
B3
  8
DIMNSIONS
  6
CONTINUOUS
 62
     7
 10
74.999999999999986
 20
-178.70392721301769
 30
0.0
 11
72.319840819399019
 21
-188.70641744739279
 31
0.0
  0
LINE
  5
B4
  8
DIMNSIONS
  6
CONTINUOUS
 62
     7
 10
74.999999999999986
 20
-160.70392721301781
 30
0.0
 11
74.999999999999986
 21
-123.3888875431485
 31
0.0
  0
LINE
  5
B5
  8
DIMNSIONS
  6
CONTINUOUS
 62
     7
 10
74.999999999999986
 20
-160.70392721301781
 30
0.0
 11
72.319840819399019
 21
-150.70143697864279
 31
0.0
  0
LINE
  5
B6
  8
DIMNSIONS
  6
CONTINUOUS
 62
     7
 10
74.999999999999986
 20
-160.70392721301781
 30
0.0
 11
77.680159180600924
 21
-150.70143697864279
 31
0.0
  0
TEXT
  5
B7
  8
DIMNSIONS
 62
     7
 10
71.024444326692148
 20
-151.61111245685149
 30
0.0
 40
10.85894161946562
  1
18.0
 50
90.0
 41
0.7
 11
60.165502707226523
 21
-151.61111245685149
 31
0.0
 73
     3
  0
LINE
  5
B8
  8
DIMNSIONS
  6
CONTINUOUS
 62
     7
 10
18.474053599192409
 20
-162.46105456854369
 30
0.0
 11
37.500000000000021
 21
-112.5
 31
0.0
  0
LINE
  5
B9
  8
DIMNSIONS
  6
CONTINUOUS
 62
     7
 10
18.474053599192409
 20
-162.46105456854369
 30
0.0
 11
19.55648136392643
 21
-152.1624423194948
 31
0.0
  0
LINE
  5
BA
  8
DIMNSIONS
  6
CONTINUOUS
 62
     7
 10
18.474053599192409
 20
-162.46105456854369
 30
0.0
 11
24.560769665738121
 21
-154.0834086195087
 31
0.0
  0
LINE
  5
BB
  8
DIMNSIONS
  6
CONTINUOUS
 62
     7
 10
37.500000000000021
 20
-112.5
 30
0.0
 11
200.72225451999239
 21
-112.5
 31
0.0
  0
TEXT
  5
BC
  8
DIMNSIONS
 62
     7
 10
45.500000000000021
 20
-105.5244439439971
 30
0.0
 40
10.85894372300673
  1
\U+03A64.5(ワイヤーホール）
 41
0.7
 11
45.500000000000021
 21
-94.665500220990424
 31
0.0
 73
     3
  0
LINE
  5
BD
  8
DIMNSIONS
  6
CONTINUOUS
 62
     7
 10
-42.956459576224788
 20
-156.6477463856242
 30
0.0
 11
-70.5
 21
-156.6477463856242
 31
0.0
  0
LINE
  5
BE
  8
DIMNSIONS
  6
CONTINUOUS
 62
     7
 10
-38.956459576224923
 20
-194.2705964768293
 30
0.0
 11
-70.499999999999986
 21
-194.2705964768293
 31
0.0
  0
LINE
  5
BF
  8
DIMNSIONS
  6
CONTINUOUS
 62
     7
 10
-62.5
 20
-156.6477463856242
 30
0.0
 11
-62.5
 21
-194.2705964768293
 31
0.0
  0
LINE
  5
C0
  8
DIMNSIONS
  6
CONTINUOUS
 62
     7
 10
-62.5
 20
-156.6477463856242
 30
0.0
 11
-59.819840819399019
 21
-166.65023661999919
 31
0.0
  0
LINE
  5
C1
  8
DIMNSIONS
  6
CONTINUOUS
 62
     7
 10
-62.5
 20
-156.6477463856242
 30
0.0
 11
-65.180159180600967
 21
-166.65023661999919
 31
0.0
  0
LINE
  5
C2
  8
DIMNSIONS
  6
CONTINUOUS
 62
     7
 10
-62.5
 20
-194.2705964768293
 30
0.0
 11
-65.180159180600967
 21
-184.26810624245431
 31
0.0
  0
LINE
  5
C3
  8
DIMNSIONS
  6
CONTINUOUS
 62
     7
 10
-62.5
 20
-194.2705964768293
 30
0.0
 11
-59.819840819399019
 21
-184.26810624245431
 31
0.0
  0
TEXT
  5
C4
  8
DIMNSIONS
 62
     7
 10
-66.475556085440871
 20
-189.57028523381871
 30
0.0
 40
10.85894388481757
  1
37.6
 50
90.0
 41
0.7
 11
-77.334499970258449
 21
-189.57028523381871
 31
0.0
 73
     3
  0
TEXT
  5
C5
  8
DATA
 62
     7
 10
199.99999999997999
 20
-464.9500841666204
 30
0.0
 40
9.7730468749990234
  1
UA0837
 41
0.7
 11
199.99999999997999
 21
-455.1770372916215
 31
0.0
 73
     3
  0
TEXT
  5
C6
  8
DATA
 62
     7
 10
199.99999999997999
 20
-435.95008416662341
 30
0.0
 40
9.7730468749990234
  1
DPA
 41
0.7
 11
199.99999999997999
 21
-426.17703729162429
 31
0.0
 73
     3
  0
TEXT
  5
C7
  8
DATA
 62
     7
 10
192.33369109389909
 20
-449.08001193531589
 30
0.0
 40
6.5153748437493491
  1
ステレオブーム
 41
0.7
 11
192.33369109389909
 21
-442.56463709156662
 31
0.0
 73
     3
  0
TEXT
  5
C8
  8
DATA
 62
     7
 10
-349.99999999996493
 20
-477.96853305550798
 30
0.0
 40
7.601258680554797
  1
※仕様及び外観は予告なく変更されることがあります。
 41
0.7
 11
-349.99999999996493
 21
-470.3672743749533
 31
0.0
 73
     3
  0
TEXT
  5
C9
  8
DATA
 62
     7
 10
-349.99999999996493
 20
-487.8463108332848
 30
0.0
 40
7.601258680554797
  1
　また、同一製品でも若干の個体差があることがあります。ご了承ください。
 41
0.7
 11
-349.99999999996493
 21
-480.2450521527299
 31
0.0
 73
     3
  0
LINE
  5
CA
  8
DATA
  6
CONTINUOUS
 62
     7
 10
-250.0
 20
55.199999999999967
 30
0.0
 11
-250.0
 21
64.799999999999983
 31
0.0
  0
LINE
  5
CB
  8
DATA
  6
CONTINUOUS
 62
     7
 10
-245.0
 20
70.0
 30
0.0
 11
-160.0
 21
70.0
 31
0.0
  0
LINE
  5
CC
  8
DATA
  6
CONTINUOUS
 62
     7
 10
-140.0
 20
70.0
 30
0.0
 11
270.00000000000011
 21
70.0
 31
0.0
  0
LINE
  5
CD
  8
DATA
  6
CONTINUOUS
 62
     7
 10
275.0
 20
64.799999999999983
 30
0.0
 11
275.0
 21
55.199999999999967
 31
0.0
  0
LINE
  5
CE
  8
DATA
  6
CONTINUOUS
 62
     7
 10
270.0
 20
50.0
 30
0.0
 11
-140.0
 21
50.0
 31
0.0
  0
LINE
  5
CF
  8
DATA
  6
CONTINUOUS
 62
     7
 10
-160.0
 20
50.0
 30
0.0
 11
-245.00000000000011
 21
50.0
 31
0.0
  0
CIRCLE
  5
D0
  8
DATA
  6
CONTINUOUS
 62
     7
 10
12.5
 20
60.0
 30
0.0
 40
4.0
  0
LINE
  5
D1
  8
DATA
  6
CONTINUOUS
 62
     7
 10
275.0
 20
64.799999999999997
 30
0.0
 11
270.0
 21
70.0
 31
0.0
  0
LINE
  5
D2
  8
DATA
  6
CONTINUOUS
 62
     7
 10
275.0
 20
55.200000000000003
 30
0.0
 11
270.0
 21
50.0
 31
0.0
  0
LINE
  5
D3
  8
DATA
  6
CONTINUOUS
 62
     7
 10
-250.0
 20
64.799999999999997
 30
0.0
 11
-245.0
 21
70.0
 31
0.0
  0
LINE
  5
D4
  8
DATA
  6
CONTINUOUS
 62
     7
 10
-250.0
 20
55.200000000000003
 30
0.0
 11
-245.0
 21
50.0
 31
0.0
  0
CIRCLE
  5
D5
  8
DATA
  6
CONTINUOUS
 62
     7
 10
-244.5
 20
60.0
 30
0.0
 40
4.25
  0
CIRCLE
  5
D6
  8
DATA
  6
CONTINUOUS
 62
     7
 10
269.5
 20
60.0
 30
0.0
 40
4.25
  0
CIRCLE
  5
D7
  8
DATA
  6
CONTINUOUS
 62
     7
 10
269.5
 20
60.0
 30
0.0
 40
2.0
  0
POLYLINE
  5
D8
  8
DATA
  6
CONTINUOUS
 62
     7
 66
     1
 10
0.0
 20
0.0
 30
0.0
 70
     1
  0
VERTEX
  5
30E
  8
DATA
  6
CONTINUOUS
 62
     7
 10
-246.5
 20
58.845299461620762
 30
0.0
  0
VERTEX
  5
30F
  8
DATA
  6
CONTINUOUS
 62
     7
 10
-244.5
 20
57.690598923241502
 30
0.0
  0
VERTEX
  5
310
  8
DATA
  6
CONTINUOUS
 62
     7
 10
-242.5
 20
58.845299461620741
 30
0.0
  0
VERTEX
  5
311
  8
DATA
  6
CONTINUOUS
 62
     7
 10
-242.5
 20
61.154700538379252
 30
0.0
  0
VERTEX
  5
312
  8
DATA
  6
CONTINUOUS
 62
     7
 10
-244.5
 20
62.30940107675849
 30
0.0
  0
VERTEX
  5
313
  8
DATA
  6
CONTINUOUS
 62
     7
 10
-246.5
 20
61.154700538379252
 30
0.0
  0
SEQEND
  5
314
  8
DATA
  6
CONTINUOUS
 62
     7
  0
LINE
  5
E1
  8
DATA
  6
CONTINUOUS
 62
     7
 10
-160.0
 20
36.999999999999993
 30
0.0
 11
-160.0
 21
50.000000000000021
 31
0.0
  0
LINE
  5
E2
  8
DATA
  6
CONTINUOUS
 62
     7
 10
-160.0
 20
69.999999999999972
 30
0.0
 11
-160.0
 21
73.0
 31
0.0
  0
LINE
  5
E3
  8
DATA
  6
CONTINUOUS
 62
     7
 10
-140.0
 20
73.0
 30
0.0
 11
-140.0
 21
69.999999999999986
 31
0.0
  0
LINE
  5
E4
  8
DATA
  6
CONTINUOUS
 62
     7
 10
-140.0
 20
50.000000000000021
 30
0.0
 11
-140.0
 21
36.999999999999993
 31
0.0
  0
LINE
  5
E5
  8
DATA
  6
CONTINUOUS
 62
     7
 10
-157.5
 20
93.0
 30
0.0
 11
-142.5
 21
93.0
 31
0.0
  0
ARC
  5
E6
  8
DATA
  6
CONTINUOUS
 62
     7
 10
-150.0
 20
37.0
 30
0.0
 40
10.0
 50
180.0
 51
0.0
  0
CIRCLE
  5
E7
  8
DATA
  6
CONTINUOUS
 62
     7
 10
-150.0
 20
37.0
 30
0.0
 40
4.5
  0
ARC
  5
E8
  8
DATA
  6
CONTINUOUS
 62
     7
 10
-150.0
 20
36.226497308103617
 30
0.0
 40
11.54700538379258
 50
30.00000000000054
 51
149.9999999999994
  0
CIRCLE
  5
E9
  8
DATA
  6
CONTINUOUS
 62
     7
 10
-150.0
 20
37.0
 30
0.0
 40
4.25
  0
LINE
  5
EA
  8
DATA
  6
CONTINUOUS
 62
     7
 10
-160.0
 20
73.0
 30
0.0
 11
-140.0
 21
73.0
 31
0.0
  0
LINE
  5
EB
  8
DATA
  6
CONTINUOUS
 62
     7
 10
-160.0
 20
75.0
 30
0.0
 11
-140.0
 21
75.0
 31
0.0
  0
LINE
  5
EC
  8
DATA
  6
CONTINUOUS
 62
     7
 10
-160.0
 20
75.0
 30
0.0
 11
-157.5
 21
93.0
 31
0.0
  0
LINE
  5
ED
  8
DATA
  6
CONTINUOUS
 62
     7
 10
-140.0
 20
75.0
 30
0.0
 11
-142.5
 21
93.0
 31
0.0
  0
ARC
  5
EE
  8
DATA
  6
CONTINUOUS
 62
     7
 10
-160.0
 20
74.0
 30
0.0
 40
1.0
 50
270.0
 51
90.0
  0
ARC
  5
EF
  8
DATA
  6
CONTINUOUS
 62
     7
 10
-140.0
 20
74.0
 30
0.0
 40
1.0
 50
90.0
 51
270.0
  0
LINE
  5
F0
  8
DATA
  6
CONTINUOUS
 62
     7
 10
-142.0
 20
67.395057833534935
 30
0.0
 11
-142.0
 21
52.604942166465058
 31
0.0
  0
LINE
  5
F1
  8
DATA
  6
CONTINUOUS
 62
     7
 10
-158.0
 20
52.604942166465257
 30
0.0
 11
-158.0
 21
67.395057833534707
 31
0.0
  0
ARC
  5
F2
  8
DATA
  6
CONTINUOUS
 62
     7
 10
-161.2559460915482
 20
66.965478109198443
 30
0.0
 40
3.2841625554513878
 50
7.5160218713855826
 51
67.51602187138532
  0
ARC
  5
F3
  8
DATA
  6
CONTINUOUS
 62
     7
 10
-138.7440539084518
 20
66.965478109198443
 30
0.0
 40
3.2841625554513949
 50
112.48397812861469
 51
172.48397812861441
  0
ARC
  5
F4
  8
DATA
  6
CONTINUOUS
 62
     7
 10
-161.2559460915482
 20
53.034521890801557
 30
0.0
 40
3.2841625554513949
 50
292.48397812861469
 51
352.4839781286143
  0
ARC
  5
F5
  8
DATA
  6
CONTINUOUS
 62
     7
 10
-138.7440539084518
 20
53.034521890801557
 30
0.0
 40
3.2841625554513878
 50
187.51602187138559
 51
247.51602187138531
  0
LINE
  5
F6
  8
DATA
  6
CONTINUOUS
 62
     7
 10
-158.0
 20
111.0
 30
0.0
 11
-142.0
 21
111.0
 31
0.0
  0
LINE
  5
F7
  8
DATA
  6
CONTINUOUS
 62
     7
 10
-158.0
 20
95.0
 30
0.0
 11
-142.0
 21
95.0
 31
0.0
  0
LINE
  5
F8
  8
DATA
  6
CONTINUOUS
 62
     7
 10
-159.0
 20
110.0
 30
0.0
 11
-159.0
 21
96.0
 31
0.0
  0
LINE
  5
F9
  8
DATA
  6
CONTINUOUS
 62
     7
 10
-141.0
 20
110.0
 30
0.0
 11
-141.0
 21
96.0
 31
0.0
  0
LINE
  5
FA
  8
DATA
  6
CONTINUOUS
 62
     7
 10
-146.0
 20
95.0
 30
0.0
 11
-146.0
 21
93.0
 31
0.0
  0
LINE
  5
FB
  8
DATA
  6
CONTINUOUS
 62
     7
 10
-154.0
 20
93.0
 30
0.0
 11
-154.0
 21
95.0
 31
0.0
  0
ARC
  5
FC
  8
DATA
  6
CONTINUOUS
 62
     7
 10
-158.0
 20
110.0
 30
0.0
 40
1.0
 50
90.0
 51
180.0
  0
ARC
  5
FD
  8
DATA
  6
CONTINUOUS
 62
     7
 10
-142.0
 20
110.0
 30
0.0
 40
1.0
 50
0.0
 51
90.0
  0
ARC
  5
FE
  8
DATA
  6
CONTINUOUS
 62
     7
 10
-158.0
 20
96.0
 30
0.0
 40
1.0
 50
180.0
 51
270.0
  0
ARC
  5
FF
  8
DATA
  6
CONTINUOUS
 62
     7
 10
-142.0
 20
96.0
 30
0.0
 40
1.0
 50
270.0
 51
0.0
  0
LINE
  5
100
  8
DATA
  6
CONTINUOUS
 62
     7
 10
-158.0
 20
111.0
 30
0.0
 11
-158.0
 21
95.0
 31
0.0
  0
LINE
  5
101
  8
DATA
  6
CONTINUOUS
 62
     7
 10
-155.0
 20
111.0
 30
0.0
 11
-155.0
 21
95.0
 31
0.0
  0
LINE
  5
102
  8
DATA
  6
CONTINUOUS
 62
     7
 10
-153.0
 20
111.0
 30
0.0
 11
-153.0
 21
95.0
 31
0.0
  0
LINE
  5
103
  8
DATA
  6
CONTINUOUS
 62
     7
 10
-150.0
 20
111.0
 30
0.0
 11
-150.0
 21
95.0
 31
0.0
  0
LINE
  5
104
  8
DATA
  6
CONTINUOUS
 62
     7
 10
-147.99999999999989
 20
111.0
 30
0.0
 11
-147.99999999999989
 21
95.0
 31
0.0
  0
LINE
  5
105
  8
DATA
  6
CONTINUOUS
 62
     7
 10
-145.0
 20
111.0
 30
0.0
 11
-145.0
 21
95.0
 31
0.0
  0
LINE
  5
106
  8
DATA
  6
CONTINUOUS
 62
     7
 10
-142.99999999999989
 20
111.0
 30
0.0
 11
-142.99999999999989
 21
95.0
 31
0.0
  0
LINE
  5
107
  8
DATA
  6
CONTINUOUS
 62
     7
 10
-158.0
 20
110.5
 30
0.0
 11
-154.99999999999989
 21
110.5
 31
0.0
  0
LINE
  5
108
  8
DATA
  6
CONTINUOUS
 62
     7
 10
-153.0
 20
110.5
 30
0.0
 11
-147.99999999999989
 21
110.5
 31
0.0
  0
LINE
  5
109
  8
DATA
  6
CONTINUOUS
 62
     7
 10
-145.0
 20
110.5
 30
0.0
 11
-142.99999999999989
 21
110.5
 31
0.0
  0
LINE
  5
10A
  8
DATA
  6
CONTINUOUS
 62
     7
 10
-158.0
 20
95.5
 30
0.0
 11
-154.99999999999989
 21
95.5
 31
0.0
  0
LINE
  5
10B
  8
DATA
  6
CONTINUOUS
 62
     7
 10
-153.0
 20
95.5
 30
0.0
 11
-147.99999999999989
 21
95.5
 31
0.0
  0
LINE
  5
10C
  8
DATA
  6
CONTINUOUS
 62
     7
 10
-145.0
 20
95.5
 30
0.0
 11
-142.99999999999989
 21
95.5
 31
0.0
  0
LINE
  5
10D
  8
DATA
  6
CONTINUOUS
 62
     7
 10
165.0
 20
36.999999999999993
 30
0.0
 11
165.0
 21
50.000000000000021
 31
0.0
  0
LINE
  5
10E
  8
DATA
  6
CONTINUOUS
 62
     7
 10
165.0
 20
69.999999999999972
 30
0.0
 11
165.0
 21
73.0
 31
0.0
  0
LINE
  5
10F
  8
DATA
  6
CONTINUOUS
 62
     7
 10
185.0
 20
73.0
 30
0.0
 11
185.0
 21
69.999999999999986
 31
0.0
  0
LINE
  5
110
  8
DATA
  6
CONTINUOUS
 62
     7
 10
185.0
 20
50.000000000000021
 30
0.0
 11
185.0
 21
36.999999999999993
 31
0.0
  0
LINE
  5
111
  8
DATA
  6
CONTINUOUS
 62
     7
 10
167.5
 20
93.0
 30
0.0
 11
182.5
 21
93.0
 31
0.0
  0
ARC
  5
112
  8
DATA
  6
CONTINUOUS
 62
     7
 10
175.0
 20
37.0
 30
0.0
 40
10.0
 50
180.0
 51
0.0
  0
CIRCLE
  5
113
  8
DATA
  6
CONTINUOUS
 62
     7
 10
175.0
 20
37.0
 30
0.0
 40
4.5
  0
ARC
  5
114
  8
DATA
  6
CONTINUOUS
 62
     7
 10
175.0
 20
36.226497308103617
 30
0.0
 40
11.54700538379258
 50
30.00000000000054
 51
149.9999999999994
  0
CIRCLE
  5
115
  8
DATA
  6
CONTINUOUS
 62
     7
 10
175.0
 20
37.0
 30
0.0
 40
4.25
  0
LINE
  5
116
  8
DATA
  6
CONTINUOUS
 62
     7
 10
165.0
 20
73.0
 30
0.0
 11
185.0
 21
73.0
 31
0.0
  0
LINE
  5
117
  8
DATA
  6
CONTINUOUS
 62
     7
 10
165.0
 20
75.0
 30
0.0
 11
185.0
 21
75.0
 31
0.0
  0
LINE
  5
118
  8
DATA
  6
CONTINUOUS
 62
     7
 10
165.0
 20
75.0
 30
0.0
 11
167.5
 21
93.0
 31
0.0
  0
LINE
  5
119
  8
DATA
  6
CONTINUOUS
 62
     7
 10
185.0
 20
75.0
 30
0.0
 11
182.5
 21
93.0
 31
0.0
  0
ARC
  5
11A
  8
DATA
  6
CONTINUOUS
 62
     7
 10
165.0
 20
74.0
 30
0.0
 40
1.0
 50
270.0
 51
90.0
  0
ARC
  5
11B
  8
DATA
  6
CONTINUOUS
 62
     7
 10
185.0
 20
74.0
 30
0.0
 40
1.0
 50
90.0
 51
270.0
  0
LINE
  5
11C
  8
DATA
  6
CONTINUOUS
 62
     7
 10
183.0
 20
67.395057833534935
 30
0.0
 11
183.0
 21
52.604942166465058
 31
0.0
  0
LINE
  5
11D
  8
DATA
  6
CONTINUOUS
 62
     7
 10
167.0
 20
52.604942166465257
 30
0.0
 11
167.0
 21
67.395057833534707
 31
0.0
  0
ARC
  5
11E
  8
DATA
  6
CONTINUOUS
 62
     7
 10
163.7440539084518
 20
66.965478109198443
 30
0.0
 40
3.2841625554513878
 50
7.5160218713855826
 51
67.51602187138532
  0
ARC
  5
11F
  8
DATA
  6
CONTINUOUS
 62
     7
 10
186.2559460915482
 20
66.965478109198443
 30
0.0
 40
3.2841625554513949
 50
112.48397812861469
 51
172.48397812861441
  0
ARC
  5
120
  8
DATA
  6
CONTINUOUS
 62
     7
 10
163.7440539084518
 20
53.034521890801557
 30
0.0
 40
3.2841625554513949
 50
292.48397812861469
 51
352.4839781286143
  0
ARC
  5
121
  8
DATA
  6
CONTINUOUS
 62
     7
 10
186.2559460915482
 20
53.034521890801557
 30
0.0
 40
3.2841625554513878
 50
187.51602187138559
 51
247.51602187138531
  0
LINE
  5
122
  8
DATA
  6
CONTINUOUS
 62
     7
 10
167.0
 20
111.0
 30
0.0
 11
183.0
 21
111.0
 31
0.0
  0
LINE
  5
123
  8
DATA
  6
CONTINUOUS
 62
     7
 10
167.0
 20
95.0
 30
0.0
 11
183.0
 21
95.0
 31
0.0
  0
LINE
  5
124
  8
DATA
  6
CONTINUOUS
 62
     7
 10
166.0
 20
110.0
 30
0.0
 11
166.0
 21
96.0
 31
0.0
  0
LINE
  5
125
  8
DATA
  6
CONTINUOUS
 62
     7
 10
184.0
 20
110.0
 30
0.0
 11
184.0
 21
96.0
 31
0.0
  0
LINE
  5
126
  8
DATA
  6
CONTINUOUS
 62
     7
 10
179.0
 20
95.0
 30
0.0
 11
179.0
 21
93.0
 31
0.0
  0
LINE
  5
127
  8
DATA
  6
CONTINUOUS
 62
     7
 10
171.0
 20
93.0
 30
0.0
 11
171.0
 21
95.0
 31
0.0
  0
ARC
  5
128
  8
DATA
  6
CONTINUOUS
 62
     7
 10
167.0
 20
110.0
 30
0.0
 40
1.0
 50
90.0
 51
180.0
  0
ARC
  5
129
  8
DATA
  6
CONTINUOUS
 62
     7
 10
183.0
 20
110.0
 30
0.0
 40
1.0
 50
0.0
 51
90.0
  0
ARC
  5
12A
  8
DATA
  6
CONTINUOUS
 62
     7
 10
167.0
 20
96.0
 30
0.0
 40
1.0
 50
180.0
 51
270.0
  0
ARC
  5
12B
  8
DATA
  6
CONTINUOUS
 62
     7
 10
183.0
 20
96.0
 30
0.0
 40
1.0
 50
270.0
 51
0.0
  0
LINE
  5
12C
  8
DATA
  6
CONTINUOUS
 62
     7
 10
167.0
 20
111.0
 30
0.0
 11
167.0
 21
95.0
 31
0.0
  0
LINE
  5
12D
  8
DATA
  6
CONTINUOUS
 62
     7
 10
170.0
 20
111.0
 30
0.0
 11
170.0
 21
95.0
 31
0.0
  0
LINE
  5
12E
  8
DATA
  6
CONTINUOUS
 62
     7
 10
172.0
 20
111.0
 30
0.0
 11
172.0
 21
95.0
 31
0.0
  0
LINE
  5
12F
  8
DATA
  6
CONTINUOUS
 62
     7
 10
175.0
 20
111.0
 30
0.0
 11
175.0
 21
95.0
 31
0.0
  0
LINE
  5
130
  8
DATA
  6
CONTINUOUS
 62
     7
 10
177.0
 20
111.0
 30
0.0
 11
177.0
 21
95.0
 31
0.0
  0
LINE
  5
131
  8
DATA
  6
CONTINUOUS
 62
     7
 10
180.0
 20
111.0
 30
0.0
 11
180.0
 21
95.0
 31
0.0
  0
LINE
  5
132
  8
DATA
  6
CONTINUOUS
 62
     7
 10
182.0
 20
111.0
 30
0.0
 11
182.0
 21
95.0
 31
0.0
  0
LINE
  5
133
  8
DATA
  6
CONTINUOUS
 62
     7
 10
167.0
 20
110.5
 30
0.0
 11
170.0
 21
110.5
 31
0.0
  0
LINE
  5
134
  8
DATA
  6
CONTINUOUS
 62
     7
 10
172.0
 20
110.5
 30
0.0
 11
177.0
 21
110.5
 31
0.0
  0
LINE
  5
135
  8
DATA
  6
CONTINUOUS
 62
     7
 10
180.0
 20
110.5
 30
0.0
 11
182.0
 21
110.5
 31
0.0
  0
LINE
  5
136
  8
DATA
  6
CONTINUOUS
 62
     7
 10
167.0
 20
95.5
 30
0.0
 11
170.0
 21
95.5
 31
0.0
  0
LINE
  5
137
  8
DATA
  6
CONTINUOUS
 62
     7
 10
172.0
 20
95.5
 30
0.0
 11
177.0
 21
95.5
 31
0.0
  0
LINE
  5
138
  8
DATA
  6
CONTINUOUS
 62
     7
 10
180.0
 20
95.5
 30
0.0
 11
182.0
 21
95.5
 31
0.0
  0
CIRCLE
  5
139
  8
DATA
  6
CONTINUOUS
 62
     7
 10
12.5
 20
60.0
 30
0.0
 40
3.75
  0
TEXT
  5
13A
  8
DATA
 62
     7
 10
-117.3666476144699
 20
111.4629354020846
 30
0.0
 40
10.85894161946562
  1
B
 41
0.7
 11
-117.3666476144699
 21
116.8924062118174
 31
0.0
 73
     2
  0
LINE
  5
13B
  8
DATA
  6
CONTINUOUS
 62
     7
 10
-141.0
 20
103.0
 30
0.0
 11
-120.0
 21
115.124355652982
 31
0.0
  0
LINE
  5
13C
  8
DATA
  6
CONTINUOUS
 62
     7
 10
-141.0
 20
103.0
 30
0.0
 11
-131.54211491642329
 21
112.1333734586253
 31
0.0
  0
LINE
  5
13D
  8
DATA
  6
CONTINUOUS
 62
     7
 10
-141.0
 20
103.0
 30
0.0
 11
-128.24254452223599
 21
106.1807908956317
 31
0.0
  0
LINE
  5
13E
  8
DATA
  6
CONTINUOUS
 62
     7
 10
-45.0
 20
58.37102238426656
 30
0.0
 11
-45.0
 21
55.371022384266567
 31
0.0
  0
LINE
  5
13F
  8
DATA
  6
CONTINUOUS
 62
     7
 10
70.0
 20
59.0
 30
0.0
 11
70.0
 21
56.0
 31
0.0
  0
TEXT
  5
140
  8
DATA
 62
     7
 10
-46.614839488943559
 20
59.244303624768762
 30
0.0
 40
5.4294704861111107
  1
5
 41
0.7
 11
-46.614839488943559
 21
61.959038867824312
 31
0.0
 73
     2
  0
LINE
  5
141
  8
DATA
  6
CONTINUOUS
 62
     7
 10
-55.0
 20
58.37102238426656
 30
0.0
 11
-55.0
 21
55.371022384266567
 31
0.0
  0
TEXT
  5
142
  8
DATA
 62
     7
 10
-56.800674557331057
 20
59.244303624768762
 30
0.0
 40
5.4294704861111107
  1
6
 41
0.7
 11
-56.800674557331057
 21
61.959038867824312
 31
0.0
 73
     2
  0
LINE
  5
143
  8
DATA
  6
CONTINUOUS
 62
     7
 10
-65.0
 20
58.37102238426656
 30
0.0
 11
-65.0
 21
55.371022384266567
 31
0.0
  0
TEXT
  5
144
  8
DATA
 62
     7
 10
-66.893626447850295
 20
59.244303624768762
 30
0.0
 40
5.4294704861111107
  1
7
 41
0.7
 11
-66.893626447850295
 21
61.959038867824312
 31
0.0
 73
     2
  0
LINE
  5
145
  8
DATA
  6
CONTINUOUS
 62
     7
 10
-75.0
 20
58.37102238426656
 30
0.0
 11
-75.0
 21
55.371022384266567
 31
0.0
  0
TEXT
  5
146
  8
DATA
 62
     7
 10
-76.614839488943559
 20
59.244303624768762
 30
0.0
 40
5.4294704861111107
  1
8
 41
0.7
 11
-76.614839488943559
 21
61.959038867824312
 31
0.0
 73
     2
  0
LINE
  5
147
  8
DATA
  6
CONTINUOUS
 62
     7
 10
-85.0
 20
58.37102238426656
 30
0.0
 11
-85.0
 21
55.371022384266567
 31
0.0
  0
TEXT
  5
148
  8
DATA
 62
     7
 10
-86.754232968396934
 20
59.244303624768762
 30
0.0
 40
5.4294704861111107
  1
9
 41
0.7
 11
-86.754232968396934
 21
61.959038867824312
 31
0.0
 73
     2
  0
LINE
  5
149
  8
DATA
  6
CONTINUOUS
 62
     7
 10
-95.0
 20
58.37102238426656
 30
0.0
 11
-95.0
 21
55.371022384266567
 31
0.0
  0
TEXT
  5
14A
  8
DATA
 62
     7
 10
-98.287561242383902
 20
59.244303624768762
 30
0.0
 40
5.4294704861111107
  1
10
 41
0.7
 11
-98.287561242383902
 21
61.959038867824312
 31
0.0
 73
     2
  0
LINE
  5
14B
  8
DATA
  6
CONTINUOUS
 62
     7
 10
-105.0
 20
58.37102238426656
 30
0.0
 11
-105.0
 21
55.371022384266567
 31
0.0
  0
TEXT
  5
14C
  8
DATA
 62
     7
 10
-108.56634820129059
 20
59.244303624768762
 30
0.0
 40
5.4294704861111107
  1
11
 41
0.7
 11
-108.56634820129059
 21
61.959038867824312
 31
0.0
 73
     2
  0
LINE
  5
14D
  8
DATA
  6
CONTINUOUS
 62
     7
 10
-115.0
 20
58.37102238426656
 30
0.0
 11
-115.0
 21
55.371022384266567
 31
0.0
  0
TEXT
  5
14E
  8
DATA
 62
     7
 10
-118.4690386666438
 20
59.244303624768762
 30
0.0
 40
5.4294704861111107
  1
12
 41
0.7
 11
-118.4690386666438
 21
61.959038867824312
 31
0.0
 73
     2
  0
LINE
  5
14F
  8
DATA
  6
CONTINUOUS
 62
     7
 10
-125.0
 20
58.37102238426656
 30
0.0
 11
-125.0
 21
55.371022384266567
 31
0.0
  0
TEXT
  5
150
  8
DATA
 62
     7
 10
-128.5306091868232
 20
59.244303624768762
 30
0.0
 40
5.4294704861111107
  1
13
 41
0.7
 11
-128.5306091868232
 21
61.959038867824312
 31
0.0
 73
     2
  0
LINE
  5
151
  8
DATA
  6
CONTINUOUS
 62
     7
 10
-135.0
 20
58.37102238426656
 30
0.0
 11
-135.0
 21
55.371022384266567
 31
0.0
  0
TEXT
  5
152
  8
DATA
 62
     7
 10
-138.50943695373229
 20
59.244303624768762
 30
0.0
 40
5.4294704861111107
  1
14
 41
0.7
 11
-138.50943695373229
 21
61.959038867824312
 31
0.0
 73
     2
  0
LINE
  5
153
  8
DATA
  6
CONTINUOUS
 62
     7
 10
-165.0
 20
58.37102238426656
 30
0.0
 11
-165.0
 21
55.371022384266567
 31
0.0
  0
TEXT
  5
154
  8
DATA
 62
     7
 10
-168.3775898060951
 20
59.244303624768762
 30
0.0
 40
5.4294704861111107
  1
17
 41
0.7
 11
-168.3775898060951
 21
61.959038867824312
 31
0.0
 73
     2
  0
LINE
  5
155
  8
DATA
  6
CONTINUOUS
 62
     7
 10
-175.0
 20
58.37102238426656
 30
0.0
 11
-175.0
 21
55.371022384266567
 31
0.0
  0
TEXT
  5
156
  8
DATA
 62
     7
 10
-178.37790522172489
 20
59.244303624768762
 30
0.0
 40
5.4294704861111107
  1
18
 41
0.7
 11
-178.37790522172489
 21
61.959038867824312
 31
0.0
 73
     2
  0
LINE
  5
157
  8
DATA
  6
CONTINUOUS
 62
     7
 10
-185.0
 20
58.37102238426656
 30
0.0
 11
-185.0
 21
55.371022384266567
 31
0.0
  0
TEXT
  5
158
  8
DATA
 62
     7
 10
-188.56349108833339
 20
59.244303624768762
 30
0.0
 40
5.4294704861111107
  1
19
 41
0.7
 11
-188.56349108833339
 21
61.959038867824312
 31
0.0
 73
     2
  0
LINE
  5
159
  8
DATA
  6
CONTINUOUS
 62
     7
 10
-195.0
 20
58.37102238426656
 30
0.0
 11
-195.0
 21
55.371022384266567
 31
0.0
  0
TEXT
  5
15A
  8
DATA
 62
     7
 10
-198.47069815502911
 20
59.244303624768762
 30
0.0
 40
5.4294704861111107
  1
20
 41
0.7
 11
-198.47069815502911
 21
61.959038867824312
 31
0.0
 73
     2
  0
LINE
  5
15B
  8
DATA
  6
CONTINUOUS
 62
     7
 10
-205.0
 20
58.37102238426656
 30
0.0
 11
-205.0
 21
55.371022384266567
 31
0.0
  0
TEXT
  5
15C
  8
DATA
 62
     7
 10
-208.4704694481897
 20
59.244303624768762
 30
0.0
 40
5.4294704861111107
  1
21
 41
0.7
 11
-208.4704694481897
 21
61.959038867824312
 31
0.0
 73
     2
  0
LINE
  5
15D
  8
DATA
  6
CONTINUOUS
 62
     7
 10
-215.0
 20
58.37102238426656
 30
0.0
 11
-215.0
 21
55.371022384266567
 31
0.0
  0
TEXT
  5
15E
  8
DATA
 62
     7
 10
-218.3785362223102
 20
59.244303624768762
 30
0.0
 40
5.4294704861111107
  1
22
 41
0.7
 11
-218.3785362223102
 21
61.959038867824312
 31
0.0
 73
     2
  0
LINE
  5
15F
  8
DATA
  6
CONTINUOUS
 62
     7
 10
-225.0
 20
58.37102238426656
 30
0.0
 11
-225.0
 21
55.371022384266567
 31
0.0
  0
TEXT
  5
160
  8
DATA
 62
     7
 10
-228.4708014831273
 20
59.244303624768762
 30
0.0
 40
5.4294704861111107
  1
23
 41
0.7
 11
-228.4708014831273
 21
61.959038867824312
 31
0.0
 73
     2
  0
LINE
  5
161
  8
DATA
  6
CONTINUOUS
 62
     7
 10
-235.0
 20
58.37102238426656
 30
0.0
 11
-235.0
 21
55.371022384266567
 31
0.0
  0
TEXT
  5
162
  8
DATA
 62
     7
 10
-238.47129964693551
 20
59.244303624768762
 30
0.0
 40
5.4294704861111107
  1
24
 41
0.7
 11
-238.47129964693551
 21
61.959038867824312
 31
0.0
 73
     2
  0
TEXT
  5
163
  8
DATA
 62
     7
 10
68.385160511056426
 20
59.244303624768762
 30
0.0
 40
5.4294704861111107
  1
5
 41
0.7
 11
68.385160511056426
 21
61.959038867824312
 31
0.0
 73
     2
  0
LINE
  5
164
  8
DATA
  6
CONTINUOUS
 62
     7
 10
80.0
 20
59.0
 30
0.0
 11
80.0
 21
56.0
 31
0.0
  0
TEXT
  5
165
  8
DATA
 62
     7
 10
78.385160511056426
 20
59.244303624768762
 30
0.0
 40
5.4294704861111107
  1
6
 41
0.7
 11
78.385160511056426
 21
61.959038867824312
 31
0.0
 73
     2
  0
LINE
  5
166
  8
DATA
  6
CONTINUOUS
 62
     7
 10
90.0
 20
59.0
 30
0.0
 11
90.0
 21
56.0
 31
0.0
  0
TEXT
  5
167
  8
DATA
 62
     7
 10
88.385160511056426
 20
59.244303624768762
 30
0.0
 40
5.4294704861111107
  1
7
 41
0.7
 11
88.385160511056426
 21
61.959038867824312
 31
0.0
 73
     2
  0
LINE
  5
168
  8
DATA
  6
CONTINUOUS
 62
     7
 10
100.0
 20
59.0
 30
0.0
 11
100.0
 21
56.0
 31
0.0
  0
TEXT
  5
169
  8
DATA
 62
     7
 10
98.385160511056426
 20
59.244303624768762
 30
0.0
 40
5.4294704861111107
  1
8
 41
0.7
 11
98.385160511056426
 21
61.959038867824312
 31
0.0
 73
     2
  0
LINE
  5
16A
  8
DATA
  6
CONTINUOUS
 62
     7
 10
110.0
 20
59.0
 30
0.0
 11
110.0
 21
56.0
 31
0.0
  0
TEXT
  5
16B
  8
DATA
 62
     7
 10
108.3851605110564
 20
59.244303624768762
 30
0.0
 40
5.4294704861111107
  1
9
 41
0.7
 11
108.3851605110564
 21
61.959038867824312
 31
0.0
 73
     2
  0
LINE
  5
16C
  8
DATA
  6
CONTINUOUS
 62
     7
 10
120.0
 20
59.0
 30
0.0
 11
120.0
 21
56.0
 31
0.0
  0
TEXT
  5
16D
  8
DATA
 62
     7
 10
116.351553785294
 20
59.244303624768762
 30
0.0
 40
5.4294704861111107
  1
10
 41
0.7
 11
116.351553785294
 21
61.959038867824312
 31
0.0
 73
     2
  0
LINE
  5
16E
  8
DATA
  6
CONTINUOUS
 62
     7
 10
130.0
 20
59.0
 30
0.0
 11
130.0
 21
56.0
 31
0.0
  0
TEXT
  5
16F
  8
DATA
 62
     7
 10
126.5364271239997
 20
59.244303624768762
 30
0.0
 40
5.4294704861111107
  1
11
 41
0.7
 11
126.5364271239997
 21
61.959038867824312
 31
0.0
 73
     2
  0
LINE
  5
170
  8
DATA
  6
CONTINUOUS
 62
     7
 10
140.0
 20
59.0
 30
0.0
 11
140.0
 21
56.0
 31
0.0
  0
TEXT
  5
171
  8
DATA
 62
     7
 10
136.53675786572671
 20
59.244303624768762
 30
0.0
 40
5.4294704861111107
  1
12
 41
0.7
 11
136.53675786572671
 21
61.959038867824312
 31
0.0
 73
     2
  0
LINE
  5
172
  8
DATA
  6
CONTINUOUS
 62
     7
 10
150.0
 20
59.0
 30
0.0
 11
150.0
 21
56.0
 31
0.0
  0
TEXT
  5
173
  8
DATA
 62
     7
 10
146.44433773346029
 20
59.244303624768762
 30
0.0
 40
5.4294704861111107
  1
13
 41
0.7
 11
146.44433773346029
 21
61.959038867824312
 31
0.0
 73
     2
  0
LINE
  5
174
  8
DATA
  6
CONTINUOUS
 62
     7
 10
160.0
 20
59.0
 30
0.0
 11
160.0
 21
56.0
 31
0.0
  0
TEXT
  5
175
  8
DATA
 62
     7
 10
156.44433773346029
 20
59.244303624768762
 30
0.0
 40
5.4294704861111107
  1
14
 41
0.7
 11
156.44433773346029
 21
61.959038867824312
 31
0.0
 73
     2
  0
LINE
  5
176
  8
DATA
  6
CONTINUOUS
 62
     7
 10
190.0
 20
59.0
 30
0.0
 11
190.0
 21
56.0
 31
0.0
  0
TEXT
  5
177
  8
DATA
 62
     7
 10
186.58306826642121
 20
59.244303624768762
 30
0.0
 40
5.4294704861111107
  1
17
 41
0.7
 11
186.58306826642121
 21
61.959038867824312
 31
0.0
 73
     2
  0
LINE
  5
178
  8
DATA
  6
CONTINUOUS
 62
     7
 10
200.0
 20
59.0
 30
0.0
 11
200.0
 21
56.0
 31
0.0
  0
TEXT
  5
179
  8
DATA
 62
     7
 10
196.53830786607301
 20
59.244303624768762
 30
0.0
 40
5.4294704861111107
  1
18
 41
0.7
 11
196.53830786607301
 21
61.959038867824312
 31
0.0
 73
     2
  0
LINE
  5
17A
  8
DATA
  6
CONTINUOUS
 62
     7
 10
210.0
 20
59.0
 30
0.0
 11
210.0
 21
56.0
 31
0.0
  0
TEXT
  5
17B
  8
DATA
 62
     7
 10
206.41518435640739
 20
59.244303624768762
 30
0.0
 40
5.4294704861111107
  1
19
 41
0.7
 11
206.41518435640739
 21
61.959038867824312
 31
0.0
 73
     2
  0
LINE
  5
17C
  8
DATA
  6
CONTINUOUS
 62
     7
 10
220.0
 20
59.0
 30
0.0
 11
220.0
 21
56.0
 31
0.0
  0
TEXT
  5
17D
  8
DATA
 62
     7
 10
216.53808024103941
 20
59.244303624768762
 30
0.0
 40
5.4294704861111107
  1
20
 41
0.7
 11
216.53808024103941
 21
61.959038867824312
 31
0.0
 73
     2
  0
LINE
  5
17E
  8
DATA
  6
CONTINUOUS
 62
     7
 10
230.0
 20
59.0
 30
0.0
 11
230.0
 21
56.0
 31
0.0
  0
TEXT
  5
17F
  8
DATA
 62
     7
 10
226.53808024103941
 20
59.244303624768762
 30
0.0
 40
5.4294704861111107
  1
21
 41
0.7
 11
226.53808024103941
 21
61.959038867824312
 31
0.0
 73
     2
  0
LINE
  5
180
  8
DATA
  6
CONTINUOUS
 62
     7
 10
240.0
 20
59.0
 30
0.0
 11
240.0
 21
56.0
 31
0.0
  0
TEXT
  5
181
  8
DATA
 62
     7
 10
236.63043425454029
 20
59.244303624768762
 30
0.0
 40
5.4294704861111107
  1
22
 41
0.7
 11
236.63043425454029
 21
61.959038867824312
 31
0.0
 73
     2
  0
LINE
  5
182
  8
DATA
  6
CONTINUOUS
 62
     7
 10
250.0
 20
59.0
 30
0.0
 11
250.0
 21
56.0
 31
0.0
  0
TEXT
  5
183
  8
DATA
 62
     7
 10
246.53808024103941
 20
59.244303624768762
 30
0.0
 40
5.4294704861111107
  1
23
 41
0.7
 11
246.53808024103941
 21
61.959038867824312
 31
0.0
 73
     2
  0
LINE
  5
184
  8
DATA
  6
CONTINUOUS
 62
     7
 10
260.0
 20
59.0
 30
0.0
 11
260.0
 21
56.0
 31
0.0
  0
TEXT
  5
185
  8
DATA
 62
     7
 10
256.44572622753788
 20
59.244303624768762
 30
0.0
 40
5.4294704861111107
  1
24
 41
0.7
 11
256.44572622753788
 21
61.959038867824312
 31
0.0
 73
     2
  0
LINE
  5
186
  8
DATA
  6
CONTINUOUS
 62
     7
 10
-250.0
 20
-175.97912990010579
 30
0.0
 11
-250.0
 21
-185.5791299001059
 31
0.0
  0
LINE
  5
187
  8
DATA
  6
CONTINUOUS
 62
     7
 10
-245.0
 20
-190.77912990010589
 30
0.0
 11
-160.0
 21
-190.77912990010589
 31
0.0
  0
LINE
  5
188
  8
DATA
  6
CONTINUOUS
 62
     7
 10
-140.0
 20
-190.77912990010589
 30
0.0
 11
-119.727595541121
 21
-190.77912990010589
 31
0.0
  0
LINE
  5
189
  8
DATA
  6
CONTINUOUS
 62
     7
 10
-108.18059015732869
 20
-170.77912990010589
 30
0.0
 11
-140.0
 21
-170.77912990010589
 31
0.0
  0
LINE
  5
18A
  8
DATA
  6
CONTINUOUS
 62
     7
 10
-160.0
 20
-170.77912990010589
 30
0.0
 11
-245.00000000000011
 21
-170.77912990010589
 31
0.0
  0
LINE
  5
18B
  8
DATA
  6
CONTINUOUS
 62
     7
 10
-250.0
 20
-185.5791299001059
 30
0.0
 11
-245.0
 21
-190.77912990010589
 31
0.0
  0
LINE
  5
18C
  8
DATA
  6
CONTINUOUS
 62
     7
 10
-250.0
 20
-175.9791299001059
 30
0.0
 11
-245.0
 21
-170.77912990010589
 31
0.0
  0
LINE
  5
18D
  8
DATA
  6
CONTINUOUS
 62
     7
 10
-160.0
 20
-157.77912990010589
 30
0.0
 11
-160.0
 21
-170.77912990010589
 31
0.0
  0
LINE
  5
18E
  8
DATA
  6
CONTINUOUS
 62
     7
 10
-160.0
 20
-190.7791299001058
 30
0.0
 11
-160.0
 21
-193.77912990010589
 31
0.0
  0
LINE
  5
18F
  8
DATA
  6
CONTINUOUS
 62
     7
 10
-140.0
 20
-193.77912990010589
 30
0.0
 11
-140.0
 21
-190.7791299001058
 31
0.0
  0
LINE
  5
190
  8
DATA
  6
CONTINUOUS
 62
     7
 10
-140.0
 20
-170.77912990010589
 30
0.0
 11
-140.0
 21
-157.77912990010589
 31
0.0
  0
LINE
  5
191
  8
DATA
  6
CONTINUOUS
 62
     7
 10
-157.5
 20
-213.779129900106
 30
0.0
 11
-142.5
 21
-213.779129900106
 31
0.0
  0
ARC
  5
192
  8
DATA
  6
CONTINUOUS
 62
     7
 10
-150.0
 20
-157.77912990010589
 30
0.0
 40
10.0
 50
0.0
 51
180.0
  0
ARC
  5
193
  8
DATA
  6
CONTINUOUS
 62
     7
 10
-150.0
 20
-157.0056272082096
 30
0.0
 40
11.54700538379257
 50
210.0000000000004
 51
329.9999999999996
  0
LINE
  5
194
  8
DATA
  6
CONTINUOUS
 62
     7
 10
-160.0
 20
-193.77912990010589
 30
0.0
 11
-140.0
 21
-193.77912990010589
 31
0.0
  0
LINE
  5
195
  8
DATA
  6
CONTINUOUS
 62
     7
 10
-160.0
 20
-195.77912990010589
 30
0.0
 11
-140.0
 21
-195.77912990010589
 31
0.0
  0
LINE
  5
196
  8
DATA
  6
CONTINUOUS
 62
     7
 10
-160.0
 20
-195.77912990010589
 30
0.0
 11
-157.5
 21
-213.779129900106
 31
0.0
  0
LINE
  5
197
  8
DATA
  6
CONTINUOUS
 62
     7
 10
-140.0
 20
-195.77912990010589
 30
0.0
 11
-142.5
 21
-213.779129900106
 31
0.0
  0
ARC
  5
198
  8
DATA
  6
CONTINUOUS
 62
     7
 10
-160.0
 20
-194.77912990010589
 30
0.0
 40
1.0
 50
270.0
 51
90.0
  0
ARC
  5
199
  8
DATA
  6
CONTINUOUS
 62
     7
 10
-140.0
 20
-194.77912990010589
 30
0.0
 40
1.0
 50
90.0
 51
270.0
  0
LINE
  5
19A
  8
DATA
  6
CONTINUOUS
 62
     7
 10
-142.0
 20
-188.17418773364079
 30
0.0
 11
-142.0
 21
-173.38407206657101
 31
0.0
  0
LINE
  5
19B
  8
DATA
  6
CONTINUOUS
 62
     7
 10
-158.0
 20
-173.38407206657121
 30
0.0
 11
-158.0
 21
-188.17418773364059
 31
0.0
  0
ARC
  5
19C
  8
DATA
  6
CONTINUOUS
 62
     7
 10
-161.2559460915482
 20
-187.74460800930439
 30
0.0
 40
3.2841625554513949
 50
292.48397812861469
 51
352.48397812861458
  0
ARC
  5
19D
  8
DATA
  6
CONTINUOUS
 62
     7
 10
-138.7440539084518
 20
-187.74460800930439
 30
0.0
 40
3.284162555451386
 50
187.51602187138531
 51
247.51602187138531
  0
ARC
  5
19E
  8
DATA
  6
CONTINUOUS
 62
     7
 10
-161.2559460915482
 20
-173.81365179090739
 30
0.0
 40
3.284162555451386
 50
7.5160218713853366
 51
67.51602187138532
  0
ARC
  5
19F
  8
DATA
  6
CONTINUOUS
 62
     7
 10
-138.7440539084518
 20
-173.81365179090739
 30
0.0
 40
3.2841625554513949
 50
112.48397812861469
 51
172.48397812861469
  0
LINE
  5
1A0
  8
DATA
  6
CONTINUOUS
 62
     7
 10
-158.0
 20
-231.77912990010631
 30
0.0
 11
-142.0
 21
-231.77912990010631
 31
0.0
  0
LINE
  5
1A1
  8
DATA
  6
CONTINUOUS
 62
     7
 10
-158.0
 20
-215.77912990010611
 30
0.0
 11
-142.0
 21
-215.77912990010611
 31
0.0
  0
LINE
  5
1A2
  8
DATA
  6
CONTINUOUS
 62
     7
 10
-159.0
 20
-230.77912990010631
 30
0.0
 11
-159.0
 21
-216.77912990010611
 31
0.0
  0
LINE
  5
1A3
  8
DATA
  6
CONTINUOUS
 62
     7
 10
-141.0
 20
-230.77912990010631
 30
0.0
 11
-141.0
 21
-216.77912990010611
 31
0.0
  0
LINE
  5
1A4
  8
DATA
  6
CONTINUOUS
 62
     7
 10
-146.0
 20
-215.77912990010611
 30
0.0
 11
-146.0
 21
-213.779129900106
 31
0.0
  0
LINE
  5
1A5
  8
DATA
  6
CONTINUOUS
 62
     7
 10
-154.0
 20
-213.779129900106
 30
0.0
 11
-154.0
 21
-215.77912990010611
 31
0.0
  0
ARC
  5
1A6
  8
DATA
  6
CONTINUOUS
 62
     7
 10
-158.0
 20
-230.77912990010631
 30
0.0
 40
1.0
 50
180.0
 51
270.0
  0
ARC
  5
1A7
  8
DATA
  6
CONTINUOUS
 62
     7
 10
-142.0
 20
-230.77912990010631
 30
0.0
 40
1.0
 50
270.0
 51
0.0
  0
ARC
  5
1A8
  8
DATA
  6
CONTINUOUS
 62
     7
 10
-158.0
 20
-216.77912990010611
 30
0.0
 40
1.000000000000028
 50
90.0
 51
180.0
  0
ARC
  5
1A9
  8
DATA
  6
CONTINUOUS
 62
     7
 10
-142.0
 20
-216.77912990010611
 30
0.0
 40
1.0
 50
0.0
 51
90.0
  0
LINE
  5
1AA
  8
DATA
  6
CONTINUOUS
 62
     7
 10
-158.0
 20
-231.77912990010631
 30
0.0
 11
-158.0
 21
-215.77912990010611
 31
0.0
  0
LINE
  5
1AB
  8
DATA
  6
CONTINUOUS
 62
     7
 10
-155.0
 20
-231.77912990010631
 30
0.0
 11
-155.0
 21
-215.77912990010611
 31
0.0
  0
LINE
  5
1AC
  8
DATA
  6
CONTINUOUS
 62
     7
 10
-153.0
 20
-231.77912990010631
 30
0.0
 11
-153.0
 21
-215.77912990010611
 31
0.0
  0
LINE
  5
1AD
  8
DATA
  6
CONTINUOUS
 62
     7
 10
-150.0
 20
-231.77912990010631
 30
0.0
 11
-150.0
 21
-215.77912990010611
 31
0.0
  0
LINE
  5
1AE
  8
DATA
  6
CONTINUOUS
 62
     7
 10
-147.99999999999989
 20
-231.77912990010631
 30
0.0
 11
-147.99999999999989
 21
-215.77912990010611
 31
0.0
  0
LINE
  5
1AF
  8
DATA
  6
CONTINUOUS
 62
     7
 10
-145.0
 20
-231.77912990010631
 30
0.0
 11
-145.0
 21
-215.77912990010611
 31
0.0
  0
LINE
  5
1B0
  8
DATA
  6
CONTINUOUS
 62
     7
 10
-142.99999999999989
 20
-231.77912990010631
 30
0.0
 11
-142.99999999999989
 21
-215.77912990010611
 31
0.0
  0
LINE
  5
1B1
  8
DATA
  6
CONTINUOUS
 62
     7
 10
-158.0
 20
-231.27912990010631
 30
0.0
 11
-154.99999999999989
 21
-231.27912990010631
 31
0.0
  0
LINE
  5
1B2
  8
DATA
  6
CONTINUOUS
 62
     7
 10
-153.0
 20
-231.27912990010631
 30
0.0
 11
-147.99999999999989
 21
-231.27912990010631
 31
0.0
  0
LINE
  5
1B3
  8
DATA
  6
CONTINUOUS
 62
     7
 10
-145.0
 20
-231.27912990010631
 30
0.0
 11
-142.99999999999989
 21
-231.27912990010631
 31
0.0
  0
LINE
  5
1B4
  8
DATA
  6
CONTINUOUS
 62
     7
 10
-158.0
 20
-216.27912990010611
 30
0.0
 11
-154.99999999999989
 21
-216.27912990010611
 31
0.0
  0
LINE
  5
1B5
  8
DATA
  6
CONTINUOUS
 62
     7
 10
-153.0
 20
-216.27912990010611
 30
0.0
 11
-147.99999999999989
 21
-216.27912990010611
 31
0.0
  0
LINE
  5
1B6
  8
DATA
  6
CONTINUOUS
 62
     7
 10
-145.0
 20
-216.27912990010611
 30
0.0
 11
-142.99999999999989
 21
-216.27912990010611
 31
0.0
  0
TEXT
  5
1B7
  8
DATA
 62
     7
 10
-117.3666476144699
 20
-243.10100692165659
 30
0.0
 40
10.85894161946562
  1
B
 41
0.7
 11
-117.3666476144699
 21
-237.67153611192381
 31
0.0
 73
     2
  0
LINE
  5
1B8
  8
DATA
  6
CONTINUOUS
 62
     7
 10
-141.0
 20
-223.7791299001062
 30
0.0
 11
-120.0
 21
-235.9034855530885
 31
0.0
  0
LINE
  5
1B9
  8
DATA
  6
CONTINUOUS
 62
     7
 10
-141.0
 20
-223.7791299001062
 30
0.0
 11
-128.30000000000001
 21
-227.1820846439814
 31
0.0
  0
LINE
  5
1BA
  8
DATA
  6
CONTINUOUS
 62
     7
 10
-141.0
 20
-223.7791299001062
 30
0.0
 11
-131.7029547438753
 21
-233.0761751562309
 31
0.0
  0
CIRCLE
  5
1BB
  8
DATA
  6
CONTINUOUS
 62
     7
 10
-244.5
 20
-180.77912990010589
 30
0.0
 40
4.0
  0
LINE
  5
1BC
  8
DATA
  6
CONTINUOUS
 62
     7
 10
-247.96410161513771
 20
-178.77912990010589
 30
0.0
 11
-241.03589838486229
 21
-178.77912990010589
 31
0.0
  0
LINE
  5
1BD
  8
DATA
  6
CONTINUOUS
 62
     7
 10
-241.03589838486229
 20
-182.77912990010589
 30
0.0
 11
-247.96410161513771
 21
-182.77912990010589
 31
0.0
  0
LINE
  5
1BE
  8
DATA
  6
CONTINUOUS
 62
     7
 10
-54.289619329721567
 20
-188.70392721301781
 30
0.0
 11
-35.540321215047079
 21
-188.70392721301781
 31
0.0
  0
LINE
  5
1BF
  8
DATA
  6
CONTINUOUS
 62
     7
 10
-18.219813139358301
 20
-188.70392721301781
 30
0.0
 11
23.119932822797299
 21
-188.70392721301781
 31
0.0
  0
LINE
  5
1C0
  8
DATA
  6
CONTINUOUS
 62
     7
 10
-58.82894957080385
 20
-178.70392721301781
 30
0.0
 11
-35.540321215047079
 21
-178.70392721301781
 31
0.0
  0
LINE
  5
1C1
  8
DATA
  6
CONTINUOUS
 62
     7
 10
-18.219813139358301
 20
-178.70392721301781
 30
0.0
 11
23.119932822797299
 21
-178.70392721301781
 31
0.0
  0
LINE
  5
1C2
  8
DATA
  6
CONTINUOUS
 62
     7
 10
23.119932822797299
 20
-178.70392721301781
 30
0.0
 11
23.119932822797299
 21
-188.70392721301781
 31
0.0
  0
LINE
  5
1C3
  8
DATA
  6
CONTINUOUS
 62
     7
 10
-18.9564595762251
 20
-156.6477463856242
 30
0.0
 11
-34.956459576224809
 21
-156.6477463856242
 31
0.0
  0
LINE
  5
1C4
  8
DATA
  6
CONTINUOUS
 62
     7
 10
-18.9564595762251
 20
-172.6477463856244
 30
0.0
 11
-34.956459576224809
 21
-172.6477463856244
 31
0.0
  0
LINE
  5
1C5
  8
DATA
  6
CONTINUOUS
 62
     7
 10
-17.9564595762251
 20
-157.64774638562409
 30
0.0
 11
-17.9564595762251
 21
-171.6477463856244
 31
0.0
  0
LINE
  5
1C6
  8
DATA
  6
CONTINUOUS
 62
     7
 10
-35.956459576224788
 20
-157.64774638562409
 30
0.0
 11
-35.956459576224788
 21
-171.6477463856244
 31
0.0
  0
LINE
  5
1C7
  8
DATA
  6
CONTINUOUS
 62
     7
 10
-30.95645957622488
 20
-172.6477463856244
 30
0.0
 11
-30.95645957622488
 21
-178.70392721301781
 31
0.0
  0
LINE
  5
1C8
  8
DATA
  6
CONTINUOUS
 62
     7
 10
-30.95645957622488
 20
-188.70392721301781
 30
0.0
 11
-30.95645957622488
 21
-194.2705964768293
 31
0.0
  0
LINE
  5
1C9
  8
DATA
  6
CONTINUOUS
 62
     7
 10
-22.956459576225019
 20
-194.2705964768293
 30
0.0
 11
-22.956459576225019
 21
-188.70392721301781
 31
0.0
  0
LINE
  5
1CA
  8
DATA
  6
CONTINUOUS
 62
     7
 10
-22.956459576225019
 20
-178.70392721301781
 30
0.0
 11
-22.956459576225019
 21
-172.6477463856244
 31
0.0
  0
ARC
  5
1CB
  8
DATA
  6
CONTINUOUS
 62
     7
 10
-18.9564595762251
 20
-157.64774638562409
 30
0.0
 40
1.0
 50
0.0
 51
90.0
  0
ARC
  5
1CC
  8
DATA
  6
CONTINUOUS
 62
     7
 10
-34.956459576224809
 20
-157.64774638562409
 30
0.0
 40
1.0
 50
90.0
 51
180.0
  0
ARC
  5
1CD
  8
DATA
  6
CONTINUOUS
 62
     7
 10
-18.9564595762251
 20
-171.6477463856244
 30
0.0
 40
1.000000000000056
 50
270.0
 51
0.0
  0
ARC
  5
1CE
  8
DATA
  6
CONTINUOUS
 62
     7
 10
-34.956459576224809
 20
-171.6477463856244
 30
0.0
 40
0.9999999999999788
 50
180.0
 51
270.0
  0
LINE
  5
1CF
  8
DATA
  6
CONTINUOUS
 62
     7
 10
-18.9564595762251
 20
-156.6477463856242
 30
0.0
 11
-18.9564595762251
 21
-172.6477463856244
 31
0.0
  0
LINE
  5
1D0
  8
DATA
  6
CONTINUOUS
 62
     7
 10
-21.956459576225061
 20
-156.6477463856242
 30
0.0
 11
-21.956459576225061
 21
-172.6477463856244
 31
0.0
  0
LINE
  5
1D1
  8
DATA
  6
CONTINUOUS
 62
     7
 10
-23.956459576225029
 20
-156.6477463856242
 30
0.0
 11
-23.956459576225029
 21
-172.6477463856244
 31
0.0
  0
LINE
  5
1D2
  8
DATA
  6
CONTINUOUS
 62
     7
 10
-26.956459576224979
 20
-156.6477463856242
 30
0.0
 11
-26.956459576224979
 21
-172.6477463856244
 31
0.0
  0
LINE
  5
1D3
  8
DATA
  6
CONTINUOUS
 62
     7
 10
-28.95645957622493
 20
-156.6477463856242
 30
0.0
 11
-28.95645957622493
 21
-172.6477463856244
 31
0.0
  0
LINE
  5
1D4
  8
DATA
  6
CONTINUOUS
 62
     7
 10
-31.956459576224891
 20
-156.6477463856242
 30
0.0
 11
-31.956459576224891
 21
-172.6477463856244
 31
0.0
  0
LINE
  5
1D5
  8
DATA
  6
CONTINUOUS
 62
     7
 10
-33.956459576224852
 20
-156.6477463856242
 30
0.0
 11
-33.956459576224852
 21
-172.6477463856244
 31
0.0
  0
LINE
  5
1D6
  8
DATA
  6
CONTINUOUS
 62
     7
 10
-18.956459576225068
 20
-157.1477463856242
 30
0.0
 11
-21.95645957622509
 21
-157.1477463856242
 31
0.0
  0
LINE
  5
1D7
  8
DATA
  6
CONTINUOUS
 62
     7
 10
-23.956459576225029
 20
-157.1477463856242
 30
0.0
 11
-28.95645957622493
 21
-157.1477463856242
 31
0.0
  0
LINE
  5
1D8
  8
DATA
  6
CONTINUOUS
 62
     7
 10
-31.956459576224891
 20
-157.1477463856242
 30
0.0
 11
-33.956459576224852
 21
-157.1477463856242
 31
0.0
  0
LINE
  5
1D9
  8
DATA
  6
CONTINUOUS
 62
     7
 10
-18.956459576225068
 20
-172.1477463856244
 30
0.0
 11
-21.95645957622509
 21
-172.1477463856244
 31
0.0
  0
LINE
  5
1DA
  8
DATA
  6
CONTINUOUS
 62
     7
 10
-23.956459576225029
 20
-172.1477463856244
 30
0.0
 11
-28.95645957622493
 21
-172.1477463856244
 31
0.0
  0
LINE
  5
1DB
  8
DATA
  6
CONTINUOUS
 62
     7
 10
-31.956459576224891
 20
-172.1477463856244
 30
0.0
 11
-33.956459576224852
 21
-172.1477463856244
 31
0.0
  0
ARC
  5
1DC
  8
DATA
  6
CONTINUOUS
 62
     7
 10
23.119932822797299
 20
-183.70392721301781
 30
0.0
 40
5.0
 50
90.0
 51
270.0
  0
LINE
  5
1DD
  8
DATA
  6
CONTINUOUS
 62
     7
 10
13.61993282279729
 20
-178.70392721301781
 30
0.0
 11
13.61993282279729
 21
-164.70392721301781
 31
0.0
  0
LINE
  5
1DE
  8
DATA
  6
CONTINUOUS
 62
     7
 10
21.619932822797299
 20
-164.70392721301781
 30
0.0
 11
21.619932822797299
 21
-178.70392721301781
 31
0.0
  0
ARC
  5
1DF
  8
DATA
  6
CONTINUOUS
 62
     7
 10
17.619932822797288
 20
-164.70392721301781
 30
0.0
 40
4.0
 50
0.0
 51
180.0
  0
CIRCLE
  5
1E0
  8
DATA
  6
CONTINUOUS
 62
     7
 10
17.619932822797288
 20
-164.70392721301781
 30
0.0
 40
2.4000000000000048
  0
ARC
  5
1E1
  8
DATA
  6
CONTINUOUS
 62
     7
 10
17.548539119110409
 20
-166.01818365838551
 30
0.0
 40
4.4957115474691642
 50
209.09008177851041
 51
334.90653822431818
  0
LINE
  5
1E2
  8
DATA
  6
CONTINUOUS
 62
     7
 10
-150.89394977833931
 20
-148.8236369603618
 30
0.0
 11
-155.7003718362574
 21
-150.81452216324061
 31
0.0
  0
LINE
  5
1E3
  8
DATA
  6
CONTINUOUS
 62
     7
 10
-156.96460773686519
 20
-152.07875806384851
 30
0.0
 11
-158.95549293974409
 21
-156.8851801217665
 31
0.0
  0
LINE
  5
1E4
  8
DATA
  6
CONTINUOUS
 62
     7
 10
-158.95549293974409
 20
-158.6730796784453
 30
0.0
 11
-156.96460773686519
 21
-163.47950173636329
 31
0.0
  0
LINE
  5
1E5
  8
DATA
  6
CONTINUOUS
 62
     7
 10
-155.7003718362574
 20
-164.74373763697119
 30
0.0
 11
-150.89394977833939
 21
-166.73462283985
 31
0.0
  0
LINE
  5
1E6
  8
DATA
  6
CONTINUOUS
 62
     7
 10
-149.10605022166061
 20
-166.73462283985
 30
0.0
 11
-144.2996281637426
 21
-164.74373763697119
 31
0.0
  0
LINE
  5
1E7
  8
DATA
  6
CONTINUOUS
 62
     7
 10
-143.0353922631347
 20
-163.4795017363632
 30
0.0
 11
-141.04450706025591
 21
-158.6730796784453
 31
0.0
  0
LINE
  5
1E8
  8
DATA
  6
CONTINUOUS
 62
     7
 10
-141.0445070602558
 20
-156.8851801217665
 30
0.0
 11
-143.0353922631347
 21
-152.0787580638486
 31
0.0
  0
LINE
  5
1E9
  8
DATA
  6
CONTINUOUS
 62
     7
 10
-144.2996281637426
 20
-150.81452216324061
 30
0.0
 11
-149.10605022166061
 21
-148.8236369603618
 31
0.0
  0
LINE
  5
1EA
  8
DATA
  6
CONTINUOUS
 62
     7
 10
-150.89394977833931
 20
-148.8236369603618
 30
0.0
 11
-149.10605022166061
 21
-148.8236369603618
 31
0.0
  0
LINE
  5
1EB
  8
DATA
  6
CONTINUOUS
 62
     7
 10
-144.2996281637426
 20
-150.81452216324061
 30
0.0
 11
-143.0353922631347
 21
-152.07875806384851
 31
0.0
  0
LINE
  5
1EC
  8
DATA
  6
CONTINUOUS
 62
     7
 10
-141.04450706025591
 20
-158.6730796784453
 30
0.0
 11
-141.0445070602558
 21
-156.8851801217665
 31
0.0
  0
LINE
  5
1ED
  8
DATA
  6
CONTINUOUS
 62
     7
 10
-144.2996281637426
 20
-164.74373763697119
 30
0.0
 11
-143.0353922631347
 21
-163.4795017363632
 31
0.0
  0
LINE
  5
1EE
  8
DATA
  6
CONTINUOUS
 62
     7
 10
-149.10605022166061
 20
-166.73462283985
 30
0.0
 11
-150.89394977833939
 21
-166.73462283985
 31
0.0
  0
LINE
  5
1EF
  8
DATA
  6
CONTINUOUS
 62
     7
 10
-155.70037183625729
 20
-164.74373763697119
 30
0.0
 11
-156.96460773686519
 21
-163.47950173636329
 31
0.0
  0
LINE
  5
1F0
  8
DATA
  6
CONTINUOUS
 62
     7
 10
-158.95549293974409
 20
-158.6730796784453
 30
0.0
 11
-158.95549293974409
 21
-156.8851801217665
 31
0.0
  0
LINE
  5
1F1
  8
DATA
  6
CONTINUOUS
 62
     7
 10
-156.96460773686519
 20
-152.07875806384851
 30
0.0
 11
-155.70037183625729
 21
-150.81452216324061
 31
0.0
  0
ARC
  5
1F2
  8
DATA
  6
CONTINUOUS
 62
     7
 10
-106.146167520692
 20
-193.43074871896201
 30
0.0
 40
13.83785638871162
 50
122.65681643418451
 51
168.9526223094326
  0
ARC
  5
1F3
  8
DATA
  6
CONTINUOUS
 62
     7
 10
-128.30355420488101
 20
-167.6841409903825
 30
0.0
 40
20.359583453754531
 50
316.1823559678968
 51
351.2562067497106
  0
ARC
  5
1F4
  8
DATA
  6
CONTINUOUS
 62
     7
 10
-26.880067177202768
 20
-183.70392721301729
 30
0.0
 40
10.00000000000051
 50
293.1014727638576
 51
66.898527236142442
  0
ARC
  5
1F5
  8
DATA
  6
CONTINUOUS
 62
     7
 10
-26.880067177202768
 20
-183.70392721301729
 30
0.0
 40
10.000000000000499
 50
114.0566215684982
 51
245.94337843150171
  0
LINE
  5
1F6
  8
DATA
  6
CONTINUOUS
 62
     7
 10
-35.540321215047079
 20
-178.70392721301781
 30
0.0
 11
-18.219813139358301
 21
-178.70392721301781
 31
0.0
  0
LINE
  5
1F7
  8
DATA
  6
CONTINUOUS
 62
     7
 10
-35.540321215047079
 20
-188.70392721301781
 30
0.0
 11
-18.219813139358301
 21
-188.70392721301781
 31
0.0
  0
LINE
  5
1F8
  8
DATA
  6
CONTINUOUS
 62
     7
 10
-30.95645957622488
 20
-194.2705964768293
 30
0.0
 11
-22.956459576225019
 21
-194.2705964768293
 31
0.0
  0
LINE
  5
1F9
  8
DATA
  6
CONTINUOUS
 62
     7
 10
-30.95645957622488
 20
-194.2705964768293
 30
0.0
 11
-22.956459576225019
 21
-193.5182074239523
 31
0.0
  0
LINE
  5
1FA
  8
DATA
  6
CONTINUOUS
 62
     7
 10
-30.95645957622488
 20
-192.7705964768293
 30
0.0
 11
-22.956459576225019
 21
-192.0182074239523
 31
0.0
  0
LINE
  5
1FB
  8
DATA
  6
CONTINUOUS
 62
     7
 10
-30.95645957622488
 20
-191.2705964768293
 30
0.0
 11
-22.956459576225019
 21
-190.5182074239523
 31
0.0
  0
LINE
  5
1FC
  8
DATA
  6
CONTINUOUS
 62
     7
 10
-30.95645957622488
 20
-189.7705964768293
 30
0.0
 11
-22.956459576225019
 21
-189.0182074239523
 31
0.0
  0
TEXT
  5
1FD
  8
DATA
 62
     7
 10
-25.794173079980549
 20
-184.40948276857279
 30
0.0
 40
2.1717881944444439
  1
0
 50
90.0
 41
0.7
 11
-26.880067177202768
 21
-184.40948276857279
 31
0.0
 73
     2
  0
LINE
  5
1FE
  8
DATA
  6
CONTINUOUS
 62
     7
 10
-26.880067177202701
 20
-178.70392721301781
 30
0.0
 11
-26.880067177202701
 21
-181.99393169250999
 31
0.0
  0
LINE
  5
1FF
  8
DATA
  6
CONTINUOUS
 62
     7
 10
-26.880067177202701
 20
-188.70392721301681
 30
0.0
 11
-26.880067177202701
 21
-185.41392273352449
 31
0.0
  0
ARC
  5
200
  8
DATA
  6
CONTINUOUS
 62
     7
 10
-51.020483426118219
 20
-185.3199654695629
 30
0.0
 40
4.7051510748746654
 50
179.0567889102505
 51
225.98876992773651
  0
ARC
  5
201
  8
DATA
  6
CONTINUOUS
 62
     7
 10
-78.323639441251785
 20
-191.96435005885201
 30
0.0
 40
23.577144593764281
 50
16.564810992631561
 51
34.223808113520953
  0
LINE
  5
202
  8
DATA
  6
CONTINUOUS
 62
     7
 10
150.0
 20
-178.70392721301781
 30
0.0
 11
160.0
 21
-178.70392721301781
 31
0.0
  0
LINE
  5
203
  8
DATA
  6
CONTINUOUS
 62
     7
 10
150.0
 20
-188.70392721301781
 30
0.0
 11
160.0
 21
-188.70392721301781
 31
0.0
  0
LINE
  5
204
  8
DATA
  6
CONTINUOUS
 62
     7
 10
139.00354042377489
 20
-156.09165280363479
 30
0.0
 11
123.00354042377521
 21
-156.09165280363479
 31
0.0
  0
LINE
  5
205
  8
DATA
  6
CONTINUOUS
 62
     7
 10
139.00354042377489
 20
-172.0916528036351
 30
0.0
 11
123.00354042377521
 21
-172.0916528036351
 31
0.0
  0
LINE
  5
206
  8
DATA
  6
CONTINUOUS
 62
     7
 10
140.00354042377489
 20
-157.09165280363479
 30
0.0
 11
140.00354042377489
 21
-171.0916528036351
 31
0.0
  0
LINE
  5
207
  8
DATA
  6
CONTINUOUS
 62
     7
 10
122.00354042377521
 20
-157.09165280363479
 30
0.0
 11
122.00354042377521
 21
-171.0916528036351
 31
0.0
  0
ARC
  5
208
  8
DATA
  6
CONTINUOUS
 62
     7
 10
139.00354042377489
 20
-157.09165280363479
 30
0.0
 40
1.0
 50
0.0
 51
90.0
  0
ARC
  5
209
  8
DATA
  6
CONTINUOUS
 62
     7
 10
123.00354042377521
 20
-157.09165280363479
 30
0.0
 40
1.0
 50
90.0
 51
180.0
  0
ARC
  5
20A
  8
DATA
  6
CONTINUOUS
 62
     7
 10
123.00354042377521
 20
-171.0916528036351
 30
0.0
 40
0.9999999999999857
 50
180.0
 51
270.0
  0
LINE
  5
20B
  8
DATA
  6
CONTINUOUS
 62
     7
 10
139.00354042377489
 20
-156.09165280363479
 30
0.0
 11
139.00354042377489
 21
-172.0916528036351
 31
0.0
  0
LINE
  5
20C
  8
DATA
  6
CONTINUOUS
 62
     7
 10
136.00354042377489
 20
-156.09165280363479
 30
0.0
 11
136.00354042377489
 21
-172.0916528036351
 31
0.0
  0
LINE
  5
20D
  8
DATA
  6
CONTINUOUS
 62
     7
 10
134.00354042377501
 20
-156.09165280363479
 30
0.0
 11
134.00354042377501
 21
-172.0916528036351
 31
0.0
  0
LINE
  5
20E
  8
DATA
  6
CONTINUOUS
 62
     7
 10
131.00354042377501
 20
-156.09165280363479
 30
0.0
 11
131.00354042377501
 21
-172.0916528036351
 31
0.0
  0
LINE
  5
20F
  8
DATA
  6
CONTINUOUS
 62
     7
 10
129.00354042377501
 20
-156.09165280363479
 30
0.0
 11
129.00354042377501
 21
-172.0916528036351
 31
0.0
  0
LINE
  5
210
  8
DATA
  6
CONTINUOUS
 62
     7
 10
126.00354042377511
 20
-156.09165280363479
 30
0.0
 11
126.00354042377511
 21
-172.0916528036351
 31
0.0
  0
LINE
  5
211
  8
DATA
  6
CONTINUOUS
 62
     7
 10
124.00354042377511
 20
-156.09165280363479
 30
0.0
 11
124.00354042377511
 21
-172.0916528036351
 31
0.0
  0
LINE
  5
212
  8
DATA
  6
CONTINUOUS
 62
     7
 10
139.00354042377489
 20
-156.59165280363479
 30
0.0
 11
136.00354042377489
 21
-156.59165280363479
 31
0.0
  0
LINE
  5
213
  8
DATA
  6
CONTINUOUS
 62
     7
 10
134.00354042377501
 20
-156.59165280363479
 30
0.0
 11
131.00354042377501
 21
-156.59165280363479
 31
0.0
  0
LINE
  5
214
  8
DATA
  6
CONTINUOUS
 62
     7
 10
139.00354042377489
 20
-171.5916528036351
 30
0.0
 11
136.00354042377489
 21
-171.5916528036351
 31
0.0
  0
LINE
  5
215
  8
DATA
  6
CONTINUOUS
 62
     7
 10
134.00354042377501
 20
-171.5916528036351
 30
0.0
 11
131.00354042377501
 21
-171.5916528036351
 31
0.0
  0
LINE
  5
216
  8
DATA
  6
CONTINUOUS
 62
     7
 10
150.0
 20
-178.70392721301781
 30
0.0
 11
150.0
 21
-188.70392721301781
 31
0.0
  0
LINE
  5
217
  8
DATA
  6
CONTINUOUS
 62
     7
 10
160.0
 20
-178.70392721301781
 30
0.0
 11
160.0
 21
-188.70392721301781
 31
0.0
  0
LINE
  5
218
  8
DATA
  6
CONTINUOUS
 62
     7
 10
165.0
 20
-181.70392721301781
 30
0.0
 11
165.0
 21
-185.70392721301781
 31
0.0
  0
LINE
  5
219
  8
DATA
  6
CONTINUOUS
 62
     7
 10
145.0
 20
-185.70392721301781
 30
0.0
 11
145.0
 21
-181.70392721301781
 31
0.0
  0
LINE
  5
21A
  8
DATA
  6
CONTINUOUS
 62
     7
 10
148.0
 20
-178.70392721301781
 30
0.0
 11
162.0
 21
-178.70392721301781
 31
0.0
  0
LINE
  5
21B
  8
DATA
  6
CONTINUOUS
 62
     7
 10
148.0
 20
-188.70392721301781
 30
0.0
 11
162.0
 21
-188.70392721301781
 31
0.0
  0
ARC
  5
21C
  8
DATA
  6
CONTINUOUS
 62
     7
 10
148.0
 20
-181.70392721301781
 30
0.0
 40
3.0
 50
90.0
 51
180.0
  0
ARC
  5
21D
  8
DATA
  6
CONTINUOUS
 62
     7
 10
162.0
 20
-181.70392721301781
 30
0.0
 40
3.0
 50
0.0
 51
90.0
  0
ARC
  5
21E
  8
DATA
  6
CONTINUOUS
 62
     7
 10
148.0
 20
-185.70392721301781
 30
0.0
 40
3.0
 50
180.0
 51
270.0
  0
ARC
  5
21F
  8
DATA
  6
CONTINUOUS
 62
     7
 10
162.0
 20
-185.70392721301781
 30
0.0
 40
3.0
 50
270.0
 51
0.0
  0
LINE
  5
220
  8
DATA
  6
CONTINUOUS
 62
     7
 10
150.80000000000001
 20
-178.70392721301781
 30
0.0
 11
150.80000000000001
 21
-168.20392721301781
 31
0.0
  0
LINE
  5
221
  8
DATA
  6
CONTINUOUS
 62
     7
 10
158.80000000000001
 20
-168.20392721301781
 30
0.0
 11
158.80000000000001
 21
-178.70392721301781
 31
0.0
  0
LINE
  5
222
  8
DATA
  6
CONTINUOUS
 62
     7
 10
156.30000000000001
 20
-161.0
 30
0.0
 11
156.30000000000001
 21
-166.76055154004371
 31
0.0
  0
LINE
  5
223
  8
DATA
  6
CONTINUOUS
 62
     7
 10
153.30000000000001
 20
-166.76055154004371
 30
0.0
 11
153.30000000000001
 21
-161.0
 31
0.0
  0
LINE
  5
224
  8
DATA
  6
CONTINUOUS
 62
     7
 10
150.80000000000001
 20
-168.20392721301781
 30
0.0
 11
153.30000000000001
 21
-166.76055154004371
 31
0.0
  0
LINE
  5
225
  8
DATA
  6
CONTINUOUS
 62
     7
 10
156.30000000000001
 20
-166.76055154004371
 30
0.0
 11
158.80000000000001
 21
-168.20392721301781
 31
0.0
  0
ARC
  5
226
  8
DATA
  6
CONTINUOUS
 62
     7
 10
154.80000000000001
 20
-164.65170491832239
 30
0.0
 40
3.947777705304615
 50
67.668757620653935
 51
112.33124237934609
  0
LINE
  5
227
  8
DATA
  6
CONTINUOUS
 62
     7
 10
140.17406043758049
 20
-193.17837870258299
 30
0.0
 11
168.00000002737701
 21
-193.17837870258299
 31
0.0
  0
LINE
  5
228
  8
DATA
  6
CONTINUOUS
 62
     7
 10
168.00000002737701
 20
-173.17837870258299
 30
0.0
 11
158.80000000000001
 21
-173.17837870258299
 31
0.0
  0
LINE
  5
229
  8
DATA
  6
CONTINUOUS
 62
     7
 10
150.80000000000001
 20
-173.17837870258299
 30
0.0
 11
141.05603556012369
 21
-173.17837870258299
 31
0.0
  0
LINE
  5
22A
  8
DATA
  6
CONTINUOUS
 62
     7
 10
188.0000000273771
 20
-190.67837870258299
 30
0.0
 11
188.0000000273771
 21
-175.67837870258299
 31
0.0
  0
LINE
  5
22B
  8
DATA
  6
CONTINUOUS
 62
     7
 10
168.00000002737701
 20
-193.17837870258299
 30
0.0
 11
168.00000002737701
 21
-173.17837870258299
 31
0.0
  0
LINE
  5
22C
  8
DATA
  6
CONTINUOUS
 62
     7
 10
170.00000002737701
 20
-193.17837870258299
 30
0.0
 11
170.00000002737701
 21
-173.17837870258299
 31
0.0
  0
LINE
  5
22D
  8
DATA
  6
CONTINUOUS
 62
     7
 10
170.00000002737701
 20
-193.17837870258299
 30
0.0
 11
188.0000000273771
 21
-190.67837870258299
 31
0.0
  0
LINE
  5
22E
  8
DATA
  6
CONTINUOUS
 62
     7
 10
170.00000002737701
 20
-173.17837870258299
 30
0.0
 11
188.0000000273771
 21
-175.67837870258299
 31
0.0
  0
ARC
  5
22F
  8
DATA
  6
CONTINUOUS
 62
     7
 10
169.00000002737701
 20
-193.17837870258299
 30
0.0
 40
1.0
 50
0.0
 51
180.0
  0
ARC
  5
230
  8
DATA
  6
CONTINUOUS
 62
     7
 10
169.00000002737701
 20
-173.17837870258299
 30
0.0
 40
1.0
 50
180.0
 51
0.0
  0
LINE
  5
231
  8
DATA
  6
CONTINUOUS
 62
     7
 10
206.0000000273773
 20
-191.17837870258299
 30
0.0
 11
206.0000000273773
 21
-175.17837870258299
 31
0.0
  0
LINE
  5
232
  8
DATA
  6
CONTINUOUS
 62
     7
 10
190.0000000273771
 20
-191.17837870258299
 30
0.0
 11
190.0000000273771
 21
-175.17837870258299
 31
0.0
  0
LINE
  5
233
  8
DATA
  6
CONTINUOUS
 62
     7
 10
205.00000002737741
 20
-192.17837870258299
 30
0.0
 11
191.0000000273771
 21
-192.17837870258299
 31
0.0
  0
LINE
  5
234
  8
DATA
  6
CONTINUOUS
 62
     7
 10
205.00000002737741
 20
-174.17837870258299
 30
0.0
 11
191.0000000273771
 21
-174.17837870258299
 31
0.0
  0
LINE
  5
235
  8
DATA
  6
CONTINUOUS
 62
     7
 10
190.0000000273771
 20
-179.17837870258299
 30
0.0
 11
188.0000000273771
 21
-179.17837870258299
 31
0.0
  0
LINE
  5
236
  8
DATA
  6
CONTINUOUS
 62
     7
 10
188.0000000273771
 20
-187.17837870258299
 30
0.0
 11
190.0000000273771
 21
-187.17837870258299
 31
0.0
  0
ARC
  5
237
  8
DATA
  6
CONTINUOUS
 62
     7
 10
205.00000002737741
 20
-191.17837870258299
 30
0.0
 40
1.0
 50
270.0
 51
0.0
  0
ARC
  5
238
  8
DATA
  6
CONTINUOUS
 62
     7
 10
205.00000002737741
 20
-175.17837870258299
 30
0.0
 40
1.0
 50
0.0
 51
90.0
  0
ARC
  5
239
  8
DATA
  6
CONTINUOUS
 62
     7
 10
191.0000000273771
 20
-191.17837870258299
 30
0.0
 40
1.0
 50
180.0
 51
270.0
  0
ARC
  5
23A
  8
DATA
  6
CONTINUOUS
 62
     7
 10
191.0000000273771
 20
-175.17837870258299
 30
0.0
 40
1.0
 50
90.0
 51
180.0
  0
LINE
  5
23B
  8
DATA
  6
CONTINUOUS
 62
     7
 10
206.0000000273773
 20
-191.17837870258299
 30
0.0
 11
190.0000000273771
 21
-191.17837870258299
 31
0.0
  0
LINE
  5
23C
  8
DATA
  6
CONTINUOUS
 62
     7
 10
206.0000000273773
 20
-188.17837870258299
 30
0.0
 11
190.0000000273771
 21
-188.17837870258299
 31
0.0
  0
LINE
  5
23D
  8
DATA
  6
CONTINUOUS
 62
     7
 10
206.0000000273773
 20
-186.17837870258299
 30
0.0
 11
190.0000000273771
 21
-186.17837870258299
 31
0.0
  0
LINE
  5
23E
  8
DATA
  6
CONTINUOUS
 62
     7
 10
206.0000000273773
 20
-183.17837870258299
 30
0.0
 11
190.0000000273771
 21
-183.17837870258299
 31
0.0
  0
LINE
  5
23F
  8
DATA
  6
CONTINUOUS
 62
     7
 10
206.0000000273773
 20
-181.17837870258299
 30
0.0
 11
190.0000000273771
 21
-181.17837870258299
 31
0.0
  0
LINE
  5
240
  8
DATA
  6
CONTINUOUS
 62
     7
 10
206.0000000273773
 20
-178.17837870258299
 30
0.0
 11
190.0000000273771
 21
-178.17837870258299
 31
0.0
  0
LINE
  5
241
  8
DATA
  6
CONTINUOUS
 62
     7
 10
206.0000000273773
 20
-176.17837870258299
 30
0.0
 11
190.0000000273771
 21
-176.17837870258299
 31
0.0
  0
LINE
  5
242
  8
DATA
  6
CONTINUOUS
 62
     7
 10
205.50000002737741
 20
-191.17837870258299
 30
0.0
 11
205.50000002737741
 21
-188.1783787025829
 31
0.0
  0
LINE
  5
243
  8
DATA
  6
CONTINUOUS
 62
     7
 10
205.50000002737741
 20
-186.17837870258299
 30
0.0
 11
205.50000002737741
 21
-181.17837870258299
 31
0.0
  0
LINE
  5
244
  8
DATA
  6
CONTINUOUS
 62
     7
 10
205.50000002737741
 20
-178.17837870258299
 30
0.0
 11
205.50000002737741
 21
-176.17837870258299
 31
0.0
  0
LINE
  5
245
  8
DATA
  6
CONTINUOUS
 62
     7
 10
190.5000000273771
 20
-191.17837870258299
 30
0.0
 11
190.5000000273771
 21
-188.1783787025829
 31
0.0
  0
LINE
  5
246
  8
DATA
  6
CONTINUOUS
 62
     7
 10
190.5000000273771
 20
-186.17837870258299
 30
0.0
 11
190.5000000273771
 21
-181.17837870258299
 31
0.0
  0
LINE
  5
247
  8
DATA
  6
CONTINUOUS
 62
     7
 10
190.5000000273771
 20
-178.17837870258299
 30
0.0
 11
190.5000000273771
 21
-176.17837870258299
 31
0.0
  0
LINE
  5
248
  8
DATA
  6
CONTINUOUS
 62
     7
 10
122.000000027377
 20
-179.20392721301781
 30
0.0
 11
122.000000027377
 21
-188.20392721301781
 31
0.0
  0
LINE
  5
249
  8
DATA
  6
CONTINUOUS
 62
     7
 10
122.0
 20
-183.70392721301781
 30
0.0
 11
122.0
 21
-188.20392721301781
 31
0.0
  0
LINE
  5
24A
  8
DATA
  6
CONTINUOUS
 62
     7
 10
122.0
 20
-179.20392721301781
 30
0.0
 11
136.00000002737701
 21
-179.20392721301781
 31
0.0
  0
LINE
  5
24B
  8
DATA
  6
CONTINUOUS
 62
     7
 10
122.0
 20
-188.20392721301781
 30
0.0
 11
136.00000002737701
 21
-188.20392721301781
 31
0.0
  0
LINE
  5
24C
  8
DATA
  6
CONTINUOUS
 62
     7
 10
136.00000002737701
 20
-179.20392721301781
 30
0.0
 11
141.05603556012369
 21
-173.17837870258299
 31
0.0
  0
LINE
  5
24D
  8
DATA
  6
CONTINUOUS
 62
     7
 10
136.00000002737701
 20
-188.20392721301781
 30
0.0
 11
140.17406043758049
 21
-193.17837870258299
 31
0.0
  0
LINE
  5
24E
  8
DATA
  6
CONTINUOUS
 62
     7
 10
129.00354042377501
 20
-156.59165280363479
 30
0.0
 11
126.00354042377511
 21
-156.59165280363479
 31
0.0
  0
LINE
  5
24F
  8
DATA
  6
CONTINUOUS
 62
     7
 10
129.00354042377501
 20
-171.5916528036351
 30
0.0
 11
126.00354042377511
 21
-171.5916528036351
 31
0.0
  0
LINE
  5
250
  8
DATA
  6
CONTINUOUS
 62
     7
 10
127.19104042377499
 20
-179.20392721301781
 30
0.0
 11
127.19104042377499
 21
-172.0916528036351
 31
0.0
  0
LINE
  5
251
  8
DATA
  6
CONTINUOUS
 62
     7
 10
135.19104042377501
 20
-172.0916528036351
 30
0.0
 11
135.19104042377501
 21
-179.20392721301781
 31
0.0
  0
LINE
  5
252
  8
DATA
  6
CONTINUOUS
 62
     7
 10
127.19104042377499
 20
-194.2705964768293
 30
0.0
 11
135.19104042377501
 21
-194.2705964768293
 31
0.0
  0
LINE
  5
253
  8
DATA
  6
CONTINUOUS
 62
     7
 10
127.19104042377499
 20
-188.20392721301781
 30
0.0
 11
127.19104042377499
 21
-194.2705964768293
 31
0.0
  0
LINE
  5
254
  8
DATA
  6
CONTINUOUS
 62
     7
 10
135.19104042377501
 20
-188.20392721301781
 30
0.0
 11
135.19104042377501
 21
-194.2705964768293
 31
0.0
  0
LINE
  5
255
  8
DATA
  6
CONTINUOUS
 62
     7
 10
127.19104042377499
 20
-194.2705964768293
 30
0.0
 11
135.19104042377501
 21
-192.7539291608764
 31
0.0
  0
LINE
  5
256
  8
DATA
  6
CONTINUOUS
 62
     7
 10
127.19104042377499
 20
-192.7705964768293
 30
0.0
 11
135.19104042377501
 21
-191.2539291608764
 31
0.0
  0
LINE
  5
257
  8
DATA
  6
CONTINUOUS
 62
     7
 10
127.19104042377499
 20
-191.2705964768293
 30
0.0
 11
135.19104042377501
 21
-189.7539291608764
 31
0.0
  0
LINE
  5
258
  8
DATA
  6
CONTINUOUS
 62
     7
 10
127.19104042377499
 20
-189.7705964768293
 30
0.0
 11
135.19104042377501
 21
-188.2539291608764
 31
0.0
  0
TEXT
  5
259
  8
DATA
 62
     7
 10
-117.457678589024
 20
-141.4670578768299
 30
0.0
 40
10.85894161946562
  1
A
 41
0.7
 11
-117.457678589024
 21
-136.03758706709709
 31
0.0
 73
     2
  0
TEXT
  5
25A
  8
DATA
 62
     7
 10
-2.4576785890240558
 20
-145.9670578768299
 30
0.0
 40
10.85894161946562
  1
A
 41
0.7
 11
-2.4576785890240549
 21
-140.53758706709709
 31
0.0
 73
     2
  0
TEXT
  5
25B
  8
DATA
 62
     7
 10
3.9999999999999991
 20
-267.76016531530792
 30
0.0
 40
10.85894161946562
  1
A ノブ（マイクホルダー固定用、3/8インチネジ）
 41
0.7
 11
4.0
 21
-262.33069450557508
 31
0.0
 73
     2
  0
TEXT
  5
25C
  8
DATA
 62
     7
 10
3.9999999999999991
 20
-286.67104443551563
 30
0.0
 40
10.85894161946562
  1
B ノブ（スライダー固定用）
 41
0.7
 11
4.0
 21
-281.24157362578268
 31
0.0
 73
     2
  0
TEXT
  5
25D
  8
DATA
 62
     7
 10
151.0436892016487
 20
-134.65571617386999
 30
0.0
 40
10.85894161946562
  1
A
 41
0.7
 11
151.0436892016487
 21
-129.22624536413721
 31
0.0
 73
     2
  0
ARC
  5
25E
  8
DATA
  6
CONTINUOUS
 62
     7
 10
139.00354042377489
 20
-171.0916528036351
 30
0.0
 40
1.0
 50
270.0
 51
0.0
  0
TEXT
  5
25F
  8
DATA
 62
     7
 10
218.03940933577709
 20
-156.51957159562409
 30
0.0
 40
10.85894161946562
  1
B
 41
0.7
 11
218.03940933577709
 21
-151.09010078589131
 31
0.0
 73
     2
  0
LINE
  5
260
  8
DATA
  6
CONTINUOUS
 62
     7
 10
201.5000000273773
 20
-174.17837870258299
 30
0.0
 11
215.0
 21
-150.79569284782181
 31
0.0
  0
LINE
  5
261
  8
DATA
  6
CONTINUOUS
 62
     7
 10
201.5000000273773
 20
-174.17837870258299
 30
0.0
 11
204.9029547712525
 21
-161.478378702583
 31
0.0
  0
LINE
  5
262
  8
DATA
  6
CONTINUOUS
 62
     7
 10
201.5000000273773
 20
-174.17837870258299
 30
0.0
 11
210.79704528350209
 21
-164.8813334464582
 31
0.0
  0
LINE
  5
263
  8
DATA
  6
CONTINUOUS
 62
     7
 10
-23.956459576225029
 20
-156.6477463856242
 30
0.0
 11
-5.0
 21
-140.74138814678679
 31
0.0
  0
LINE
  5
264
  8
DATA
  6
CONTINUOUS
 62
     7
 10
-23.956459576225029
 20
-156.6477463856242
 30
0.0
 11
-16.228254675861969
 21
-146.01078488306771
 31
0.0
  0
LINE
  5
265
  8
DATA
  6
CONTINUOUS
 62
     7
 10
-23.956459576225029
 20
-156.6477463856242
 30
0.0
 11
-11.945157055581021
 21
-151.29996995551471
 31
0.0
  0
LINE
  5
266
  8
DATA
  6
CONTINUOUS
 62
     7
 10
-121.0
 20
-138.0
 30
0.0
 11
-141.2159281994104
 21
-153.0
 31
0.0
  0
LINE
  5
267
  8
DATA
  6
CONTINUOUS
 62
     7
 10
-141.2159281994104
 20
-153.0
 30
0.0
 11
-132.94161898351709
 21
-142.7820790770017
 31
0.0
  0
LINE
  5
268
  8
DATA
  6
CONTINUOUS
 62
     7
 10
-141.2159281994104
 20
-153.0
 30
0.0
 11
-128.94120575817999
 21
-148.28817551476951
 31
0.0
  0
LINE
  5
269
  8
DATA
  6
CONTINUOUS
 62
     7
 10
136.00354042377489
 20
-156.09165280363479
 30
0.0
 11
151.0436892016487
 21
-129.22624536413721
 31
0.0
  0
LINE
  5
26A
  8
DATA
  6
CONTINUOUS
 62
     7
 10
136.00354042377489
 20
-156.09165280363479
 30
0.0
 11
139.40649516765021
 21
-143.3916528036348
 31
0.0
  0
LINE
  5
26B
  8
DATA
  6
CONTINUOUS
 62
     7
 10
136.00354042377489
 20
-156.09165280363479
 30
0.0
 11
145.30058567989971
 21
-146.79460754751011
 31
0.0
  0
ENDSEC
  0
EOF
