  0
SECTION
  2
HEADER
  9
$ACADVER
  1
AC1009
  9
$INSBASE
 10
0.0
 20
0.0
 30
0.0
  9
$EXTMIN
 10
-180.0109854899294
 20
-271.60198689442473
 30
-0.0015258207003583
  9
$EXTMAX
 10
180.0109871663098
 20
263.52508398030773
 30
0.0000000349246037
  9
$LIMMIN
 10
0.0
 20
0.0
  9
$LIMMAX
 10
0.0
 20
0.0
  9
$ORTHOMODE
 70
     0
  9
$REGENMODE
 70
     1
  9
$FILLMODE
 70
     1
  9
$QTEXTMODE
 70
     0
  9
$MIRRTEXT
 70
     1
  9
$DRAGMODE
 70
     2
  9
$LTSCALE
 40
10.16
  9
$OSMODE
 70
   231
  9
$ATTMODE
 70
     1
  9
$TEXTSIZE
 40
0.0
  9
$TRACEWID
 40
1.0
  9
$TEXTSTYLE
  7
STANDARD
  9
$CLAYER
  8
DATA
  9
$CELTYPE
  6
BYLAYER
  9
$CECOLOR
 62
   256
  9
$DIMSCALE
 40
1.0
  9
$DIMASZ
 40
0.18
  9
$DIMEXO
 40
0.0625
  9
$DIMDLI
 40
0.38
  9
$DIMRND
 40
0.0
  9
$DIMDLE
 40
0.0
  9
$DIMEXE
 40
0.18
  9
$DIMTP
 40
0.0
  9
$DIMTM
 40
0.0
  9
$DIMTXT
 40
0.18
  9
$DIMCEN
 40
0.09
  9
$DIMTSZ
 40
0.0
  9
$DIMTOL
 70
     0
  9
$DIMLIM
 70
     0
  9
$DIMTIH
 70
     1
  9
$DIMTOH
 70
     1
  9
$DIMSE1
 70
     0
  9
$DIMSE2
 70
     0
  9
$DIMTAD
 70
     0
  9
$DIMZIN
 70
     0
  9
$DIMBLK
  1

  9
$DIMASO
 70
     1
  9
$DIMSHO
 70
     1
  9
$DIMPOST
  1

  9
$DIMAPOST
  1

  9
$DIMALT
 70
     0
  9
$DIMALTD
 70
     2
  9
$DIMALTF
 40
25.399999999999999
  9
$DIMLFAC
 40
1.0
  9
$DIMTOFL
 70
     0
  9
$DIMTVP
 40
0.0
  9
$DIMTIX
 70
     0
  9
$DIMSOXD
 70
     0
  9
$DIMSAH
 70
     0
  9
$DIMBLK1
  1

  9
$DIMBLK2
  1

  9
$DIMSTYLE
  2
STANDARD
  9
$DIMCLRD
 70
     0
  9
$DIMCLRE
 70
     0
  9
$DIMCLRT
 70
     0
  9
$DIMTFAC
 40
1.0
  9
$DIMGAP
 40
0.09
  9
$LUNITS
 70
     2
  9
$LUPREC
 70
     4
  9
$SKETCHINC
 40
0.1
  9
$FILLETRAD
 40
0.0
  9
$AUNITS
 70
     0
  9
$AUPREC
 70
     0
  9
$MENU
  1
acad
  9
$ELEVATION
 40
0.0
  9
$PELEVATION
 40
0.0
  9
$THICKNESS
 40
0.0
  9
$LIMCHECK
 70
     0
  9
$BLIPMODE
 70
     0
  9
$CHAMFERA
 40
0.0
  9
$CHAMFERB
 40
0.0
  9
$SKPOLY
 70
     0
  9
$TDCREATE
 40
2456457.4991087969
  9
$TDUPDATE
 40
2456457.581862709
  9
$TDINDWG
 40
0.00035
  9
$TDUSRTIMER
 40
0.0003499306
  9
$USRTIMER
 70
     1
  9
$ANGBASE
 50
0.0
  9
$ANGDIR
 70
     0
  9
$PDMODE
 70
     1
  9
$PDSIZE
 40
-2.0
  9
$PLINEWID
 40
0.0
  9
$COORDS
 70
     2
  9
$SPLFRAME
 70
     0
  9
$SPLINETYPE
 70
     6
  9
$SPLINESEGS
 70
     8
  9
$ATTDIA
 70
     0
  9
$ATTREQ
 70
     1
  9
$HANDLING
 70
     1
  9
$HANDSEED
  5
22C
  9
$SURFTAB1
 70
     6
  9
$SURFTAB2
 70
     6
  9
$SURFTYPE
 70
     6
  9
$SURFU
 70
     6
  9
$SURFV
 70
     6
  9
$UCSNAME
  2

  9
$UCSORG
 10
0.0
 20
0.0
 30
0.0
  9
$UCSXDIR
 10
1.0
 20
0.0
 30
0.0
  9
$UCSYDIR
 10
0.0
 20
1.0
 30
0.0
  9
$PUCSNAME
  2

  9
$PUCSORG
 10
0.0
 20
0.0
 30
0.0
  9
$PUCSXDIR
 10
1.0
 20
0.0
 30
0.0
  9
$PUCSYDIR
 10
0.0
 20
1.0
 30
0.0
  9
$USERI1
 70
     0
  9
$USERI2
 70
     0
  9
$USERI3
 70
     0
  9
$USERI4
 70
     0
  9
$USERI5
 70
     0
  9
$USERR1
 40
0.0
  9
$USERR2
 40
0.0
  9
$USERR3
 40
0.0
  9
$USERR4
 40
0.0
  9
$USERR5
 40
0.0
  9
$WORLDVIEW
 70
     1
  9
$SHADEDGE
 70
     3
  9
$SHADEDIF
 70
    70
  9
$TILEMODE
 70
     1
  9
$MAXACTVP
 70
    64
  9
$PLIMCHECK
 70
     0
  9
$PEXTMIN
 10
1.0000000000000000E+020
 20
1.0000000000000000E+020
 30
1.0000000000000000E+020
  9
$PEXTMAX
 10
-1.0000000000000000E+020
 20
-1.0000000000000000E+020
 30
-1.0000000000000000E+020
  9
$PLIMMIN
 10
0.0
 20
0.0
  9
$PLIMMAX
 10
12.0
 20
9.0
  9
$UNITMODE
 70
     0
  9
$VISRETAIN
 70
     0
  9
$PLINEGEN
 70
     1
  9
$PSLTSCALE
 70
     0
  0
ENDSEC
  0
SECTION
  2
TABLES
  0
TABLE
  2
VPORT
 70
     1
  0
VPORT
  2
*ACTIVE
 70
     0
 10
0.0
 20
0.0
 11
1.0
 21
1.0
 12
0.0000008381901466
 22
-4.0384514570584988
 13
0.0
 23
0.0
 14
1.0
 24
1.0
 15
0.0
 25
0.0
 16
0.0
 26
0.0
 36
1.0
 17
0.0
 27
0.0
 37
0.0
 40
539.25932624828249
 41
2.1585051546391751
 42
50.0
 43
0.0
 44
0.0
 50
0.0
 51
0.0
 71
     0
 72
  2000
 73
     1
 74
     1
 75
     0
 76
     0
 77
     0
 78
     0
  0
ENDTAB
  0
TABLE
  2
LTYPE
 70
    11
  0
LTYPE
  2
CONTINUOUS
 70
     0
  3
Solid line
 72
    65
 73
     0
 40
0.0
  0
ENDTAB
  0
TABLE
  2
LAYER
 70
     5
  0
LAYER
  2
0
 70
     0
 62
     7
  6
CONTINUOUS
  0
LAYER
  2
DATA
 70
     0
 62
     7
  6
CONTINUOUS
  0
LAYER
  2
HIBINO-BASE
 70
     0
 62
     7
  6
CONTINUOUS
  0
LAYER
  2
SPEC
 70
     0
 62
     7
  6
CONTINUOUS
  0
LAYER
  2
DIMNSIONS
 70
     0
 62
     7
  6
CONTINUOUS
  0
ENDTAB
  0
TABLE
  2
STYLE
 70
     3
  0
STYLE
  2
STANDARD
 70
     0
 40
0.0
 41
1.0
 50
0.0
 71
     0
 42
0.0
  3
txt
  4
BIGFONT.SHX
  0
ENDTAB
  0
TABLE
  2
VIEW
 70
     0
  0
ENDTAB
  0
TABLE
  2
UCS
 70
     0
  0
ENDTAB
  0
TABLE
  2
APPID
 70
     4
  0
APPID
  2
ACAD
 70
     0
  0
APPID
  2
ACADANNOTATIVE
 70
     0
  0
APPID
  2
ACAD_NAV_VCDISPLAY
 70
     0
  0
APPID
  2
ACAD_MLEADERVER
 70
     0
  0
ENDTAB
  0
TABLE
  2
DIMSTYLE
 70
     2
  0
DIMSTYLE
  2
STANDARD
 70
     0
  3

  4

  5

  6

  7

 40
1.0
 41
0.18
 42
0.0625
 43
0.38
 44
0.18
 45
0.0
 46
0.0
 47
0.0
 48
0.0
140
0.18
141
0.09
142
0.0
143
25.399999999999999
144
1.0
145
0.0
146
1.0
147
0.09
 71
     0
 72
     0
 73
     1
 74
     1
 75
     0
 76
     0
 77
     0
 78
     0
170
     0
171
     2
172
     0
173
     0
174
     0
175
     0
176
     0
177
     0
178
     0
  0
ENDTAB
  0
ENDSEC
  0
SECTION
  2
BLOCKS
  0
BLOCK
  8
0
  2
$MODEL_SPACE
 70
     0
 10
0.0
 20
0.0
 30
0.0
  3
$MODEL_SPACE
  1

  0
ENDBLK
  5
1BB
  8
0
  0
BLOCK
 67
     1
  8
0
  2
$PAPER_SPACE
 70
     0
 10
0.0
 20
0.0
 30
0.0
  3
$PAPER_SPACE
  1

  0
ENDBLK
  5
1B7
 67
     1
  8
0
  0
ENDSEC
  0
SECTION
  2
ENTITIES
  0
LINE
  5
2C
  8
HIBINO-BASE
  6
CONTINUOUS
 62
     7
 10
-179.9999999999819
 20
263.5087852777512
 30
0.0
 11
179.9999999999819
 21
263.5087852777512
 31
0.0
  0
LINE
  5
2D
  8
HIBINO-BASE
  6
CONTINUOUS
 62
     7
 10
179.9999999999819
 20
-256.4912147221969
 30
0.0
 11
-179.9999999999819
 21
-256.4912147221969
 31
0.0
  0
LINE
  5
2E
  8
HIBINO-BASE
  6
CONTINUOUS
 62
     7
 10
-179.9999999999819
 20
-256.4912147221969
 30
0.0
 11
-179.9999999999819
 21
263.5087852777512
 31
0.0
  0
LINE
  5
2F
  8
HIBINO-BASE
  6
CONTINUOUS
 62
     7
 10
179.9999999999819
 20
263.5087852777512
 30
0.0
 11
179.9999999999819
 21
-256.4912147221969
 31
0.0
  0
LINE
  5
30
  8
HIBINO-BASE
  6
CONTINUOUS
 62
     7
 10
0.0
 20
-211.49121472220139
 30
0.0
 11
179.9999999999819
 21
-211.49121472220139
 31
0.0
  0
LINE
  5
31
  8
HIBINO-BASE
  6
CONTINUOUS
 62
     7
 10
0.0
 20
-256.4912147221969
 30
0.0
 11
0.0
 21
-211.49121472220139
 31
0.0
  0
TEXT
  5
32
  8
HIBINO-BASE
 62
     7
 10
1.7999999999998191
 20
-216.5086013888675
 30
0.0
 40
3.2576822916663399
  1
NOTE
 41
0.7
 11
1.7999999999998191
 21
-213.2509190972012
 31
0.0
 73
     3
  0
LINE
  5
33
  8
HIBINO-BASE
  6
CONTINUOUS
 62
     7
 10
69.999999999993008
 20
-256.4912147221969
 30
0.0
 11
69.999999999993008
 21
-211.49121472220139
 31
0.0
  0
TEXT
  5
34
  8
HIBINO-BASE
 62
     7
 10
71.799999999992806
 20
-216.5086013888675
 30
0.0
 40
3.2576822916663399
  1
TITLE
 41
0.7
 11
71.799999999992806
 21
-213.2509190972012
 31
0.0
 73
     3
  0
LINE
  5
35
  8
HIBINO-BASE
  6
CONTINUOUS
 62
     7
 10
0.0
 20
-236.49121472219889
 30
0.0
 11
179.9999999999819
 21
-236.49121472219889
 31
0.0
  0
TEXT
  5
36
  8
HIBINO-BASE
 62
     7
 10
96.799999999990305
 20
-241.395961388865
 30
0.0
 40
3.2576822916663399
  1
DRAWN
 41
0.7
 11
96.799999999990305
 21
-238.1382790971987
 31
0.0
 73
     3
  0
TEXT
  5
37
  8
HIBINO-BASE
 62
     7
 10
46.799999999995308
 20
-241.395961388865
 30
0.0
 40
3.2576822916663399
  1
DATE
 41
0.7
 11
46.799999999995308
 21
-238.1382790971987
 31
0.0
 73
     3
  0
TEXT
  5
38
  8
HIBINO-BASE
 62
     7
 10
26.799999999997318
 20
-241.395961388865
 30
0.0
 40
3.2576822916663399
  1
SCALE
 41
0.7
 11
26.799999999997318
 21
-238.1382790971987
 31
0.0
 73
     3
  0
TEXT
  5
39
  8
HIBINO-BASE
 62
     7
 10
71.799999999992806
 20
-241.395961388865
 30
0.0
 40
3.2576822916663399
  1
DESIGN
 41
0.7
 11
71.799999999992806
 21
-238.1382790971987
 31
0.0
 73
     3
  0
TEXT
  5
3A
  8
HIBINO-BASE
 62
     7
 10
146.79999999998529
 20
-241.395961388865
 30
0.0
 40
3.2576822916663399
  1
DRAWING NO.
 41
0.7
 11
146.79999999998529
 21
-238.1382790971987
 31
0.0
 73
     3
  0
TEXT
  5
3B
  8
HIBINO-BASE
 62
     7
 10
121.7999999999878
 20
-241.395961388865
 30
0.0
 40
3.2576822916663399
  1
CHECK
 41
0.7
 11
121.7999999999878
 21
-238.1382790971987
 31
0.0
 73
     3
  0
LINE
  5
3C
  8
HIBINO-BASE
  6
CONTINUOUS
 62
     7
 10
28.749999999997119
 20
-253.99121472219721
 30
0.0
 11
36.249999999996383
 21
-246.4912147221979
 31
0.0
  0
TEXT
  5
3D
  8
HIBINO-BASE
 62
     7
 10
27.49999999999725
 20
-248.7091013888643
 30
0.0
 40
3.2576822916663399
  1
1
 41
0.7
 11
27.49999999999725
 21
-245.451419097198
 31
0.0
 73
     3
  0
LINE
  5
3E
  8
HIBINO-BASE
  6
CONTINUOUS
 62
     7
 10
24.999999999997488
 20
-256.4912147221969
 30
0.0
 11
24.999999999997488
 21
-236.49121472219889
 31
0.0
  0
LINE
  5
3F
  8
HIBINO-BASE
  6
CONTINUOUS
 62
     7
 10
44.999999999995481
 20
-256.4912147221969
 30
0.0
 11
44.999999999995481
 21
-236.49121472219889
 31
0.0
  0
LINE
  5
40
  8
HIBINO-BASE
  6
CONTINUOUS
 62
     7
 10
94.999999999990507
 20
-236.49121472219889
 30
0.0
 11
94.999999999990507
 21
-256.4912147221969
 31
0.0
  0
LINE
  5
41
  8
HIBINO-BASE
  6
CONTINUOUS
 62
     7
 10
144.9999999999855
 20
-236.49121472219889
 30
0.0
 11
144.9999999999855
 21
-256.4912147221969
 31
0.0
  0
LINE
  5
42
  8
HIBINO-BASE
  6
CONTINUOUS
 62
     7
 10
119.99999999998801
 20
-256.4912147221969
 30
0.0
 11
119.99999999998801
 21
-236.49121472219889
 31
0.0
  0
TEXT
  5
43
  8
HIBINO-BASE
 62
     7
 10
46.71307999999533
 20
-250.76392138886411
 30
0.0
 40
3.2576822916663399
  1
'13.6.
 41
0.7
 11
46.71307999999533
 21
-247.50623909719781
 31
0.0
 73
     3
  0
TEXT
  5
44
  8
HIBINO-BASE
 62
     7
 10
34.999999999996497
 20
-252.45910138886401
 30
0.0
 40
3.2576822916663399
  1
2
 41
0.7
 11
34.999999999996497
 21
-249.20141909719769
 31
0.0
 73
     3
  0
TEXT
  5
45
  8
HIBINO-BASE
 62
     7
 10
98.011620022059475
 20
-250.76392138886411
 30
0.0
 40
3.2576822916663399
  1
Ootake
 41
0.7
 11
98.011620022059475
 21
-247.50623909719781
 31
0.0
 73
     3
  0
TEXT
  5
46
  8
HIBINO-BASE
 62
     7
 10
7.7666666666659214
 20
-252.53921472219719
 30
0.0
 40
6.5153645833326799
  1
A4
 41
0.7
 11
7.7666666666659214
 21
-246.02385013886459
 31
0.0
 73
     3
  0
TEXT
  5
47
  8
HIBINO-BASE
 62
     7
 10
1.916666666666472
 20
-241.7301247221983
 30
0.0
 40
3.2576822916663399
  1
PAPER SIZE
 41
0.7
 11
1.916666666666472
 21
-238.472442430532
 31
0.0
 73
     3
  0
TEXT
  5
48
  8
HIBINO-BASE
 62
     7
 10
-165.63199999998341
 20
-269.24224472219572
 30
0.0
 40
7.058311631943738
  1
Hibino-Intersound Corporation
 41
0.7
 11
-165.63199999998341
 21
-262.18393309025191
 31
0.0
 73
     3
  0
TEXT
  5
49
  8
HIBINO-BASE
 62
     7
 10
28.048668334483452
 20
-269.24224472219572
 30
0.0
 40
7.058311631943738
  1
ヒビノインターサウンド株式会社
 41
0.7
 11
28.048668334483452
 21
-262.18393309025191
 31
0.0
 73
     3
  0
LINE
  5
4A
  8
SPEC
  6
CONTINUOUS
 62
     7
 10
-164.9999999999834
 20
243.50878527775299
 30
0.0
 11
129.99999999998701
 21
243.50878527775299
 31
0.0
  0
LINE
  5
4B
  8
SPEC
  6
CONTINUOUS
 62
     7
 10
-164.9999999999834
 20
236.0087852777537
 30
0.0
 11
129.99999999998701
 21
236.0087852777537
 31
0.0
  0
LINE
  5
4C
  8
SPEC
  6
CONTINUOUS
 62
     7
 10
-164.9999999999834
 20
228.5087852777545
 30
0.0
 11
129.99999999998701
 21
228.5087852777545
 31
0.0
  0
LINE
  5
4D
  8
SPEC
  6
CONTINUOUS
 62
     7
 10
-164.9999999999834
 20
243.50878527775299
 30
0.0
 11
-164.9999999999834
 21
228.5087852777545
 31
0.0
  0
TEXT
  5
4E
  8
SPEC
 62
     7
 10
-162.49999999998369
 20
246.29532527775271
 30
0.0
 40
4.8865234374995108
  1
仕様
 41
0.7
 11
-162.49999999998369
 21
251.1818487152523
 31
0.0
 73
     3
  0
LINE
  5
4F
  8
SPEC
  6
CONTINUOUS
 62
     7
 10
-99.999999999989981
 20
243.50878527775299
 30
0.0
 11
-99.999999999989981
 21
228.5087852777545
 31
0.0
  0
LINE
  5
50
  8
SPEC
  6
CONTINUOUS
 62
     7
 10
129.99999999998701
 20
243.50878527775299
 30
0.0
 11
129.99999999998701
 21
228.5087852777545
 31
0.0
  0
TEXT
  5
51
  8
SPEC
 62
     7
 10
-163.38608766446049
 20
238.1244692635843
 30
0.0
 40
3.8006224999996201
  1
寸法
 41
0.7
 11
-163.38608766446049
 21
241.92509176358399
 31
0.0
 73
     3
  0
TEXT
  5
52
  8
SPEC
 62
     7
 10
-163.306549831094
 20
230.66423818026831
 30
0.0
 40
3.8006224999996201
  1
質量
 41
0.7
 11
-163.306549831094
 21
234.464860680268
 31
0.0
 73
     3
  0
TEXT
  5
53
  8
SPEC
 62
     7
 10
-98.181521159828932
 20
237.82278091231149
 30
0.0
 40
3.8006224999996201
  1
\U+03C660.0\U+00D7110\U+00D781.0mm(除突起部)
 41
0.7
 11
-98.181521159828932
 21
241.62340341231121
 31
0.0
 73
     3
  0
TEXT
  5
54
  8
SPEC
 62
     7
 10
-98.199999999990183
 20
230.5704362264909
 30
0.0
 40
3.8006224999996201
  1
52g
 41
0.7
 11
-98.199999999990183
 21
234.3710587264905
 31
0.0
 73
     3
  0
TEXT
  5
55
  8
DIMNSIONS
 62
     7
 10
-39.999999999996
 20
-231.95223472219939
 30
0.0
 40
4.8865234374995108
  1
(単位：mm)
 41
0.7
 11
-39.999999999996
 21
-227.06571128469989
 31
0.0
 73
     3
  0
LINE
  5
56
  8
DIMNSIONS
  6
CONTINUOUS
 62
     7
 10
-74.0
 20
-9.999999999524082
 30
0.0
 11
-124.249999999762
 21
-9.999999999524082
 31
0.0
  0
LINE
  5
57
  8
DIMNSIONS
  6
CONTINUOUS
 62
     7
 10
-64.5
 20
100.0
 30
0.0
 11
-124.249999999762
 21
100.0
 31
0.0
  0
LINE
  5
58
  8
DIMNSIONS
  6
CONTINUOUS
 62
     7
 10
-120.249999999762
 20
-9.999999999524082
 30
0.0
 11
-120.249999999762
 21
100.0
 31
0.0
  0
LINE
  5
59
  8
DIMNSIONS
  6
CONTINUOUS
 62
     7
 10
-120.249999999762
 20
-9.999999999524082
 30
0.0
 11
-121.5900795900625
 21
-4.9987548823365824
 31
0.0
  0
LINE
  5
5A
  8
DIMNSIONS
  6
CONTINUOUS
 62
     7
 10
-120.249999999762
 20
-9.999999999524082
 30
0.0
 11
-118.90992040946151
 21
-4.9987548823365824
 31
0.0
  0
LINE
  5
5B
  8
DIMNSIONS
  6
CONTINUOUS
 62
     7
 10
-120.249999999762
 20
100.0
 30
0.0
 11
-118.90992040946151
 21
94.998754882812506
 31
0.0
  0
LINE
  5
5C
  8
DIMNSIONS
  6
CONTINUOUS
 62
     7
 10
-120.249999999762
 20
100.0
 30
0.0
 11
-121.5900795900625
 21
94.998754882812506
 31
0.0
  0
TEXT
  5
5D
  8
DIMNSIONS
 62
     7
 10
-122.237777865854
 20
39.708332997136189
 30
0.0
 40
5.4294709715436644
  1
110
 50
90.0
 41
0.7
 11
-127.66724883739769
 21
39.708332997136189
 31
0.0
 73
     3
  0
LINE
  5
5E
  8
DIMNSIONS
  6
CONTINUOUS
 62
     7
 10
-101.0
 20
102.99999999254941
 30
0.0
 11
-101.0
 21
114.0
 31
0.0
  0
LINE
  5
5F
  8
DIMNSIONS
  6
CONTINUOUS
 62
     7
 10
-20.0
 20
102.99999999254941
 30
0.0
 11
-20.0
 21
114.0
 31
0.0
  0
LINE
  5
60
  8
DIMNSIONS
  6
CONTINUOUS
 62
     7
 10
-101.0
 20
110.0
 30
0.0
 11
-20.0
 21
110.0
 31
0.0
  0
LINE
  5
61
  8
DIMNSIONS
  6
CONTINUOUS
 62
     7
 10
-101.0
 20
110.0
 30
0.0
 11
-95.998754882812506
 21
111.3400795903005
 31
0.0
  0
LINE
  5
62
  8
DIMNSIONS
  6
CONTINUOUS
 62
     7
 10
-101.0
 20
110.0
 30
0.0
 11
-95.998754882812506
 21
108.6599204096995
 31
0.0
  0
LINE
  5
63
  8
DIMNSIONS
  6
CONTINUOUS
 62
     7
 10
-20.0
 20
110.0
 30
0.0
 11
-25.001245117187501
 21
108.6599204096995
 31
0.0
  0
LINE
  5
64
  8
DIMNSIONS
  6
CONTINUOUS
 62
     7
 10
-20.0
 20
110.0
 30
0.0
 11
-25.001245117187501
 21
111.3400795903005
 31
0.0
  0
TEXT
  5
65
  8
DIMNSIONS
 62
     7
 10
-67.555556228425772
 20
111.987777866092
 30
0.0
 40
5.4294709715436644
  1
81.0
 41
0.7
 11
-67.555556228425772
 21
117.4172488376357
 31
0.0
 73
     3
  0
LINE
  5
66
  8
DIMNSIONS
  6
CONTINUOUS
 62
     7
 10
30.000166667130379
 20
74.100000000000023
 30
0.0
 11
30.000166667130379
 21
114.2
 31
0.0
  0
LINE
  5
67
  8
DIMNSIONS
  6
CONTINUOUS
 62
     7
 10
89.999833332869457
 20
74.100000000000023
 30
0.0
 11
89.999833332869457
 21
114.2
 31
0.0
  0
LINE
  5
68
  8
DIMNSIONS
  6
CONTINUOUS
 62
     7
 10
30.000166667130379
 20
110.2
 30
0.0
 11
89.999833332869457
 21
110.2
 31
0.0
  0
LINE
  5
69
  8
DIMNSIONS
  6
CONTINUOUS
 62
     7
 10
30.000166667130379
 20
110.2
 30
0.0
 11
35.001411784317881
 21
111.54007959030049
 31
0.0
  0
LINE
  5
6A
  8
DIMNSIONS
  6
CONTINUOUS
 62
     7
 10
30.000166667130379
 20
110.2
 30
0.0
 11
35.001411784317881
 21
108.8599204096995
 31
0.0
  0
LINE
  5
6B
  8
DIMNSIONS
  6
CONTINUOUS
 62
     7
 10
89.999833332869457
 20
110.2
 30
0.0
 11
84.998588215681977
 21
108.8599204096995
 31
0.0
  0
LINE
  5
6C
  8
DIMNSIONS
  6
CONTINUOUS
 62
     7
 10
89.999833332869457
 20
110.2
 30
0.0
 11
84.998588215681977
 21
111.54007959030049
 31
0.0
  0
TEXT
  5
6D
  8
DIMNSIONS
 62
     7
 10
52.94444377157415
 20
112.18777786609201
 30
0.0
 40
5.4294709715436644
  1
60.0
 41
0.7
 11
52.94444377157415
 21
117.6172488376357
 31
0.0
 73
     3
  0
LINE
  5
6E
  8
DIMNSIONS
  6
CONTINUOUS
 62
     7
 10
68.249306851309882
 20
73.598463070941762
 30
0.0
 11
108.59999999999999
 21
91.200000000000003
 31
0.0
  0
LINE
  5
6F
  8
DIMNSIONS
  6
CONTINUOUS
 62
     7
 10
68.249306851309882
 20
73.598463070941762
 30
0.0
 11
72.329366444402737
 21
76.786154986316063
 31
0.0
  0
LINE
  5
70
  8
DIMNSIONS
  6
CONTINUOUS
 62
     7
 10
68.249306851309882
 20
73.598463070941762
 30
0.0
 11
73.376588065569862
 21
74.31905545254773
 31
0.0
  0
LINE
  5
71
  8
DIMNSIONS
  6
CONTINUOUS
 62
     7
 10
108.59999999999999
 20
91.200000000000003
 30
0.0
 11
133.76666801240711
 21
91.200000000000003
 31
0.0
  0
TEXT
  5
72
  8
DIMNSIONS
 62
     7
 10
112.59999999999999
 20
93.187777866092006
 30
0.0
 40
5.4294709715436644
  1
\U+03C618.0
 41
0.7
 11
112.59999999999999
 21
98.617248837635685
 31
0.0
 73
     3
  0
LINE
  5
73
  8
DIMNSIONS
  6
CONTINUOUS
 62
     7
 10
-58.500000000047763
 20
-86.535898384822346
 30
0.0
 11
-39.715390309244171
 21
-54.0
 31
0.0
  0
LINE
  5
74
  8
DIMNSIONS
  6
CONTINUOUS
 62
     7
 10
-58.500000000047763
 20
-86.535898384822346
 30
0.0
 11
-57.072840747882061
 21
-81.558802595158497
 31
0.0
  0
LINE
  5
75
  8
DIMNSIONS
  6
CONTINUOUS
 62
     7
 10
-58.500000000047763
 20
-86.535898384822346
 30
0.0
 11
-54.77549593759435
 21
-82.939186619987737
 31
0.0
  0
LINE
  5
76
  8
DIMNSIONS
  6
CONTINUOUS
 62
     7
 10
-39.715390309244171
 20
-54.0
 30
0.0
 11
3.0901679377922302
 21
-54.0
 31
0.0
  0
TEXT
  5
77
  8
DIMNSIONS
 62
     7
 10
-35.715390309244171
 20
-52.012222119188948
 30
0.0
 40
5.4294710524490908
  1
3/8アダプタ  
 41
0.7
 11
-35.715390309244171
 21
-46.582751066739853
 31
0.0
 73
     3
  0
LINE
  5
78
  8
DIMNSIONS
  6
CONTINUOUS
 62
     7
 10
-57.334992743002637
 20
-96.799465351210287
 30
0.0
 11
-39.600000000000001
 21
-134.90000000000001
 31
0.0
  0
LINE
  5
79
  8
DIMNSIONS
  6
CONTINUOUS
 62
     7
 10
-57.334992743002637
 20
-96.799465351210287
 30
0.0
 11
-54.00685065709947
 21
-100.76579063874929
 31
0.0
  0
LINE
  5
7A
  8
DIMNSIONS
  6
CONTINUOUS
 62
     7
 10
-57.334992743002637
 20
-96.799465351210287
 30
0.0
 11
-56.435899792975903
 21
-101.89847485284329
 31
0.0
  0
LINE
  5
7B
  8
DIMNSIONS
  6
CONTINUOUS
 62
     7
 10
-39.600000000000001
 20
-134.90000000000001
 30
0.0
 11
3.2055582470364001
 21
-134.90000000000001
 31
0.0
  0
TEXT
  5
7C
  8
DIMNSIONS
 62
     7
 10
-35.600000000000001
 20
-132.91222211918901
 30
0.0
 40
5.4294710524490908
  1
5/8アダプタ  
 41
0.7
 11
-35.600000000000001
 21
-127.48275106673979
 31
0.0
 73
     3
  0
LINE
  5
7D
  8
DIMNSIONS
  6
CONTINUOUS
 62
     7
 10
-64.969386246037843
 20
-81.617006108506104
 30
0.0
 11
-79.800000000000026
 21
-53.79999999999999
 31
0.0
  0
LINE
  5
7E
  8
DIMNSIONS
  6
CONTINUOUS
 62
     7
 10
-64.969386246037843
 20
-81.617006108506104
 30
0.0
 11
-68.500548655574335
 21
-77.830298030503783
 31
0.0
  0
LINE
  5
7F
  8
DIMNSIONS
  6
CONTINUOUS
 62
     7
 10
-64.969386246037843
 20
-81.617006108506104
 30
0.0
 11
-66.134108558583975
 21
-76.572039511472084
 31
0.0
  0
LINE
  5
80
  8
DIMNSIONS
  6
CONTINUOUS
 62
     7
 10
-79.800000000000026
 20
-53.79999999999999
 30
0.0
 11
-104.9666680124071
 21
-53.79999999999999
 31
0.0
  0
TEXT
  5
81
  8
DIMNSIONS
 62
     7
 10
-104.9666680124071
 20
-51.812222119188959
 30
0.0
 40
5.4294710524490908
  1
\U+03C619.0
 41
0.7
 11
-104.9666680124071
 21
-46.382751066739857
 31
0.0
 73
     3
  0
TEXT
  5
82
  8
DATA
 62
     7
 10
99.999999999989981
 20
-234.2294347221991
 30
0.0
 40
4.8865234374995108
  1
UA0897
 41
0.7
 11
99.999999999989981
 21
-229.3429112846996
 31
0.0
 73
     3
  0
TEXT
  5
83
  8
DATA
 62
     7
 10
99.999999999989981
 20
-219.72943472220061
 30
0.0
 40
4.8865234374995108
  1
DPA
 41
0.7
 11
99.999999999989981
 21
-214.8429112847011
 31
0.0
 73
     3
  0
TEXT
  5
84
  8
DATA
 62
     7
 10
96.166845546949546
 20
-226.29439860654691
 30
0.0
 40
3.2576874218746741
  1
ショックマウント
 41
0.7
 11
96.166845546949546
 21
-223.03671118467221
 31
0.0
 73
     3
  0
TEXT
  5
85
  8
DATA
 62
     7
 10
-174.99999999998241
 20
-240.73865916664289
 30
0.0
 40
3.8006293402773981
  1
※仕様及び外観は予告なく変更されることがあります。
 41
0.7
 11
-174.99999999998241
 21
-236.93802982636561
 31
0.0
 73
     3
  0
TEXT
  5
86
  8
DATA
 62
     7
 10
-174.99999999998241
 20
-245.6775480555313
 30
0.0
 40
3.8006293402773981
  1
　また、同一製品でも若干の個体差があることがあります。ご了承ください。
 41
0.7
 11
-174.99999999998241
 21
-241.87691871525391
 31
0.0
 73
     3
  0
LINE
  5
87
  8
DATA
  6
CONTINUOUS
 62
     7
 10
50.499999996905728
 20
-10.000000000000011
 30
0.0
 11
50.499999996905728
 21
10.999999999999989
 31
0.0
  0
LINE
  5
88
  8
DATA
  6
CONTINUOUS
 62
     7
 10
69.499999996905728
 20
-10.000000000000011
 30
0.0
 11
50.499999996905728
 21
-10.000000000000011
 31
0.0
  0
LINE
  5
89
  8
DATA
  6
CONTINUOUS
 62
     7
 10
69.499999996905728
 20
10.99999999999998
 30
0.0
 11
69.499999996905728
 21
-10.000000000000011
 31
0.0
  0
LINE
  5
8A
  8
DATA
  6
CONTINUOUS
 62
     7
 10
50.499999996905728
 20
10.999999999999989
 30
0.0
 11
69.499999996905728
 21
10.99999999999998
 31
0.0
  0
LINE
  5
8B
  8
DATA
  6
CONTINUOUS
 62
     7
 10
50.499999996905728
 20
13.499999999999989
 30
0.0
 11
57.749999996905728
 21
13.49999999999998
 31
0.0
  0
LINE
  5
8C
  8
DATA
  6
CONTINUOUS
 62
     7
 10
62.249999996905728
 20
13.49999999999998
 30
0.0
 11
69.499999996905728
 21
13.49999999999998
 31
0.0
  0
ARC
  5
8D
  8
DATA
  6
CONTINUOUS
 62
     7
 10
50.218749996905728
 20
12.249999999999989
 30
0.0
 40
1.28125
 50
282.68038349181978
 51
77.319616508180189
  0
ARC
  5
8E
  8
DATA
  6
CONTINUOUS
 62
     7
 10
69.781249996905728
 20
12.24999999999998
 30
0.0
 40
1.28125
 50
102.6803834918198
 51
257.31961650818022
  0
LINE
  5
8F
  8
DATA
  6
CONTINUOUS
 62
     7
 10
57.849999996905723
 20
22.999999999999989
 30
0.0
 11
62.14999999690572
 21
22.999999999999989
 31
0.0
  0
LINE
  5
90
  8
DATA
  6
CONTINUOUS
 62
     7
 10
57.749999996905728
 20
10.99999999999998
 30
0.0
 11
57.749999996905728
 21
34.42930960666439
 31
0.0
  0
LINE
  5
91
  8
DATA
  6
CONTINUOUS
 62
     7
 10
62.249999996905728
 20
34.42930960666439
 30
0.0
 11
62.249999996905728
 21
10.99999999999998
 31
0.0
  0
LINE
  5
92
  8
DATA
  6
CONTINUOUS
 62
     7
 10
53.499999996905728
 20
32.419999999999987
 30
0.0
 11
57.749999996905728
 21
32.419999999999987
 31
0.0
  0
LINE
  5
93
  8
DATA
  6
CONTINUOUS
 62
     7
 10
62.249999996905728
 20
32.419999999999987
 30
0.0
 11
66.499999996905728
 21
32.419999999999987
 31
0.0
  0
LINE
  5
94
  8
DATA
  6
CONTINUOUS
 62
     7
 10
50.499999996905728
 20
13.499999999999989
 30
0.0
 11
53.499999996905728
 21
32.419999999999987
 31
0.0
  0
LINE
  5
95
  8
DATA
  6
CONTINUOUS
 62
     7
 10
69.499999996905728
 20
13.49999999999998
 30
0.0
 11
66.499999996905728
 21
32.419999999999987
 31
0.0
  0
LINE
  5
96
  8
DATA
  6
CONTINUOUS
 62
     7
 10
53.499999996905728
 20
32.419999999999987
 30
0.0
 11
57.749999996905728
 21
34.42930960666439
 31
0.0
  0
LINE
  5
97
  8
DATA
  6
CONTINUOUS
 62
     7
 10
66.499999996905728
 20
32.419999999999987
 30
0.0
 11
62.249999996905728
 21
34.42930960666439
 31
0.0
  0
LINE
  5
98
  8
DATA
  6
CONTINUOUS
 62
     7
 10
57.849999996905723
 20
22.999999999999989
 30
0.0
 11
57.849999996905723
 21
40.388953226567111
 31
0.0
  0
LINE
  5
99
  8
DATA
  6
CONTINUOUS
 62
     7
 10
62.14999999690572
 20
22.999999999999989
 30
0.0
 11
62.14999999690572
 21
40.388953226567111
 31
0.0
  0
LINE
  5
9A
  8
DATA
  6
CONTINUOUS
 62
     7
 10
-70.0
 20
-9.999999999524082
 30
0.0
 11
-70.0
 21
11.00000000047592
 31
0.0
  0
LINE
  5
9B
  8
DATA
  6
CONTINUOUS
 62
     7
 10
-51.0
 20
-9.999999999524082
 30
0.0
 11
-70.0
 21
-9.999999999524082
 31
0.0
  0
LINE
  5
9C
  8
DATA
  6
CONTINUOUS
 62
     7
 10
-51.0
 20
11.000000000475911
 30
0.0
 11
-51.0
 21
-9.999999999524082
 31
0.0
  0
LINE
  5
9D
  8
DATA
  6
CONTINUOUS
 62
     7
 10
-70.0
 20
11.00000000047592
 30
0.0
 11
-51.0
 21
11.000000000475911
 31
0.0
  0
LINE
  5
9E
  8
DATA
  6
CONTINUOUS
 62
     7
 10
-70.0
 20
13.50000000047592
 30
0.0
 11
-51.0
 21
13.500000000475911
 31
0.0
  0
LINE
  5
9F
  8
DATA
  6
CONTINUOUS
 62
     7
 10
-70.0
 20
13.50000000047592
 30
0.0
 11
-66.5
 21
32.42000000047593
 31
0.0
  0
LINE
  5
A0
  8
DATA
  6
CONTINUOUS
 62
     7
 10
-51.0
 20
13.500000000475911
 30
0.0
 11
-54.0
 21
32.42000000047593
 31
0.0
  0
LINE
  5
A1
  8
DATA
  6
CONTINUOUS
 62
     7
 10
-66.5
 20
32.42000000047593
 30
0.0
 11
-61.744211579521462
 21
34.694453441152397
 31
0.0
  0
LINE
  5
A2
  8
DATA
  6
CONTINUOUS
 62
     7
 10
-54.0
 20
32.42000000047593
 30
0.0
 11
-59.238295706733993
 21
34.73250367099741
 31
0.0
  0
ARC
  5
A3
  8
DATA
  6
CONTINUOUS
 62
     7
 10
-60.449870127327969
 20
31.988038800870221
 30
0.0
 40
2.9999999999999849
 50
66.180407896931385
 51
115.5594350707277
  0
CIRCLE
  5
A4
  8
DATA
  6
CONTINUOUS
 62
     7
 10
-60.5
 20
28.656801320276241
 30
0.0
 40
2.8500000000000218
  0
LINE
  5
A5
  8
DATA
  6
CONTINUOUS
 62
     7
 10
-66.5
 20
32.42000000047593
 30
0.0
 11
-54.0
 21
32.42000000047593
 31
0.0
  0
LINE
  5
A6
  8
DATA
  6
CONTINUOUS
 62
     7
 10
-63.321790211904499
 20
29.05680132027625
 30
0.0
 11
-57.678209788095501
 21
29.05680132027625
 31
0.0
  0
LINE
  5
A7
  8
DATA
  6
CONTINUOUS
 62
     7
 10
-63.321790211904499
 20
28.256801320276239
 30
0.0
 11
-57.678209788095501
 21
28.256801320276239
 31
0.0
  0
ARC
  5
A8
  8
DATA
  6
CONTINUOUS
 62
     7
 10
-70.28125
 20
12.25000000047592
 30
0.0
 40
1.28125
 50
282.68038349181978
 51
77.319616508180189
  0
ARC
  5
A9
  8
DATA
  6
CONTINUOUS
 62
     7
 10
-50.71875
 20
12.250000000475911
 30
0.0
 40
1.28125
 50
102.6803834918198
 51
257.31961650818022
  0
LINE
  5
AA
  8
DATA
  6
CONTINUOUS
 62
     7
 10
-101.0
 20
98.499999992549405
 30
0.0
 11
-101.0
 21
94.499999992549405
 31
0.0
  0
LINE
  5
AB
  8
DATA
  6
CONTINUOUS
 62
     7
 10
-20.0
 20
98.499999992549419
 30
0.0
 11
-20.0
 21
94.499999992549405
 31
0.0
  0
LINE
  5
AC
  8
DATA
  6
CONTINUOUS
 62
     7
 10
-64.0
 20
43.443315944832001
 30
0.0
 11
-64.0
 21
96.5
 31
0.0
  0
LINE
  5
AD
  8
DATA
  6
CONTINUOUS
 62
     7
 10
-57.0
 20
96.5
 30
0.0
 11
-57.0
 21
43.443315944831987
 31
0.0
  0
LINE
  5
AE
  8
DATA
  6
CONTINUOUS
 62
     7
 10
-53.299154334038043
 20
28.00000000047589
 30
0.0
 11
-50.64722353729335
 21
33.488353825725333
 31
0.0
  0
LINE
  5
AF
  8
DATA
  6
CONTINUOUS
 62
     7
 10
-50.713012799937658
 20
34.47426181810993
 30
0.0
 11
-57.0
 21
44.000000000475922
 31
0.0
  0
ARC
  5
B0
  8
DATA
  6
CONTINUOUS
 62
     7
 10
-51.547622206511441
 20
33.923419609797449
 30
0.0
 40
0.9999999999999975
 50
334.21052010576528
 51
33.424811181350428
  0
LINE
  5
B1
  8
DATA
  6
CONTINUOUS
 62
     7
 10
-67.423741978224811
 20
27.426514792472091
 30
0.0
 11
-70.352776462706657
 21
33.488353825725333
 31
0.0
  0
LINE
  5
B2
  8
DATA
  6
CONTINUOUS
 62
     7
 10
-70.286987200062313
 20
34.47426181810993
 30
0.0
 11
-63.999999999999993
 21
44.000000000475922
 31
0.0
  0
ARC
  5
B3
  8
DATA
  6
CONTINUOUS
 62
     7
 10
-69.452377793488552
 20
33.923419609797449
 30
0.0
 40
1.0
 50
146.57518881864959
 51
205.78947989423429
  0
ARC
  5
B4
  8
DATA
  6
CONTINUOUS
 62
     7
 10
-60.5
 20
96.5
 30
0.0
 40
3.5
 50
0.0
 51
180.0
  0
ARC
  5
B5
  8
DATA
  6
CONTINUOUS
 62
     7
 10
-60.5
 20
43.500466568006203
 30
0.0
 40
3.5004665680062121
 50
179.06451470646471
 51
0.9354852935352939
  0
LINE
  5
B6
  8
DATA
  6
CONTINUOUS
 62
     7
 10
-97.0
 20
99.499999992549405
 30
0.0
 11
-94.0
 21
99.499999992549405
 31
0.0
  0
LINE
  5
B7
  8
DATA
  6
CONTINUOUS
 62
     7
 10
-27.000000000000011
 20
99.499999992549405
 30
0.0
 11
-24.0
 21
99.499999992549405
 31
0.0
  0
LINE
  5
B8
  8
DATA
  6
CONTINUOUS
 62
     7
 10
-27.0
 20
99.499999992549405
 30
0.0
 11
-27.0
 21
54.499999992461099
 31
0.0
  0
LINE
  5
B9
  8
DATA
  6
CONTINUOUS
 62
     7
 10
-94.0
 20
54.499999992461099
 30
0.0
 11
-94.0
 21
99.499999992549405
 31
0.0
  0
LINE
  5
BA
  8
DATA
  6
CONTINUOUS
 62
     7
 10
-100.5
 20
98.999999992549434
 30
0.0
 11
-97.0
 21
98.999999992549434
 31
0.0
  0
LINE
  5
BB
  8
DATA
  6
CONTINUOUS
 62
     7
 10
-94.0
 20
98.999999992549434
 30
0.0
 11
-62.9494897503874
 21
98.999999992549434
 31
0.0
  0
LINE
  5
BC
  8
DATA
  6
CONTINUOUS
 62
     7
 10
-58.0505102496126
 20
98.999999992549434
 30
0.0
 11
-27.0
 21
98.999999992549434
 31
0.0
  0
LINE
  5
BD
  8
DATA
  6
CONTINUOUS
 62
     7
 10
-23.999999999999989
 20
98.999999992549434
 30
0.0
 11
-20.500000000000011
 21
98.999999992549434
 31
0.0
  0
LINE
  5
BE
  8
DATA
  6
CONTINUOUS
 62
     7
 10
-97.0
 20
54.499999992461099
 30
0.0
 11
-97.0
 21
99.499999992549405
 31
0.0
  0
LINE
  5
BF
  8
DATA
  6
CONTINUOUS
 62
     7
 10
-24.0
 20
99.499999992549405
 30
0.0
 11
-24.0
 21
54.499999992461099
 31
0.0
  0
LINE
  5
C0
  8
DATA
  6
CONTINUOUS
 62
     7
 10
-100.5
 20
93.999999992549434
 30
0.0
 11
-97.0
 21
93.999999992549434
 31
0.0
  0
LINE
  5
C1
  8
DATA
  6
CONTINUOUS
 62
     7
 10
-94.0
 20
93.999999992549434
 30
0.0
 11
-64.0
 21
93.999999992549434
 31
0.0
  0
LINE
  5
C2
  8
DATA
  6
CONTINUOUS
 62
     7
 10
-57.0
 20
93.999999992549434
 30
0.0
 11
-27.0
 21
93.999999992549434
 31
0.0
  0
LINE
  5
C3
  8
DATA
  6
CONTINUOUS
 62
     7
 10
-23.999999999999989
 20
93.999999992549434
 30
0.0
 11
-20.499999999999979
 21
93.999999992549434
 31
0.0
  0
LINE
  5
C4
  8
DATA
  6
CONTINUOUS
 62
     7
 10
-101.0
 20
59.499999992461099
 30
0.0
 11
-101.0
 21
55.499999992461071
 31
0.0
  0
LINE
  5
C5
  8
DATA
  6
CONTINUOUS
 62
     7
 10
-20.0
 20
59.499999992461127
 30
0.0
 11
-20.0
 21
55.499999992461063
 31
0.0
  0
LINE
  5
C6
  8
DATA
  6
CONTINUOUS
 62
     7
 10
-101.0
 20
59.999999992461099
 30
0.0
 11
-97.0
 21
59.999999992461099
 31
0.0
  0
LINE
  5
C7
  8
DATA
  6
CONTINUOUS
 62
     7
 10
-94.0
 20
59.999999992461099
 30
0.0
 11
-64.0
 21
59.999999992461099
 31
0.0
  0
LINE
  5
C8
  8
DATA
  6
CONTINUOUS
 62
     7
 10
-57.0
 20
59.999999992461099
 30
0.0
 11
-27.0
 21
59.999999992461099
 31
0.0
  0
LINE
  5
C9
  8
DATA
  6
CONTINUOUS
 62
     7
 10
-23.999999999999989
 20
59.999999992461099
 30
0.0
 11
-20.500000000000011
 21
59.999999992461099
 31
0.0
  0
LINE
  5
CA
  8
DATA
  6
CONTINUOUS
 62
     7
 10
-100.5
 20
54.99999999246112
 30
0.0
 11
-97.0
 21
54.99999999246112
 31
0.0
  0
LINE
  5
CB
  8
DATA
  6
CONTINUOUS
 62
     7
 10
-94.0
 20
54.99999999246112
 30
0.0
 11
-64.0
 21
54.99999999246112
 31
0.0
  0
LINE
  5
CC
  8
DATA
  6
CONTINUOUS
 62
     7
 10
-57.0
 20
54.99999999246112
 30
0.0
 11
-27.0
 21
54.99999999246112
 31
0.0
  0
LINE
  5
CD
  8
DATA
  6
CONTINUOUS
 62
     7
 10
-23.999999999999989
 20
54.99999999246112
 30
0.0
 11
-20.499999999999979
 21
54.99999999246112
 31
0.0
  0
LINE
  5
CE
  8
DATA
  6
CONTINUOUS
 62
     7
 10
-97.000000000000043
 20
54.499999992461099
 30
0.0
 11
-94.0
 21
54.499999992461099
 31
0.0
  0
LINE
  5
CF
  8
DATA
  6
CONTINUOUS
 62
     7
 10
-27.0
 20
54.499999992461099
 30
0.0
 11
-24.0
 21
54.499999992461099
 31
0.0
  0
LINE
  5
D0
  8
DATA
  6
CONTINUOUS
 62
     7
 10
-101.0
 20
80.999999992549419
 30
0.0
 11
-97.000000000000043
 21
80.999999992549419
 31
0.0
  0
LINE
  5
D1
  8
DATA
  6
CONTINUOUS
 62
     7
 10
-31.0
 20
80.999999992549419
 30
0.0
 11
-27.0
 21
80.999999992549419
 31
0.0
  0
LINE
  5
D2
  8
DATA
  6
CONTINUOUS
 62
     7
 10
-101.0
 20
80.999999992549419
 30
0.0
 11
-101.0
 21
59.400000000000013
 31
0.0
  0
LINE
  5
D3
  8
DATA
  6
CONTINUOUS
 62
     7
 10
-101.0
 20
59.499999992461099
 30
0.0
 11
-101.0
 21
58.400000000000013
 31
0.0
  0
LINE
  5
D4
  8
DATA
  6
CONTINUOUS
 62
     7
 10
-31.0
 20
59.999999992461099
 30
0.0
 11
-31.0
 21
80.999999992549419
 31
0.0
  0
LINE
  5
D5
  8
DATA
  6
CONTINUOUS
 62
     7
 10
-101.0
 20
98.499999992549419
 30
0.0
 11
-100.5
 21
98.999999992549434
 31
0.0
  0
LINE
  5
D6
  8
DATA
  6
CONTINUOUS
 62
     7
 10
-100.5
 20
93.999999992549405
 30
0.0
 11
-101.0
 21
94.499999992549363
 31
0.0
  0
LINE
  5
D7
  8
DATA
  6
CONTINUOUS
 62
     7
 10
-20.0
 20
98.499999992549434
 30
0.0
 11
-20.5
 21
98.999999992549405
 31
0.0
  0
LINE
  5
D8
  8
DATA
  6
CONTINUOUS
 62
     7
 10
-20.5
 20
93.999999992549405
 30
0.0
 11
-20.0
 21
94.499999992549363
 31
0.0
  0
LINE
  5
D9
  8
DATA
  6
CONTINUOUS
 62
     7
 10
-20.0
 20
59.499999992461127
 30
0.0
 11
-20.5
 21
59.999999992461099
 31
0.0
  0
LINE
  5
DA
  8
DATA
  6
CONTINUOUS
 62
     7
 10
-20.5
 20
54.999999992461099
 30
0.0
 11
-20.0
 21
55.499999992461071
 31
0.0
  0
LINE
  5
DB
  8
DATA
  6
CONTINUOUS
 62
     7
 10
-100.5
 20
54.999999992461099
 30
0.0
 11
-101.0
 21
55.499999992461071
 31
0.0
  0
LINE
  5
DC
  8
DATA
  6
CONTINUOUS
 62
     7
 10
-101.0
 20
59.499999992461127
 30
0.0
 11
-100.5
 21
59.999999992461099
 31
0.0
  0
ARC
  5
DD
  8
DATA
  6
CONTINUOUS
 62
     7
 10
59.999999999999929
 20
69.99999999999919
 30
0.0
 40
29.99999999999919
 50
278.97831309269372
 51
261.02168689642838
  0
ARC
  5
DE
  8
DATA
  6
CONTINUOUS
 62
     7
 10
60.0
 20
70.0
 30
0.0
 40
23.0
 50
100.50603454960419
 51
197.63894644157091
  0
ARC
  5
DF
  8
DATA
  6
CONTINUOUS
 62
     7
 10
60.0
 20
70.0
 30
0.0
 40
23.0
 50
218.70773814430561
 51
321.29094716974322
  0
ARC
  5
E0
  8
DATA
  6
CONTINUOUS
 62
     7
 10
60.0
 20
70.0
 30
0.0
 40
23.0
 50
342.24688754535782
 51
79.473756331674451
  0
CIRCLE
  5
E1
  8
DATA
  6
CONTINUOUS
 62
     7
 10
60.0
 20
70.0
 30
0.0
 40
9.0
  0
ARC
  5
E2
  8
DATA
  6
CONTINUOUS
 62
     7
 10
54.849999996905723
 20
37.404333110547832
 30
0.0
 40
3.0
 50
0.0
 51
81.021686896428506
  0
ARC
  5
E3
  8
DATA
  6
CONTINUOUS
 62
     7
 10
65.149999996905734
 20
37.404333109570047
 30
0.0
 40
3.0000000000000031
 50
98.978313092693327
 51
180.0
  0
CIRCLE
  5
E4
  8
DATA
  6
CONTINUOUS
 62
     7
 10
60.0
 20
96.510611075664002
 30
0.0
 40
2.5
  0
CIRCLE
  5
E5
  8
DATA
  6
CONTINUOUS
 62
     7
 10
36.621323830964123
 20
57.499999992461099
 30
0.0
 40
2.5
  0
CIRCLE
  5
E6
  8
DATA
  6
CONTINUOUS
 62
     7
 10
83.37867616903587
 20
57.499999992461099
 30
0.0
 40
2.5
  0
CIRCLE
  5
E7
  8
DATA
  6
CONTINUOUS
 62
     7
 10
60.0
 20
96.510611075664002
 30
0.0
 40
2.0
  0
CIRCLE
  5
E8
  8
DATA
  6
CONTINUOUS
 62
     7
 10
36.621323830964123
 20
57.499999992461099
 30
0.0
 40
2.0
  0
CIRCLE
  5
E9
  8
DATA
  6
CONTINUOUS
 62
     7
 10
83.37867616903587
 20
57.499999992461099
 30
0.0
 40
2.0
  0
CIRCLE
  5
EA
  8
DATA
  6
CONTINUOUS
 62
     7
 10
-60.500000000047777
 20
-89.999999999960096
 30
0.0
 40
9.5
  0
CIRCLE
  5
EB
  8
DATA
  6
CONTINUOUS
 62
     7
 10
-60.500000000047777
 20
-89.999999999960096
 30
0.0
 40
4.0
  0
CIRCLE
  5
EC
  8
DATA
  6
CONTINUOUS
 62
     7
 10
-60.500000000047777
 20
-89.999999999960096
 30
0.0
 40
7.5
  0
LINE
  5
ED
  8
DATA
  6
CONTINUOUS
 62
     7
 10
-53.05419581245328
 20
-90.899999999960102
 30
0.0
 11
-56.602564946066742
 21
-90.899999999960102
 31
0.0
  0
LINE
  5
EE
  8
DATA
  6
CONTINUOUS
 62
     7
 10
-64.39743505402879
 20
-90.899999999960102
 30
0.0
 11
-67.945804187642551
 21
-90.899999999960102
 31
0.0
  0
LINE
  5
EF
  8
DATA
  6
CONTINUOUS
 62
     7
 10
-67.945804187642551
 20
-89.099999999960104
 30
0.0
 11
-64.39743505402879
 21
-89.099999999960104
 31
0.0
  0
LINE
  5
F0
  8
DATA
  6
CONTINUOUS
 62
     7
 10
-56.602564946066742
 20
-89.099999999960104
 30
0.0
 11
-53.05419581245328
 21
-89.099999999960104
 31
0.0
  0
ARC
  5
F1
  8
DATA
  6
CONTINUOUS
 62
     7
 10
60.0
 20
96.510611075664002
 30
0.0
 40
3.0000000000000022
 50
11.33019919090505
 51
170.61140126216341
  0
ARC
  5
F2
  8
DATA
  6
CONTINUOUS
 62
     7
 10
36.621323830964123
 20
57.499999992461099
 30
0.0
 40
3.0
 50
132.17983948496229
 51
277.25152598851588
  0
ARC
  5
F3
  8
DATA
  6
CONTINUOUS
 62
     7
 10
83.378676169035941
 20
57.499999992461071
 30
0.0
 40
3.0000000000000111
 50
262.74847401148531
 51
57.286316464383603
  0
LINE
  5
F4
  8
DATA
  6
CONTINUOUS
 62
     7
 10
71.046549180327631
 20
73.380326677718756
 30
0.0
 11
85.000000000000057
 21
60.024145201268972
 31
0.0
  0
LINE
  5
F5
  8
DATA
  6
CONTINUOUS
 62
     7
 10
58.299863685807779
 20
59.132178851619663
 30
0.0
 11
37.000000000000078
 21
54.523995227847273
 31
0.0
  0
LINE
  5
F6
  8
DATA
  6
CONTINUOUS
 62
     7
 10
61.700013530189111
 20
59.13215964429034
 30
0.0
 11
83.000000000000014
 21
54.523995227847209
 31
0.0
  0
ARC
  5
F7
  8
DATA
  6
CONTINUOUS
 62
     7
 10
59.999868423757263
 20
49.268615457291283
 30
0.0
 40
9.9999999999999964
 50
77.790842546219153
 51
102.2076837991922
  0
ARC
  5
F8
  8
DATA
  6
CONTINUOUS
 62
     7
 10
42.038682751567457
 20
80.604313289300677
 30
0.0
 40
10.000000000000011
 50
313.74712490749272
 51
344.00775815933503
  0
ARC
  5
F9
  8
DATA
  6
CONTINUOUS
 62
     7
 10
77.961317248432124
 20
80.60431328930116
 30
0.0
 40
9.9999999999999911
 50
195.99224184066401
 51
226.2528750925072
  0
CIRCLE
  5
FA
  8
DATA
  6
CONTINUOUS
 62
     7
 10
59.999999999999929
 20
70.058360182477614
 30
0.0
 40
10.70805771370361
  0
LINE
  5
FB
  8
DATA
  6
CONTINUOUS
 62
     7
 10
51.651672850758757
 20
77.849241356873165
 30
0.0
 11
57.040186073291551
 21
97.0
 31
0.0
  0
LINE
  5
FC
  8
DATA
  6
CONTINUOUS
 62
     7
 10
68.348327149240802
 20
77.849241356873804
 30
0.0
 11
62.941533731893969
 21
97.100000000000023
 31
0.0
  0
LINE
  5
FD
  8
DATA
  6
CONTINUOUS
 62
     7
 10
48.953450819671957
 20
73.380326677718244
 30
0.0
 11
34.5
 21
59.621316848610533
 31
0.0
  0
LINE
  5
FE
  8
DATA
  6
CONTINUOUS
 62
     7
 10
57.871551337660883
 20
91.930460136951353
 30
0.0
 11
54.100000000000001
 21
78.994382787641953
 31
0.0
  0
LINE
  5
FF
  8
DATA
  6
CONTINUOUS
 62
     7
 10
62.128448662339132
 20
91.930460136951353
 30
0.0
 11
65.900000000000006
 21
78.994382787641953
 31
0.0
  0
LINE
  5
100
  8
DATA
  6
CONTINUOUS
 62
     7
 10
59.311595352868778
 20
93.010611075664002
 30
0.0
 11
60.688404647131208
 21
93.010611075664002
 31
0.0
  0
LINE
  5
101
  8
DATA
  6
CONTINUOUS
 62
     7
 10
70.657273877054948
 20
71.100000000000023
 30
0.0
 11
80.299479298154225
 21
62.412369771981822
 31
0.0
  0
LINE
  5
102
  8
DATA
  6
CONTINUOUS
 62
     7
 10
64.0
 20
60.125460303791279
 30
0.0
 11
77.370847875610906
 21
56.908501324157221
 31
0.0
  0
LINE
  5
103
  8
DATA
  6
CONTINUOUS
 62
     7
 10
77.947626988553068
 20
55.616582969274589
 30
0.0
 11
77.947854207247786
 21
55.617006178902997
 31
0.0
  0
LINE
  5
104
  8
DATA
  6
CONTINUOUS
 62
     7
 10
79.04329816005388
 20
57.657341939231699
 30
0.0
 11
80.616986919135627
 21
60.588439822018692
 31
0.0
  0
LINE
  5
105
  8
DATA
  6
CONTINUOUS
 62
     7
 10
39.662232114692792
 20
62.684175903659778
 30
0.0
 11
49.316637848699209
 21
70.785184194300314
 31
0.0
  0
LINE
  5
106
  8
DATA
  6
CONTINUOUS
 62
     7
 10
42.622649527050719
 20
57.173055107513903
 30
0.0
 11
54.707409914512219
 21
60.749708820061883
 31
0.0
  0
LINE
  5
107
  8
DATA
  6
CONTINUOUS
 62
     7
 10
40.87553892728431
 20
57.901554472299651
 30
0.0
 11
39.304995992853257
 21
60.825281305904852
 31
0.0
  0
ARC
  5
108
  8
DATA
  6
CONTINUOUS
 62
     7
 10
59.311595352868778
 20
91.510611075664002
 30
0.0
 40
1.500000000000014
 50
90.0
 51
163.74580086045461
  0
ARC
  5
109
  8
DATA
  6
CONTINUOUS
 62
     7
 10
60.688404647131208
 20
91.510611075664002
 30
0.0
 40
1.500000000000006
 50
16.254199139544792
 51
89.99999999999973
  0
ARC
  5
10A
  8
DATA
  6
CONTINUOUS
 62
     7
 10
40.626413529222603
 20
61.535109238981292
 30
0.0
 40
1.5
 50
129.99999999999969
 51
208.24342792350069
  0
ARC
  5
10B
  8
DATA
  6
CONTINUOUS
 62
     7
 10
42.196956463653649
 20
58.611382405376091
 30
0.0
 40
1.5000000000000071
 50
208.2434279235006
 51
286.48685584700138
  0
ARC
  5
10C
  8
DATA
  6
CONTINUOUS
 62
     7
 10
77.721727710714987
 20
58.366885135544777
 30
0.0
 40
1.4999999999999929
 50
256.4720374492245
 51
331.76891735755078
  0
ARC
  5
10D
  8
DATA
  6
CONTINUOUS
 62
     7
 10
79.295416469796706
 20
61.297983018331777
 30
0.0
 40
1.500000000000016
 50
331.76891735755078
 51
47.981137802764181
  0
LINE
  5
10E
  8
DATA
  6
CONTINUOUS
 62
     7
 10
-64.0
 20
-63.5
 30
0.0
 11
-64.0
 21
-81.168239133613312
 31
0.0
  0
LINE
  5
10F
  8
DATA
  6
CONTINUOUS
 62
     7
 10
-64.0
 20
-98.831760866306837
 30
0.0
 11
-64.0
 21
-116.5
 31
0.0
  0
LINE
  5
110
  8
DATA
  6
CONTINUOUS
 62
     7
 10
-57.0
 20
-63.5
 30
0.0
 11
-57.0
 21
-81.168239133651184
 31
0.0
  0
LINE
  5
111
  8
DATA
  6
CONTINUOUS
 62
     7
 10
-57.0
 20
-98.831760866268993
 30
0.0
 11
-57.0
 21
-116.5
 31
0.0
  0
ARC
  5
112
  8
DATA
  6
CONTINUOUS
 62
     7
 10
-60.5
 20
-63.5
 30
0.0
 40
3.5
 50
0.0
 51
180.0
  0
ARC
  5
113
  8
DATA
  6
CONTINUOUS
 62
     7
 10
-60.5
 20
-116.5
 30
0.0
 40
3.5
 50
180.0
 51
0.0
  0
LINE
  5
114
  8
DATA
  6
CONTINUOUS
 62
     7
 10
-97.000000000000043
 20
-63.999999999960089
 30
0.0
 11
-97.000000000000043
 21
-115.9999999999601
 31
0.0
  0
LINE
  5
115
  8
DATA
  6
CONTINUOUS
 62
     7
 10
-101.0
 20
-81.0
 30
0.0
 11
-101.0
 21
-99.0
 31
0.0
  0
LINE
  5
116
  8
DATA
  6
CONTINUOUS
 62
     7
 10
-31.0
 20
-81.035748022639808
 30
0.0
 11
-31.0
 21
-99.0
 31
0.0
  0
LINE
  5
117
  8
DATA
  6
CONTINUOUS
 62
     7
 10
-94.0
 20
-63.999999999960089
 30
0.0
 11
-94.0
 21
-115.9999999999601
 31
0.0
  0
LINE
  5
118
  8
DATA
  6
CONTINUOUS
 62
     7
 10
-27.0
 20
-63.999999999960089
 30
0.0
 11
-27.0
 21
-115.9999999999601
 31
0.0
  0
LINE
  5
119
  8
DATA
  6
CONTINUOUS
 62
     7
 10
-24.0
 20
-63.999999999960089
 30
0.0
 11
-24.0
 21
-115.9999999999601
 31
0.0
  0
LINE
  5
11A
  8
DATA
  6
CONTINUOUS
 62
     7
 10
-101.0
 20
-81.0
 30
0.0
 11
-97.000000000000043
 21
-81.0
 31
0.0
  0
LINE
  5
11B
  8
DATA
  6
CONTINUOUS
 62
     7
 10
-101.0
 20
-99.0
 30
0.0
 11
-97.000000000000043
 21
-99.0
 31
0.0
  0
LINE
  5
11C
  8
DATA
  6
CONTINUOUS
 62
     7
 10
-27.0
 20
-81.035748022639808
 30
0.0
 11
-31.0
 21
-81.035748022639808
 31
0.0
  0
LINE
  5
11D
  8
DATA
  6
CONTINUOUS
 62
     7
 10
-27.0
 20
-99.0
 30
0.0
 11
-31.0
 21
-99.0
 31
0.0
  0
LINE
  5
11E
  8
DATA
  6
CONTINUOUS
 62
     7
 10
-94.0
 20
-69.499999999960096
 30
0.0
 11
-64.0
 21
-69.499999999960096
 31
0.0
  0
LINE
  5
11F
  8
DATA
  6
CONTINUOUS
 62
     7
 10
-57.0
 20
-69.499999999960096
 30
0.0
 11
-26.999999999999989
 21
-69.499999999960096
 31
0.0
  0
LINE
  5
120
  8
DATA
  6
CONTINUOUS
 62
     7
 10
-94.000000000000028
 20
-110.4999999999601
 30
0.0
 11
-64.000000000000014
 21
-110.4999999999601
 31
0.0
  0
LINE
  5
121
  8
DATA
  6
CONTINUOUS
 62
     7
 10
-57.0
 20
-110.4999999999601
 30
0.0
 11
-27.000000000000011
 21
-110.4999999999601
 31
0.0
  0
LINE
  5
122
  8
DATA
  6
CONTINUOUS
 62
     7
 10
-94.0
 20
-64.499999999960096
 30
0.0
 11
-64.0
 21
-64.499999999960096
 31
0.0
  0
LINE
  5
123
  8
DATA
  6
CONTINUOUS
 62
     7
 10
-56.999999999999993
 20
-64.499999999960096
 30
0.0
 11
-27.0
 21
-64.499999999960096
 31
0.0
  0
LINE
  5
124
  8
DATA
  6
CONTINUOUS
 62
     7
 10
-94.0
 20
-115.4999999999601
 30
0.0
 11
-64.0
 21
-115.4999999999601
 31
0.0
  0
LINE
  5
125
  8
DATA
  6
CONTINUOUS
 62
     7
 10
-56.999999999999993
 20
-115.4999999999601
 30
0.0
 11
-27.0
 21
-115.4999999999601
 31
0.0
  0
LINE
  5
126
  8
DATA
  6
CONTINUOUS
 62
     7
 10
-94.0
 20
-64.499999999960096
 30
0.0
 11
-64.0
 21
-64.499999999960096
 31
0.0
  0
LINE
  5
127
  8
DATA
  6
CONTINUOUS
 62
     7
 10
-57.0
 20
-64.499999999960096
 30
0.0
 11
-26.999999999999989
 21
-64.499999999960096
 31
0.0
  0
LINE
  5
128
  8
DATA
  6
CONTINUOUS
 62
     7
 10
-97.0
 20
-63.999999999960089
 30
0.0
 11
-94.0
 21
-63.999999999960089
 31
0.0
  0
LINE
  5
129
  8
DATA
  6
CONTINUOUS
 62
     7
 10
-27.000000000000011
 20
-63.999999999960089
 30
0.0
 11
-24.0
 21
-63.999999999960089
 31
0.0
  0
LINE
  5
12A
  8
DATA
  6
CONTINUOUS
 62
     7
 10
-97.000000000000043
 20
-115.9999999999601
 30
0.0
 11
-94.000000000000028
 21
-115.9999999999601
 31
0.0
  0
LINE
  5
12B
  8
DATA
  6
CONTINUOUS
 62
     7
 10
-27.0
 20
-115.9999999999601
 30
0.0
 11
-24.0
 21
-115.9999999999601
 31
0.0
  0
LINE
  5
12C
  8
DATA
  6
CONTINUOUS
 62
     7
 10
-97.0
 20
-64.499999999960096
 30
0.0
 11
-100.5
 21
-64.499999999960096
 31
0.0
  0
LINE
  5
12D
  8
DATA
  6
CONTINUOUS
 62
     7
 10
-97.0
 20
-69.499999999960096
 30
0.0
 11
-100.4999999999999
 21
-69.499999999960096
 31
0.0
  0
LINE
  5
12E
  8
DATA
  6
CONTINUOUS
 62
     7
 10
-101.0
 20
-68.999999999960082
 30
0.0
 11
-101.0
 21
-64.999999999960096
 31
0.0
  0
LINE
  5
12F
  8
DATA
  6
CONTINUOUS
 62
     7
 10
-97.000000000000043
 20
-110.4999999999601
 30
0.0
 11
-100.5
 21
-110.4999999999601
 31
0.0
  0
LINE
  5
130
  8
DATA
  6
CONTINUOUS
 62
     7
 10
-97.0
 20
-115.4999999999601
 30
0.0
 11
-100.4999999999999
 21
-115.4999999999601
 31
0.0
  0
LINE
  5
131
  8
DATA
  6
CONTINUOUS
 62
     7
 10
-101.0
 20
-110.9999999999601
 30
0.0
 11
-101.0
 21
-114.9999999999601
 31
0.0
  0
LINE
  5
132
  8
DATA
  6
CONTINUOUS
 62
     7
 10
-20.0
 20
-64.999999999960096
 30
0.0
 11
-20.0
 21
-68.999999999960096
 31
0.0
  0
LINE
  5
133
  8
DATA
  6
CONTINUOUS
 62
     7
 10
-20.0
 20
-110.9999999999601
 30
0.0
 11
-20.0
 21
-114.9999999999601
 31
0.0
  0
LINE
  5
134
  8
DATA
  6
CONTINUOUS
 62
     7
 10
-24.0
 20
-64.499999999960096
 30
0.0
 11
-20.5
 21
-64.499999999960096
 31
0.0
  0
LINE
  5
135
  8
DATA
  6
CONTINUOUS
 62
     7
 10
-24.0
 20
-69.499999999960096
 30
0.0
 11
-20.5
 21
-69.499999999960096
 31
0.0
  0
LINE
  5
136
  8
DATA
  6
CONTINUOUS
 62
     7
 10
-24.0
 20
-110.4999999999601
 30
0.0
 11
-20.5
 21
-110.4999999999601
 31
0.0
  0
LINE
  5
137
  8
DATA
  6
CONTINUOUS
 62
     7
 10
-24.0
 20
-115.4999999999601
 30
0.0
 11
-20.5
 21
-115.4999999999601
 31
0.0
  0
LINE
  5
138
  8
DATA
  6
CONTINUOUS
 62
     7
 10
-101.0
 20
-64.999999999960096
 30
0.0
 11
-100.5
 21
-64.499999999960096
 31
0.0
  0
LINE
  5
139
  8
DATA
  6
CONTINUOUS
 62
     7
 10
-100.5
 20
-69.499999999960096
 30
0.0
 11
-101.0
 21
-68.999999999960096
 31
0.0
  0
LINE
  5
13A
  8
DATA
  6
CONTINUOUS
 62
     7
 10
-101.0
 20
-110.9999999999601
 30
0.0
 11
-100.5
 21
-110.4999999999601
 31
0.0
  0
LINE
  5
13B
  8
DATA
  6
CONTINUOUS
 62
     7
 10
-100.5
 20
-115.4999999999601
 30
0.0
 11
-101.0
 21
-114.9999999999601
 31
0.0
  0
LINE
  5
13C
  8
DATA
  6
CONTINUOUS
 62
     7
 10
-20.0
 20
-64.999999999960096
 30
0.0
 11
-20.5
 21
-64.499999999960096
 31
0.0
  0
LINE
  5
13D
  8
DATA
  6
CONTINUOUS
 62
     7
 10
-20.5
 20
-69.499999999960096
 30
0.0
 11
-20.0
 21
-68.999999999960096
 31
0.0
  0
LINE
  5
13E
  8
DATA
  6
CONTINUOUS
 62
     7
 10
-20.0
 20
-110.9999999999601
 30
0.0
 11
-20.5
 21
-110.4999999999601
 31
0.0
  0
LINE
  5
13F
  8
DATA
  6
CONTINUOUS
 62
     7
 10
-20.5
 20
-115.4999999999601
 30
0.0
 11
-20.0
 21
-114.9999999999601
 31
0.0
  0
LINE
  5
140
  8
DATA
  6
CONTINUOUS
 62
     7
 10
-31.000000000000011
 20
-92.499999999960082
 30
0.0
 11
-51.334848610136092
 21
-92.499999999960082
 31
0.0
  0
LINE
  5
141
  8
DATA
  6
CONTINUOUS
 62
     7
 10
-69.665151389959433
 20
-92.499999999960082
 30
0.0
 11
-94.0
 21
-92.499999999960082
 31
0.0
  0
LINE
  5
142
  8
DATA
  6
CONTINUOUS
 62
     7
 10
-94.0
 20
-87.499999999960096
 30
0.0
 11
-69.665151389959462
 21
-87.499999999960096
 31
0.0
  0
LINE
  5
143
  8
DATA
  6
CONTINUOUS
 62
     7
 10
-51.334848610136092
 20
-87.499999999960096
 30
0.0
 11
-31.0
 21
-87.499999999960096
 31
0.0
  0
LINE
  5
144
  8
DATA
  6
CONTINUOUS
 62
     7
 10
-20.0
 20
-88.099999999960104
 30
0.0
 11
-20.0
 21
-92.099999999960076
 31
0.0
  0
LINE
  5
145
  8
DATA
  6
CONTINUOUS
 62
     7
 10
-24.0
 20
-87.599999999960104
 30
0.0
 11
-20.5
 21
-87.599999999960104
 31
0.0
  0
LINE
  5
146
  8
DATA
  6
CONTINUOUS
 62
     7
 10
-24.0
 20
-92.599999999960076
 30
0.0
 11
-20.5
 21
-92.599999999960076
 31
0.0
  0
LINE
  5
147
  8
DATA
  6
CONTINUOUS
 62
     7
 10
-20.0
 20
-88.099999999960104
 30
0.0
 11
-20.5
 21
-87.599999999960104
 31
0.0
  0
LINE
  5
148
  8
DATA
  6
CONTINUOUS
 62
     7
 10
-20.5
 20
-92.599999999960076
 30
0.0
 11
-20.0
 21
-92.099999999960076
 31
0.0
  0
ENDSEC
  0
EOF
