  0
SECTION
  2
HEADER
  9
$ACADVER
  1
AC1009
  9
$INSBASE
 10
0.0
 20
0.0
 30
0.0
  9
$EXTMIN
 10
-90.005492744964727
 20
-137.5519002719773
 30
-0.0015258207003583
  9
$EXTMAX
 10
90.005493583154944
 20
130.00814935126499
 30
0.0000000349246037
  9
$LIMMIN
 10
0.0
 20
0.0
  9
$LIMMAX
 10
0.0
 20
0.0
  9
$ORTHOMODE
 70
     0
  9
$REGENMODE
 70
     1
  9
$FILLMODE
 70
     1
  9
$QTEXTMODE
 70
     0
  9
$MIRRTEXT
 70
     1
  9
$DRAGMODE
 70
     2
  9
$LTSCALE
 40
5.0800000000000001
  9
$OSMODE
 70
   231
  9
$ATTMODE
 70
     1
  9
$TEXTSIZE
 40
0.0
  9
$TRACEWID
 40
1.0
  9
$TEXTSTYLE
  7
STANDARD
  9
$CLAYER
  8
DATA
  9
$CELTYPE
  6
BYLAYER
  9
$CECOLOR
 62
   256
  9
$DIMSCALE
 40
1.0
  9
$DIMASZ
 40
0.18
  9
$DIMEXO
 40
0.0625
  9
$DIMDLI
 40
0.38
  9
$DIMRND
 40
0.0
  9
$DIMDLE
 40
0.0
  9
$DIMEXE
 40
0.18
  9
$DIMTP
 40
0.0
  9
$DIMTM
 40
0.0
  9
$DIMTXT
 40
0.18
  9
$DIMCEN
 40
0.09
  9
$DIMTSZ
 40
0.0
  9
$DIMTOL
 70
     0
  9
$DIMLIM
 70
     0
  9
$DIMTIH
 70
     1
  9
$DIMTOH
 70
     1
  9
$DIMSE1
 70
     0
  9
$DIMSE2
 70
     0
  9
$DIMTAD
 70
     0
  9
$DIMZIN
 70
     0
  9
$DIMBLK
  1

  9
$DIMASO
 70
     1
  9
$DIMSHO
 70
     1
  9
$DIMPOST
  1

  9
$DIMAPOST
  1

  9
$DIMALT
 70
     0
  9
$DIMALTD
 70
     2
  9
$DIMALTF
 40
25.399999999999999
  9
$DIMLFAC
 40
1.0
  9
$DIMTOFL
 70
     0
  9
$DIMTVP
 40
0.0
  9
$DIMTIX
 70
     0
  9
$DIMSOXD
 70
     0
  9
$DIMSAH
 70
     0
  9
$DIMBLK1
  1

  9
$DIMBLK2
  1

  9
$DIMSTYLE
  2
STANDARD
  9
$DIMCLRD
 70
     0
  9
$DIMCLRE
 70
     0
  9
$DIMCLRT
 70
     0
  9
$DIMTFAC
 40
1.0
  9
$DIMGAP
 40
0.09
  9
$LUNITS
 70
     2
  9
$LUPREC
 70
     4
  9
$SKETCHINC
 40
0.1
  9
$FILLETRAD
 40
0.0
  9
$AUNITS
 70
     0
  9
$AUPREC
 70
     0
  9
$MENU
  1
acad
  9
$ELEVATION
 40
0.0
  9
$PELEVATION
 40
0.0
  9
$THICKNESS
 40
0.0
  9
$LIMCHECK
 70
     0
  9
$BLIPMODE
 70
     0
  9
$CHAMFERA
 40
0.0
  9
$CHAMFERB
 40
0.0
  9
$SKPOLY
 70
     0
  9
$TDCREATE
 40
2456457.5743634258
  9
$TDUPDATE
 40
2456457.5749876159
  9
$TDINDWG
 40
0.0003632523
  9
$TDUSRTIMER
 40
0.0003631366
  9
$USRTIMER
 70
     1
  9
$ANGBASE
 50
0.0
  9
$ANGDIR
 70
     0
  9
$PDMODE
 70
     1
  9
$PDSIZE
 40
-2.0
  9
$PLINEWID
 40
0.0
  9
$COORDS
 70
     2
  9
$SPLFRAME
 70
     0
  9
$SPLINETYPE
 70
     6
  9
$SPLINESEGS
 70
     8
  9
$ATTDIA
 70
     0
  9
$ATTREQ
 70
     1
  9
$HANDLING
 70
     1
  9
$HANDSEED
  5
22B
  9
$SURFTAB1
 70
     6
  9
$SURFTAB2
 70
     6
  9
$SURFTYPE
 70
     6
  9
$SURFU
 70
     6
  9
$SURFV
 70
     6
  9
$UCSNAME
  2

  9
$UCSORG
 10
0.0
 20
0.0
 30
0.0
  9
$UCSXDIR
 10
1.0
 20
0.0
 30
0.0
  9
$UCSYDIR
 10
0.0
 20
1.0
 30
0.0
  9
$PUCSNAME
  2

  9
$PUCSORG
 10
0.0
 20
0.0
 30
0.0
  9
$PUCSXDIR
 10
1.0
 20
0.0
 30
0.0
  9
$PUCSYDIR
 10
0.0
 20
1.0
 30
0.0
  9
$USERI1
 70
     0
  9
$USERI2
 70
     0
  9
$USERI3
 70
     0
  9
$USERI4
 70
     0
  9
$USERI5
 70
     0
  9
$USERR1
 40
0.0
  9
$USERR2
 40
0.0
  9
$USERR3
 40
0.0
  9
$USERR4
 40
0.0
  9
$USERR5
 40
0.0
  9
$WORLDVIEW
 70
     1
  9
$SHADEDGE
 70
     3
  9
$SHADEDIF
 70
    70
  9
$TILEMODE
 70
     1
  9
$MAXACTVP
 70
    64
  9
$PLIMCHECK
 70
     0
  9
$PEXTMIN
 10
1.0000000000000000E+020
 20
1.0000000000000000E+020
 30
1.0000000000000000E+020
  9
$PEXTMAX
 10
-1.0000000000000000E+020
 20
-1.0000000000000000E+020
 30
-1.0000000000000000E+020
  9
$PLIMMIN
 10
0.0
 20
0.0
  9
$PLIMMAX
 10
12.0
 20
9.0
  9
$UNITMODE
 70
     0
  9
$VISRETAIN
 70
     0
  9
$PLINEGEN
 70
     1
  9
$PSLTSCALE
 70
     0
  0
ENDSEC
  0
SECTION
  2
TABLES
  0
TABLE
  2
VPORT
 70
     1
  0
VPORT
  2
*ACTIVE
 70
     0
 10
0.0
 20
0.0
 11
1.0
 21
1.0
 12
0.0000004190951017
 22
-3.5087846560790581
 13
0.0
 23
0.0
 14
1.0
 24
1.0
 15
0.0
 25
0.0
 16
0.0
 26
0.0
 36
1.0
 17
0.0
 27
0.0
 37
0.0
 40
269.09590560553522
 41
2.1585051546391751
 42
50.0
 43
0.0
 44
0.0
 50
0.0
 51
0.0
 71
     0
 72
  2000
 73
     1
 74
     1
 75
     0
 76
     0
 77
     0
 78
     0
  0
ENDTAB
  0
TABLE
  2
LTYPE
 70
    11
  0
LTYPE
  2
CONTINUOUS
 70
     0
  3
Solid line
 72
    65
 73
     0
 40
0.0
  0
ENDTAB
  0
TABLE
  2
LAYER
 70
     5
  0
LAYER
  2
0
 70
     0
 62
     7
  6
CONTINUOUS
  0
LAYER
  2
DATA
 70
     0
 62
     7
  6
CONTINUOUS
  0
LAYER
  2
HIBINO-BASE
 70
     0
 62
     7
  6
CONTINUOUS
  0
LAYER
  2
SPEC
 70
     0
 62
     7
  6
CONTINUOUS
  0
LAYER
  2
DIMNSIONS
 70
     0
 62
     7
  6
CONTINUOUS
  0
ENDTAB
  0
TABLE
  2
STYLE
 70
     3
  0
STYLE
  2
STANDARD
 70
     0
 40
0.0
 41
1.0
 50
0.0
 71
     0
 42
0.0
  3
txt
  4
BIGFONT.SHX
  0
ENDTAB
  0
TABLE
  2
VIEW
 70
     0
  0
ENDTAB
  0
TABLE
  2
UCS
 70
     0
  0
ENDTAB
  0
TABLE
  2
APPID
 70
     4
  0
APPID
  2
ACAD
 70
     0
  0
APPID
  2
ACADANNOTATIVE
 70
     0
  0
APPID
  2
ACAD_NAV_VCDISPLAY
 70
     0
  0
APPID
  2
ACAD_MLEADERVER
 70
     0
  0
ENDTAB
  0
TABLE
  2
DIMSTYLE
 70
     2
  0
DIMSTYLE
  2
STANDARD
 70
     0
  3

  4

  5

  6

  7

 40
1.0
 41
0.18
 42
0.0625
 43
0.38
 44
0.18
 45
0.0
 46
0.0
 47
0.0
 48
0.0
140
0.18
141
0.09
142
0.0
143
25.399999999999999
144
1.0
145
0.0
146
1.0
147
0.09
 71
     0
 72
     0
 73
     1
 74
     1
 75
     0
 76
     0
 77
     0
 78
     0
170
     0
171
     2
172
     0
173
     0
174
     0
175
     0
176
     0
177
     0
178
     0
  0
ENDTAB
  0
ENDSEC
  0
SECTION
  2
BLOCKS
  0
BLOCK
  8
0
  2
$MODEL_SPACE
 70
     0
 10
0.0
 20
0.0
 30
0.0
  3
$MODEL_SPACE
  1

  0
ENDBLK
  5
1BA
  8
0
  0
BLOCK
 67
     1
  8
0
  2
$PAPER_SPACE
 70
     0
 10
0.0
 20
0.0
 30
0.0
  3
$PAPER_SPACE
  1

  0
ENDBLK
  5
1B6
 67
     1
  8
0
  0
ENDSEC
  0
SECTION
  2
ENTITIES
  0
LINE
  5
2C
  8
HIBINO-BASE
  6
CONTINUOUS
 62
     7
 10
-89.999999999990976
 20
129.9999999999867
 30
0.0
 11
89.999999999990976
 21
129.9999999999867
 31
0.0
  0
LINE
  5
2D
  8
HIBINO-BASE
  6
CONTINUOUS
 62
     7
 10
89.999999999990976
 20
-129.9999999999873
 30
0.0
 11
-89.999999999990976
 21
-129.9999999999873
 31
0.0
  0
LINE
  5
2E
  8
HIBINO-BASE
  6
CONTINUOUS
 62
     7
 10
-89.999999999990976
 20
-129.9999999999873
 30
0.0
 11
-89.999999999990976
 21
129.9999999999867
 31
0.0
  0
LINE
  5
2F
  8
HIBINO-BASE
  6
CONTINUOUS
 62
     7
 10
89.999999999990976
 20
129.9999999999867
 30
0.0
 11
89.999999999990976
 21
-129.9999999999873
 31
0.0
  0
LINE
  5
30
  8
HIBINO-BASE
  6
CONTINUOUS
 62
     7
 10
0.0
 20
-107.4999999999896
 30
0.0
 11
89.999999999990976
 21
-107.4999999999896
 31
0.0
  0
LINE
  5
31
  8
HIBINO-BASE
  6
CONTINUOUS
 62
     7
 10
0.0
 20
-129.9999999999873
 30
0.0
 11
0.0
 21
-107.4999999999896
 31
0.0
  0
TEXT
  5
32
  8
HIBINO-BASE
 62
     7
 10
0.8999999999999099
 20
-110.0086933333226
 30
0.0
 40
1.62884114583317
  1
NOTE
 41
0.7
 11
0.8999999999999099
 21
-108.3798521874894
 31
0.0
 73
     3
  0
LINE
  5
33
  8
HIBINO-BASE
  6
CONTINUOUS
 62
     7
 10
34.999999999996497
 20
-129.9999999999873
 30
0.0
 11
34.999999999996497
 21
-107.4999999999896
 31
0.0
  0
TEXT
  5
34
  8
HIBINO-BASE
 62
     7
 10
35.89999999999641
 20
-110.0086933333226
 30
0.0
 40
1.62884114583317
  1
TITLE
 41
0.7
 11
35.89999999999641
 21
-108.3798521874894
 31
0.0
 73
     3
  0
LINE
  5
35
  8
HIBINO-BASE
  6
CONTINUOUS
 62
     7
 10
0.0
 20
-119.9999999999883
 30
0.0
 11
89.999999999990976
 21
-119.9999999999883
 31
0.0
  0
TEXT
  5
36
  8
HIBINO-BASE
 62
     7
 10
48.399999999995153
 20
-122.4523733333214
 30
0.0
 40
1.62884114583317
  1
DRAWN
 41
0.7
 11
48.399999999995153
 21
-120.8235321874882
 31
0.0
 73
     3
  0
TEXT
  5
37
  8
HIBINO-BASE
 62
     7
 10
23.39999999999765
 20
-122.4523733333214
 30
0.0
 40
1.62884114583317
  1
DATE
 41
0.7
 11
23.39999999999765
 21
-120.8235321874882
 31
0.0
 73
     3
  0
TEXT
  5
38
  8
HIBINO-BASE
 62
     7
 10
13.399999999998659
 20
-122.4523733333214
 30
0.0
 40
1.62884114583317
  1
SCALE
 41
0.7
 11
13.399999999998659
 21
-120.8235321874882
 31
0.0
 73
     3
  0
TEXT
  5
39
  8
HIBINO-BASE
 62
     7
 10
35.89999999999641
 20
-122.4523733333214
 30
0.0
 40
1.62884114583317
  1
DESIGN
 41
0.7
 11
35.89999999999641
 21
-120.8235321874882
 31
0.0
 73
     3
  0
TEXT
  5
3A
  8
HIBINO-BASE
 62
     7
 10
73.399999999992673
 20
-122.4523733333214
 30
0.0
 40
1.62884114583317
  1
DRAWING NO.
 41
0.7
 11
73.399999999992673
 21
-120.8235321874882
 31
0.0
 73
     3
  0
TEXT
  5
3B
  8
HIBINO-BASE
 62
     7
 10
60.899999999993909
 20
-122.4523733333214
 30
0.0
 40
1.62884114583317
  1
CHECK
 41
0.7
 11
60.899999999993909
 21
-120.8235321874882
 31
0.0
 73
     3
  0
LINE
  5
3C
  8
HIBINO-BASE
  6
CONTINUOUS
 62
     7
 10
14.374999999998559
 20
-128.74999999998741
 30
0.0
 11
18.124999999998181
 21
-124.99999999998781
 31
0.0
  0
TEXT
  5
3D
  8
HIBINO-BASE
 62
     7
 10
13.74999999999862
 20
-126.10894333332099
 30
0.0
 40
1.62884114583317
  1
1
 41
0.7
 11
13.74999999999862
 21
-124.4801021874879
 31
0.0
 73
     3
  0
LINE
  5
3E
  8
HIBINO-BASE
  6
CONTINUOUS
 62
     7
 10
12.499999999998741
 20
-129.9999999999873
 30
0.0
 11
12.499999999998741
 21
-119.9999999999883
 31
0.0
  0
LINE
  5
3F
  8
HIBINO-BASE
  6
CONTINUOUS
 62
     7
 10
22.49999999999774
 20
-129.9999999999873
 30
0.0
 11
22.49999999999774
 21
-119.9999999999883
 31
0.0
  0
LINE
  5
40
  8
HIBINO-BASE
  6
CONTINUOUS
 62
     7
 10
47.499999999995232
 20
-119.9999999999883
 30
0.0
 11
47.499999999995232
 21
-129.9999999999873
 31
0.0
  0
LINE
  5
41
  8
HIBINO-BASE
  6
CONTINUOUS
 62
     7
 10
72.499999999992752
 20
-119.9999999999883
 30
0.0
 11
72.499999999992752
 21
-129.9999999999873
 31
0.0
  0
LINE
  5
42
  8
HIBINO-BASE
  6
CONTINUOUS
 62
     7
 10
59.999999999993989
 20
-129.9999999999873
 30
0.0
 11
59.999999999993989
 21
-119.9999999999883
 31
0.0
  0
TEXT
  5
43
  8
HIBINO-BASE
 62
     7
 10
23.356539999997668
 20
-127.1363533333209
 30
0.0
 40
1.62884114583317
  1
'13.6.
 41
0.7
 11
23.356539999997668
 21
-125.50751218748771
 31
0.0
 73
     3
  0
TEXT
  5
44
  8
HIBINO-BASE
 62
     7
 10
17.499999999998249
 20
-127.98394333332079
 30
0.0
 40
1.62884114583317
  1
1
 41
0.7
 11
17.499999999998249
 21
-126.3551021874877
 31
0.0
 73
     3
  0
TEXT
  5
45
  8
HIBINO-BASE
 62
     7
 10
49.00581001102973
 20
-127.1363533333209
 30
0.0
 40
1.62884114583317
  1
Ootake
 41
0.7
 11
49.00581001102973
 21
-125.50751218748771
 31
0.0
 73
     3
  0
TEXT
  5
46
  8
HIBINO-BASE
 62
     7
 10
3.8833333333329598
 20
-128.0239999999875
 30
0.0
 40
3.2576822916663399
  1
A4
 41
0.7
 11
3.8833333333329598
 21
-124.7663177083211
 31
0.0
 73
     3
  0
TEXT
  5
47
  8
HIBINO-BASE
 62
     7
 10
0.9583333333332365
 20
-122.61945499998799
 30
0.0
 40
1.62884114583317
  1
PAPER SIZE
 41
0.7
 11
0.9583333333332365
 21
-120.9906138541549
 31
0.0
 73
     3
  0
TEXT
  5
48
  8
HIBINO-BASE
 62
     7
 10
-82.815999999991703
 20
-136.37551499998671
 30
0.0
 40
3.529155815971869
  1
Hibino-Intersound Corporation
 41
0.7
 11
-82.815999999991703
 21
-132.8463591840148
 31
0.0
 73
     3
  0
TEXT
  5
49
  8
HIBINO-BASE
 62
     7
 10
14.024334167241721
 20
-136.37551499998671
 30
0.0
 40
3.529155815971869
  1
ヒビノインターサウンド株式会社
 41
0.7
 11
14.024334167241721
 21
-132.8463591840148
 31
0.0
 73
     3
  0
LINE
  5
4A
  8
SPEC
  6
CONTINUOUS
 62
     7
 10
-82.499999999991729
 20
119.99999999998759
 30
0.0
 11
64.999999999993506
 21
119.99999999998759
 31
0.0
  0
LINE
  5
4B
  8
SPEC
  6
CONTINUOUS
 62
     7
 10
-82.499999999991729
 20
116.24999999998801
 30
0.0
 11
64.999999999993506
 21
116.24999999998801
 31
0.0
  0
LINE
  5
4C
  8
SPEC
  6
CONTINUOUS
 62
     7
 10
-82.499999999991729
 20
104.9999999999891
 30
0.0
 11
64.999999999993506
 21
104.9999999999891
 31
0.0
  0
LINE
  5
4D
  8
SPEC
  6
CONTINUOUS
 62
     7
 10
-82.499999999991729
 20
108.7499999999887
 30
0.0
 11
64.999999999993506
 21
108.7499999999887
 31
0.0
  0
LINE
  5
4E
  8
SPEC
  6
CONTINUOUS
 62
     7
 10
-82.499999999991729
 20
112.4999999999884
 30
0.0
 11
64.999999999993506
 21
112.4999999999884
 31
0.0
  0
TEXT
  5
4F
  8
SPEC
 62
     7
 10
-49.124366008402042
 20
117.1597516420227
 30
0.0
 40
1.9003112499998089
  1
真鍮
 41
0.7
 11
-49.124366008402042
 21
119.0600628920225
 31
0.0
 73
     3
  0
LINE
  5
50
  8
SPEC
  6
CONTINUOUS
 62
     7
 10
-82.499999999991729
 20
119.99999999998759
 30
0.0
 11
-82.499999999991729
 21
104.9999999999891
 31
0.0
  0
TEXT
  5
51
  8
SPEC
 62
     7
 10
-81.249999999991857
 20
121.3932699999875
 30
0.0
 40
2.443261718749755
  1
仕様
 41
0.7
 11
-81.249999999991857
 21
123.83653171873721
 31
0.0
 73
     3
  0
LINE
  5
52
  8
SPEC
  6
CONTINUOUS
 62
     7
 10
-49.999999999994991
 20
119.99999999998759
 30
0.0
 11
-49.999999999994991
 21
104.9999999999891
 31
0.0
  0
LINE
  5
53
  8
SPEC
  6
CONTINUOUS
 62
     7
 10
64.999999999993506
 20
119.99999999998759
 30
0.0
 11
64.999999999993506
 21
104.9999999999891
 31
0.0
  0
TEXT
  5
54
  8
SPEC
 62
     7
 10
-81.673137271358755
 20
117.1841961427218
 30
0.0
 40
1.9003112499998089
  1
主材質
 41
0.7
 11
-81.673137271358755
 21
119.0845073927216
 31
0.0
 73
     3
  0
TEXT
  5
55
  8
SPEC
 62
     7
 10
-81.599999999991809
 20
113.3366797808996
 30
0.0
 40
1.9003112499998089
  1
仕上
 41
0.7
 11
-81.599999999991809
 21
115.2369910308994
 31
0.0
 73
     3
  0
TEXT
  5
56
  8
SPEC
 62
     7
 10
-49.148732016808999
 20
113.482849667244
 30
0.0
 40
1.9003112499998089
  1
黒アルマイトコート
 41
0.7
 11
-49.148732016808999
 21
115.3831609172438
 31
0.0
 73
     3
  0
TEXT
  5
57
  8
SPEC
 62
     7
 10
-81.673159373888609
 20
109.7879575345617
 30
0.0
 40
1.9003112499998089
  1
寸法
 41
0.7
 11
-81.673159373888609
 21
111.6882687845615
 31
0.0
 73
     3
  0
TEXT
  5
58
  8
SPEC
 62
     7
 10
-81.673159373888609
 20
106.0379575345621
 30
0.0
 40
1.9003112499998089
  1
質量
 41
0.7
 11
-81.673159373888609
 21
107.9382687845619
 31
0.0
 73
     3
  0
TEXT
  5
59
  8
SPEC
 62
     7
 10
-49.229889542764923
 20
109.7394337609489
 30
0.0
 40
1.9003112499998089
  1
\U+03C625.0\U+00D772.5mm
 41
0.7
 11
-49.229889542764923
 21
111.6397450109488
 31
0.0
 73
     3
  0
TEXT
  5
5A
  8
SPEC
 62
     7
 10
-49.099999999995092
 20
105.9758485226653
 30
0.0
 40
1.9003112499998089
  1
42g
 41
0.7
 11
-49.099999999995092
 21
107.8761597726651
 31
0.0
 73
     3
  0
TEXT
  5
5B
  8
DIMNSIONS
 62
     7
 10
-19.999999999998
 20
-117.7305099999885
 30
0.0
 40
2.443261718749755
  1
(単位：mm)
 41
0.7
 11
-19.999999999998
 21
-115.2872482812388
 31
0.0
 73
     3
  0
LINE
  5
5C
  8
DIMNSIONS
  6
CONTINUOUS
 62
     7
 10
-42.0
 20
-40.0
 30
0.0
 11
-62.041823898251621
 21
-40.0
 31
0.0
  0
LINE
  5
5D
  8
DIMNSIONS
  6
CONTINUOUS
 62
     7
 10
-51.0
 20
20.0
 30
0.0
 11
-62.041823898251621
 21
20.0
 31
0.0
  0
LINE
  5
5E
  8
DIMNSIONS
  6
CONTINUOUS
 62
     7
 10
-60.041823898251621
 20
-40.0
 30
0.0
 11
-60.041823898251621
 21
20.0
 31
0.0
  0
LINE
  5
5F
  8
DIMNSIONS
  6
CONTINUOUS
 62
     7
 10
-60.041823898251621
 20
-40.0
 30
0.0
 11
-60.711863693401853
 21
-37.49937744140626
 31
0.0
  0
LINE
  5
60
  8
DIMNSIONS
  6
CONTINUOUS
 62
     7
 10
-60.041823898251621
 20
-40.0
 30
0.0
 11
-59.37178410310139
 21
-37.49937744140626
 31
0.0
  0
LINE
  5
61
  8
DIMNSIONS
  6
CONTINUOUS
 62
     7
 10
-60.041823898251621
 20
20.0
 30
0.0
 11
-59.37178410310139
 21
17.499377441406249
 31
0.0
  0
LINE
  5
62
  8
DIMNSIONS
  6
CONTINUOUS
 62
     7
 10
-60.041823898251621
 20
20.0
 30
0.0
 11
-60.711863693401853
 21
17.499377441406249
 31
0.0
  0
TEXT
  5
63
  8
DIMNSIONS
 62
     7
 10
-61.035712794500007
 20
-13.52777777777778
 30
0.0
 40
2.7147352835082641
  1
60.0
 50
90.0
 41
0.7
 11
-63.750448078008283
 21
-13.52777777777778
 31
0.0
 73
     3
  0
LINE
  5
64
  8
DIMNSIONS
  6
CONTINUOUS
 62
     7
 10
-38.727241335952172
 20
-59.49697779506468
 30
0.0
 11
-45.0
 21
-55.875398891815117
 31
0.0
  0
LINE
  5
65
  8
DIMNSIONS
  6
CONTINUOUS
 62
     7
 10
-38.727241335952172
 20
-59.49697779506468
 30
0.0
 11
-41.215789230784083
 21
-58.783398168981847
 31
0.0
  0
LINE
  5
66
  8
DIMNSIONS
  6
CONTINUOUS
 62
     7
 10
-38.727241335952172
 20
-59.49697779506468
 30
0.0
 11
-40.525597218369469
 21
-57.63472576383797
 31
0.0
  0
LINE
  5
67
  8
DIMNSIONS
  6
CONTINUOUS
 62
     7
 10
-45.0
 20
-55.875398891815117
 30
0.0
 11
-57.583333333333343
 21
-55.875398891815117
 31
0.0
  0
TEXT
  5
68
  8
DIMNSIONS
 62
     7
 10
-57.583333333333321
 20
-54.881509995566716
 30
0.0
 40
2.7147352835082641
  1
\U+03C619.0
 41
0.7
 11
-57.583333333333321
 21
-52.166774712058441
 31
0.0
 73
     3
  0
LINE
  5
69
  8
DIMNSIONS
  6
CONTINUOUS
 62
     7
 10
44.271788288583807
 20
31.747417793605479
 30
0.0
 11
48.0
 21
42.0
 31
0.0
  0
LINE
  5
6A
  8
DIMNSIONS
  6
CONTINUOUS
 62
     7
 10
44.271788288583807
 20
31.747417793605479
 30
0.0
 11
44.497420123341847
 21
34.326401466057987
 31
0.0
  0
LINE
  5
6B
  8
DIMNSIONS
  6
CONTINUOUS
 62
     7
 10
44.271788288583807
 20
31.747417793605479
 30
0.0
 11
45.756683025613029
 21
33.868067252515608
 31
0.0
  0
LINE
  5
6C
  8
DIMNSIONS
  6
CONTINUOUS
 62
     7
 10
48.0
 20
42.0
 30
0.0
 11
60.583333333333343
 21
42.0
 31
0.0
  0
TEXT
  5
6D
  8
DIMNSIONS
 62
     7
 10
50.0
 20
42.993888896248393
 30
0.0
 40
2.7147352835082641
  1
\U+03C625.0
 41
0.7
 11
50.0
 21
45.708624179756661
 31
0.0
 73
     3
  0
LINE
  5
6E
  8
DIMNSIONS
  6
CONTINUOUS
 62
     7
 10
46.717514421272192
 20
26.71751442127221
 30
0.0
 11
53.81334944380535
 21
33.81334944380535
 31
0.0
  0
LINE
  5
6F
  8
DIMNSIONS
  6
CONTINUOUS
 62
     7
 10
46.717514421272192
 20
26.71751442127221
 30
0.0
 11
48.011931906826312
 21
28.95951127245748
 31
0.0
  0
LINE
  5
70
  8
DIMNSIONS
  6
CONTINUOUS
 62
     7
 10
46.717514421272192
 20
26.71751442127221
 30
0.0
 11
48.959511272457483
 21
28.011931906826309
 31
0.0
  0
LINE
  5
71
  8
DIMNSIONS
  6
CONTINUOUS
 62
     7
 10
53.81334944380535
 20
33.81334944380535
 30
0.0
 11
66.396682777138679
 21
33.81334944380535
 31
0.0
  0
TEXT
  5
72
  8
DIMNSIONS
 62
     7
 10
55.81334944380535
 20
34.807238340053757
 30
0.0
 40
2.7147352835082641
  1
\U+03C619.0
 41
0.7
 11
55.81334944380535
 21
37.521973623562019
 31
0.0
 73
     3
  0
LINE
  5
73
  8
DIMNSIONS
  6
CONTINUOUS
 62
     7
 10
-44.0
 20
-40.0
 30
0.0
 11
-72.0
 21
-40.0
 31
0.0
  0
LINE
  5
74
  8
DIMNSIONS
  6
CONTINUOUS
 62
     7
 10
-51.0
 20
32.5
 30
0.0
 11
-72.0
 21
32.5
 31
0.0
  0
LINE
  5
75
  8
DIMNSIONS
  6
CONTINUOUS
 62
     7
 10
-70.0
 20
-40.0
 30
0.0
 11
-70.0
 21
32.5
 31
0.0
  0
LINE
  5
76
  8
DIMNSIONS
  6
CONTINUOUS
 62
     7
 10
-70.0
 20
-40.0
 30
0.0
 11
-70.670039795150245
 21
-37.49937744140626
 31
0.0
  0
LINE
  5
77
  8
DIMNSIONS
  6
CONTINUOUS
 62
     7
 10
-70.0
 20
-40.0
 30
0.0
 11
-69.329960204849755
 21
-37.49937744140626
 31
0.0
  0
LINE
  5
78
  8
DIMNSIONS
  6
CONTINUOUS
 62
     7
 10
-70.0
 20
32.5
 30
0.0
 11
-69.329960204849755
 21
29.999377441406249
 31
0.0
  0
LINE
  5
79
  8
DIMNSIONS
  6
CONTINUOUS
 62
     7
 10
-70.0
 20
32.5
 30
0.0
 11
-70.670039795150245
 21
29.999377441406249
 31
0.0
  0
TEXT
  5
7A
  8
DIMNSIONS
 62
     7
 10
-70.993888918326945
 20
-7.2777781142128832
 30
0.0
 40
2.714735404866405
  1
72.5
 50
90.0
 41
0.7
 11
-73.708624323193362
 21
-7.2777781142128832
 31
0.0
 73
     3
  0
LINE
  5
7B
  8
DIMNSIONS
  6
CONTINUOUS
 62
     7
 10
-24.059103048226401
 20
-60.404472563235657
 30
0.0
 11
-14.999999999999989
 21
-55.0
 31
0.0
  0
LINE
  5
7C
  8
DIMNSIONS
  6
CONTINUOUS
 62
     7
 10
-24.059103048226401
 20
-60.404472563235657
 30
0.0
 11
-22.228520284782888
 21
-58.573889799792148
 31
0.0
  0
LINE
  5
7D
  8
DIMNSIONS
  6
CONTINUOUS
 62
     7
 10
-24.059103048226401
 20
-60.404472563235657
 30
0.0
 11
-21.558480489632661
 21
-59.734432768085412
 31
0.0
  0
LINE
  5
7E
  8
DIMNSIONS
  6
CONTINUOUS
 62
     7
 10
-14.999999999999989
 20
-55.0
 30
0.0
 11
6.402781814999055
 21
-55.0
 31
0.0
  0
TEXT
  5
7F
  8
DIMNSIONS
 62
     7
 10
-12.999999999999989
 20
-54.006110985999292
 30
0.0
 40
2.7147359307516821
  1
5/8アダプタ  
 41
0.7
 11
-12.999999999999989
 21
-51.291375055247613
 31
0.0
 73
     3
  0
LINE
  5
80
  8
DIMNSIONS
  6
CONTINUOUS
 62
     7
 10
-26.7499736145583
 20
-65.638847799228529
 30
0.0
 11
-15.0
 21
-70.0
 31
0.0
  0
LINE
  5
81
  8
DIMNSIONS
  6
CONTINUOUS
 62
     7
 10
-26.7499736145583
 20
-65.638847799228529
 30
0.0
 11
-24.170989942105791
 21
-65.864479633986591
 31
0.0
  0
LINE
  5
82
  8
DIMNSIONS
  6
CONTINUOUS
 62
     7
 10
-26.7499736145583
 20
-65.638847799228529
 30
0.0
 11
-24.62932415564817
 21
-67.12374253625778
 31
0.0
  0
LINE
  5
83
  8
DIMNSIONS
  6
CONTINUOUS
 62
     7
 10
-15.0
 20
-70.0
 30
0.0
 11
6.4027818149990479
 21
-70.0
 31
0.0
  0
TEXT
  5
84
  8
DIMNSIONS
 62
     7
 10
-13.0
 20
-69.0061109859993
 30
0.0
 40
2.7147359307516821
  1
3/8アダプタ  
 41
0.7
 11
-13.0
 21
-66.291375055247613
 31
0.0
 73
     3
  0
TEXT
  5
85
  8
DATA
 62
     7
 10
49.999999999994991
 20
-118.8691099999884
 30
0.0
 40
2.443261718749755
  1
UA0961
 41
0.7
 11
49.999999999994991
 21
-116.4258482812387
 31
0.0
 73
     3
  0
TEXT
  5
86
  8
DATA
 62
     7
 10
49.999999999994991
 20
-111.61910999998911
 30
0.0
 40
2.443261718749755
  1
DPA
 41
0.7
 11
49.999999999994991
 21
-109.1758482812394
 31
0.0
 73
     3
  0
TEXT
  5
87
  8
DATA
 62
     7
 10
48.083422773474773
 20
-114.9015919421623
 30
0.0
 40
1.628843710937337
  1
マイクホルダー
 41
0.7
 11
48.083422773474773
 21
-113.2727482312249
 31
0.0
 73
     3
  0
TEXT
  5
88
  8
DATA
 62
     7
 10
-87.499999999991246
 20
-122.1237222222103
 30
0.0
 40
1.900314670138699
  1
※仕様及び外観は予告なく変更されることがあります。
 41
0.7
 11
-87.499999999991246
 21
-120.22340755207161
 31
0.0
 73
     3
  0
TEXT
  5
89
  8
DATA
 62
     7
 10
-87.499999999991246
 20
-124.5931666666545
 30
0.0
 40
1.900314670138699
  1
　また、同一製品でも若干の個体差があることがあります。ご了承ください。
 41
0.7
 11
-87.499999999991246
 21
-122.6928519965158
 31
0.0
 73
     3
  0
LINE
  5
8A
  8
DATA
  6
CONTINUOUS
 62
     7
 10
-40.0
 20
-40.0
 30
0.0
 11
-40.0
 21
-19.0
 31
0.0
  0
LINE
  5
8B
  8
DATA
  6
CONTINUOUS
 62
     7
 10
-21.0
 20
-40.0
 30
0.0
 11
-40.0
 21
-40.0
 31
0.0
  0
LINE
  5
8C
  8
DATA
  6
CONTINUOUS
 62
     7
 10
-21.0
 20
-19.000000000000011
 30
0.0
 11
-21.0
 21
-40.0
 31
0.0
  0
LINE
  5
8D
  8
DATA
  6
CONTINUOUS
 62
     7
 10
-40.0
 20
32.5
 30
0.0
 11
-21.0
 21
32.5
 31
0.0
  0
LINE
  5
8E
  8
DATA
  6
CONTINUOUS
 62
     7
 10
-48.999999999999993
 20
32.5
 30
0.0
 11
-19.399999999999999
 21
32.5
 31
0.0
  0
LINE
  5
8F
  8
DATA
  6
CONTINUOUS
 62
     7
 10
-18.5
 20
32.5
 30
0.0
 11
-13.0
 21
32.5
 31
0.0
  0
LINE
  5
90
  8
DATA
  6
CONTINUOUS
 62
     7
 10
-11.0
 20
32.5
 30
0.0
 11
-5.4999999999999991
 21
32.5
 31
0.0
  0
LINE
  5
91
  8
DATA
  6
CONTINUOUS
 62
     7
 10
-3.4999999999999991
 20
32.5
 30
0.0
 11
2.0
 21
32.5
 31
0.0
  0
LINE
  5
92
  8
DATA
  6
CONTINUOUS
 62
     7
 10
-49.0
 20
7.5000000000000009
 30
0.0
 11
-49.0
 21
32.5
 31
0.0
  0
LINE
  5
93
  8
DATA
  6
CONTINUOUS
 62
     7
 10
-48.999999999999993
 20
7.5
 30
0.0
 11
-46.974449020262647
 21
7.5
 31
0.0
  0
LINE
  5
94
  8
DATA
  6
CONTINUOUS
 62
     7
 10
-18.5
 20
7.5
 30
0.0
 11
-13.0
 21
7.5
 31
0.0
  0
LINE
  5
95
  8
DATA
  6
CONTINUOUS
 62
     7
 10
-11.0
 20
7.5
 30
0.0
 11
-5.4999999999999991
 21
7.5
 31
0.0
  0
LINE
  5
96
  8
DATA
  6
CONTINUOUS
 62
     7
 10
-3.4999999999999991
 20
7.5
 30
0.0
 11
2.0
 21
7.5
 31
0.0
  0
LINE
  5
97
  8
DATA
  6
CONTINUOUS
 62
     7
 10
2.0
 20
7.5000000000000009
 30
0.0
 11
2.0
 21
32.5
 31
0.0
  0
LINE
  5
98
  8
DATA
  6
CONTINUOUS
 62
     7
 10
-3.5
 20
7.5000000000000009
 30
0.0
 11
-3.5
 21
32.5
 31
0.0
  0
LINE
  5
99
  8
DATA
  6
CONTINUOUS
 62
     7
 10
-5.5
 20
7.5000000000000009
 30
0.0
 11
-5.5
 21
32.5
 31
0.0
  0
LINE
  5
9A
  8
DATA
  6
CONTINUOUS
 62
     7
 10
-11.0
 20
7.5000000000000009
 30
0.0
 11
-11.0
 21
32.5
 31
0.0
  0
LINE
  5
9B
  8
DATA
  6
CONTINUOUS
 62
     7
 10
-13.0
 20
7.5000000000000009
 30
0.0
 11
-13.0
 21
32.5
 31
0.0
  0
LINE
  5
9C
  8
DATA
  6
CONTINUOUS
 62
     7
 10
-18.5
 20
7.5000000000000009
 30
0.0
 11
-18.5
 21
32.5
 31
0.0
  0
LINE
  5
9D
  8
DATA
  6
CONTINUOUS
 62
     7
 10
-19.399999999999999
 20
7.5000000000000009
 30
0.0
 11
-19.399999999999999
 21
32.5
 31
0.0
  0
LINE
  5
9E
  8
DATA
  6
CONTINUOUS
 62
     7
 10
-19.399999999999999
 20
32.25
 30
0.0
 11
-18.5
 21
32.25
 31
0.0
  0
LINE
  5
9F
  8
DATA
  6
CONTINUOUS
 62
     7
 10
-13.0
 20
32.25
 30
0.0
 11
-11.0
 21
32.25
 31
0.0
  0
LINE
  5
A0
  8
DATA
  6
CONTINUOUS
 62
     7
 10
-5.5
 20
32.25
 30
0.0
 11
-3.5
 21
32.25
 31
0.0
  0
LINE
  5
A1
  8
DATA
  6
CONTINUOUS
 62
     7
 10
-19.399999999999999
 20
7.75
 30
0.0
 11
-18.5
 21
7.75
 31
0.0
  0
LINE
  5
A2
  8
DATA
  6
CONTINUOUS
 62
     7
 10
-13.0
 20
7.75
 30
0.0
 11
-11.0
 21
7.75
 31
0.0
  0
LINE
  5
A3
  8
DATA
  6
CONTINUOUS
 62
     7
 10
-5.5
 20
7.75
 30
0.0
 11
-3.5
 21
7.75
 31
0.0
  0
LINE
  5
A4
  8
DATA
  6
CONTINUOUS
 62
     7
 10
-18.5
 20
32.104471560599862
 30
0.0
 11
-13.0
 21
32.104471560599862
 31
0.0
  0
LINE
  5
A5
  8
DATA
  6
CONTINUOUS
 62
     7
 10
-11.0
 20
32.104471560599862
 30
0.0
 11
-5.4999999999999991
 21
32.104471560599862
 31
0.0
  0
LINE
  5
A6
  8
DATA
  6
CONTINUOUS
 62
     7
 10
-3.4999999999999991
 20
32.104471560599862
 30
0.0
 11
2.0
 21
32.104471560599862
 31
0.0
  0
LINE
  5
A7
  8
DATA
  6
CONTINUOUS
 62
     7
 10
-18.5
 20
31.528645301524069
 30
0.0
 11
-13.0
 21
31.528645301524069
 31
0.0
  0
LINE
  5
A8
  8
DATA
  6
CONTINUOUS
 62
     7
 10
-11.0
 20
31.528645301524069
 30
0.0
 11
-5.4999999999999991
 21
31.528645301524069
 31
0.0
  0
LINE
  5
A9
  8
DATA
  6
CONTINUOUS
 62
     7
 10
-3.4999999999999991
 20
31.528645301524069
 30
0.0
 11
2.0
 21
31.528645301524069
 31
0.0
  0
LINE
  5
AA
  8
DATA
  6
CONTINUOUS
 62
     7
 10
-18.5
 20
30.82864530152408
 30
0.0
 11
-13.0
 21
30.82864530152408
 31
0.0
  0
LINE
  5
AB
  8
DATA
  6
CONTINUOUS
 62
     7
 10
-11.0
 20
30.82864530152408
 30
0.0
 11
-5.4999999999999991
 21
30.82864530152408
 31
0.0
  0
LINE
  5
AC
  8
DATA
  6
CONTINUOUS
 62
     7
 10
-3.4999999999999991
 20
30.82864530152408
 30
0.0
 11
2.0
 21
30.82864530152408
 31
0.0
  0
LINE
  5
AD
  8
DATA
  6
CONTINUOUS
 62
     7
 10
-18.5
 20
30.128645301524081
 30
0.0
 11
-13.0
 21
30.128645301524081
 31
0.0
  0
LINE
  5
AE
  8
DATA
  6
CONTINUOUS
 62
     7
 10
-11.0
 20
30.128645301524081
 30
0.0
 11
-5.4999999999999991
 21
30.128645301524081
 31
0.0
  0
LINE
  5
AF
  8
DATA
  6
CONTINUOUS
 62
     7
 10
-3.4999999999999991
 20
30.128645301524081
 30
0.0
 11
2.0
 21
30.128645301524081
 31
0.0
  0
LINE
  5
B0
  8
DATA
  6
CONTINUOUS
 62
     7
 10
-18.5
 20
29.428645301524071
 30
0.0
 11
-13.0
 21
29.428645301524071
 31
0.0
  0
LINE
  5
B1
  8
DATA
  6
CONTINUOUS
 62
     7
 10
-11.0
 20
29.428645301524071
 30
0.0
 11
-5.4999999999999991
 21
29.428645301524071
 31
0.0
  0
LINE
  5
B2
  8
DATA
  6
CONTINUOUS
 62
     7
 10
-3.4999999999999991
 20
29.428645301524071
 30
0.0
 11
2.0
 21
29.428645301524071
 31
0.0
  0
LINE
  5
B3
  8
DATA
  6
CONTINUOUS
 62
     7
 10
-18.5
 20
28.728645301524072
 30
0.0
 11
-13.0
 21
28.728645301524072
 31
0.0
  0
LINE
  5
B4
  8
DATA
  6
CONTINUOUS
 62
     7
 10
-11.0
 20
28.728645301524072
 30
0.0
 11
-5.4999999999999991
 21
28.728645301524072
 31
0.0
  0
LINE
  5
B5
  8
DATA
  6
CONTINUOUS
 62
     7
 10
-3.4999999999999991
 20
28.728645301524072
 30
0.0
 11
2.0
 21
28.728645301524072
 31
0.0
  0
LINE
  5
B6
  8
DATA
  6
CONTINUOUS
 62
     7
 10
-18.5
 20
28.028645301524069
 30
0.0
 11
-13.0
 21
28.028645301524069
 31
0.0
  0
LINE
  5
B7
  8
DATA
  6
CONTINUOUS
 62
     7
 10
-11.0
 20
28.028645301524069
 30
0.0
 11
-5.4999999999999991
 21
28.028645301524069
 31
0.0
  0
LINE
  5
B8
  8
DATA
  6
CONTINUOUS
 62
     7
 10
-3.4999999999999991
 20
28.028645301524069
 30
0.0
 11
2.0
 21
28.028645301524069
 31
0.0
  0
LINE
  5
B9
  8
DATA
  6
CONTINUOUS
 62
     7
 10
-18.5
 20
27.32864530152407
 30
0.0
 11
-13.0
 21
27.32864530152407
 31
0.0
  0
LINE
  5
BA
  8
DATA
  6
CONTINUOUS
 62
     7
 10
-11.0
 20
27.32864530152407
 30
0.0
 11
-5.4999999999999991
 21
27.32864530152407
 31
0.0
  0
LINE
  5
BB
  8
DATA
  6
CONTINUOUS
 62
     7
 10
-3.4999999999999991
 20
27.32864530152407
 30
0.0
 11
2.0
 21
27.32864530152407
 31
0.0
  0
LINE
  5
BC
  8
DATA
  6
CONTINUOUS
 62
     7
 10
-18.5
 20
26.62864530152407
 30
0.0
 11
-13.0
 21
26.62864530152407
 31
0.0
  0
LINE
  5
BD
  8
DATA
  6
CONTINUOUS
 62
     7
 10
-11.0
 20
26.62864530152407
 30
0.0
 11
-5.4999999999999991
 21
26.62864530152407
 31
0.0
  0
LINE
  5
BE
  8
DATA
  6
CONTINUOUS
 62
     7
 10
-3.4999999999999991
 20
26.62864530152407
 30
0.0
 11
2.0
 21
26.62864530152407
 31
0.0
  0
LINE
  5
BF
  8
DATA
  6
CONTINUOUS
 62
     7
 10
-18.5
 20
25.928645301524071
 30
0.0
 11
-13.0
 21
25.928645301524071
 31
0.0
  0
LINE
  5
C0
  8
DATA
  6
CONTINUOUS
 62
     7
 10
-11.0
 20
25.928645301524071
 30
0.0
 11
-5.4999999999999991
 21
25.928645301524071
 31
0.0
  0
LINE
  5
C1
  8
DATA
  6
CONTINUOUS
 62
     7
 10
-3.4999999999999991
 20
25.928645301524071
 30
0.0
 11
2.0
 21
25.928645301524071
 31
0.0
  0
LINE
  5
C2
  8
DATA
  6
CONTINUOUS
 62
     7
 10
-18.5
 20
25.228645301524072
 30
0.0
 11
-13.0
 21
25.228645301524072
 31
0.0
  0
LINE
  5
C3
  8
DATA
  6
CONTINUOUS
 62
     7
 10
-11.0
 20
25.228645301524072
 30
0.0
 11
-5.4999999999999991
 21
25.228645301524072
 31
0.0
  0
LINE
  5
C4
  8
DATA
  6
CONTINUOUS
 62
     7
 10
-3.4999999999999991
 20
25.228645301524072
 30
0.0
 11
2.0
 21
25.228645301524072
 31
0.0
  0
LINE
  5
C5
  8
DATA
  6
CONTINUOUS
 62
     7
 10
-18.5
 20
24.528645301524069
 30
0.0
 11
-13.0
 21
24.528645301524069
 31
0.0
  0
LINE
  5
C6
  8
DATA
  6
CONTINUOUS
 62
     7
 10
-11.0
 20
24.528645301524069
 30
0.0
 11
-5.4999999999999991
 21
24.528645301524069
 31
0.0
  0
LINE
  5
C7
  8
DATA
  6
CONTINUOUS
 62
     7
 10
-3.4999999999999991
 20
24.528645301524069
 30
0.0
 11
2.0
 21
24.528645301524069
 31
0.0
  0
LINE
  5
C8
  8
DATA
  6
CONTINUOUS
 62
     7
 10
-18.5
 20
23.82864530152407
 30
0.0
 11
-13.0
 21
23.82864530152407
 31
0.0
  0
LINE
  5
C9
  8
DATA
  6
CONTINUOUS
 62
     7
 10
-11.0
 20
23.82864530152407
 30
0.0
 11
-5.4999999999999991
 21
23.82864530152407
 31
0.0
  0
LINE
  5
CA
  8
DATA
  6
CONTINUOUS
 62
     7
 10
-3.4999999999999991
 20
23.82864530152407
 30
0.0
 11
2.0
 21
23.82864530152407
 31
0.0
  0
LINE
  5
CB
  8
DATA
  6
CONTINUOUS
 62
     7
 10
-18.5
 20
23.128645301524081
 30
0.0
 11
-13.0
 21
23.128645301524081
 31
0.0
  0
LINE
  5
CC
  8
DATA
  6
CONTINUOUS
 62
     7
 10
-11.0
 20
23.128645301524081
 30
0.0
 11
-5.4999999999999991
 21
23.128645301524081
 31
0.0
  0
LINE
  5
CD
  8
DATA
  6
CONTINUOUS
 62
     7
 10
-3.4999999999999991
 20
23.128645301524081
 30
0.0
 11
2.0
 21
23.128645301524081
 31
0.0
  0
LINE
  5
CE
  8
DATA
  6
CONTINUOUS
 62
     7
 10
-18.5
 20
22.428645301524082
 30
0.0
 11
-13.0
 21
22.428645301524082
 31
0.0
  0
LINE
  5
CF
  8
DATA
  6
CONTINUOUS
 62
     7
 10
-11.0
 20
22.428645301524082
 30
0.0
 11
-5.4999999999999991
 21
22.428645301524082
 31
0.0
  0
LINE
  5
D0
  8
DATA
  6
CONTINUOUS
 62
     7
 10
-3.4999999999999991
 20
22.428645301524082
 30
0.0
 11
2.0
 21
22.428645301524082
 31
0.0
  0
LINE
  5
D1
  8
DATA
  6
CONTINUOUS
 62
     7
 10
-18.5
 20
21.728645301524072
 30
0.0
 11
-13.0
 21
21.728645301524072
 31
0.0
  0
LINE
  5
D2
  8
DATA
  6
CONTINUOUS
 62
     7
 10
-11.0
 20
21.728645301524072
 30
0.0
 11
-5.4999999999999991
 21
21.728645301524072
 31
0.0
  0
LINE
  5
D3
  8
DATA
  6
CONTINUOUS
 62
     7
 10
-3.4999999999999991
 20
21.728645301524072
 30
0.0
 11
2.0
 21
21.728645301524072
 31
0.0
  0
LINE
  5
D4
  8
DATA
  6
CONTINUOUS
 62
     7
 10
-18.5
 20
21.028645301524069
 30
0.0
 11
-13.0
 21
21.028645301524069
 31
0.0
  0
LINE
  5
D5
  8
DATA
  6
CONTINUOUS
 62
     7
 10
-11.0
 20
21.028645301524069
 30
0.0
 11
-5.4999999999999991
 21
21.028645301524069
 31
0.0
  0
LINE
  5
D6
  8
DATA
  6
CONTINUOUS
 62
     7
 10
-3.4999999999999991
 20
21.028645301524069
 30
0.0
 11
2.0
 21
21.028645301524069
 31
0.0
  0
LINE
  5
D7
  8
DATA
  6
CONTINUOUS
 62
     7
 10
-18.5
 20
20.32864530152408
 30
0.0
 11
-13.0
 21
20.32864530152408
 31
0.0
  0
LINE
  5
D8
  8
DATA
  6
CONTINUOUS
 62
     7
 10
-11.0
 20
20.32864530152408
 30
0.0
 11
-5.4999999999999991
 21
20.32864530152408
 31
0.0
  0
LINE
  5
D9
  8
DATA
  6
CONTINUOUS
 62
     7
 10
-3.4999999999999991
 20
20.32864530152408
 30
0.0
 11
2.0
 21
20.32864530152408
 31
0.0
  0
LINE
  5
DA
  8
DATA
  6
CONTINUOUS
 62
     7
 10
-18.5
 20
19.62864530152407
 30
0.0
 11
-13.0
 21
19.62864530152407
 31
0.0
  0
LINE
  5
DB
  8
DATA
  6
CONTINUOUS
 62
     7
 10
-11.0
 20
19.62864530152407
 30
0.0
 11
-5.4999999999999991
 21
19.62864530152407
 31
0.0
  0
LINE
  5
DC
  8
DATA
  6
CONTINUOUS
 62
     7
 10
-3.4999999999999991
 20
19.62864530152407
 30
0.0
 11
2.0
 21
19.62864530152407
 31
0.0
  0
LINE
  5
DD
  8
DATA
  6
CONTINUOUS
 62
     7
 10
-18.5
 20
18.928645301524082
 30
0.0
 11
-13.0
 21
18.928645301524082
 31
0.0
  0
LINE
  5
DE
  8
DATA
  6
CONTINUOUS
 62
     7
 10
-11.0
 20
18.928645301524082
 30
0.0
 11
-5.4999999999999991
 21
18.928645301524082
 31
0.0
  0
LINE
  5
DF
  8
DATA
  6
CONTINUOUS
 62
     7
 10
-3.4999999999999991
 20
18.928645301524082
 30
0.0
 11
2.0
 21
18.928645301524082
 31
0.0
  0
LINE
  5
E0
  8
DATA
  6
CONTINUOUS
 62
     7
 10
-18.5
 20
18.228645301524072
 30
0.0
 11
-13.0
 21
18.228645301524072
 31
0.0
  0
LINE
  5
E1
  8
DATA
  6
CONTINUOUS
 62
     7
 10
-11.0
 20
18.228645301524072
 30
0.0
 11
-5.4999999999999991
 21
18.228645301524072
 31
0.0
  0
LINE
  5
E2
  8
DATA
  6
CONTINUOUS
 62
     7
 10
-3.4999999999999991
 20
18.228645301524072
 30
0.0
 11
2.0
 21
18.228645301524072
 31
0.0
  0
LINE
  5
E3
  8
DATA
  6
CONTINUOUS
 62
     7
 10
-18.5
 20
17.52864530152408
 30
0.0
 11
-13.0
 21
17.52864530152408
 31
0.0
  0
LINE
  5
E4
  8
DATA
  6
CONTINUOUS
 62
     7
 10
-11.0
 20
17.52864530152408
 30
0.0
 11
-5.4999999999999991
 21
17.52864530152408
 31
0.0
  0
LINE
  5
E5
  8
DATA
  6
CONTINUOUS
 62
     7
 10
-3.4999999999999991
 20
17.52864530152408
 30
0.0
 11
2.0
 21
17.52864530152408
 31
0.0
  0
LINE
  5
E6
  8
DATA
  6
CONTINUOUS
 62
     7
 10
-18.5
 20
16.82864530152407
 30
0.0
 11
-13.0
 21
16.82864530152407
 31
0.0
  0
LINE
  5
E7
  8
DATA
  6
CONTINUOUS
 62
     7
 10
-11.0
 20
16.82864530152407
 30
0.0
 11
-5.4999999999999991
 21
16.82864530152407
 31
0.0
  0
LINE
  5
E8
  8
DATA
  6
CONTINUOUS
 62
     7
 10
-3.4999999999999991
 20
16.82864530152407
 30
0.0
 11
2.0
 21
16.82864530152407
 31
0.0
  0
LINE
  5
E9
  8
DATA
  6
CONTINUOUS
 62
     7
 10
-18.5
 20
16.12864530152407
 30
0.0
 11
-13.0
 21
16.12864530152407
 31
0.0
  0
LINE
  5
EA
  8
DATA
  6
CONTINUOUS
 62
     7
 10
-11.0
 20
16.12864530152407
 30
0.0
 11
-5.4999999999999991
 21
16.12864530152407
 31
0.0
  0
LINE
  5
EB
  8
DATA
  6
CONTINUOUS
 62
     7
 10
-3.4999999999999991
 20
16.12864530152407
 30
0.0
 11
2.0
 21
16.12864530152407
 31
0.0
  0
LINE
  5
EC
  8
DATA
  6
CONTINUOUS
 62
     7
 10
-18.5
 20
15.42864530152408
 30
0.0
 11
-13.0
 21
15.42864530152408
 31
0.0
  0
LINE
  5
ED
  8
DATA
  6
CONTINUOUS
 62
     7
 10
-11.0
 20
15.42864530152408
 30
0.0
 11
-5.4999999999999991
 21
15.42864530152408
 31
0.0
  0
LINE
  5
EE
  8
DATA
  6
CONTINUOUS
 62
     7
 10
-3.4999999999999991
 20
15.42864530152408
 30
0.0
 11
2.0
 21
15.42864530152408
 31
0.0
  0
LINE
  5
EF
  8
DATA
  6
CONTINUOUS
 62
     7
 10
-18.5
 20
14.728645301524081
 30
0.0
 11
-13.0
 21
14.728645301524081
 31
0.0
  0
LINE
  5
F0
  8
DATA
  6
CONTINUOUS
 62
     7
 10
-11.0
 20
14.728645301524081
 30
0.0
 11
-5.4999999999999991
 21
14.728645301524081
 31
0.0
  0
LINE
  5
F1
  8
DATA
  6
CONTINUOUS
 62
     7
 10
-3.4999999999999991
 20
14.728645301524081
 30
0.0
 11
2.0
 21
14.728645301524081
 31
0.0
  0
LINE
  5
F2
  8
DATA
  6
CONTINUOUS
 62
     7
 10
-18.5
 20
14.02864530152408
 30
0.0
 11
-13.0
 21
14.02864530152408
 31
0.0
  0
LINE
  5
F3
  8
DATA
  6
CONTINUOUS
 62
     7
 10
-11.0
 20
14.02864530152408
 30
0.0
 11
-5.4999999999999991
 21
14.02864530152408
 31
0.0
  0
LINE
  5
F4
  8
DATA
  6
CONTINUOUS
 62
     7
 10
-3.4999999999999991
 20
14.02864530152408
 30
0.0
 11
2.0
 21
14.02864530152408
 31
0.0
  0
LINE
  5
F5
  8
DATA
  6
CONTINUOUS
 62
     7
 10
-18.5
 20
13.32864530152408
 30
0.0
 11
-13.0
 21
13.32864530152408
 31
0.0
  0
LINE
  5
F6
  8
DATA
  6
CONTINUOUS
 62
     7
 10
-11.0
 20
13.32864530152408
 30
0.0
 11
-5.4999999999999991
 21
13.32864530152408
 31
0.0
  0
LINE
  5
F7
  8
DATA
  6
CONTINUOUS
 62
     7
 10
-3.4999999999999991
 20
13.32864530152408
 30
0.0
 11
2.0
 21
13.32864530152408
 31
0.0
  0
LINE
  5
F8
  8
DATA
  6
CONTINUOUS
 62
     7
 10
-18.5
 20
12.628645301524079
 30
0.0
 11
-13.0
 21
12.628645301524079
 31
0.0
  0
LINE
  5
F9
  8
DATA
  6
CONTINUOUS
 62
     7
 10
-11.0
 20
12.628645301524079
 30
0.0
 11
-5.4999999999999991
 21
12.628645301524079
 31
0.0
  0
LINE
  5
FA
  8
DATA
  6
CONTINUOUS
 62
     7
 10
-3.4999999999999991
 20
12.628645301524079
 30
0.0
 11
2.0
 21
12.628645301524079
 31
0.0
  0
LINE
  5
FB
  8
DATA
  6
CONTINUOUS
 62
     7
 10
-18.5
 20
11.92864530152408
 30
0.0
 11
-13.0
 21
11.92864530152408
 31
0.0
  0
LINE
  5
FC
  8
DATA
  6
CONTINUOUS
 62
     7
 10
-11.0
 20
11.92864530152408
 30
0.0
 11
-5.4999999999999991
 21
11.92864530152408
 31
0.0
  0
LINE
  5
FD
  8
DATA
  6
CONTINUOUS
 62
     7
 10
-3.4999999999999991
 20
11.92864530152408
 30
0.0
 11
2.0
 21
11.92864530152408
 31
0.0
  0
LINE
  5
FE
  8
DATA
  6
CONTINUOUS
 62
     7
 10
-18.5
 20
11.228645301524081
 30
0.0
 11
-13.0
 21
11.228645301524081
 31
0.0
  0
LINE
  5
FF
  8
DATA
  6
CONTINUOUS
 62
     7
 10
-11.0
 20
11.228645301524081
 30
0.0
 11
-5.4999999999999991
 21
11.228645301524081
 31
0.0
  0
LINE
  5
100
  8
DATA
  6
CONTINUOUS
 62
     7
 10
-3.4999999999999991
 20
11.228645301524081
 30
0.0
 11
2.0
 21
11.228645301524081
 31
0.0
  0
LINE
  5
101
  8
DATA
  6
CONTINUOUS
 62
     7
 10
-18.5
 20
10.52864530152408
 30
0.0
 11
-13.0
 21
10.52864530152408
 31
0.0
  0
LINE
  5
102
  8
DATA
  6
CONTINUOUS
 62
     7
 10
-11.0
 20
10.52864530152408
 30
0.0
 11
-5.4999999999999991
 21
10.52864530152408
 31
0.0
  0
LINE
  5
103
  8
DATA
  6
CONTINUOUS
 62
     7
 10
-3.4999999999999991
 20
10.52864530152408
 30
0.0
 11
2.0
 21
10.52864530152408
 31
0.0
  0
LINE
  5
104
  8
DATA
  6
CONTINUOUS
 62
     7
 10
-18.5
 20
9.8286453015240838
 30
0.0
 11
-13.0
 21
9.8286453015240838
 31
0.0
  0
LINE
  5
105
  8
DATA
  6
CONTINUOUS
 62
     7
 10
-11.0
 20
9.8286453015240838
 30
0.0
 11
-5.4999999999999991
 21
9.8286453015240838
 31
0.0
  0
LINE
  5
106
  8
DATA
  6
CONTINUOUS
 62
     7
 10
-3.4999999999999991
 20
9.8286453015240838
 30
0.0
 11
2.0
 21
9.8286453015240838
 31
0.0
  0
LINE
  5
107
  8
DATA
  6
CONTINUOUS
 62
     7
 10
-18.5
 20
9.1286453015240827
 30
0.0
 11
-13.0
 21
9.1286453015240827
 31
0.0
  0
LINE
  5
108
  8
DATA
  6
CONTINUOUS
 62
     7
 10
-11.0
 20
9.1286453015240827
 30
0.0
 11
-5.4999999999999991
 21
9.1286453015240827
 31
0.0
  0
LINE
  5
109
  8
DATA
  6
CONTINUOUS
 62
     7
 10
-3.4999999999999991
 20
9.1286453015240827
 30
0.0
 11
2.0
 21
9.1286453015240827
 31
0.0
  0
LINE
  5
10A
  8
DATA
  6
CONTINUOUS
 62
     7
 10
-18.5
 20
8.4286453015240852
 30
0.0
 11
-13.0
 21
8.4286453015240852
 31
0.0
  0
LINE
  5
10B
  8
DATA
  6
CONTINUOUS
 62
     7
 10
-11.0
 20
8.4286453015240852
 30
0.0
 11
-5.4999999999999991
 21
8.4286453015240852
 31
0.0
  0
LINE
  5
10C
  8
DATA
  6
CONTINUOUS
 62
     7
 10
-3.4999999999999991
 20
8.4286453015240852
 30
0.0
 11
2.0
 21
8.4286453015240852
 31
0.0
  0
LINE
  5
10D
  8
DATA
  6
CONTINUOUS
 62
     7
 10
-18.5
 20
7.9786453015240859
 30
0.0
 11
-13.0
 21
7.9786453015240859
 31
0.0
  0
LINE
  5
10E
  8
DATA
  6
CONTINUOUS
 62
     7
 10
-11.0
 20
7.9786453015240859
 30
0.0
 11
-5.4999999999999991
 21
7.9786453015240859
 31
0.0
  0
LINE
  5
10F
  8
DATA
  6
CONTINUOUS
 62
     7
 10
-3.4999999999999991
 20
7.9786453015240859
 30
0.0
 11
2.0
 21
7.9786453015240859
 31
0.0
  0
ARC
  5
110
  8
DATA
  6
CONTINUOUS
 62
     7
 10
-46.974449020262661
 20
5.5
 30
0.0
 40
2.0000000000000031
 50
38.047042531825987
 51
89.999999999999815
  0
LINE
  5
111
  8
DATA
  6
CONTINUOUS
 62
     7
 10
-46.974449020262647
 20
7.5
 30
0.0
 11
-19.399999999999999
 21
7.5
 31
0.0
  0
LINE
  5
112
  8
DATA
  6
CONTINUOUS
 62
     7
 10
-40.0
 20
-19.0
 30
0.0
 11
-21.0
 21
-19.000000000000011
 31
0.0
  0
LINE
  5
113
  8
DATA
  6
CONTINUOUS
 62
     7
 10
-40.0
 20
-16.499999999999989
 30
0.0
 11
-21.0
 21
-16.500000000000011
 31
0.0
  0
LINE
  5
114
  8
DATA
  6
CONTINUOUS
 62
     7
 10
-40.0
 20
-16.499999999999989
 30
0.0
 11
-36.5
 21
2.4199999999999982
 31
0.0
  0
LINE
  5
115
  8
DATA
  6
CONTINUOUS
 62
     7
 10
-21.0
 20
-16.500000000000011
 30
0.0
 11
-24.0
 21
2.4200000000000008
 31
0.0
  0
LINE
  5
116
  8
DATA
  6
CONTINUOUS
 62
     7
 10
-36.5
 20
2.4199999999999982
 30
0.0
 11
-31.744211579521451
 21
4.6944534406764804
 31
0.0
  0
LINE
  5
117
  8
DATA
  6
CONTINUOUS
 62
     7
 10
-24.0
 20
2.4200000000000008
 30
0.0
 11
-29.238295706733961
 21
4.7325036705214867
 31
0.0
  0
ARC
  5
118
  8
DATA
  6
CONTINUOUS
 62
     7
 10
-30.449870127328001
 20
1.9880388003942979
 30
0.0
 40
3.0
 50
66.180407896930703
 51
115.5594350707275
  0
CIRCLE
  5
119
  8
DATA
  6
CONTINUOUS
 62
     7
 10
-30.5
 20
-1.343198680199674
 30
0.0
 40
2.850000000000001
  0
LINE
  5
11A
  8
DATA
  6
CONTINUOUS
 62
     7
 10
-36.5
 20
2.4199999999999982
 30
0.0
 11
-24.0
 21
2.4200000000000008
 31
0.0
  0
LINE
  5
11B
  8
DATA
  6
CONTINUOUS
 62
     7
 10
-33.321790211904478
 20
-0.9431986801996742
 30
0.0
 11
-27.678209788095511
 21
-0.9431986801996742
 31
0.0
  0
LINE
  5
11C
  8
DATA
  6
CONTINUOUS
 62
     7
 10
-33.321790211904478
 20
-1.7431986801996739
 30
0.0
 11
-27.678209788095511
 21
-1.7431986801996739
 31
0.0
  0
ARC
  5
11D
  8
DATA
  6
CONTINUOUS
 62
     7
 10
-40.28125
 20
-17.749999999999989
 30
0.0
 40
1.28125
 50
282.68038349181978
 51
77.319616508180189
  0
ARC
  5
11E
  8
DATA
  6
CONTINUOUS
 62
     7
 10
-20.71875
 20
-17.750000000000011
 30
0.0
 40
1.28125
 50
102.6803834918198
 51
257.31961650818022
  0
LINE
  5
11F
  8
DATA
  6
CONTINUOUS
 62
     7
 10
-30.5
 20
5.3144620201748012
 30
0.0
 11
-30.5
 21
6.7262197324035773
 31
0.0
  0
LINE
  5
120
  8
DATA
  6
CONTINUOUS
 62
     7
 10
-36.846786916720887
 20
2.852436200891709
 30
0.0
 11
-37.845050368430257
 21
3.850699652601083
 31
0.0
  0
LINE
  5
121
  8
DATA
  6
CONTINUOUS
 62
     7
 10
-34.22114625269333
 20
4.4339920157261972
 30
0.0
 11
-34.75
 21
5.7429509730648638
 31
0.0
  0
LINE
  5
122
  8
DATA
  6
CONTINUOUS
 62
     7
 10
-24.153213083279109
 20
2.852436200891709
 30
0.0
 11
-23.15494963156975
 21
3.850699652601083
 31
0.0
  0
LINE
  5
123
  8
DATA
  6
CONTINUOUS
 62
     7
 10
-26.77885374730667
 20
4.4339920157261972
 30
0.0
 11
-26.25
 21
5.7429509730648638
 31
0.0
  0
TEXT
  5
124
  8
DATA
 62
     7
 10
-83.533363631333344
 20
51.178743443073003
 30
0.0
 40
2.7147352835082641
  1
ローレット部：チャックレット式マイク固定部
 41
0.7
 11
-83.533363631333344
 21
52.536111084827127
 31
0.0
 73
     2
  0
LINE
  5
125
  8
DATA
  6
CONTINUOUS
 62
     7
 10
-8.0447374736041937
 20
50.0
 30
0.0
 11
-84.681720016905729
 21
50.0
 31
0.0
  0
LINE
  5
126
  8
DATA
  6
CONTINUOUS
 62
     7
 10
-8.0447374736041937
 20
50.0
 30
0.0
 11
-8.0447374736041937
 21
32.964316265389947
 31
0.0
  0
LINE
  5
127
  8
DATA
  6
CONTINUOUS
 62
     7
 10
-8.0447374736041937
 20
32.964316265389947
 30
0.0
 11
-8.8954761595730059
 21
36.139316265389951
 31
0.0
  0
LINE
  5
128
  8
DATA
  6
CONTINUOUS
 62
     7
 10
-8.0447374736041937
 20
32.964316265389947
 30
0.0
 11
-7.1939987876353788
 21
36.139316265389951
 31
0.0
  0
LINE
  5
129
  8
DATA
  6
CONTINUOUS
 62
     7
 10
-45.399439018247477
 20
6.7326165233162198
 30
0.0
 11
-37.593573362466152
 21
-3.4915451479599069
 31
0.0
  0
LINE
  5
12A
  8
DATA
  6
CONTINUOUS
 62
     7
 10
-19.399999999999999
 20
7.5
 30
0.0
 11
-23.011701683066761
 21
-3.8128680521256801
 31
0.0
  0
CIRCLE
  5
12B
  8
DATA
  6
CONTINUOUS
 62
     7
 10
40.0
 20
20.0
 30
0.0
 40
12.5
  0
LINE
  5
12C
  8
DATA
  6
CONTINUOUS
 62
     7
 10
30.5
 20
-40.0
 30
0.0
 11
30.5
 21
-19.0
 31
0.0
  0
LINE
  5
12D
  8
DATA
  6
CONTINUOUS
 62
     7
 10
49.5
 20
-40.0
 30
0.0
 11
30.5
 21
-40.0
 31
0.0
  0
LINE
  5
12E
  8
DATA
  6
CONTINUOUS
 62
     7
 10
49.5
 20
-19.000000000000011
 30
0.0
 11
49.5
 21
-40.0
 31
0.0
  0
LINE
  5
12F
  8
DATA
  6
CONTINUOUS
 62
     7
 10
30.5
 20
-19.0
 30
0.0
 11
49.5
 21
-19.000000000000011
 31
0.0
  0
LINE
  5
130
  8
DATA
  6
CONTINUOUS
 62
     7
 10
30.5
 20
-16.499999999999989
 30
0.0
 11
37.75
 21
-16.5
 31
0.0
  0
LINE
  5
131
  8
DATA
  6
CONTINUOUS
 62
     7
 10
42.249999999999993
 20
-16.5
 30
0.0
 11
49.5
 21
-16.500000000000011
 31
0.0
  0
ARC
  5
132
  8
DATA
  6
CONTINUOUS
 62
     7
 10
30.21875
 20
-17.749999999999989
 30
0.0
 40
1.28125
 50
282.68038349181978
 51
77.319616508180189
  0
ARC
  5
133
  8
DATA
  6
CONTINUOUS
 62
     7
 10
49.78125
 20
-17.750000000000011
 30
0.0
 40
1.28125
 50
102.6803834918198
 51
257.31961650818022
  0
CIRCLE
  5
134
  8
DATA
  6
CONTINUOUS
 62
     7
 10
-30.5
 20
-64.246977795064709
 30
0.0
 40
9.5
  0
CIRCLE
  5
135
  8
DATA
  6
CONTINUOUS
 62
     7
 10
-30.5
 20
-64.246977795064709
 30
0.0
 40
4.0
  0
CIRCLE
  5
136
  8
DATA
  6
CONTINUOUS
 62
     7
 10
-30.5
 20
-64.246977795064709
 30
0.0
 40
7.5
  0
LINE
  5
137
  8
DATA
  6
CONTINUOUS
 62
     7
 10
-23.054195812405489
 20
-65.146977795064714
 30
0.0
 11
-26.60256494601898
 21
-65.146977795064714
 31
0.0
  0
LINE
  5
138
  8
DATA
  6
CONTINUOUS
 62
     7
 10
-34.39743505398102
 20
-65.146977795064714
 30
0.0
 11
-37.945804187594511
 21
-65.146977795064714
 31
0.0
  0
LINE
  5
139
  8
DATA
  6
CONTINUOUS
 62
     7
 10
-37.945804187594533
 20
-63.34697779506471
 30
0.0
 11
-34.39743505398102
 21
-63.34697779506471
 31
0.0
  0
LINE
  5
13A
  8
DATA
  6
CONTINUOUS
 62
     7
 10
-26.60256494601898
 20
-63.34697779506471
 30
0.0
 11
-23.054195812405489
 21
-63.34697779506471
 31
0.0
  0
CIRCLE
  5
13B
  8
DATA
  6
CONTINUOUS
 62
     7
 10
40.0
 20
20.0
 30
0.0
 40
10.5
  0
CIRCLE
  5
13C
  8
DATA
  6
CONTINUOUS
 62
     7
 10
40.0
 20
20.0
 30
0.0
 40
9.5
  0
LINE
  5
13D
  8
DATA
  6
CONTINUOUS
 62
     7
 10
37.850000000000001
 20
-7.0
 30
0.0
 11
42.149999999999991
 21
-7.0
 31
0.0
  0
LINE
  5
13E
  8
DATA
  6
CONTINUOUS
 62
     7
 10
37.75
 20
-19.0
 30
0.0
 11
37.75
 21
7.7041673726420612
 31
0.0
  0
LINE
  5
13F
  8
DATA
  6
CONTINUOUS
 62
     7
 10
42.25
 20
7.7041673726420621
 30
0.0
 11
42.25
 21
-19.000000000000011
 31
0.0
  0
LINE
  5
140
  8
DATA
  6
CONTINUOUS
 62
     7
 10
33.5
 20
2.4200000000000008
 30
0.0
 11
37.749999999999993
 21
2.4200000000000008
 31
0.0
  0
LINE
  5
141
  8
DATA
  6
CONTINUOUS
 62
     7
 10
42.249999999999993
 20
2.4200000000000008
 30
0.0
 11
46.499999999999993
 21
2.4200000000000008
 31
0.0
  0
LINE
  5
142
  8
DATA
  6
CONTINUOUS
 62
     7
 10
30.5
 20
-16.499999999999989
 30
0.0
 11
33.5
 21
2.4200000000000008
 31
0.0
  0
LINE
  5
143
  8
DATA
  6
CONTINUOUS
 62
     7
 10
49.5
 20
-16.500000000000011
 30
0.0
 11
46.5
 21
2.4200000000000008
 31
0.0
  0
LINE
  5
144
  8
DATA
  6
CONTINUOUS
 62
     7
 10
33.5
 20
2.4200000000000008
 30
0.0
 11
37.749999999999993
 21
4.4293096066644031
 31
0.0
  0
LINE
  5
145
  8
DATA
  6
CONTINUOUS
 62
     7
 10
46.5
 20
2.4200000000000008
 30
0.0
 11
42.25
 21
4.4293096066644049
 31
0.0
  0
LINE
  5
146
  8
DATA
  6
CONTINUOUS
 62
     7
 10
37.850000000000001
 20
-7.0
 30
0.0
 11
37.850000000000001
 21
7.6862881307056732
 31
0.0
  0
LINE
  5
147
  8
DATA
  6
CONTINUOUS
 62
     7
 10
42.149999999999991
 20
-7.0
 30
0.0
 11
42.149999999999991
 21
7.6862881307056732
 31
0.0
  0
ENDSEC
  0
EOF
