  0
SECTION
  2
HEADER
  9
$ACADVER
  1
AC1009
  9
$INSBASE
 10
0.0
 20
0.0
 30
0.0
  9
$EXTMIN
 10
-90.005492744973708
 20
-137.55538608611451
 30
-0.0015258207003583
  9
$EXTMAX
 10
90.005493583164082
 20
130.0081493512784
 30
0.0000000349246037
  9
$LIMMIN
 10
0.0
 20
0.0
  9
$LIMMAX
 10
0.0
 20
0.0
  9
$ORTHOMODE
 70
     0
  9
$REGENMODE
 70
     1
  9
$FILLMODE
 70
     1
  9
$QTEXTMODE
 70
     0
  9
$MIRRTEXT
 70
     1
  9
$DRAGMODE
 70
     2
  9
$LTSCALE
 40
5.0800000000000001
  9
$OSMODE
 70
   231
  9
$ATTMODE
 70
     1
  9
$TEXTSIZE
 40
0.0
  9
$TRACEWID
 40
1.0
  9
$TEXTSTYLE
  7
STANDARD
  9
$CLAYER
  8
DATA
  9
$CELTYPE
  6
BYLAYER
  9
$CECOLOR
 62
   256
  9
$DIMSCALE
 40
1.0
  9
$DIMASZ
 40
0.18
  9
$DIMEXO
 40
0.0625
  9
$DIMDLI
 40
0.38
  9
$DIMRND
 40
0.0
  9
$DIMDLE
 40
0.0
  9
$DIMEXE
 40
0.18
  9
$DIMTP
 40
0.0
  9
$DIMTM
 40
0.0
  9
$DIMTXT
 40
0.18
  9
$DIMCEN
 40
0.09
  9
$DIMTSZ
 40
0.0
  9
$DIMTOL
 70
     0
  9
$DIMLIM
 70
     0
  9
$DIMTIH
 70
     1
  9
$DIMTOH
 70
     1
  9
$DIMSE1
 70
     0
  9
$DIMSE2
 70
     0
  9
$DIMTAD
 70
     0
  9
$DIMZIN
 70
     0
  9
$DIMBLK
  1

  9
$DIMASO
 70
     1
  9
$DIMSHO
 70
     1
  9
$DIMPOST
  1

  9
$DIMAPOST
  1

  9
$DIMALT
 70
     0
  9
$DIMALTD
 70
     2
  9
$DIMALTF
 40
25.399999999999999
  9
$DIMLFAC
 40
1.0
  9
$DIMTOFL
 70
     0
  9
$DIMTVP
 40
0.0
  9
$DIMTIX
 70
     0
  9
$DIMSOXD
 70
     0
  9
$DIMSAH
 70
     0
  9
$DIMBLK1
  1

  9
$DIMBLK2
  1

  9
$DIMSTYLE
  2
STANDARD
  9
$DIMCLRD
 70
     0
  9
$DIMCLRE
 70
     0
  9
$DIMCLRT
 70
     0
  9
$DIMTFAC
 40
1.0
  9
$DIMGAP
 40
0.09
  9
$LUNITS
 70
     2
  9
$LUPREC
 70
     4
  9
$SKETCHINC
 40
0.1
  9
$FILLETRAD
 40
0.0
  9
$AUNITS
 70
     0
  9
$AUPREC
 70
     0
  9
$MENU
  1
acad
  9
$ELEVATION
 40
0.0
  9
$PELEVATION
 40
0.0
  9
$THICKNESS
 40
0.0
  9
$LIMCHECK
 70
     0
  9
$BLIPMODE
 70
     0
  9
$CHAMFERA
 40
0.0
  9
$CHAMFERB
 40
0.0
  9
$SKPOLY
 70
     0
  9
$TDCREATE
 40
2456511.7471412038
  9
$TDUPDATE
 40
2456511.7525597569
  9
$TDINDWG
 40
0.0003485532
  9
$TDUSRTIMER
 40
0.0003483912
  9
$USRTIMER
 70
     1
  9
$ANGBASE
 50
0.0
  9
$ANGDIR
 70
     0
  9
$PDMODE
 70
     1
  9
$PDSIZE
 40
-2.0
  9
$PLINEWID
 40
0.0
  9
$COORDS
 70
     2
  9
$SPLFRAME
 70
     0
  9
$SPLINETYPE
 70
     6
  9
$SPLINESEGS
 70
     8
  9
$ATTDIA
 70
     0
  9
$ATTREQ
 70
     1
  9
$HANDLING
 70
     1
  9
$HANDSEED
  5
29B
  9
$SURFTAB1
 70
     6
  9
$SURFTAB2
 70
     6
  9
$SURFTYPE
 70
     6
  9
$SURFU
 70
     6
  9
$SURFV
 70
     6
  9
$UCSNAME
  2

  9
$UCSORG
 10
0.0
 20
0.0
 30
0.0
  9
$UCSXDIR
 10
1.0
 20
0.0
 30
0.0
  9
$UCSYDIR
 10
0.0
 20
1.0
 30
0.0
  9
$PUCSNAME
  2

  9
$PUCSORG
 10
0.0
 20
0.0
 30
0.0
  9
$PUCSXDIR
 10
1.0
 20
0.0
 30
0.0
  9
$PUCSYDIR
 10
0.0
 20
1.0
 30
0.0
  9
$USERI1
 70
     0
  9
$USERI2
 70
     0
  9
$USERI3
 70
     0
  9
$USERI4
 70
     0
  9
$USERI5
 70
     0
  9
$USERR1
 40
0.0
  9
$USERR2
 40
0.0
  9
$USERR3
 40
0.0
  9
$USERR4
 40
0.0
  9
$USERR5
 40
0.0
  9
$WORLDVIEW
 70
     1
  9
$SHADEDGE
 70
     3
  9
$SHADEDIF
 70
    70
  9
$TILEMODE
 70
     1
  9
$MAXACTVP
 70
    64
  9
$PLIMCHECK
 70
     0
  9
$PEXTMIN
 10
1.0000000000000000E+020
 20
1.0000000000000000E+020
 30
1.0000000000000000E+020
  9
$PEXTMAX
 10
-1.0000000000000000E+020
 20
-1.0000000000000000E+020
 30
-1.0000000000000000E+020
  9
$PLIMMIN
 10
0.0
 20
0.0
  9
$PLIMMAX
 10
12.0
 20
9.0
  9
$UNITMODE
 70
     0
  9
$VISRETAIN
 70
     0
  9
$PLINEGEN
 70
     1
  9
$PSLTSCALE
 70
     0
  0
ENDSEC
  0
SECTION
  2
TABLES
  0
TABLE
  2
VPORT
 70
     1
  0
VPORT
  2
*ACTIVE
 70
     0
 10
0.0
 20
0.0
 11
1.0
 21
1.0
 12
0.000000419095187
 22
-3.7736183674180088
 13
0.0
 23
0.0
 14
1.0
 24
1.0
 15
0.0
 25
0.0
 16
0.0
 26
0.0
 36
1.0
 17
0.0
 27
0.0
 37
0.0
 40
269.62966312416819
 41
2.1585051546391751
 42
50.0
 43
0.0
 44
0.0
 50
0.0
 51
0.0
 71
     0
 72
  2000
 73
     1
 74
     1
 75
     0
 76
     0
 77
     0
 78
     0
  0
ENDTAB
  0
TABLE
  2
LTYPE
 70
    11
  0
LTYPE
  2
CONTINUOUS
 70
     0
  3
Solid line
 72
    65
 73
     0
 40
0.0
  0
ENDTAB
  0
TABLE
  2
LAYER
 70
     6
  0
LAYER
  2
0
 70
     0
 62
     7
  6
CONTINUOUS
  0
LAYER
  2
DATA
 70
     0
 62
     7
  6
CONTINUOUS
  0
LAYER
  2
HIBINO-BASE
 70
     0
 62
     7
  6
CONTINUOUS
  0
LAYER
  2
SPEC
 70
     0
 62
     7
  6
CONTINUOUS
  0
LAYER
  2
DIMNSIONS
 70
     0
 62
     7
  6
CONTINUOUS
  0
ENDTAB
  0
TABLE
  2
STYLE
 70
     3
  0
STYLE
  2
STANDARD
 70
     0
 40
0.0
 41
1.0
 50
0.0
 71
     0
 42
0.0
  3
txt
  4
BIGFONT.SHX
  0
ENDTAB
  0
TABLE
  2
VIEW
 70
     0
  0
ENDTAB
  0
TABLE
  2
UCS
 70
     0
  0
ENDTAB
  0
TABLE
  2
APPID
 70
     4
  0
APPID
  2
ACAD
 70
     0
  0
APPID
  2
ACADANNOTATIVE
 70
     0
  0
APPID
  2
ACAD_NAV_VCDISPLAY
 70
     0
  0
APPID
  2
ACAD_MLEADERVER
 70
     0
  0
ENDTAB
  0
TABLE
  2
DIMSTYLE
 70
     2
  0
DIMSTYLE
  2
STANDARD
 70
     0
  3

  4

  5

  6

  7

 40
1.0
 41
0.18
 42
0.0625
 43
0.38
 44
0.18
 45
0.0
 46
0.0
 47
0.0
 48
0.0
140
0.18
141
0.09
142
0.0
143
25.399999999999999
144
1.0
145
0.0
146
1.0
147
0.09
 71
     0
 72
     0
 73
     1
 74
     1
 75
     0
 76
     0
 77
     0
 78
     0
170
     0
171
     2
172
     0
173
     0
174
     0
175
     0
176
     0
177
     0
178
     0
  0
ENDTAB
  0
ENDSEC
  0
SECTION
  2
BLOCKS
  0
BLOCK
  8
0
  2
$MODEL_SPACE
 70
     0
 10
0.0
 20
0.0
 30
0.0
  3
$MODEL_SPACE
  1

  0
ENDBLK
  5
215
  8
0
  0
BLOCK
 67
     1
  8
0
  2
$PAPER_SPACE
 70
     0
 10
0.0
 20
0.0
 30
0.0
  3
$PAPER_SPACE
  1

  0
ENDBLK
  5
211
 67
     1
  8
0
  0
ENDSEC
  0
SECTION
  2
ENTITIES
  0
LINE
  5
2D
  8
HIBINO-BASE
  6
CONTINUOUS
 62
     7
 10
-89.999999999999986
 20
130.0
 30
0.0
 11
89.999999999999986
 21
130.0
 31
0.0
  0
LINE
  5
2E
  8
HIBINO-BASE
  6
CONTINUOUS
 62
     7
 10
89.999999999999986
 20
-130.0
 30
0.0
 11
-89.999999999999986
 21
-130.0
 31
0.0
  0
LINE
  5
2F
  8
HIBINO-BASE
  6
CONTINUOUS
 62
     7
 10
-89.999999999999986
 20
-130.0
 30
0.0
 11
-89.999999999999986
 21
130.0
 31
0.0
  0
LINE
  5
30
  8
HIBINO-BASE
  6
CONTINUOUS
 62
     7
 10
89.999999999999986
 20
130.0
 30
0.0
 11
89.999999999999986
 21
-130.0
 31
0.0
  0
LINE
  5
31
  8
HIBINO-BASE
  6
CONTINUOUS
 62
     7
 10
0.0000000000000071
 20
-107.4999999999999
 30
0.0
 11
89.999999999999986
 21
-107.4999999999999
 31
0.0
  0
LINE
  5
32
  8
HIBINO-BASE
  6
CONTINUOUS
 62
     7
 10
0.0000000000000071
 20
-130.0
 30
0.0
 11
0.0000000000000071
 21
-107.4999999999999
 31
0.0
  0
TEXT
  5
33
  8
HIBINO-BASE
 62
     7
 10
0.9000000000000126
 20
-110.0086933333333
 30
0.0
 40
1.6288411458333329
  1
NOTE
 41
0.7
 11
0.9000000000000127
 21
-108.37985218749991
 31
0.0
 73
     3
  0
LINE
  5
34
  8
HIBINO-BASE
  6
CONTINUOUS
 62
     7
 10
35.000000000000021
 20
-130.0
 30
0.0
 11
35.000000000000021
 21
-107.4999999999999
 31
0.0
  0
TEXT
  5
35
  8
HIBINO-BASE
 62
     7
 10
35.899999999999999
 20
-110.0086933333333
 30
0.0
 40
1.6288411458333329
  1
TITLE
 41
0.7
 11
35.899999999999999
 21
-108.37985218749991
 31
0.0
 73
     3
  0
LINE
  5
36
  8
HIBINO-BASE
  6
CONTINUOUS
 62
     7
 10
0.0000000000000071
 20
-119.9999999999999
 30
0.0
 11
89.999999999999986
 21
-119.9999999999999
 31
0.0
  0
TEXT
  5
37
  8
HIBINO-BASE
 62
     7
 10
48.399999999999991
 20
-122.4523733333333
 30
0.0
 40
1.6288411458333329
  1
DRAWN
 41
0.7
 11
48.399999999999991
 21
-120.82353218749989
 31
0.0
 73
     3
  0
TEXT
  5
38
  8
HIBINO-BASE
 62
     7
 10
23.399999999999999
 20
-122.4523733333333
 30
0.0
 40
1.6288411458333329
  1
DATE
 41
0.7
 11
23.399999999999999
 21
-120.82353218749989
 31
0.0
 73
     3
  0
TEXT
  5
39
  8
HIBINO-BASE
 62
     7
 10
13.4
 20
-122.4523733333333
 30
0.0
 40
1.6288411458333329
  1
SCALE
 41
0.7
 11
13.4
 21
-120.82353218749989
 31
0.0
 73
     3
  0
TEXT
  5
3A
  8
HIBINO-BASE
 62
     7
 10
35.899999999999999
 20
-122.4523733333333
 30
0.0
 40
1.6288411458333329
  1
DESIGN
 41
0.7
 11
35.899999999999999
 21
-120.82353218749989
 31
0.0
 73
     3
  0
TEXT
  5
3B
  8
HIBINO-BASE
 62
     7
 10
73.399999999999977
 20
-122.4523733333333
 30
0.0
 40
1.6288411458333329
  1
DRAWING NO.
 41
0.7
 11
73.399999999999977
 21
-120.82353218749989
 31
0.0
 73
     3
  0
TEXT
  5
3C
  8
HIBINO-BASE
 62
     7
 10
60.899999999999991
 20
-122.4523733333333
 30
0.0
 40
1.6288411458333329
  1
CHECK
 41
0.7
 11
60.899999999999991
 21
-120.82353218749989
 31
0.0
 73
     3
  0
LINE
  5
3D
  8
HIBINO-BASE
  6
CONTINUOUS
 62
     7
 10
14.375000000000011
 20
-128.74999999999989
 30
0.0
 11
18.125000000000011
 21
-124.9999999999999
 31
0.0
  0
TEXT
  5
3E
  8
HIBINO-BASE
 62
     7
 10
13.750000000000011
 20
-126.1089433333333
 30
0.0
 40
1.6288411458333329
  1
1
 41
0.7
 11
13.750000000000011
 21
-124.48010218749999
 31
0.0
 73
     3
  0
LINE
  5
3F
  8
HIBINO-BASE
  6
CONTINUOUS
 62
     7
 10
12.500000000000011
 20
-130.0
 30
0.0
 11
12.500000000000011
 21
-119.9999999999999
 31
0.0
  0
LINE
  5
40
  8
HIBINO-BASE
  6
CONTINUOUS
 62
     7
 10
22.5
 20
-130.0
 30
0.0
 11
22.5
 21
-119.9999999999999
 31
0.0
  0
LINE
  5
41
  8
HIBINO-BASE
  6
CONTINUOUS
 62
     7
 10
47.499999999999993
 20
-119.9999999999999
 30
0.0
 11
47.499999999999993
 21
-130.0
 31
0.0
  0
LINE
  5
42
  8
HIBINO-BASE
  6
CONTINUOUS
 62
     7
 10
72.500000000000014
 20
-119.9999999999999
 30
0.0
 11
72.500000000000014
 21
-130.0
 31
0.0
  0
LINE
  5
43
  8
HIBINO-BASE
  6
CONTINUOUS
 62
     7
 10
60.0
 20
-130.0
 30
0.0
 11
60.0
 21
-119.9999999999999
 31
0.0
  0
TEXT
  5
44
  8
HIBINO-BASE
 62
     7
 10
23.35654000000001
 20
-127.1363533333333
 30
0.0
 40
1.6288411458333329
  1
'13.08.
 41
0.7
 11
23.35654000000001
 21
-125.5075121874999
 31
0.0
 73
     3
  0
TEXT
  5
45
  8
HIBINO-BASE
 62
     7
 10
17.500000000000011
 20
-127.9839433333333
 30
0.0
 40
1.6288411458333329
  1
1
 41
0.7
 11
17.500000000000011
 21
-126.35510218749999
 31
0.0
 73
     3
  0
TEXT
  5
46
  8
HIBINO-BASE
 62
     7
 10
49.005810011034633
 20
-127.1363533333333
 30
0.0
 40
1.6288411458333329
  1
Ootake
 41
0.7
 11
49.005810011034633
 21
-125.5075121874999
 31
0.0
 73
     3
  0
TEXT
  5
47
  8
HIBINO-BASE
 62
     7
 10
3.8833333333333599
 20
-128.02399999999989
 30
0.0
 40
3.2576822916666659
  1
A4
 41
0.7
 11
3.8833333333333599
 21
-124.7663177083333
 31
0.0
 73
     3
  0
TEXT
  5
48
  8
HIBINO-BASE
 62
     7
 10
0.9583333333333355
 20
-122.6194549999999
 30
0.0
 40
1.6288411458333329
  1
PAPER SIZE
 41
0.7
 11
0.9583333333333355
 21
-120.9906138541666
 31
0.0
 73
     3
  0
TEXT
  5
49
  8
HIBINO-BASE
 62
     7
 10
-82.816000000000003
 20
-136.37551499999989
 30
0.0
 40
3.5291558159722221
  1
Hibino-Intersound Corporation
 41
0.7
 11
-82.816000000000003
 21
-132.8463591840277
 31
0.0
 73
     3
  0
TEXT
  5
4A
  8
HIBINO-BASE
 62
     7
 10
14.024334167243129
 20
-136.37551499999989
 30
0.0
 40
3.5291558159722221
  1
ヒビノインターサウンド株式会社
 41
0.7
 11
14.024334167243129
 21
-132.8463591840277
 31
0.0
 73
     3
  0
LINE
  5
4B
  8
SPEC
  6
CONTINUOUS
 62
     7
 10
-82.499999999999986
 20
120.0
 30
0.0
 11
65.000000000000014
 21
120.0
 31
0.0
  0
LINE
  5
4C
  8
SPEC
  6
CONTINUOUS
 62
     7
 10
-82.499999999999986
 20
112.5
 30
0.0
 11
65.000000000000014
 21
112.5
 31
0.0
  0
LINE
  5
4D
  8
SPEC
  6
CONTINUOUS
 62
     7
 10
-82.499999999999986
 20
116.25
 30
0.0
 11
65.000000000000014
 21
116.25
 31
0.0
  0
LINE
  5
4E
  8
SPEC
  6
CONTINUOUS
 62
     7
 10
-82.499999999999986
 20
120.0
 30
0.0
 11
-82.499999999999986
 21
112.5
 31
0.0
  0
TEXT
  5
4F
  8
SPEC
 62
     7
 10
-81.249999999999986
 20
121.39327
 30
0.0
 40
2.4432617187500001
  1
仕様
 41
0.7
 11
-81.249999999999986
 21
123.83653171875
 31
0.0
 73
     3
  0
LINE
  5
50
  8
SPEC
  6
CONTINUOUS
 62
     7
 10
-50.0
 20
120.0
 30
0.0
 11
-50.0
 21
112.5
 31
0.0
  0
LINE
  5
51
  8
SPEC
  6
CONTINUOUS
 62
     7
 10
65.000000000000014
 20
120.0
 30
0.0
 11
65.000000000000014
 21
112.5
 31
0.0
  0
TEXT
  5
52
  8
SPEC
 62
     7
 10
-81.693055397635874
 20
113.5112507321039
 30
0.0
 40
1.900314670138888
  1
質量
 41
0.7
 11
-81.693055397635874
 21
115.4115654022428
 31
0.0
 73
     3
  0
TEXT
  5
53
  8
SPEC
 62
     7
 10
-49.099999999999987
 20
113.51123829835289
 30
0.0
 40
1.900314670138888
  1
40g
 41
0.7
 11
-49.099999999999987
 21
115.4115529684917
 31
0.0
 73
     3
  0
TEXT
  5
54
  8
SPEC
 62
     7
 10
-81.693047073374586
 20
117.09374824402479
 30
0.0
 40
1.900314670138888
  1
寸法(W\U+00D7H\U+00D7D)
 41
0.7
 11
-81.693047073374586
 21
118.99406291416361
 31
0.0
 73
     3
  0
TEXT
  5
55
  8
SPEC
 62
     7
 10
-49.09999999999998
 20
117.03792
 30
0.0
 40
1.900314670138888
  1
\U+03C619\U+00D769.0(除突起部)
 41
0.7
 11
-49.09999999999998
 21
118.9382346701389
 31
0.0
 73
     3
  0
TEXT
  5
56
  8
DIMNSIONS
 62
     7
 10
-20.0
 20
-117.7305099999999
 30
0.0
 40
2.4432617187500001
  1
(単位：mm)
 41
0.7
 11
-20.0
 21
-115.2872482812499
 31
0.0
 73
     3
  0
LINE
  5
57
  8
DIMNSIONS
  6
CONTINUOUS
 62
     7
 10
-18.777682220158091
 20
-19.999999999997438
 30
0.0
 11
-6.9999999999999982
 21
-19.999999999997438
 31
0.0
  0
LINE
  5
58
  8
DIMNSIONS
  6
CONTINUOUS
 62
     7
 10
-23.210137895158041
 20
49.047809515002598
 30
0.0
 11
-6.9999999999999956
 21
49.047809515002598
 31
0.0
  0
LINE
  5
59
  8
DIMNSIONS
  6
CONTINUOUS
 62
     7
 10
-8.9999999999999982
 20
-19.999999999997438
 30
0.0
 11
-8.9999999999999964
 21
49.047809515002598
 31
0.0
  0
LINE
  5
5A
  8
DIMNSIONS
  6
CONTINUOUS
 62
     7
 10
-8.9999999999999982
 20
-19.999999999997438
 30
0.0
 11
-9.6700397951502381
 21
-17.499377441403691
 31
0.0
  0
LINE
  5
5B
  8
DIMNSIONS
  6
CONTINUOUS
 62
     7
 10
-8.9999999999999982
 20
-19.999999999997438
 30
0.0
 11
-8.3299602048497512
 21
-17.499377441403691
 31
0.0
  0
LINE
  5
5C
  8
DIMNSIONS
  6
CONTINUOUS
 62
     7
 10
-8.9999999999999964
 20
49.047809515002598
 30
0.0
 11
-8.3299602048497512
 21
46.547186956408851
 31
0.0
  0
LINE
  5
5D
  8
DIMNSIONS
  6
CONTINUOUS
 62
     7
 10
-8.9999999999999964
 20
49.047809515002598
 30
0.0
 11
-9.6700397951502417
 21
46.547186956408851
 31
0.0
  0
TEXT
  5
5E
  8
DIMNSIONS
 62
     7
 10
-9.9938890066411901
 20
10.99612630685459
 30
0.0
 40
2.714735890298968
  1
69.0
 50
90.0
 41
0.7
 11
-12.70862489694016
 21
10.99612630685459
 31
0.0
 73
     3
  0
LINE
  5
5F
  8
DIMNSIONS
  6
CONTINUOUS
 62
     7
 10
-23.54351770313561
 20
-42.722577790369719
 30
0.0
 11
-18.741704789853031
 21
-37.0
 31
0.0
  0
LINE
  5
60
  8
DIMNSIONS
  6
CONTINUOUS
 62
     7
 10
-23.54351770313561
 20
-42.722577790369719
 30
0.0
 11
-22.40864714800324
 21
-40.39574833148658
 31
0.0
  0
LINE
  5
61
  8
DIMNSIONS
  6
CONTINUOUS
 62
     7
 10
-23.54351770313561
 20
-42.722577790369719
 30
0.0
 11
-21.39727624294245
 21
-41.274919646269112
 31
0.0
  0
LINE
  5
62
  8
DIMNSIONS
  6
CONTINUOUS
 62
     7
 10
-18.741704789853031
 20
-37.0
 30
0.0
 11
-6.1583687650388512
 21
-37.0
 31
0.0
  0
TEXT
  5
63
  8
DIMNSIONS
 62
     7
 10
-16.741704789853031
 20
-36.00611099335881
 30
0.0
 40
2.714735890298968
  1
\U+03C619.0
 41
0.7
 11
-16.741704789853031
 21
-33.291375103059842
 31
0.0
 73
     3
  0
TEXT
  5
64
  8
DATA
 62
     7
 10
50.0
 20
-118.86910999999991
 30
0.0
 40
2.4432617187500001
  1
DAD6001BC
 41
0.7
 11
50.0
 21
-116.4258482812499
 31
0.0
 73
     3
  0
TEXT
  5
65
  8
DATA
 62
     7
 10
50.0
 20
-111.240994404006
 30
0.0
 40
2.4432617187500001
  1
DPA
 41
0.7
 11
50.0
 21
-108.79773268525599
 31
0.0
 73
     3
  0
TEXT
  5
66
  8
DATA
 62
     7
 10
47.499999999999993
 20
-114.7179130281817
 30
0.0
 40
1.6288437109374989
  1
MicroDot to XLR3ピン変換アダプター
 41
0.7
 11
47.499999999999993
 21
-113.0890693172442
 31
0.0
 73
     3
  0
TEXT
  5
67
  8
DATA
 62
     7
 10
-87.499999999999986
 20
-122.1237222222222
 30
0.0
 40
1.900314670138888
  1
※仕様及び外観は予告なく変更されることがあります。
 41
0.7
 11
-87.499999999999986
 21
-120.2234075520833
 31
0.0
 73
     3
  0
TEXT
  5
68
  8
DATA
 62
     7
 10
-87.499999999999986
 20
-124.5931666666666
 30
0.0
 40
1.900314670138888
  1
　また、同一商品でも若干の個体差があることがあります。ご了承ください。
 41
0.7
 11
-87.499999999999986
 21
-122.69285199652769
 31
0.0
 73
     3
  0
LINE
  5
69
  8
DATA
  6
CONTINUOUS
 62
     7
 10
-34.064716167919421
 20
49.047809515002641
 30
0.0
 11
-34.075049245157928
 21
49.047809515002641
 31
0.0
  0
LINE
  5
6A
  8
DATA
  6
CONTINUOUS
 62
     7
 10
-34.064716167919421
 20
49.047809515002641
 30
0.0
 11
-25.210137895158041
 21
49.047809515002641
 31
0.0
  0
LINE
  5
6B
  8
DATA
  6
CONTINUOUS
 62
     7
 10
-21.571994985407549
 20
37.003426337234309
 30
0.0
 11
-22.679543316854119
 21
37.406540962902938
 31
0.0
  0
LINE
  5
6C
  8
DATA
  6
CONTINUOUS
 62
     7
 10
-37.713192154957632
 20
37.003426337234309
 30
0.0
 11
-36.605643823510903
 21
37.406540962902938
 31
0.0
  0
LINE
  5
6D
  8
DATA
  6
CONTINUOUS
 62
     7
 10
-19.841941577658091
 20
23.004669949002519
 30
0.0
 11
-39.443245562657701
 21
23.004669949002519
 31
0.0
  0
LINE
  5
6E
  8
DATA
  6
CONTINUOUS
 62
     7
 10
-37.841169104578583
 20
36.843704472995753
 30
0.0
 11
-39.611332329370967
 21
23.22706428223497
 31
0.0
  0
LINE
  5
6F
  8
DATA
  6
CONTINUOUS
 62
     7
 10
-36.605643823510903
 20
37.406540962804513
 30
0.0
 11
-34.853188252146708
 21
48.384040046048177
 31
0.0
  0
LINE
  5
70
  8
DATA
  6
CONTINUOUS
 62
     7
 10
-39.208898938403721
 20
8.0369450796573538
 30
0.0
 11
-38.803001965157769
 21
5.8067419300025804
 31
0.0
  0
LINE
  5
71
  8
DATA
  6
CONTINUOUS
 62
     7
 10
-39.381272214702882
 20
10.499420454755789
 30
0.0
 11
-38.974610355259571
 21
8.2650146338593764
 31
0.0
  0
LINE
  5
72
  8
DATA
  6
CONTINUOUS
 62
     7
 10
-39.595919035907777
 20
13.19416805500259
 30
0.0
 11
-39.147748517657803
 21
10.73169268000259
 31
0.0
  0
LINE
  5
73
  8
DATA
  6
CONTINUOUS
 62
     7
 10
-39.656330242378587
 20
14.14802920969994
 30
0.0
 11
-39.595919035907777
 21
13.19416805500259
 31
0.0
  0
LINE
  5
74
  8
DATA
  6
CONTINUOUS
 62
     7
 10
-39.640243592657711
 20
15.3217467790026
 30
0.0
 11
-39.640243592657711
 21
18.800000000000001
 31
0.0
  0
LINE
  5
75
  8
DATA
  6
CONTINUOUS
 62
     7
 10
-39.640243592657711
 20
19.329418698005121
 30
0.0
 11
-39.640243592657711
 21
22.80767191900253
 31
0.0
  0
LINE
  5
76
  8
DATA
  6
CONTINUOUS
 62
     7
 10
-38.999999995157772
 20
5.6097439000025844
 30
0.0
 11
-38.999999995157772
 21
-19.507504924997551
 31
0.0
  0
LINE
  5
77
  8
DATA
  6
CONTINUOUS
 62
     7
 10
-38.162758367657851
 20
15.124748749002601
 30
0.0
 11
-38.162758367657851
 21
14.67165328000263
 31
0.0
  0
LINE
  5
78
  8
DATA
  6
CONTINUOUS
 62
     7
 10
-37.494594374604979
 20
35.975998263675692
 30
0.0
 11
-37.49459438594311
 21
35.975998081255419
 31
0.0
  0
LINE
  5
79
  8
DATA
  6
CONTINUOUS
 62
     7
 10
-39.443245562657701
 20
15.124748749002601
 30
0.0
 11
-19.841941577658091
 21
15.124748749002601
 31
0.0
  0
LINE
  5
7A
  8
DATA
  6
CONTINUOUS
 62
     7
 10
-20.146993283850659
 20
14.67165328000263
 30
0.0
 11
-39.164819932655412
 21
14.67165328000263
 31
0.0
  0
LINE
  5
7B
  8
DATA
  6
CONTINUOUS
 62
     7
 10
-20.146993283850659
 20
14.67165328000263
 30
0.0
 11
-20.120566393255029
 21
14.67165328000263
 31
0.0
  0
LINE
  5
7C
  8
DATA
  6
CONTINUOUS
 62
     7
 10
-26.81997279382913
 20
32.589586342425072
 30
0.0
 11
-26.819969153707749
 21
32.589594578397488
 31
0.0
  0
LINE
  5
7D
  8
DATA
  6
CONTINUOUS
 62
     7
 10
-39.187457957037452
 20
10.73169268000259
 30
0.0
 11
-39.147748517657803
 21
10.73169268000259
 31
0.0
  0
LINE
  5
7E
  8
DATA
  6
CONTINUOUS
 62
     7
 10
-20.137438622657989
 20
10.73169268000259
 30
0.0
 11
-20.097729183327729
 21
10.73169268000259
 31
0.0
  0
LINE
  5
7F
  8
DATA
  6
CONTINUOUS
 62
     7
 10
-20.309811898908091
 20
8.2692173050025843
 30
0.0
 11
-20.270102460119372
 21
8.2692173050025843
 31
0.0
  0
LINE
  5
80
  8
DATA
  6
CONTINUOUS
 62
     7
 10
-21.122428772658129
 20
15.124748749002601
 30
0.0
 11
-21.122428772658129
 21
14.67165328000263
 31
0.0
  0
LINE
  5
81
  8
DATA
  6
CONTINUOUS
 62
     7
 10
-22.679543316854119
 20
37.406540962853732
 30
0.0
 11
-24.43199888821848
 21
48.384040046048177
 31
0.0
  0
LINE
  5
82
  8
DATA
  6
CONTINUOUS
 62
     7
 10
-20.28518714515803
 20
5.6097439000025844
 30
0.0
 11
-20.28518714515803
 21
-19.507504924997551
 31
0.0
  0
LINE
  5
83
  8
DATA
  6
CONTINUOUS
 62
     7
 10
-19.644943547658091
 20
15.3217467790026
 30
0.0
 11
-19.644943547658091
 21
22.80767191900253
 31
0.0
  0
LINE
  5
84
  8
DATA
  6
CONTINUOUS
 62
     7
 10
-19.628856897937201
 20
14.14802920969994
 30
0.0
 11
-19.68926810440804
 21
13.19416805500259
 31
0.0
  0
LINE
  5
85
  8
DATA
  6
CONTINUOUS
 62
     7
 10
-19.68926810440804
 20
13.19416805500259
 30
0.0
 11
-20.137438622657989
 21
10.73169268000259
 31
0.0
  0
LINE
  5
86
  8
DATA
  6
CONTINUOUS
 62
     7
 10
-19.903914925662139
 20
10.499420454755789
 30
0.0
 11
-20.309811898908091
 21
8.2692173050025843
 31
0.0
  0
LINE
  5
87
  8
DATA
  6
CONTINUOUS
 62
     7
 10
-20.076288201912071
 20
8.0369450796573538
 30
0.0
 11
-20.482185175158019
 21
5.8067419300025804
 31
0.0
  0
LINE
  5
88
  8
DATA
  6
CONTINUOUS
 62
     7
 10
-19.673854810994051
 20
23.22706428223497
 30
0.0
 11
-21.444018035786591
 21
36.843704472995753
 31
0.0
  0
LINE
  5
89
  8
DATA
  6
CONTINUOUS
 62
     7
 10
-38.507504920157707
 20
-19.999999999997438
 30
0.0
 11
-20.777682220158091
 21
-19.999999999997438
 31
0.0
  0
ARC
  5
8A
  8
DATA
  6
CONTINUOUS
 62
     7
 10
-39.443245562657701
 20
15.3217467790026
 30
0.0
 40
0.1969980300000032
 50
180.0
 51
270.0
  0
ARC
  5
8B
  8
DATA
  6
CONTINUOUS
 62
     7
 10
-19.841941577658091
 20
15.3217467790026
 30
0.0
 40
0.1969980299999961
 50
270.0
 51
0.0
  0
ARC
  5
8C
  8
DATA
  6
CONTINUOUS
 62
     7
 10
-39.443245562657701
 20
22.80767191900253
 30
0.0
 40
0.1969980299999961
 50
90.0
 51
180.0
  0
ARC
  5
8D
  8
DATA
  6
CONTINUOUS
 62
     7
 10
-19.841941577658091
 20
22.80767191900253
 30
0.0
 40
0.1969980299999961
 50
0.0
 51
90.0
  0
ARC
  5
8E
  8
DATA
  6
CONTINUOUS
 62
     7
 10
-34.075049245157928
 20
48.259817395002671
 30
0.0
 40
0.7879921199999699
 50
90.0
 51
170.92979705920311
  0
ARC
  5
8F
  8
DATA
  6
CONTINUOUS
 62
     7
 10
-25.210137895158041
 20
48.259817395002671
 30
0.0
 40
0.787992119999937
 50
9.0702029407972482
 51
90.0
  0
ARC
  5
90
  8
DATA
  6
CONTINUOUS
 62
     7
 10
-19.869210752686051
 20
23.201667979002519
 30
0.0
 40
0.1969980299999961
 50
270.00000000268648
 51
7.4069205741025126
  0
ARC
  5
91
  8
DATA
  6
CONTINUOUS
 62
     7
 10
-39.415976387629762
 20
23.201667979002519
 30
0.0
 40
0.1969980300000301
 50
172.5930794258968
 51
269.99999999731352
  0
ARC
  5
92
  8
DATA
  6
CONTINUOUS
 62
     7
 10
-21.639371833795241
 20
36.818308478902381
 30
0.0
 40
0.1969980128611014
 50
7.4070047707188982
 51
70.000148101015583
  0
ARC
  5
93
  8
DATA
  6
CONTINUOUS
 62
     7
 10
-37.64581530656978
 20
36.818308478902381
 30
0.0
 40
0.1969980128611786
 50
109.9998518989832
 51
172.592995229384
  0
ARC
  5
94
  8
DATA
  6
CONTINUOUS
 62
     7
 10
-20.12036720766039
 20
14.17915820500256
 30
0.0
 40
0.4924950749998779
 50
356.37610635580728
 51
90.0
  0
ARC
  5
95
  8
DATA
  6
CONTINUOUS
 62
     7
 10
-39.164819932655412
 20
14.17915820500256
 30
0.0
 40
0.4924950750000683
 50
90.0
 51
183.6238936441911
  0
ARC
  5
96
  8
DATA
  6
CONTINUOUS
 62
     7
 10
-39.187457986685573
 20
10.534694650002599
 30
0.0
 40
0.1969980299999925
 50
90.0
 51
190.314931839774
  0
ARC
  5
97
  8
DATA
  6
CONTINUOUS
 62
     7
 10
-20.097729153679438
 20
10.534694650002599
 30
0.0
 40
0.196998029999984
 50
349.68506816022602
 51
90.0
  0
ARC
  5
98
  8
DATA
  6
CONTINUOUS
 62
     7
 10
-39.01508471043563
 20
8.0722192750025918
 30
0.0
 40
0.1969980299999666
 50
78.143827268458722
 51
190.31493187110681
  0
ARC
  5
99
  8
DATA
  6
CONTINUOUS
 62
     7
 10
-20.270102429929551
 20
8.0722192750025918
 30
0.0
 40
0.1969980300001225
 50
349.68506812890092
 51
90.0
  0
ARC
  5
9A
  8
DATA
  6
CONTINUOUS
 62
     7
 10
-38.803001965157769
 20
5.6097439000025844
 30
0.0
 40
0.1969980299999961
 50
90.0
 51
180.0
  0
ARC
  5
9B
  8
DATA
  6
CONTINUOUS
 62
     7
 10
-20.482185175158019
 20
5.6097439000025844
 30
0.0
 40
0.1969980299999961
 50
0.0
 51
90.0
  0
ARC
  5
9C
  8
DATA
  6
CONTINUOUS
 62
     7
 10
-20.777682220158091
 20
-19.507504924997551
 30
0.0
 40
0.4924950749998942
 50
270.0
 51
0.0
  0
ARC
  5
9D
  8
DATA
  6
CONTINUOUS
 62
     7
 10
-38.507504920157707
 20
-19.507504924997551
 30
0.0
 40
0.4924950750000647
 50
180.0
 51
270.0
  0
POLYLINE
  5
9E
  8
DATA
  6
CONTINUOUS
 62
     7
 66
     1
 10
0.0
 20
0.0
 30
0.0
  0
VERTEX
  5
246
  8
DATA
  6
CONTINUOUS
 62
     7
 10
-29.642593570157981
 20
37.406540962853732
 30
0.0
  0
VERTEX
  5
247
  8
DATA
  6
CONTINUOUS
 62
     7
 10
-29.635974574544068
 20
37.406529655511612
 30
0.0
  0
SEQEND
  5
248
  8
DATA
  6
CONTINUOUS
 62
     7
  0
LINE
  5
A3
  8
DATA
  6
CONTINUOUS
 62
     7
 10
-37.713192113784928
 20
37.003426224206741
 30
0.0
 11
-37.713192108392342
 21
37.00342621727151
 31
0.0
  0
POLYLINE
  5
A4
  8
DATA
  6
CONTINUOUS
 62
     7
 66
     1
 10
0.0
 20
0.0
 30
0.0
 70
   128
  0
VERTEX
  5
249
  8
DATA
  6
CONTINUOUS
 62
     7
 10
-37.494594418683441
 20
35.975998274067472
 30
0.0
 42
1211987.7730885111
  0
VERTEX
  5
24A
  8
DATA
  6
CONTINUOUS
 62
     7
 10
-37.49459440253073
 20
35.975998178942667
 30
0.0
  0
VERTEX
  5
24B
  8
DATA
  6
CONTINUOUS
 62
     7
 10
-37.49459438594311
 20
35.975998081255419
 30
0.0
  0
SEQEND
  5
24C
  8
DATA
  6
CONTINUOUS
 62
     7
  0
LINE
  5
A9
  8
DATA
  6
CONTINUOUS
 62
     7
 10
-28.064988890372529
 20
35.976021721257531
 30
0.0
 11
-28.064988894937692
 21
35.976021717817972
 31
0.0
  0
LINE
  5
AA
  8
DATA
  6
CONTINUOUS
 62
     7
 10
-26.819969153707749
 20
32.589594578397488
 30
0.0
 11
-26.81996771408701
 21
32.589589228544817
 31
0.0
  0
ARC
  5
AB
  8
DATA
  6
CONTINUOUS
 62
     7
 10
-13.71118919496376
 20
36.5982543889046
 30
0.0
 40
9.0047044838425272
 50
174.85004453671741
 51
181.9361122898741
  0
ARC
  5
AC
  8
DATA
  6
CONTINUOUS
 62
     7
 10
10.55048993359163
 20
37.415317367590433
 30
0.0
 40
33.28013781612303
 50
181.93079797541731
 51
184.2332448301444
  0
ARC
  5
AD
  8
DATA
  6
CONTINUOUS
 62
     7
 10
177.50823444288579
 20
49.143255394179789
 30
0.0
 40
200.64909400142881
 50
184.0538166652147
 51
184.36037988374551
  0
ARC
  5
AE
  8
DATA
  6
CONTINUOUS
 62
     7
 10
-632.57871032136393
 20
-12.40765440466909
 30
0.0
 40
611.77283340525184
 50
4.223442054463991
 51
4.3399828560616314
  0
ARC
  5
AF
  8
DATA
  6
CONTINUOUS
 62
     7
 10
-96.451444120701865
 20
27.14431391042584
 30
0.0
 40
74.18861572821622
 50
3.419196911665431
 51
4.2537096572126654
  0
ARC
  5
B0
  8
DATA
  6
CONTINUOUS
 62
     7
 10
-57.199157699827879
 20
29.29484084624913
 30
0.0
 40
34.878326181307493
 50
2.3355148461370558
 51
3.6898181574096669
  0
ARC
  5
B1
  8
DATA
  6
CONTINUOUS
 62
     7
 10
-65.751547845639436
 20
28.684937002520272
 30
0.0
 40
43.449249552495452
 50
1.7186630119066471
 51
2.6795317202764202
  0
ARC
  5
B2
  8
DATA
  6
CONTINUOUS
 62
     7
 10
-58.531245265709167
 20
28.830073637613609
 30
0.0
 40
36.227912671490607
 50
0.5111569298162574
 51
1.8317093542376399
  0
ARC
  5
B3
  8
DATA
  6
CONTINUOUS
 62
     7
 10
-65.516646733011726
 20
29.023990765002651
 30
0.0
 40
43.212065834191812
 50
359.33096988035311
 51
0.1714169619611994
  0
ARC
  5
B4
  8
DATA
  6
CONTINUOUS
 62
     7
 10
3088.9071412357648
 20
-65.593113047141685
 30
0.0
 40
3112.6377688775242
 50
178.2673624324176
 51
178.28075452611779
  0
ARC
  5
B5
  8
DATA
  6
CONTINUOUS
 62
     7
 10
130.9302308557584
 20
16.421083238031979
 30
0.0
 40
153.6809331613124
 50
175.75670180591121
 51
175.95113384742601
  0
ARC
  5
B6
  8
DATA
  6
CONTINUOUS
 62
     7
 10
-95.247590859905984
 20
34.893698603306021
 30
0.0
 40
73.277857842502343
 50
353.7126833318469
 51
354.03239310004687
  0
ARC
  5
B7
  8
DATA
  6
CONTINUOUS
 62
     7
 10
-30.219110469708362
 20
28.204334279958509
 30
0.0
 40
7.9220268794428259
 50
347.03724832167228
 51
350.29390937400512
  0
ARC
  5
B8
  8
DATA
  6
CONTINUOUS
 62
     7
 10
-27.800764059295599
 20
27.833456966192731
 30
0.0
 40
5.4851039499388401
 50
342.47771132437168
 51
345.14569244635629
  0
ARC
  5
B9
  8
DATA
  6
CONTINUOUS
 62
     7
 10
-24.090817419468799
 20
26.676716170111121
 30
0.0
 40
1.5990919129684229
 50
330.87204295047349
 51
341.97927507203542
  0
ARC
  5
BA
  8
DATA
  6
CONTINUOUS
 62
     7
 10
-23.33482918640847
 20
26.214992137362351
 30
0.0
 40
0.7148347057256178
 50
267.58321087734163
 51
333.706262096758
  0
LINE
  5
BB
  8
DATA
  6
CONTINUOUS
 62
     7
 10
-22.39489144836957
 20
31.568984515002651
 30
0.0
 11
-22.393131835448148
 21
31.53943451500265
 31
0.0
  0
ARC
  5
BC
  8
DATA
  6
CONTINUOUS
 62
     7
 10
-23.3758977050176
 20
26.601565174492841
 30
0.0
 40
1.100826123086236
 50
249.50405708825491
 51
270.56863710300291
  0
ARC
  5
BD
  8
DATA
  6
CONTINUOUS
 62
     7
 10
-23.566236471228368
 20
26.16870481120996
 30
0.0
 40
0.6292895602706312
 50
239.56744132027629
 51
251.93829008127159
  0
ARC
  5
BE
  8
DATA
  6
CONTINUOUS
 62
     7
 10
-22.041502917205921
 20
27.874930477301518
 30
0.0
 40
2.9078393012185328
 50
214.71438331382899
 51
230.65814444411589
  0
ARC
  5
BF
  8
DATA
  6
CONTINUOUS
 62
     7
 10
-19.403588848056021
 20
29.73573753324786
 30
0.0
 40
6.1360491157569239
 50
207.35571967319251
 51
214.88511264258781
  0
ARC
  5
C0
  8
DATA
  6
CONTINUOUS
 62
     7
 10
-14.409550792167851
 20
32.354893242871711
 30
0.0
 40
11.77518716876275
 50
202.3532118254812
 51
207.5086502501178
  0
ARC
  5
C1
  8
DATA
  6
CONTINUOUS
 62
     7
 10
-5.7099348045931713
 20
36.0070398279926
 30
0.0
 40
21.210153822822051
 50
199.8309445953152
 51
202.58261038863199
  0
ARC
  5
C2
  8
DATA
  6
CONTINUOUS
 62
     7
 10
6.8546138869197391
 20
40.512546319548711
 30
0.0
 40
34.558079298424637
 50
197.42968752949349
 51
199.7908988266058
  0
ARC
  5
C3
  8
DATA
  6
CONTINUOUS
 62
     7
 10
-140.2893999982887
 20
-14.75560440609053
 30
0.0
 40
114.7346214773101
 50
0.0781518123144602
 51
1.0945321394843841
  0
ARC
  5
C4
  8
DATA
  6
CONTINUOUS
 62
     7
 10
-27.68037974313177
 20
-12.529709633094679
 30
0.0
 40
2.1049450511702381
 50
359.06820855110863
 51
1.7630649053454019
  0
ARC
  5
C5
  8
DATA
  6
CONTINUOUS
 62
     7
 10
-167.29658512778019
 20
-15.525975576358521
 30
0.0
 40
141.75320782142651
 50
1.2373448042170621
 51
1.362852521188429
  0
ARC
  5
C6
  8
DATA
  6
CONTINUOUS
 62
     7
 10
-139.1603239298874
 20
-14.799225083561961
 30
0.0
 40
113.60763523168301
 50
1.333928423126405
 51
1.6387168932345171
  0
ARC
  5
C7
  8
DATA
  6
CONTINUOUS
 62
     7
 10
-102.40207337498779
 20
-14.01952214003904
 30
0.0
 40
76.842601527969066
 50
1.841374910962728
 51
3.7098637666607122
  0
ARC
  5
C8
  8
DATA
  6
CONTINUOUS
 62
     7
 10
-62.73112843766107
 20
-11.0503207475565
 30
0.0
 40
37.064784411967374
 50
3.097539646055306
 51
6.2603460138815423
  0
ARC
  5
C9
  8
DATA
  6
CONTINUOUS
 62
     7
 10
-66.617794152481423
 20
-11.08695368472868
 30
0.0
 40
40.934100653779552
 50
5.7180738875497861
 51
8.8638770052523217
  0
ARC
  5
CA
  8
DATA
  6
CONTINUOUS
 62
     7
 10
-52.187769932309017
 20
-8.8190451543663144
 30
0.0
 40
26.32696059345399
 50
8.8261455943632452
 51
13.28752023421935
  0
ARC
  5
CB
  8
DATA
  6
CONTINUOUS
 62
     7
 10
-44.241240439660999
 20
-6.993522846373124
 30
0.0
 40
18.173662146067269
 50
13.44440221547538
 51
16.62814127604512
  0
ARC
  5
CC
  8
DATA
  6
CONTINUOUS
 62
     7
 10
-39.063497554666412
 20
-5.4730582492272362
 30
0.0
 40
12.77737074473171
 50
16.739240053180151
 51
21.383809765772291
  0
ARC
  5
CD
  8
DATA
  6
CONTINUOUS
 62
     7
 10
-35.307774857172603
 20
-4.0273653972138064
 30
0.0
 40
8.7531060127480824
 50
21.531862969912851
 51
25.244997742624701
  0
ARC
  5
CE
  8
DATA
  6
CONTINUOUS
 62
     7
 10
-30.598463271333959
 20
-1.632181170395369
 30
0.0
 40
3.4756389553316929
 50
22.640256912548509
 51
32.017450771393023
  0
ARC
  5
CF
  8
DATA
  6
CONTINUOUS
 62
     7
 10
-32.280945583279873
 20
-2.5444935524563581
 30
0.0
 40
5.3871837361565369
 50
30.757280398946861
 51
38.597763544075129
  0
ARC
  5
D0
  8
DATA
  6
CONTINUOUS
 62
     7
 10
-30.27215720672913
 20
-0.9710026962997487
 30
0.0
 40
2.835701511478756
 50
39.071118412490961
 51
54.0492369347118
  0
ARC
  5
D1
  8
DATA
  6
CONTINUOUS
 62
     7
 10
-29.74688215590108
 20
-0.2429974872865159
 30
0.0
 40
1.9379830191461049
 50
53.984702295093911
 51
71.870428034782464
  0
ARC
  5
D2
  8
DATA
  6
CONTINUOUS
 62
     7
 10
-29.619851010573608
 20
0.0174830530586405
 30
0.0
 40
1.651382664733142
 50
73.246998099168849
 51
84.593344398952198
  0
ARC
  5
D3
  8
DATA
  6
CONTINUOUS
 62
     7
 10
-29.640091801535391
 20
-0.239982095159526
 30
0.0
 40
1.909613944680699
 50
84.716619695179375
 51
99.240396623076194
  0
ARC
  5
D4
  8
DATA
  6
CONTINUOUS
 62
     7
 10
-29.656188884562511
 20
0.00107425797232
 30
0.0
 40
1.6692568751354071
 50
100.0236955350273
 51
123.2095943808894
  0
ARC
  5
D5
  8
DATA
  6
CONTINUOUS
 62
     7
 10
-29.02206300131245
 20
-0.9878838751039468
 30
0.0
 40
2.8430895152789848
 50
123.2406547817842
 51
146.20452568828
  0
ARC
  5
D6
  8
DATA
  6
CONTINUOUS
 62
     7
 10
-28.38575546912649
 20
-1.6090822017315101
 30
0.0
 40
3.7209495640000672
 50
143.70460903406931
 51
148.9344804054725
  0
ARC
  5
D7
  8
DATA
  6
CONTINUOUS
 62
     7
 10
-24.783553672169958
 20
-3.6989162264084419
 30
0.0
 40
7.8852066551827749
 50
149.43364344075539
 51
160.847744148571
  0
ARC
  5
D8
  8
DATA
  6
CONTINUOUS
 62
     7
 10
-14.00434675425336
 20
-7.3841639061800057
 30
0.0
 40
19.276918874237062
 50
161.01171812013109
 51
170.75046581712371
  0
ARC
  5
D9
  8
DATA
  6
CONTINUOUS
 62
     7
 10
-11.385016716217789
 20
-8.6280876882255608
 30
0.0
 40
22.076877786109481
 50
168.65629772543329
 51
176.18395263828481
  0
ARC
  5
DA
  8
DATA
  6
CONTINUOUS
 62
     7
 10
31.229477622404449
 20
-13.358265363100511
 30
0.0
 40
64.939021265552682
 50
174.5218588970337
 51
178.2501190948297
  0
ARC
  5
DB
  8
DATA
  6
CONTINUOUS
 62
     7
 10
54.384683296261997
 20
-14.961786843543621
 30
0.0
 40
88.136945836508346
 50
177.66783776984491
 51
179.4819955423722
  0
ARC
  5
DC
  8
DATA
  6
CONTINUOUS
 62
     7
 10
-78.099919126902449
 20
-15.71170752547695
 30
0.0
 40
44.378221715662328
 50
359.75290875981881
 51
1.9973750191618369
  0
ARC
  5
DD
  8
DATA
  6
CONTINUOUS
 62
     7
 10
-11.2867319771428
 20
-16.350034234997349
 30
0.0
 40
22.43982953667793
 50
178.8587398158503
 51
183.76579086784849
  0
ARC
  5
DE
  8
DATA
  6
CONTINUOUS
 62
     7
 10
37.462893620950851
 20
-15.515104425060271
 30
0.0
 40
71.178025023771639
 50
181.86915190945811
 51
183.61257462131431
  0
ARC
  5
DF
  8
DATA
  6
CONTINUOUS
 62
     7
 10
-127.4220260435266
 20
-14.60578932440214
 30
0.0
 40
101.86714424066631
 50
358.85898285515481
 51
0.0130562001689327
  0
ARC
  5
E0
  8
DATA
  6
CONTINUOUS
 62
     7
 10
-111.6412090028936
 20
-14.91375923954206
 30
0.0
 40
86.083322407903964
 50
357.81969485016441
 51
358.8510467800038
  0
ARC
  5
E1
  8
DATA
  6
CONTINUOUS
 62
     7
 10
146.79423643881611
 20
-25.76845988146431
 30
0.0
 40
172.58097297618281
 50
177.4827719957006
 51
178.08455143201471
  0
ARC
  5
E2
  8
DATA
  6
CONTINUOUS
 62
     7
 10
-30.390567715191871
 20
1.15154197757387
 30
0.0
 40
0.3048738155613291
 50
126.157747364008
 51
128.53982108663621
  0
ARC
  5
E3
  8
DATA
  6
CONTINUOUS
 62
     7
 10
2.780371481961307
 20
39.295362735726123
 30
0.0
 40
30.306372976635711
 50
192.58078909075951
 51
197.54138530315211
  0
ARC
  5
E4
  8
DATA
  6
CONTINUOUS
 62
     7
 10
-78.276442891045022
 20
20.242907704960039
 30
0.0
 40
52.962518875985992
 50
13.59724324435631
 51
16.035315660085729
  0
ARC
  5
E5
  8
DATA
  6
CONTINUOUS
 62
     7
 10
-35.760283516461612
 20
32.499922355731123
 30
0.0
 40
8.714683152346943
 50
15.88961960631814
 51
22.571022119327811
  0
ARC
  5
E6
  8
DATA
  6
CONTINUOUS
 62
     7
 10
-32.153119744242801
 20
33.983880102659811
 30
0.0
 40
4.8142486113353478
 50
22.731815774957049
 51
31.864807377031699
  0
ARC
  5
E7
  8
DATA
  6
CONTINUOUS
 62
     7
 10
-29.959613117113509
 20
35.206332475608832
 30
0.0
 40
2.309066884382351
 50
34.837914691188352
 51
57.03261840064485
  0
ARC
  5
E8
  8
DATA
  6
CONTINUOUS
 62
     7
 10
-29.628263543641161
 20
35.64563389002889
 30
0.0
 40
1.7606248977346219
 50
58.293708487912539
 51
91.270857596897315
  0
LINE
  5
E9
  8
DATA
  6
CONTINUOUS
 62
     7
 10
-32.51465149648692
 20
32.589586342425072
 30
0.0
 11
-32.514655136608312
 21
32.589594578397488
 31
0.0
  0
POLYLINE
  5
EA
  8
DATA
  6
CONTINUOUS
 62
     7
 66
     1
 10
0.0
 20
0.0
 30
0.0
  0
VERTEX
  5
24D
  8
DATA
  6
CONTINUOUS
 62
     7
 10
-29.69203072015808
 20
37.406540962853732
 30
0.0
  0
VERTEX
  5
24E
  8
DATA
  6
CONTINUOUS
 62
     7
 10
-29.698649715771982
 20
37.406529655511612
 30
0.0
  0
SEQEND
  5
24F
  8
DATA
  6
CONTINUOUS
 62
     7
  0
LINE
  5
EF
  8
DATA
  6
CONTINUOUS
 62
     7
 10
-32.514655136608312
 20
32.589594578397488
 30
0.0
 11
-32.514656576229051
 21
32.589589228544817
 31
0.0
  0
ARC
  5
F0
  8
DATA
  6
CONTINUOUS
 62
     7
 10
-45.623435095352313
 20
36.5982543889046
 30
0.0
 40
9.0047044838425396
 50
358.06388771012593
 51
5.1499554632825939
  0
ARC
  5
F1
  8
DATA
  6
CONTINUOUS
 62
     7
 10
-69.885114223907692
 20
37.415317367590433
 30
0.0
 40
33.280137816123037
 50
355.76675516985563
 51
358.06920202458281
  0
ARC
  5
F2
  8
DATA
  6
CONTINUOUS
 62
     7
 10
-236.84285873320189
 20
49.143255394179789
 30
0.0
 40
200.64909400142881
 50
355.63962011625432
 51
355.9461833347853
  0
ARC
  5
F3
  8
DATA
  6
CONTINUOUS
 62
     7
 10
573.2440860310478
 20
-12.40765440466909
 30
0.0
 40
611.7728334052515
 50
175.6600171439384
 51
175.77655794553601
  0
ARC
  5
F4
  8
DATA
  6
CONTINUOUS
 62
     7
 10
37.116819830385772
 20
27.14431391042584
 30
0.0
 40
74.188615728216192
 50
175.74629034278729
 51
176.58080308833459
  0
ARC
  5
F5
  8
DATA
  6
CONTINUOUS
 62
     7
 10
-2.1354665904881811
 20
29.29484084624913
 30
0.0
 40
34.878326181307493
 50
176.31018184259031
 51
177.6644851538629
  0
ARC
  5
F6
  8
DATA
  6
CONTINUOUS
 62
     7
 10
6.4169235553233888
 20
28.684937002520272
 30
0.0
 40
43.449249552495473
 50
177.3204682797236
 51
178.2813369880933
  0
ARC
  5
F7
  8
DATA
  6
CONTINUOUS
 62
     7
 10
-0.8033790246068868
 20
28.830073637613609
 30
0.0
 40
36.227912671490607
 50
178.16829064576231
 51
179.4888430701838
  0
ARC
  5
F8
  8
DATA
  6
CONTINUOUS
 62
     7
 10
6.182022442695672
 20
29.023990765002651
 30
0.0
 40
43.212065834191812
 50
179.8285830380388
 51
180.66903011964689
  0
ARC
  5
F9
  8
DATA
  6
CONTINUOUS
 62
     7
 10
-3148.2417655260801
 20
-65.593113047141685
 30
0.0
 40
3112.6377688775242
 50
1.7192454738821801
 51
1.7326375675824559
  0
ARC
  5
FA
  8
DATA
  6
CONTINUOUS
 62
     7
 10
-190.2648551460745
 20
16.421083238031979
 30
0.0
 40
153.6809331613124
 50
4.0488661525739591
 51
4.2432981940888208
  0
ARC
  5
FB
  8
DATA
  6
CONTINUOUS
 62
     7
 10
35.912966569589933
 20
34.893698603306021
 30
0.0
 40
73.277857842502371
 50
185.96760689995301
 51
186.2873166681531
  0
ARC
  5
FC
  8
DATA
  6
CONTINUOUS
 62
     7
 10
-29.115513820607688
 20
28.204334279958509
 30
0.0
 40
7.9220268794428241
 50
189.70609062599479
 51
192.96275167832761
  0
ARC
  5
FD
  8
DATA
  6
CONTINUOUS
 62
     7
 10
-31.533860231020451
 20
27.833456966192731
 30
0.0
 40
5.4851039499388392
 50
194.85430755364371
 51
197.52228867562829
  0
ARC
  5
FE
  8
DATA
  6
CONTINUOUS
 62
     7
 10
-35.243806870847251
 20
26.676716170111121
 30
0.0
 40
1.5990919129684309
 50
198.02072492796461
 51
209.1279570495264
  0
ARC
  5
FF
  8
DATA
  6
CONTINUOUS
 62
     7
 10
-35.999795103907601
 20
26.214992137362351
 30
0.0
 40
0.7148347057256185
 50
206.293737903242
 51
272.41678912265837
  0
LINE
  5
100
  8
DATA
  6
CONTINUOUS
 62
     7
 10
-36.939732841946501
 20
31.568984515002651
 30
0.0
 11
-36.941492454867898
 21
31.53943451500265
 31
0.0
  0
ARC
  5
101
  8
DATA
  6
CONTINUOUS
 62
     7
 10
-35.95872658529845
 20
26.601565174492841
 30
0.0
 40
1.100826123086236
 50
269.43136289699709
 51
290.49594291174481
  0
ARC
  5
102
  8
DATA
  6
CONTINUOUS
 62
     7
 10
-35.768387819087678
 20
26.16870481120996
 30
0.0
 40
0.6292895602706315
 50
288.06170991872813
 51
300.4325586797242
  0
ARC
  5
103
  8
DATA
  6
CONTINUOUS
 62
     7
 10
-37.293121373110132
 20
27.874930477301518
 30
0.0
 40
2.907839301218532
 50
309.34185555588402
 51
325.28561668617101
  0
ARC
  5
104
  8
DATA
  6
CONTINUOUS
 62
     7
 10
-39.93103544226004
 20
29.73573753324786
 30
0.0
 40
6.1360491157569266
 50
325.11488735741221
 51
332.64428032680757
  0
ARC
  5
105
  8
DATA
  6
CONTINUOUS
 62
     7
 10
-44.925073498148208
 20
32.354893242871711
 30
0.0
 40
11.775187168762759
 50
332.49134974988232
 51
337.6467881745188
  0
ARC
  5
106
  8
DATA
  6
CONTINUOUS
 62
     7
 10
-53.62468948572289
 20
36.0070398279926
 30
0.0
 40
21.210153822822061
 50
337.41738961136798
 51
340.16905540468491
  0
ARC
  5
107
  8
DATA
  6
CONTINUOUS
 62
     7
 10
-66.189238177235794
 20
40.512546319548711
 30
0.0
 40
34.558079298424651
 50
340.20910117339417
 51
342.57031247050639
  0
ARC
  5
108
  8
DATA
  6
CONTINUOUS
 62
     7
 10
-62.114995772277382
 20
39.295362735726123
 30
0.0
 40
30.306372976635728
 50
342.4586146968478
 51
347.41921090924052
  0
ARC
  5
109
  8
DATA
  6
CONTINUOUS
 62
     7
 10
18.941818600728968
 20
20.242907704960039
 30
0.0
 40
52.962518875985992
 50
163.96468433991421
 51
166.40275675564371
  0
ARC
  5
10A
  8
DATA
  6
CONTINUOUS
 62
     7
 10
-23.574340773854448
 20
32.499922355731123
 30
0.0
 40
8.714683152346943
 50
157.42897788067219
 51
164.11038039368179
  0
ARC
  5
10B
  8
DATA
  6
CONTINUOUS
 62
     7
 10
-27.18150454607326
 20
33.983880102659811
 30
0.0
 40
4.8142486113353442
 50
148.1351926229683
 51
157.268184225043
  0
ARC
  5
10C
  8
DATA
  6
CONTINUOUS
 62
     7
 10
-29.375011173202552
 20
35.206332475608832
 30
0.0
 40
2.3090668843823532
 50
122.96738159935509
 51
145.16208530881161
  0
ARC
  5
10D
  8
DATA
  6
CONTINUOUS
 62
     7
 10
-29.706360746674889
 20
35.64563389002889
 30
0.0
 40
1.7606248977346231
 50
88.729142403102784
 51
121.7062915120875
  0
LINE
  5
10E
  8
DATA
  6
CONTINUOUS
 62
     7
 10
-31.999999995157768
 20
49.047809515002641
 30
0.0
 11
-31.999999995157768
 21
52.047809515002641
 31
0.0
  0
LINE
  5
10F
  8
DATA
  6
CONTINUOUS
 62
     7
 10
-27.299999995157769
 20
52.047809515002641
 30
0.0
 11
-27.299999995157769
 21
49.047809515002641
 31
0.0
  0
LINE
  5
110
  8
DATA
  6
CONTINUOUS
 62
     7
 10
-31.999999995157768
 20
52.047809515002641
 30
0.0
 11
-27.299999995157769
 21
52.047809515002641
 31
0.0
  0
LINE
  5
111
  8
DATA
  6
CONTINUOUS
 62
     7
 10
-31.999999995157768
 20
51.297809515002641
 30
0.0
 11
-28.915738837173151
 21
52.047809515002641
 31
0.0
  0
LINE
  5
112
  8
DATA
  6
CONTINUOUS
 62
     7
 10
-31.999999995157768
 20
49.797809515002641
 30
0.0
 11
-27.299999995157769
 21
50.940708841434308
 31
0.0
  0
LINE
  5
113
  8
DATA
  6
CONTINUOUS
 62
     7
 10
-28.915738837173141
 20
49.047809515002641
 30
0.0
 11
-27.299999995157769
 21
49.440708841434322
 31
0.0
  0
ARC
  5
114
  8
DATA
  6
CONTINUOUS
 62
     7
 10
-45.64494354765808
 20
29.047809515002651
 30
0.0
 40
4.0
 50
0.0
 51
168.76847094078789
  0
LINE
  5
115
  8
DATA
  6
CONTINUOUS
 62
     7
 10
-49.569418290486453
 20
28.663737964036901
 30
0.0
 11
-40.23939749274691
 21
-18.782582545496489
 31
0.0
  0
LINE
  5
116
  8
DATA
  6
CONTINUOUS
 62
     7
 10
-40.491583342131023
 20
-21.139193677915511
 30
0.0
 11
-42.841530509876769
 21
-26.584953791198359
 31
0.0
  0
LINE
  5
117
  8
DATA
  6
CONTINUOUS
 62
     7
 10
-41.644943547658087
 20
29.047809515002651
 30
0.0
 11
-40.845654135579771
 21
19.604117939965018
 31
0.0
  0
LINE
  5
118
  8
DATA
  6
CONTINUOUS
 62
     7
 10
-48.880022552274397
 20
28.611019802074331
 30
0.0
 11
-39.245502684291331
 21
-18.68571409529704
 31
0.0
  0
LINE
  5
119
  8
DATA
  6
CONTINUOUS
 62
     7
 10
-41.969343362104141
 20
-26.952190484997359
 30
0.0
 11
-39.478467378571153
 21
-21.036360024106489
 31
0.0
  0
ARC
  5
11A
  8
DATA
  6
CONTINUOUS
 62
     7
 10
-44.164232986639561
 20
-19.554376783542128
 30
0.0
 40
3.999999999999996
 50
336.65890041095997
 51
11.12490900189135
  0
ARC
  5
11B
  8
DATA
  6
CONTINUOUS
 62
     7
 10
-43.165008879123391
 20
-19.484132023873961
 30
0.0
 40
3.999999999999988
 50
337.16634582208252
 51
11.51383118448711
  0
LINE
  5
11C
  8
DATA
  6
CONTINUOUS
 62
     7
 10
-41.969343362104141
 20
-26.952190484997359
 30
0.0
 11
-42.841530509876783
 21
-26.584953791198359
 31
0.0
  0
ARC
  5
11D
  8
DATA
  6
CONTINUOUS
 62
     7
 10
-45.600390147601992
 20
28.987497817609121
 30
0.0
 40
3.4062449010666378
 50
28.25495493325549
 51
36.01683970475068
  0
LINE
  5
11E
  8
DATA
  6
CONTINUOUS
 62
     7
 10
-41.372529282427692
 20
19.073865167787961
 30
0.0
 11
-42.283206822472479
 21
29.487727527535551
 31
0.0
  0
LINE
  5
11F
  8
DATA
  6
CONTINUOUS
 62
     7
 10
-41.073669828848267
 20
18.800000000000001
 30
0.0
 11
-37.0
 21
18.800000000000001
 31
0.0
  0
LINE
  5
120
  8
DATA
  6
CONTINUOUS
 62
     7
 10
-40.546722920009039
 20
19.329418698005121
 30
0.0
 11
-37.0
 21
19.329418698005121
 31
0.0
  0
ARC
  5
121
  8
DATA
  6
CONTINUOUS
 62
     7
 10
-40.546722920009039
 20
19.629418698005122
 30
0.0
 40
0.2999999999999993
 50
184.83783532745409
 51
270.0
  0
ARC
  5
122
  8
DATA
  6
CONTINUOUS
 62
     7
 10
-41.07366982884826
 20
19.100000004470349
 30
0.0
 40
0.3000000044703597
 50
184.99772117205549
 51
269.99999999999858
  0
ARC
  5
123
  8
DATA
  6
CONTINUOUS
 62
     7
 10
-45.940392906193708
 20
29.209833248498182
 30
0.0
 40
2.9999999999557359
 50
146.8184268744406
 51
191.51383118448709
  0
ARC
  5
124
  8
DATA
  6
CONTINUOUS
 62
     7
 10
-46.625791670087061
 20
29.24258364256719
 30
0.0
 40
2.9999999999795102
 50
168.76847094063911
 51
191.1249090018913
  0
ARC
  5
125
  8
DATA
  6
CONTINUOUS
 62
     7
 10
-45.271801313358679
 20
29.22637916463886
 30
0.0
 40
2.999999999624035
 50
4.9977211720557131
 51
36.01683970845103
  0
ARC
  5
126
  8
DATA
  6
CONTINUOUS
 62
     7
 10
-45.600390147601992
 20
28.987497817609121
 30
0.0
 40
3.4062449010666409
 50
36.01683970475068
 51
146.8184268750351
  0
CIRCLE
  5
127
  8
DATA
  6
CONTINUOUS
 62
     7
 10
-29.649999995157771
 20
-50.0
 30
0.0
 40
9.5
  0
CIRCLE
  5
128
  8
DATA
  6
CONTINUOUS
 62
     7
 10
-29.649999995157771
 20
-50.0
 30
0.0
 40
8.0
  0
LINE
  5
129
  8
DATA
  6
CONTINUOUS
 62
     7
 10
-42.187390149047303
 20
-44.5
 30
0.0
 11
-42.187390149047303
 21
-55.5
 31
0.0
  0
LINE
  5
12A
  8
DATA
  6
CONTINUOUS
 62
     7
 10
-42.187390149047303
 20
-44.5
 30
0.0
 11
-39.149999995157771
 21
-43.850000000000001
 31
0.0
  0
LINE
  5
12B
  8
DATA
  6
CONTINUOUS
 62
     7
 10
-39.149999995157771
 20
-56.150000000000013
 30
0.0
 11
-42.187390149047303
 21
-55.5
 31
0.0
  0
LINE
  5
12C
  8
DATA
  6
CONTINUOUS
 62
     7
 10
-39.149999995157771
 20
-43.850000000000001
 30
0.0
 11
-39.149999995157771
 21
-56.150000000000013
 31
0.0
  0
CIRCLE
  5
12D
  8
DATA
  6
CONTINUOUS
 62
     7
 10
-29.649999995157771
 20
-54.0
 30
0.0
 40
1.25
  0
CIRCLE
  5
12E
  8
DATA
  6
CONTINUOUS
 62
     7
 10
-33.649999995157771
 20
-50.0
 30
0.0
 40
1.25
  0
CIRCLE
  5
12F
  8
DATA
  6
CONTINUOUS
 62
     7
 10
-25.649999995157771
 20
-50.0
 30
0.0
 40
1.25
  0
CIRCLE
  5
130
  8
DATA
  6
CONTINUOUS
 62
     7
 10
-29.649999995157771
 20
-50.0
 30
0.0
 40
7.0
  0
TEXT
  5
131
  8
DATA
 62
     7
 10
-32.582731363737423
 20
17.642632054850509
 30
0.0
 40
2.714735890298968
  1
DPA
 41
0.7
 11
-32.582731363737423
 21
19.0
 31
0.0
 73
     2
  0
LINE
  5
132
  8
DATA
  6
CONTINUOUS
 62
     7
 10
25.935283832080579
 20
49.047809515002641
 30
0.0
 11
25.924950754842069
 21
49.047809515002641
 31
0.0
  0
LINE
  5
133
  8
DATA
  6
CONTINUOUS
 62
     7
 10
25.935283832080579
 20
49.047809515002641
 30
0.0
 11
34.789862104841959
 21
49.047809515002641
 31
0.0
  0
LINE
  5
134
  8
DATA
  6
CONTINUOUS
 62
     7
 10
38.428005014592451
 20
37.003426337234309
 30
0.0
 11
37.320456683145878
 21
37.406540962902938
 31
0.0
  0
LINE
  5
135
  8
DATA
  6
CONTINUOUS
 62
     7
 10
22.286807845042372
 20
37.003426337234309
 30
0.0
 11
23.394356176489111
 21
37.406540962902938
 31
0.0
  0
LINE
  5
136
  8
DATA
  6
CONTINUOUS
 62
     7
 10
40.158058422341917
 20
23.004669949002519
 30
0.0
 11
39.384733518075478
 21
23.004669949002519
 31
0.0
  0
LINE
  5
137
  8
DATA
  6
CONTINUOUS
 62
     7
 10
21.31756948481727
 20
23.004669949002519
 30
0.0
 11
20.556754437342288
 21
23.004669949002519
 31
0.0
  0
LINE
  5
138
  8
DATA
  6
CONTINUOUS
 62
     7
 10
22.15883089542141
 20
36.843704472995753
 30
0.0
 11
21.663311942106919
 21
33.032020216716397
 31
0.0
  0
LINE
  5
139
  8
DATA
  6
CONTINUOUS
 62
     7
 10
21.01836208246608
 20
28.070867450230111
 30
0.0
 11
20.38866767062903
 21
23.22706428223497
 31
0.0
  0
LINE
  5
13A
  8
DATA
  6
CONTINUOUS
 62
     7
 10
23.394356176489111
 20
37.406540962804513
 30
0.0
 11
25.146811747853292
 21
48.384040046048177
 31
0.0
  0
LINE
  5
13B
  8
DATA
  6
CONTINUOUS
 62
     7
 10
20.791101061596279
 20
8.0369450796573538
 30
0.0
 11
21.196998034842231
 21
5.8067419300025804
 31
0.0
  0
LINE
  5
13C
  8
DATA
  6
CONTINUOUS
 62
     7
 10
20.618727785297121
 20
10.499420454755789
 30
0.0
 11
21.025389644740422
 21
8.2650146338593764
 31
0.0
  0
LINE
  5
13D
  8
DATA
  6
CONTINUOUS
 62
     7
 10
20.40408096409223
 20
13.19416805500259
 30
0.0
 11
20.852251482342201
 21
10.73169268000259
 31
0.0
  0
LINE
  5
13E
  8
DATA
  6
CONTINUOUS
 62
     7
 10
20.343669757621409
 20
14.14802920969994
 30
0.0
 11
20.40408096409223
 21
13.19416805500259
 31
0.0
  0
LINE
  5
13F
  8
DATA
  6
CONTINUOUS
 62
     7
 10
20.359756407342289
 20
15.3217467790026
 30
0.0
 11
20.359756407342289
 21
18.800000000000001
 31
0.0
  0
LINE
  5
140
  8
DATA
  6
CONTINUOUS
 62
     7
 10
20.359756407342289
 20
19.329418698005121
 30
0.0
 11
20.359756407342289
 21
22.80767191900253
 31
0.0
  0
LINE
  5
141
  8
DATA
  6
CONTINUOUS
 62
     7
 10
21.000000004842232
 20
5.6097439000025844
 30
0.0
 11
21.000000004842232
 21
-19.507504924997551
 31
0.0
  0
LINE
  5
142
  8
DATA
  6
CONTINUOUS
 62
     7
 10
22.505405625395021
 20
35.975998263675692
 30
0.0
 11
22.50540561405689
 21
35.975998081255419
 31
0.0
  0
LINE
  5
143
  8
DATA
  6
CONTINUOUS
 62
     7
 10
20.556754437342288
 20
15.124748749002601
 30
0.0
 11
21.782954174698119
 21
15.124748749002601
 31
0.0
  0
LINE
  5
144
  8
DATA
  6
CONTINUOUS
 62
     7
 10
38.921641060313981
 20
15.124748749002601
 30
0.0
 11
40.158058422341917
 21
15.124748749002601
 31
0.0
  0
LINE
  5
145
  8
DATA
  6
CONTINUOUS
 62
     7
 10
39.853006716149338
 20
14.67165328000263
 30
0.0
 11
38.895013243992707
 21
14.67165328000263
 31
0.0
  0
LINE
  5
146
  8
DATA
  6
CONTINUOUS
 62
     7
 10
21.809713794366289
 20
14.67165328000263
 30
0.0
 11
20.835180067344591
 21
14.67165328000263
 31
0.0
  0
LINE
  5
147
  8
DATA
  6
CONTINUOUS
 62
     7
 10
39.853006716149338
 20
14.67165328000263
 30
0.0
 11
39.879433606744968
 21
14.67165328000263
 31
0.0
  0
LINE
  5
148
  8
DATA
  6
CONTINUOUS
 62
     7
 10
33.18002720617087
 20
32.589586342425072
 30
0.0
 11
33.180030846292247
 21
32.589594578397488
 31
0.0
  0
LINE
  5
149
  8
DATA
  6
CONTINUOUS
 62
     7
 10
20.812542042962551
 20
10.73169268000259
 30
0.0
 11
20.852251482342201
 21
10.73169268000259
 31
0.0
  0
LINE
  5
14A
  8
DATA
  6
CONTINUOUS
 62
     7
 10
39.862561377342011
 20
10.73169268000259
 30
0.0
 11
39.902270816672257
 21
10.73169268000259
 31
0.0
  0
LINE
  5
14B
  8
DATA
  6
CONTINUOUS
 62
     7
 10
39.690188101091898
 20
8.2692173050025843
 30
0.0
 11
39.729897539880632
 21
8.2692173050025843
 31
0.0
  0
LINE
  5
14C
  8
DATA
  6
CONTINUOUS
 62
     7
 10
37.320456683145878
 20
37.406540962853732
 30
0.0
 11
35.568001111781527
 21
48.384040046048177
 31
0.0
  0
LINE
  5
14D
  8
DATA
  6
CONTINUOUS
 62
     7
 10
39.714812854841973
 20
5.6097439000025844
 30
0.0
 11
39.714812854841973
 21
-19.507504924997551
 31
0.0
  0
LINE
  5
14E
  8
DATA
  6
CONTINUOUS
 62
     7
 10
40.355056452341913
 20
15.3217467790026
 30
0.0
 11
40.355056452341913
 21
22.80767191900253
 31
0.0
  0
LINE
  5
14F
  8
DATA
  6
CONTINUOUS
 62
     7
 10
40.371143102062788
 20
14.14802920969994
 30
0.0
 11
40.310731895591957
 21
13.19416805500259
 31
0.0
  0
LINE
  5
150
  8
DATA
  6
CONTINUOUS
 62
     7
 10
40.310731895591957
 20
13.19416805500259
 30
0.0
 11
39.862561377342011
 21
10.73169268000259
 31
0.0
  0
LINE
  5
151
  8
DATA
  6
CONTINUOUS
 62
     7
 10
40.096085074337843
 20
10.499420454755789
 30
0.0
 11
39.690188101091898
 21
8.2692173050025843
 31
0.0
  0
LINE
  5
152
  8
DATA
  6
CONTINUOUS
 62
     7
 10
39.923711798087929
 20
8.0369450796573538
 30
0.0
 11
39.517814824841977
 21
5.8067419300025804
 31
0.0
  0
LINE
  5
153
  8
DATA
  6
CONTINUOUS
 62
     7
 10
40.326145189005963
 20
23.22706428223497
 30
0.0
 11
39.686820647782582
 21
28.144945368586331
 31
0.0
  0
LINE
  5
154
  8
DATA
  6
CONTINUOUS
 62
     7
 10
39.051500917527939
 20
33.032020216716397
 30
0.0
 11
38.555981964213402
 21
36.843704472995753
 31
0.0
  0
LINE
  5
155
  8
DATA
  6
CONTINUOUS
 62
     7
 10
21.4924950798423
 20
-19.999999999997438
 30
0.0
 11
23.857406429842101
 21
-19.999999999997438
 31
0.0
  0
LINE
  5
156
  8
DATA
  6
CONTINUOUS
 62
     7
 10
36.857406429842086
 20
-19.999999999997438
 30
0.0
 11
39.222317779841902
 21
-19.999999999997438
 31
0.0
  0
ARC
  5
157
  8
DATA
  6
CONTINUOUS
 62
     7
 10
20.556754437342288
 20
15.3217467790026
 30
0.0
 40
0.1969980300000032
 50
180.0
 51
270.0
  0
ARC
  5
158
  8
DATA
  6
CONTINUOUS
 62
     7
 10
40.158058422341917
 20
15.3217467790026
 30
0.0
 40
0.1969980299999961
 50
270.0
 51
0.0
  0
ARC
  5
159
  8
DATA
  6
CONTINUOUS
 62
     7
 10
20.556754437342288
 20
22.80767191900253
 30
0.0
 40
0.1969980299999961
 50
90.0
 51
180.0
  0
ARC
  5
15A
  8
DATA
  6
CONTINUOUS
 62
     7
 10
40.158058422341917
 20
22.80767191900253
 30
0.0
 40
0.1969980299999961
 50
0.0
 51
90.0
  0
ARC
  5
15B
  8
DATA
  6
CONTINUOUS
 62
     7
 10
25.924950754842069
 20
48.259817395002671
 30
0.0
 40
0.7879921199999699
 50
90.0
 51
170.92979705920311
  0
ARC
  5
15C
  8
DATA
  6
CONTINUOUS
 62
     7
 10
34.789862104841959
 20
48.259817395002671
 30
0.0
 40
0.7879921199999405
 50
9.0702029407972073
 51
90.0
  0
ARC
  5
15D
  8
DATA
  6
CONTINUOUS
 62
     7
 10
40.130789247313963
 20
23.201667979002519
 30
0.0
 40
0.1969980299999961
 50
270.00000000268648
 51
7.4069205741025126
  0
ARC
  5
15E
  8
DATA
  6
CONTINUOUS
 62
     7
 10
20.584023612370249
 20
23.201667979002519
 30
0.0
 40
0.1969980300000301
 50
172.5930794258968
 51
269.99999999731352
  0
ARC
  5
15F
  8
DATA
  6
CONTINUOUS
 62
     7
 10
38.360628166204762
 20
36.818308478902381
 30
0.0
 40
0.1969980128611014
 50
7.4070047707188982
 51
70.000148101015583
  0
ARC
  5
160
  8
DATA
  6
CONTINUOUS
 62
     7
 10
22.354184693430231
 20
36.818308478902381
 30
0.0
 40
0.1969980128611786
 50
109.9998518989832
 51
172.592995229384
  0
ARC
  5
161
  8
DATA
  6
CONTINUOUS
 62
     7
 10
39.879632792339613
 20
14.17915820500256
 30
0.0
 40
0.4924950749998779
 50
356.37610635580728
 51
90.0
  0
ARC
  5
162
  8
DATA
  6
CONTINUOUS
 62
     7
 10
20.835180067344591
 20
14.17915820500256
 30
0.0
 40
0.4924950750000683
 50
90.0
 51
183.6238936441911
  0
ARC
  5
163
  8
DATA
  6
CONTINUOUS
 62
     7
 10
20.812542013314431
 20
10.534694650002599
 30
0.0
 40
0.1969980299999925
 50
90.0
 51
190.314931839774
  0
ARC
  5
164
  8
DATA
  6
CONTINUOUS
 62
     7
 10
39.902270846320562
 20
10.534694650002599
 30
0.0
 40
0.196998029999984
 50
349.68506816022602
 51
90.0
  0
ARC
  5
165
  8
DATA
  6
CONTINUOUS
 62
     7
 10
20.98491528956437
 20
8.0722192750025918
 30
0.0
 40
0.1969980299999666
 50
78.143827268458722
 51
190.31493187110681
  0
ARC
  5
166
  8
DATA
  6
CONTINUOUS
 62
     7
 10
39.729897570070449
 20
8.0722192750025918
 30
0.0
 40
0.1969980300001225
 50
349.68506812890092
 51
90.0
  0
ARC
  5
167
  8
DATA
  6
CONTINUOUS
 62
     7
 10
21.196998034842231
 20
5.6097439000025844
 30
0.0
 40
0.1969980299999961
 50
90.0
 51
180.0
  0
ARC
  5
168
  8
DATA
  6
CONTINUOUS
 62
     7
 10
39.517814824841977
 20
5.6097439000025844
 30
0.0
 40
0.1969980299999961
 50
0.0
 51
90.0
  0
ARC
  5
169
  8
DATA
  6
CONTINUOUS
 62
     7
 10
39.222317779841902
 20
-19.507504924997551
 30
0.0
 40
0.4924950749998942
 50
270.0
 51
0.0
  0
ARC
  5
16A
  8
DATA
  6
CONTINUOUS
 62
     7
 10
21.4924950798423
 20
-19.507504924997551
 30
0.0
 40
0.4924950750000647
 50
180.0
 51
270.0
  0
POLYLINE
  5
16B
  8
DATA
  6
CONTINUOUS
 62
     7
 66
     1
 10
0.0
 20
0.0
 30
0.0
  0
VERTEX
  5
250
  8
DATA
  6
CONTINUOUS
 62
     7
 10
30.357406429842008
 20
37.406540962853732
 30
0.0
  0
VERTEX
  5
251
  8
DATA
  6
CONTINUOUS
 62
     7
 10
30.364025425455932
 20
37.406529655511612
 30
0.0
  0
SEQEND
  5
252
  8
DATA
  6
CONTINUOUS
 62
     7
  0
LINE
  5
170
  8
DATA
  6
CONTINUOUS
 62
     7
 10
22.28680788621508
 20
37.003426224206741
 30
0.0
 11
22.286807891607651
 21
37.00342621727151
 31
0.0
  0
POLYLINE
  5
171
  8
DATA
  6
CONTINUOUS
 62
     7
 66
     1
 10
0.0
 20
0.0
 30
0.0
 70
   128
  0
VERTEX
  5
253
  8
DATA
  6
CONTINUOUS
 62
     7
 10
22.50540558131657
 20
35.975998274067472
 30
0.0
 42
1185425.702798974
  0
VERTEX
  5
254
  8
DATA
  6
CONTINUOUS
 62
     7
 10
22.505405598119001
 20
35.97599817511626
 30
0.0
  0
VERTEX
  5
255
  8
DATA
  6
CONTINUOUS
 62
     7
 10
22.50540561405689
 20
35.975998081255419
 30
0.0
  0
SEQEND
  5
256
  8
DATA
  6
CONTINUOUS
 62
     7
  0
LINE
  5
176
  8
DATA
  6
CONTINUOUS
 62
     7
 10
31.935011109627471
 20
35.976021721257531
 30
0.0
 11
31.935011105062319
 21
35.976021717817972
 31
0.0
  0
LINE
  5
177
  8
DATA
  6
CONTINUOUS
 62
     7
 10
33.180030846292247
 20
32.589594578397488
 30
0.0
 11
33.180032285912993
 21
32.589589228544817
 31
0.0
  0
ARC
  5
178
  8
DATA
  6
CONTINUOUS
 62
     7
 10
46.288810805036242
 20
36.5982543889046
 30
0.0
 40
9.0047044838425361
 50
174.85004453671741
 51
181.9361122898741
  0
ARC
  5
179
  8
DATA
  6
CONTINUOUS
 62
     7
 10
70.550489933591635
 20
37.415317367590433
 30
0.0
 40
33.280137816123037
 50
181.93079797541731
 51
184.2332448301444
  0
ARC
  5
17A
  8
DATA
  6
CONTINUOUS
 62
     7
 10
237.50823444288571
 20
49.143255394179789
 30
0.0
 40
200.64909400142881
 50
184.0538166652147
 51
184.36037988374551
  0
ARC
  5
17B
  8
DATA
  6
CONTINUOUS
 62
     7
 10
-572.57871032136393
 20
-12.40765440466909
 30
0.0
 40
611.77283340525184
 50
4.2595899112699378
 51
4.339982856055947
  0
ARC
  5
17C
  8
DATA
  6
CONTINUOUS
 62
     7
 10
-18.27644289104504
 20
20.242907704960039
 30
0.0
 40
52.962518875985992
 50
13.973599332308909
 51
16.035315660085711
  0
ARC
  5
17D
  8
DATA
  6
CONTINUOUS
 62
     7
 10
24.239716483538391
 20
32.499922355731123
 30
0.0
 40
8.714683152346943
 50
15.88961960631814
 51
22.571022119327822
  0
ARC
  5
17E
  8
DATA
  6
CONTINUOUS
 62
     7
 10
27.846880255757199
 20
33.983880102659811
 30
0.0
 40
4.8142486113353478
 50
22.731815774957049
 51
31.864807377031699
  0
ARC
  5
17F
  8
DATA
  6
CONTINUOUS
 62
     7
 10
30.040386882886491
 20
35.206332475608832
 30
0.0
 40
2.3090668843823479
 50
34.837914691188402
 51
57.03261840064485
  0
ARC
  5
180
  8
DATA
  6
CONTINUOUS
 62
     7
 10
30.371736456358839
 20
35.64563389002889
 30
0.0
 40
1.7606248977346219
 50
58.293708487912539
 51
91.270857596897315
  0
LINE
  5
181
  8
DATA
  6
CONTINUOUS
 62
     7
 10
27.48534850351308
 20
32.589586342425072
 30
0.0
 11
27.485344863391688
 21
32.589594578397488
 31
0.0
  0
POLYLINE
  5
182
  8
DATA
  6
CONTINUOUS
 62
     7
 66
     1
 10
0.0
 20
0.0
 30
0.0
  0
VERTEX
  5
257
  8
DATA
  6
CONTINUOUS
 62
     7
 10
30.307969279841931
 20
37.406540962853732
 30
0.0
  0
VERTEX
  5
258
  8
DATA
  6
CONTINUOUS
 62
     7
 10
30.301350284228029
 20
37.406529655511612
 30
0.0
  0
SEQEND
  5
259
  8
DATA
  6
CONTINUOUS
 62
     7
  0
LINE
  5
187
  8
DATA
  6
CONTINUOUS
 62
     7
 10
27.485344863391688
 20
32.589594578397488
 30
0.0
 11
27.485343423770971
 21
32.589589228544817
 31
0.0
  0
ARC
  5
188
  8
DATA
  6
CONTINUOUS
 62
     7
 10
14.37656490464769
 20
36.5982543889046
 30
0.0
 40
9.0047044838425396
 50
358.06388771012593
 51
5.1499554632825939
  0
ARC
  5
189
  8
DATA
  6
CONTINUOUS
 62
     7
 10
-9.8851142239076921
 20
37.415317367590433
 30
0.0
 40
33.280137816123037
 50
355.76675516985563
 51
358.06920202458281
  0
ARC
  5
18A
  8
DATA
  6
CONTINUOUS
 62
     7
 10
-176.84285873320181
 20
49.143255394179789
 30
0.0
 40
200.64909400142881
 50
355.63962011625432
 51
355.9461833347853
  0
ARC
  5
18B
  8
DATA
  6
CONTINUOUS
 62
     7
 10
633.2440860310478
 20
-12.40765440466909
 30
0.0
 40
611.7728334052515
 50
175.6600171439384
 51
175.74041008872439
  0
ARC
  5
18C
  8
DATA
  6
CONTINUOUS
 62
     7
 10
78.941818600728993
 20
20.242907704960039
 30
0.0
 40
52.962518875985992
 50
163.96468433991421
 51
166.02640066769089
  0
ARC
  5
18D
  8
DATA
  6
CONTINUOUS
 62
     7
 10
36.425659226145569
 20
32.499922355731123
 30
0.0
 40
8.714683152346943
 50
157.42897788067219
 51
164.11038039368179
  0
ARC
  5
18E
  8
DATA
  6
CONTINUOUS
 62
     7
 10
32.818495453926737
 20
33.983880102659811
 30
0.0
 40
4.8142486113353442
 50
148.1351926229683
 51
157.268184225043
  0
ARC
  5
18F
  8
DATA
  6
CONTINUOUS
 62
     7
 10
30.624988826797448
 20
35.206332475608832
 30
0.0
 40
2.3090668843823532
 50
122.96738159935509
 51
145.16208530881161
  0
ARC
  5
190
  8
DATA
  6
CONTINUOUS
 62
     7
 10
30.293639253325111
 20
35.64563389002889
 30
0.0
 40
1.7606248977346231
 50
88.729142403102855
 51
121.7062915120877
  0
LINE
  5
191
  8
DATA
  6
CONTINUOUS
 62
     7
 10
28.000000004842232
 20
49.047809515002641
 30
0.0
 11
28.000000004842232
 21
52.047809515002641
 31
0.0
  0
LINE
  5
192
  8
DATA
  6
CONTINUOUS
 62
     7
 10
32.700000004842231
 20
52.047809515002641
 30
0.0
 11
32.700000004842231
 21
49.047809515002641
 31
0.0
  0
LINE
  5
193
  8
DATA
  6
CONTINUOUS
 62
     7
 10
28.000000004842232
 20
52.047809515002641
 30
0.0
 11
32.700000004842231
 21
52.047809515002641
 31
0.0
  0
LINE
  5
194
  8
DATA
  6
CONTINUOUS
 62
     7
 10
28.000000004842232
 20
51.297809515002641
 30
0.0
 11
31.084261162826849
 21
52.047809515002641
 31
0.0
  0
LINE
  5
195
  8
DATA
  6
CONTINUOUS
 62
     7
 10
28.000000004842232
 20
49.797809515002641
 30
0.0
 11
32.700000004842231
 21
50.940708841434308
 31
0.0
  0
LINE
  5
196
  8
DATA
  6
CONTINUOUS
 62
     7
 10
31.084261162826859
 20
49.047809515002641
 30
0.0
 11
32.700000004842231
 21
49.440708841434322
 31
0.0
  0
LINE
  5
197
  8
DATA
  6
CONTINUOUS
 62
     7
 10
20.850000004842229
 20
30.921584144592892
 30
0.0
 11
23.857406429842101
 21
-19.999999999997438
 31
0.0
  0
LINE
  5
198
  8
DATA
  6
CONTINUOUS
 62
     7
 10
39.850000004842229
 20
30.921584144592892
 30
0.0
 11
36.857406429842086
 21
-19.999999999997438
 31
0.0
  0
LINE
  5
199
  8
DATA
  6
CONTINUOUS
 62
     7
 10
23.857406429842101
 20
-19.999999999997438
 30
0.0
 11
24.350000004842229
 21
-26.952190484997359
 31
0.0
  0
LINE
  5
19A
  8
DATA
  6
CONTINUOUS
 62
     7
 10
36.857406429842086
 20
-19.999999999997438
 30
0.0
 11
36.350000004842229
 21
-26.952190484997359
 31
0.0
  0
LINE
  5
19B
  8
DATA
  6
CONTINUOUS
 62
     7
 10
24.350000004842229
 20
-26.952190484997359
 30
0.0
 11
36.350000004842229
 21
-26.952190484997359
 31
0.0
  0
LINE
  5
19C
  8
DATA
  6
CONTINUOUS
 62
     7
 10
20.850000004842229
 20
30.921584144592892
 30
0.0
 11
20.850000004842229
 21
33.03202021671639
 31
0.0
  0
LINE
  5
19D
  8
DATA
  6
CONTINUOUS
 62
     7
 10
39.850000004842229
 20
30.921584144592892
 30
0.0
 11
39.974027517653923
 21
33.03202021671639
 31
0.0
  0
LINE
  5
19E
  8
DATA
  6
CONTINUOUS
 62
     7
 10
20.850000004842229
 20
33.03202021671639
 30
0.0
 11
39.974027517653923
 21
33.03202021671639
 31
0.0
  0
LINE
  5
19F
  8
DATA
  6
CONTINUOUS
 62
     7
 10
-40.916871071540612
 20
-59.499999999999993
 30
0.0
 11
-40.916871071540612
 21
-55.77189045810325
 31
0.0
  0
LINE
  5
1A0
  8
DATA
  6
CONTINUOUS
 62
     7
 10
-40.916871071540612
 20
-44.228109541896742
 30
0.0
 11
-40.916871071540612
 21
-40.499999999999993
 31
0.0
  0
LINE
  5
1A1
  8
DATA
  6
CONTINUOUS
 62
     7
 10
-29.649999995157771
 20
-59.499999999999993
 30
0.0
 11
-40.916871071540612
 21
-59.499999999999993
 31
0.0
  0
LINE
  5
1A2
  8
DATA
  6
CONTINUOUS
 62
     7
 10
-40.916871071540612
 20
-40.499999999999993
 30
0.0
 11
-29.649999995157771
 21
-40.499999999999993
 31
0.0
  0
ENDSEC
  0
EOF
