  0
SECTION
  2
HEADER
  9
$ACADVER
  1
AC1009
  9
$INSBASE
 10
0.0
 20
0.0
 30
0.0
  9
$EXTMIN
 10
-90.005492744973708
 20
-137.5519002719906
 30
-0.0015258207003583
  9
$EXTMAX
 10
103.2595139946465
 20
130.0081493512784
 30
0.0000000349246037
  9
$LIMMIN
 10
0.0
 20
0.0
  9
$LIMMAX
 10
0.0
 20
0.0
  9
$ORTHOMODE
 70
     0
  9
$REGENMODE
 70
     1
  9
$FILLMODE
 70
     1
  9
$QTEXTMODE
 70
     0
  9
$MIRRTEXT
 70
     1
  9
$DRAGMODE
 70
     2
  9
$LTSCALE
 40
5.0800000000000001
  9
$OSMODE
 70
   231
  9
$ATTMODE
 70
     1
  9
$TEXTSIZE
 40
0.0
  9
$TRACEWID
 40
1.0
  9
$TEXTSTYLE
  7
STANDARD
  9
$CLAYER
  8
DATA
  9
$CELTYPE
  6
BYLAYER
  9
$CECOLOR
 62
   256
  9
$DIMSCALE
 40
1.0
  9
$DIMASZ
 40
0.18
  9
$DIMEXO
 40
0.0625
  9
$DIMDLI
 40
0.38
  9
$DIMRND
 40
0.0
  9
$DIMDLE
 40
0.0
  9
$DIMEXE
 40
0.18
  9
$DIMTP
 40
0.0
  9
$DIMTM
 40
0.0
  9
$DIMTXT
 40
0.18
  9
$DIMCEN
 40
0.09
  9
$DIMTSZ
 40
0.0
  9
$DIMTOL
 70
     0
  9
$DIMLIM
 70
     0
  9
$DIMTIH
 70
     1
  9
$DIMTOH
 70
     1
  9
$DIMSE1
 70
     0
  9
$DIMSE2
 70
     0
  9
$DIMTAD
 70
     0
  9
$DIMZIN
 70
     0
  9
$DIMBLK
  1

  9
$DIMASO
 70
     1
  9
$DIMSHO
 70
     1
  9
$DIMPOST
  1

  9
$DIMAPOST
  1

  9
$DIMALT
 70
     0
  9
$DIMALTD
 70
     2
  9
$DIMALTF
 40
25.399999999999999
  9
$DIMLFAC
 40
1.0
  9
$DIMTOFL
 70
     0
  9
$DIMTVP
 40
0.0
  9
$DIMTIX
 70
     0
  9
$DIMSOXD
 70
     0
  9
$DIMSAH
 70
     0
  9
$DIMBLK1
  1

  9
$DIMBLK2
  1

  9
$DIMSTYLE
  2
STANDARD
  9
$DIMCLRD
 70
     0
  9
$DIMCLRE
 70
     0
  9
$DIMCLRT
 70
     0
  9
$DIMTFAC
 40
1.0
  9
$DIMGAP
 40
0.09
  9
$LUNITS
 70
     2
  9
$LUPREC
 70
     4
  9
$SKETCHINC
 40
0.1
  9
$FILLETRAD
 40
0.0
  9
$AUNITS
 70
     0
  9
$AUPREC
 70
     0
  9
$MENU
  1
acad
  9
$ELEVATION
 40
0.0
  9
$PELEVATION
 40
0.0
  9
$THICKNESS
 40
0.0
  9
$LIMCHECK
 70
     0
  9
$BLIPMODE
 70
     0
  9
$CHAMFERA
 40
0.0
  9
$CHAMFERB
 40
0.0
  9
$SKPOLY
 70
     0
  9
$TDCREATE
 40
2456511.7515046299
  9
$TDUPDATE
 40
2456511.7529492588
  9
$TDINDWG
 40
0.0003063773
  9
$TDUSRTIMER
 40
0.0003062847
  9
$USRTIMER
 70
     1
  9
$ANGBASE
 50
0.0
  9
$ANGDIR
 70
     0
  9
$PDMODE
 70
     1
  9
$PDSIZE
 40
-2.0
  9
$PLINEWID
 40
0.0
  9
$COORDS
 70
     2
  9
$SPLFRAME
 70
     0
  9
$SPLINETYPE
 70
     6
  9
$SPLINESEGS
 70
     8
  9
$ATTDIA
 70
     0
  9
$ATTREQ
 70
     1
  9
$HANDLING
 70
     1
  9
$HANDSEED
  5
1AC
  9
$SURFTAB1
 70
     6
  9
$SURFTAB2
 70
     6
  9
$SURFTYPE
 70
     6
  9
$SURFU
 70
     6
  9
$SURFV
 70
     6
  9
$UCSNAME
  2

  9
$UCSORG
 10
0.0
 20
0.0
 30
0.0
  9
$UCSXDIR
 10
1.0
 20
0.0
 30
0.0
  9
$UCSYDIR
 10
0.0
 20
1.0
 30
0.0
  9
$PUCSNAME
  2

  9
$PUCSORG
 10
0.0
 20
0.0
 30
0.0
  9
$PUCSXDIR
 10
1.0
 20
0.0
 30
0.0
  9
$PUCSYDIR
 10
0.0
 20
1.0
 30
0.0
  9
$USERI1
 70
     0
  9
$USERI2
 70
     0
  9
$USERI3
 70
     0
  9
$USERI4
 70
     0
  9
$USERI5
 70
     0
  9
$USERR1
 40
0.0
  9
$USERR2
 40
0.0
  9
$USERR3
 40
0.0
  9
$USERR4
 40
0.0
  9
$USERR5
 40
0.0
  9
$WORLDVIEW
 70
     1
  9
$SHADEDGE
 70
     3
  9
$SHADEDIF
 70
    70
  9
$TILEMODE
 70
     1
  9
$MAXACTVP
 70
    64
  9
$PLIMCHECK
 70
     0
  9
$PEXTMIN
 10
1.0000000000000000E+020
 20
1.0000000000000000E+020
 30
1.0000000000000000E+020
  9
$PEXTMAX
 10
-1.0000000000000000E+020
 20
-1.0000000000000000E+020
 30
-1.0000000000000000E+020
  9
$PLIMMIN
 10
0.0
 20
0.0
  9
$PLIMMAX
 10
12.0
 20
9.0
  9
$UNITMODE
 70
     0
  9
$VISRETAIN
 70
     0
  9
$PLINEGEN
 70
     1
  9
$PSLTSCALE
 70
     0
  0
ENDSEC
  0
SECTION
  2
TABLES
  0
TABLE
  2
VPORT
 70
     1
  0
VPORT
  2
*ACTIVE
 70
     0
 10
0.0
 20
0.0
 11
1.0
 21
1.0
 12
0.1304630657314476
 22
-3.5087846560790008
 13
0.0
 23
0.0
 14
1.0
 24
1.0
 15
0.0
 25
0.0
 16
0.0
 26
0.0
 36
1.0
 17
0.0
 27
0.0
 37
0.0
 40
269.09590560556222
 41
2.1585051546391751
 42
50.0
 43
0.0
 44
0.0
 50
0.0
 51
0.0
 71
     0
 72
  2000
 73
     1
 74
     1
 75
     0
 76
     0
 77
     0
 78
     0
  0
ENDTAB
  0
TABLE
  2
LTYPE
 70
    11
  0
LTYPE
  2
CONTINUOUS
 70
     0
  3
Solid line
 72
    65
 73
     0
 40
0.0
  0
ENDTAB
  0
TABLE
  2
LAYER
 70
     6
  0
LAYER
  2
0
 70
     0
 62
     7
  6
CONTINUOUS
  0
LAYER
  2
DATA
 70
     0
 62
     7
  6
CONTINUOUS
  0
LAYER
  2
HIBINO-BASE
 70
     0
 62
     7
  6
CONTINUOUS
  0
LAYER
  2
SPEC
 70
     0
 62
     7
  6
CONTINUOUS
  0
LAYER
  2
DIMNSIONS
 70
     0
 62
     7
  6
CONTINUOUS
  0
ENDTAB
  0
TABLE
  2
STYLE
 70
     3
  0
STYLE
  2
STANDARD
 70
     0
 40
0.0
 41
1.0
 50
0.0
 71
     0
 42
0.0
  3
txt
  4
BIGFONT.SHX
  0
ENDTAB
  0
TABLE
  2
VIEW
 70
     0
  0
ENDTAB
  0
TABLE
  2
UCS
 70
     0
  0
ENDTAB
  0
TABLE
  2
APPID
 70
     4
  0
APPID
  2
ACAD
 70
     0
  0
APPID
  2
ACADANNOTATIVE
 70
     0
  0
APPID
  2
ACAD_NAV_VCDISPLAY
 70
     0
  0
APPID
  2
ACAD_MLEADERVER
 70
     0
  0
ENDTAB
  0
TABLE
  2
DIMSTYLE
 70
     2
  0
DIMSTYLE
  2
STANDARD
 70
     0
  3

  4

  5

  6

  7

 40
1.0
 41
0.18
 42
0.0625
 43
0.38
 44
0.18
 45
0.0
 46
0.0
 47
0.0
 48
0.0
140
0.18
141
0.09
142
0.0
143
25.399999999999999
144
1.0
145
0.0
146
1.0
147
0.09
 71
     0
 72
     0
 73
     1
 74
     1
 75
     0
 76
     0
 77
     0
 78
     0
170
     0
171
     2
172
     0
173
     0
174
     0
175
     0
176
     0
177
     0
178
     0
  0
ENDTAB
  0
ENDSEC
  0
SECTION
  2
BLOCKS
  0
BLOCK
  8
0
  2
$MODEL_SPACE
 70
     0
 10
0.0
 20
0.0
 30
0.0
  3
$MODEL_SPACE
  1

  0
ENDBLK
  5
12B
  8
0
  0
BLOCK
 67
     1
  8
0
  2
$PAPER_SPACE
 70
     0
 10
0.0
 20
0.0
 30
0.0
  3
$PAPER_SPACE
  1

  0
ENDBLK
  5
127
 67
     1
  8
0
  0
ENDSEC
  0
SECTION
  2
ENTITIES
  0
LINE
  5
2D
  8
HIBINO-BASE
  6
CONTINUOUS
 62
     7
 10
-89.999999999999986
 20
130.0
 30
0.0
 11
89.999999999999986
 21
130.0
 31
0.0
  0
LINE
  5
2E
  8
HIBINO-BASE
  6
CONTINUOUS
 62
     7
 10
89.999999999999986
 20
-130.0
 30
0.0
 11
-89.999999999999986
 21
-130.0
 31
0.0
  0
LINE
  5
2F
  8
HIBINO-BASE
  6
CONTINUOUS
 62
     7
 10
-89.999999999999986
 20
-130.0
 30
0.0
 11
-89.999999999999986
 21
130.0
 31
0.0
  0
LINE
  5
30
  8
HIBINO-BASE
  6
CONTINUOUS
 62
     7
 10
89.999999999999986
 20
130.0
 30
0.0
 11
89.999999999999986
 21
-130.0
 31
0.0
  0
LINE
  5
31
  8
HIBINO-BASE
  6
CONTINUOUS
 62
     7
 10
0.0000000000000071
 20
-107.4999999999999
 30
0.0
 11
89.999999999999986
 21
-107.4999999999999
 31
0.0
  0
LINE
  5
32
  8
HIBINO-BASE
  6
CONTINUOUS
 62
     7
 10
0.0000000000000071
 20
-130.0
 30
0.0
 11
0.0000000000000071
 21
-107.4999999999999
 31
0.0
  0
TEXT
  5
33
  8
HIBINO-BASE
 62
     7
 10
0.9000000000000126
 20
-110.0086933333333
 30
0.0
 40
1.6288411458333329
  1
NOTE
 41
0.7
 11
0.9000000000000127
 21
-108.37985218749991
 31
0.0
 73
     3
  0
LINE
  5
34
  8
HIBINO-BASE
  6
CONTINUOUS
 62
     7
 10
35.000000000000021
 20
-130.0
 30
0.0
 11
35.000000000000021
 21
-107.4999999999999
 31
0.0
  0
TEXT
  5
35
  8
HIBINO-BASE
 62
     7
 10
35.899999999999999
 20
-110.0086933333333
 30
0.0
 40
1.6288411458333329
  1
TITLE
 41
0.7
 11
35.899999999999999
 21
-108.37985218749991
 31
0.0
 73
     3
  0
LINE
  5
36
  8
HIBINO-BASE
  6
CONTINUOUS
 62
     7
 10
0.0000000000000071
 20
-119.9999999999999
 30
0.0
 11
89.999999999999986
 21
-119.9999999999999
 31
0.0
  0
TEXT
  5
37
  8
HIBINO-BASE
 62
     7
 10
48.399999999999991
 20
-122.4523733333333
 30
0.0
 40
1.6288411458333329
  1
DRAWN
 41
0.7
 11
48.399999999999991
 21
-120.82353218749989
 31
0.0
 73
     3
  0
TEXT
  5
38
  8
HIBINO-BASE
 62
     7
 10
23.399999999999999
 20
-122.4523733333333
 30
0.0
 40
1.6288411458333329
  1
DATE
 41
0.7
 11
23.399999999999999
 21
-120.82353218749989
 31
0.0
 73
     3
  0
TEXT
  5
39
  8
HIBINO-BASE
 62
     7
 10
13.4
 20
-122.4523733333333
 30
0.0
 40
1.6288411458333329
  1
SCALE
 41
0.7
 11
13.4
 21
-120.82353218749989
 31
0.0
 73
     3
  0
TEXT
  5
3A
  8
HIBINO-BASE
 62
     7
 10
35.899999999999999
 20
-122.4523733333333
 30
0.0
 40
1.6288411458333329
  1
DESIGN
 41
0.7
 11
35.899999999999999
 21
-120.82353218749989
 31
0.0
 73
     3
  0
TEXT
  5
3B
  8
HIBINO-BASE
 62
     7
 10
73.399999999999977
 20
-122.4523733333333
 30
0.0
 40
1.6288411458333329
  1
DRAWING NO.
 41
0.7
 11
73.399999999999977
 21
-120.82353218749989
 31
0.0
 73
     3
  0
TEXT
  5
3C
  8
HIBINO-BASE
 62
     7
 10
60.899999999999991
 20
-122.4523733333333
 30
0.0
 40
1.6288411458333329
  1
CHECK
 41
0.7
 11
60.899999999999991
 21
-120.82353218749989
 31
0.0
 73
     3
  0
LINE
  5
3D
  8
HIBINO-BASE
  6
CONTINUOUS
 62
     7
 10
14.375000000000011
 20
-128.74999999999989
 30
0.0
 11
18.125000000000011
 21
-124.9999999999999
 31
0.0
  0
TEXT
  5
3E
  8
HIBINO-BASE
 62
     7
 10
13.750000000000011
 20
-126.1089433333333
 30
0.0
 40
1.6288411458333329
  1
1
 41
0.7
 11
13.750000000000011
 21
-124.48010218749999
 31
0.0
 73
     3
  0
LINE
  5
3F
  8
HIBINO-BASE
  6
CONTINUOUS
 62
     7
 10
12.500000000000011
 20
-130.0
 30
0.0
 11
12.500000000000011
 21
-119.9999999999999
 31
0.0
  0
LINE
  5
40
  8
HIBINO-BASE
  6
CONTINUOUS
 62
     7
 10
22.5
 20
-130.0
 30
0.0
 11
22.5
 21
-119.9999999999999
 31
0.0
  0
LINE
  5
41
  8
HIBINO-BASE
  6
CONTINUOUS
 62
     7
 10
47.499999999999993
 20
-119.9999999999999
 30
0.0
 11
47.499999999999993
 21
-130.0
 31
0.0
  0
LINE
  5
42
  8
HIBINO-BASE
  6
CONTINUOUS
 62
     7
 10
72.500000000000014
 20
-119.9999999999999
 30
0.0
 11
72.500000000000014
 21
-130.0
 31
0.0
  0
LINE
  5
43
  8
HIBINO-BASE
  6
CONTINUOUS
 62
     7
 10
60.0
 20
-130.0
 30
0.0
 11
60.0
 21
-119.9999999999999
 31
0.0
  0
TEXT
  5
44
  8
HIBINO-BASE
 62
     7
 10
23.35654000000001
 20
-127.1363533333333
 30
0.0
 40
1.6288411458333329
  1
'13.08.
 41
0.7
 11
23.35654000000001
 21
-125.5075121874999
 31
0.0
 73
     3
  0
TEXT
  5
45
  8
HIBINO-BASE
 62
     7
 10
17.500000000000011
 20
-127.9839433333333
 30
0.0
 40
1.6288411458333329
  1
1
 41
0.7
 11
17.500000000000011
 21
-126.35510218749999
 31
0.0
 73
     3
  0
TEXT
  5
46
  8
HIBINO-BASE
 62
     7
 10
49.005810011034633
 20
-127.1363533333333
 30
0.0
 40
1.6288411458333329
  1
Ootake
 41
0.7
 11
49.005810011034633
 21
-125.5075121874999
 31
0.0
 73
     3
  0
TEXT
  5
47
  8
HIBINO-BASE
 62
     7
 10
3.8833333333333599
 20
-128.02399999999989
 30
0.0
 40
3.2576822916666659
  1
A4
 41
0.7
 11
3.8833333333333599
 21
-124.7663177083333
 31
0.0
 73
     3
  0
TEXT
  5
48
  8
HIBINO-BASE
 62
     7
 10
0.9583333333333355
 20
-122.6194549999999
 30
0.0
 40
1.6288411458333329
  1
PAPER SIZE
 41
0.7
 11
0.9583333333333355
 21
-120.9906138541666
 31
0.0
 73
     3
  0
TEXT
  5
49
  8
HIBINO-BASE
 62
     7
 10
-82.816000000000003
 20
-136.37551499999989
 30
0.0
 40
3.5291558159722221
  1
Hibino-Intersound Corporation
 41
0.7
 11
-82.816000000000003
 21
-132.8463591840277
 31
0.0
 73
     3
  0
TEXT
  5
4A
  8
HIBINO-BASE
 62
     7
 10
14.024334167243129
 20
-136.37551499999989
 30
0.0
 40
3.5291558159722221
  1
ヒビノインターサウンド株式会社
 41
0.7
 11
14.024334167243129
 21
-132.8463591840277
 31
0.0
 73
     3
  0
LINE
  5
4B
  8
SPEC
  6
CONTINUOUS
 62
     7
 10
-82.499999999999986
 20
120.0
 30
0.0
 11
65.000000000000014
 21
120.0
 31
0.0
  0
LINE
  5
4C
  8
SPEC
  6
CONTINUOUS
 62
     7
 10
-82.499999999999986
 20
112.5
 30
0.0
 11
65.000000000000014
 21
112.5
 31
0.0
  0
LINE
  5
4D
  8
SPEC
  6
CONTINUOUS
 62
     7
 10
-82.499999999999986
 20
116.25
 30
0.0
 11
65.000000000000014
 21
116.25
 31
0.0
  0
LINE
  5
4E
  8
SPEC
  6
CONTINUOUS
 62
     7
 10
-82.499999999999986
 20
120.0
 30
0.0
 11
-82.499999999999986
 21
112.5
 31
0.0
  0
TEXT
  5
4F
  8
SPEC
 62
     7
 10
-81.249999999999986
 20
121.39327
 30
0.0
 40
2.4432617187500001
  1
仕様
 41
0.7
 11
-81.249999999999986
 21
123.83653171875
 31
0.0
 73
     3
  0
LINE
  5
50
  8
SPEC
  6
CONTINUOUS
 62
     7
 10
-50.0
 20
120.0
 30
0.0
 11
-50.0
 21
112.5
 31
0.0
  0
LINE
  5
51
  8
SPEC
  6
CONTINUOUS
 62
     7
 10
65.000000000000014
 20
120.0
 30
0.0
 11
65.000000000000014
 21
112.5
 31
0.0
  0
TEXT
  5
52
  8
SPEC
 62
     7
 10
-81.693055397635874
 20
113.5112507321039
 30
0.0
 40
1.900314670138888
  1
質量
 41
0.7
 11
-81.693055397635874
 21
115.4115654022428
 31
0.0
 73
     3
  0
TEXT
  5
53
  8
SPEC
 62
     7
 10
-49.099999999999987
 20
113.51123829835289
 30
0.0
 40
1.900314670138888
  1
10g
 41
0.7
 11
-49.099999999999987
 21
115.4115529684917
 31
0.0
 73
     3
  0
TEXT
  5
54
  8
SPEC
 62
     7
 10
-81.693047073374586
 20
117.09374824402479
 30
0.0
 40
1.900314670138888
  1
寸法(W\U+00D7H\U+00D7D)
 41
0.7
 11
-81.693047073374586
 21
118.99406291416361
 31
0.0
 73
     3
  0
TEXT
  5
55
  8
SPEC
 62
     7
 10
-49.09999999999998
 20
117.03792
 30
0.0
 40
1.900314670138888
  1
\U+03C610.5\U+00D733.0(除突起部)
 41
0.7
 11
-49.09999999999998
 21
118.9382346701389
 31
0.0
 73
     3
  0
TEXT
  5
56
  8
DIMNSIONS
 62
     7
 10
-20.0
 20
-117.7305099999999
 30
0.0
 40
2.4432617187500001
  1
(単位：mm)
 41
0.7
 11
-20.0
 21
-115.2872482812499
 31
0.0
 73
     3
  0
LINE
  5
57
  8
DIMNSIONS
  6
CONTINUOUS
 62
     7
 10
-25.999944999972069
 20
-20.000000000077868
 30
0.0
 11
-32.0
 21
-20.000000000077868
 31
0.0
  0
LINE
  5
58
  8
DIMNSIONS
  6
CONTINUOUS
 62
     7
 10
-24.5
 20
12.999999999922119
 30
0.0
 11
-32.0
 21
12.999999999922119
 31
0.0
  0
LINE
  5
59
  8
DIMNSIONS
  6
CONTINUOUS
 62
     7
 10
-30.0
 20
-20.000000000077868
 30
0.0
 11
-30.0
 21
12.999999999922119
 31
0.0
  0
LINE
  5
5A
  8
DIMNSIONS
  6
CONTINUOUS
 62
     7
 10
-30.0
 20
-20.000000000077868
 30
0.0
 11
-30.670039795150242
 21
-17.499377441484121
 31
0.0
  0
LINE
  5
5B
  8
DIMNSIONS
  6
CONTINUOUS
 62
     7
 10
-30.0
 20
-20.000000000077868
 30
0.0
 11
-29.329960204849758
 21
-17.499377441484121
 31
0.0
  0
LINE
  5
5C
  8
DIMNSIONS
  6
CONTINUOUS
 62
     7
 10
-30.0
 20
12.999999999922119
 30
0.0
 11
-29.329960204849758
 21
10.49937744132837
 31
0.0
  0
LINE
  5
5D
  8
DIMNSIONS
  6
CONTINUOUS
 62
     7
 10
-30.0
 20
12.999999999922119
 30
0.0
 11
-30.670039795150242
 21
10.49937744132837
 31
0.0
  0
TEXT
  5
5E
  8
DIMNSIONS
 62
     7
 10
-30.993889006641201
 20
-7.027778450725866
 30
0.0
 40
2.714735890298968
  1
33.0
 50
90.0
 41
0.7
 11
-33.708624896940172
 21
-7.027778450725866
 31
0.0
 73
     3
  0
LINE
  5
5F
  8
DIMNSIONS
  6
CONTINUOUS
 62
     7
 10
-15.82331575797518
 20
-27.0
 30
0.0
 11
-9.0
 21
-23.15241709234305
 31
0.0
  0
LINE
  5
60
  8
DIMNSIONS
  6
CONTINUOUS
 62
     7
 10
-15.82331575797518
 20
-27.0
 30
0.0
 11
-13.961063726748471
 21
-25.201644117582688
 31
0.0
  0
LINE
  5
61
  8
DIMNSIONS
  6
CONTINUOUS
 62
     7
 10
-15.82331575797518
 20
-27.0
 30
0.0
 11
-13.311380249475031
 21
-26.373704136394789
 31
0.0
  0
LINE
  5
62
  8
DIMNSIONS
  6
CONTINUOUS
 62
     7
 10
-9.0
 20
-23.15241709234305
 30
0.0
 11
3.5833360248141801
 21
-23.15241709234305
 31
0.0
  0
TEXT
  5
63
  8
DIMNSIONS
 62
     7
 10
-7.0
 20
-22.15852808570186
 30
0.0
 40
2.714735890298968
  1
\U+03C610.5
 41
0.7
 11
-7.0
 21
-19.443792195402889
 31
0.0
 73
     3
  0
TEXT
  5
64
  8
DATA
 62
     7
 10
50.0
 20
-118.86910999999991
 30
0.0
 40
2.4432617187500001
  1
DAD6010
 41
0.7
 11
50.0
 21
-116.4258482812499
 31
0.0
 73
     3
  0
TEXT
  5
65
  8
DATA
 62
     7
 10
50.0
 20
-111.240994404006
 30
0.0
 40
2.4432617187500001
  1
DPA
 41
0.7
 11
50.0
 21
-108.79773268525599
 31
0.0
 73
     3
  0
TEXT
  5
66
  8
DATA
 62
     7
 10
37.345638492042312
 20
-114.7179130281817
 30
0.0
 40
1.6288437109374989
  1
MicroDot to Shure(TA4F Switchcraft)変換アダプタ ー
 41
0.7
 11
37.345638492042312
 21
-113.0890693172442
 31
0.0
 73
     3
  0
TEXT
  5
67
  8
DATA
 62
     7
 10
-87.499999999999986
 20
-122.1237222222222
 30
0.0
 40
1.900314670138888
  1
※仕様及び外観は予告なく変更されることがあります。
 41
0.7
 11
-87.499999999999986
 21
-120.2234075520833
 31
0.0
 73
     3
  0
TEXT
  5
68
  8
DATA
 62
     7
 10
-87.499999999999986
 20
-124.5931666666666
 30
0.0
 40
1.900314670138888
  1
　また、同一商品でも若干の個体差があることがあります。ご了承ください。
 41
0.7
 11
-87.499999999999986
 21
-122.69285199652769
 31
0.0
 73
     3
  0
CIRCLE
  5
69
  8
DATA
  6
CONTINUOUS
 62
     7
 10
-20.396294999971978
 20
-29.578646129341401
 30
0.0
 40
0.5999000000000549
  0
CIRCLE
  5
6A
  8
DATA
  6
CONTINUOUS
 62
     7
 10
-20.936822096949761
 20
-31.57864612934139
 30
0.0
 40
0.6000200000000647
  0
CIRCLE
  5
6B
  8
DATA
  6
CONTINUOUS
 62
     7
 10
-20.936822096949761
 20
-27.57864612934139
 30
0.0
 40
0.5999300000000645
  0
CIRCLE
  5
6C
  8
DATA
  6
CONTINUOUS
 62
     7
 10
-18.396294999972
 20
-29.578646129341401
 30
0.0
 40
0.5999000000000409
  0
LINE
  5
6D
  8
DATA
  6
CONTINUOUS
 62
     7
 10
-24.52618499997206
 20
-30.578646129341401
 30
0.0
 11
-23.750304999972059
 21
-30.578646129341401
 31
0.0
  0
LINE
  5
6E
  8
DATA
  6
CONTINUOUS
 62
     7
 10
-24.52618499997206
 20
-28.578646129341401
 30
0.0
 11
-23.750304999972059
 21
-28.578646129341401
 31
0.0
  0
LINE
  5
6F
  8
DATA
  6
CONTINUOUS
 62
     7
 10
-23.146294999971971
 20
-31.744656129341429
 30
0.0
 11
-23.146294999971971
 21
-27.413766129341401
 31
0.0
  0
ARC
  5
70
  8
DATA
  6
CONTINUOUS
 62
     7
 10
-20.396294999971978
 20
-29.578646129341401
 30
0.0
 40
3.4999118674761709
 50
196.6019797549915
 51
163.39802024500861
  0
ARC
  5
71
  8
DATA
  6
CONTINUOUS
 62
     7
 10
-20.396294999971978
 20
-29.578646129341401
 30
0.0
 40
4.2492342147851252
 50
193.61146039991681
 51
166.4013260975791
  0
LINE
  5
72
  8
DATA
  6
CONTINUOUS
 62
     7
 10
-23.47128499997207
 20
-31.249646129341329
 30
0.0
 11
-23.47128499997207
 21
-27.908746129341399
 31
0.0
  0
LINE
  5
73
  8
DATA
  6
CONTINUOUS
 62
     7
 10
-25.146294999972071
 20
-30.478746129341289
 30
0.0
 11
-25.146294999972071
 21
-28.678776129341319
 31
0.0
  0
LINE
  5
74
  8
DATA
  6
CONTINUOUS
 62
     7
 10
-25.146294999972071
 20
-28.678776129341319
 30
0.0
 11
-23.585184999972071
 21
-28.678776129341319
 31
0.0
  0
LINE
  5
75
  8
DATA
  6
CONTINUOUS
 62
     7
 10
-23.585184999972071
 20
-28.678776129341319
 30
0.0
 11
-23.585184999972071
 21
-30.478746129341289
 31
0.0
  0
LINE
  5
76
  8
DATA
  6
CONTINUOUS
 62
     7
 10
-23.585184999972071
 20
-30.478746129341289
 30
0.0
 11
-25.146294999972071
 21
-30.478746129341289
 31
0.0
  0
CIRCLE
  5
77
  8
DATA
  6
CONTINUOUS
 62
     7
 10
-20.396294999971978
 20
-29.578646129341401
 30
0.0
 40
5.2499100000000922
  0
LINE
  5
78
  8
DATA
  6
CONTINUOUS
 62
     7
 10
-25.42718499997207
 20
-31.078646129341401
 30
0.0
 11
-26.217304999972072
 21
-31.078646129341401
 31
0.0
  0
LINE
  5
79
  8
DATA
  6
CONTINUOUS
 62
     7
 10
-26.217304999972072
 20
-28.07864612934139
 30
0.0
 11
-25.42718499997207
 21
-28.07864612934139
 31
0.0
  0
ARC
  5
7A
  8
DATA
  6
CONTINUOUS
 62
     7
 10
-25.470304999972061
 20
-29.578646129341401
 30
0.0
 40
1.675711490680917
 50
116.4733046109577
 51
243.52669538904229
  0
CIRCLE
  5
7B
  8
DATA
  6
CONTINUOUS
 62
     7
 10
-20.396294999971978
 20
-29.578646129341401
 30
0.0
 40
5.2499100000000922
  0
LINE
  5
7C
  8
DATA
  6
CONTINUOUS
 62
     7
 10
-25.24994499997208
 20
3.0
 30
0.0
 11
-25.24994499997208
 21
-4.0002400000777838
 31
0.0
  0
LINE
  5
7D
  8
DATA
  6
CONTINUOUS
 62
     7
 10
-14.75005499997204
 20
3.0
 30
0.0
 11
-14.75005499997204
 21
-4.0002400000777838
 31
0.0
  0
LINE
  5
7E
  8
DATA
  6
CONTINUOUS
 62
     7
 10
-25.24994499997208
 20
-4.0002400000777838
 30
0.0
 11
-14.75005499997204
 21
-4.0002400000777838
 31
0.0
  0
LINE
  5
7F
  8
DATA
  6
CONTINUOUS
 62
     7
 10
-25.24994499997208
 20
-4.0002400000777838
 30
0.0
 11
-25.24994499997208
 21
-11.500020000077949
 31
0.0
  0
LINE
  5
80
  8
DATA
  6
CONTINUOUS
 62
     7
 10
-14.75005499997204
 20
-11.500020000077949
 30
0.0
 11
-14.75005499997204
 21
-4.0002400000777838
 31
0.0
  0
LINE
  5
81
  8
DATA
  6
CONTINUOUS
 62
     7
 10
-25.24994499997208
 20
-11.500020000077949
 30
0.0
 11
-14.75005499997204
 21
-11.500020000077949
 31
0.0
  0
LINE
  5
82
  8
DATA
  6
CONTINUOUS
 62
     7
 10
-16.00005499997205
 20
-11.500020000077949
 30
0.0
 11
-16.00005499997205
 21
-20.000000000077868
 31
0.0
  0
LINE
  5
83
  8
DATA
  6
CONTINUOUS
 62
     7
 10
-16.00005499997205
 20
-20.000000000077868
 30
0.0
 11
-23.999944999972069
 21
-20.000000000077868
 31
0.0
  0
LINE
  5
84
  8
DATA
  6
CONTINUOUS
 62
     7
 10
-25.24994499997208
 20
-4.1001600000778957
 30
0.0
 11
-14.75005499997204
 21
-4.1001600000778957
 31
0.0
  0
LINE
  5
85
  8
DATA
  6
CONTINUOUS
 62
     7
 10
-25.040064999972032
 20
-19.500000000077922
 30
0.0
 11
-23.999944999972069
 21
-19.500000000077922
 31
0.0
  0
LINE
  5
86
  8
DATA
  6
CONTINUOUS
 62
     7
 10
-23.999944999972069
 20
-19.300120000077978
 30
0.0
 11
-24.800134999972069
 21
-19.300120000077978
 31
0.0
  0
POLYLINE
  5
87
  8
DATA
  6
CONTINUOUS
 62
     7
 66
     1
 10
0.0
 20
0.0
 30
0.0
 70
   129
  0
VERTEX
  5
15C
  8
DATA
  6
CONTINUOUS
 62
     7
 10
-24.211034999972028
 20
-14.97503000007784
 30
0.0
  0
VERTEX
  5
15D
  8
DATA
  6
CONTINUOUS
 62
     7
 10
-24.210617468621841
 20
-14.976392746871751
 30
0.0
  0
VERTEX
  5
15E
  8
DATA
  6
CONTINUOUS
 62
     7
 10
-24.21061746862177
 20
-14.97639274687193
 30
0.0
 42
-0.0515215183437875
  0
VERTEX
  5
15F
  8
DATA
  6
CONTINUOUS
 62
     7
 10
-24.205944999972029
 20
-15.000130000077901
 30
0.0
  0
SEQEND
  5
160
  8
DATA
  6
CONTINUOUS
 62
     7
  0
LINE
  5
8D
  8
DATA
  6
CONTINUOUS
 62
     7
 10
-24.800134999972069
 20
-19.300120000077978
 30
0.0
 11
-24.003974999972069
 21
-15.02411000007795
 31
0.0
  0
POLYLINE
  5
8E
  8
DATA
  6
CONTINUOUS
 62
     7
 66
     1
 10
0.0
 20
0.0
 30
0.0
 70
   129
  0
VERTEX
  5
161
  8
DATA
  6
CONTINUOUS
 62
     7
 10
-24.211034999972028
 20
-14.97503000007784
 30
0.0
  0
VERTEX
  5
162
  8
DATA
  6
CONTINUOUS
 62
     7
 10
-24.210617468621841
 20
-14.976392746871751
 30
0.0
  0
VERTEX
  5
163
  8
DATA
  6
CONTINUOUS
 62
     7
 10
-24.21061746862177
 20
-14.97639274687193
 30
0.0
 42
-0.0515215183437875
  0
VERTEX
  5
164
  8
DATA
  6
CONTINUOUS
 62
     7
 10
-24.205944999972029
 20
-15.000130000077901
 30
0.0
  0
SEQEND
  5
165
  8
DATA
  6
CONTINUOUS
 62
     7
  0
LINE
  5
94
  8
DATA
  6
CONTINUOUS
 62
     7
 10
-24.577044999972049
 20
-12.24812000007786
 30
0.0
 11
-24.717044999972099
 21
-12.10102000007784
 31
0.0
  0
LINE
  5
95
  8
DATA
  6
CONTINUOUS
 62
     7
 10
-25.009844999972039
 20
-12.49873000007786
 30
0.0
 11
-24.717044999972099
 21
-12.10102000007784
 31
0.0
  0
LINE
  5
96
  8
DATA
  6
CONTINUOUS
 62
     7
 10
-24.788334999972069
 20
-12.536310000077959
 30
0.0
 11
-24.577044999972049
 21
-12.24812000007786
 31
0.0
  0
LINE
  5
97
  8
DATA
  6
CONTINUOUS
 62
     7
 10
-24.788334999972069
 20
-12.536310000077959
 30
0.0
 11
-24.006974999972051
 21
-14.97611000007795
 31
0.0
  0
LINE
  5
98
  8
DATA
  6
CONTINUOUS
 62
     7
 10
-24.211034999972028
 20
-14.97503000007784
 30
0.0
 11
-25.009844999972039
 21
-12.49873000007786
 31
0.0
  0
LINE
  5
99
  8
DATA
  6
CONTINUOUS
 62
     7
 10
-24.208044999972081
 20
-15.02411000007795
 30
0.0
 11
-25.040064999972032
 21
-19.500000000077922
 31
0.0
  0
POLYLINE
  5
9A
  8
DATA
  6
CONTINUOUS
 62
     7
 66
     1
 10
0.0
 20
0.0
 30
0.0
 70
   129
  0
VERTEX
  5
166
  8
DATA
  6
CONTINUOUS
 62
     7
 10
-24.211034999972028
 20
-14.97503000007784
 30
0.0
  0
VERTEX
  5
167
  8
DATA
  6
CONTINUOUS
 62
     7
 10
-24.210617468621841
 20
-14.976392746871751
 30
0.0
  0
VERTEX
  5
168
  8
DATA
  6
CONTINUOUS
 62
     7
 10
-24.21061746862177
 20
-14.97639274687193
 30
0.0
 42
-0.0515215183437875
  0
VERTEX
  5
169
  8
DATA
  6
CONTINUOUS
 62
     7
 10
-24.205944999972029
 20
-15.000130000077901
 30
0.0
  0
SEQEND
  5
16A
  8
DATA
  6
CONTINUOUS
 62
     7
  0
LINE
  5
A0
  8
DATA
  6
CONTINUOUS
 62
     7
 10
-22.499944999972001
 20
-12.00004000007797
 30
0.0
 11
-22.499944999972001
 21
-14.50009000007789
 31
0.0
  0
LINE
  5
A1
  8
DATA
  6
CONTINUOUS
 62
     7
 10
-22.499944999972001
 20
-12.00004000007797
 30
0.0
 11
-23.999944999972069
 21
-12.00004000007797
 31
0.0
  0
LINE
  5
A2
  8
DATA
  6
CONTINUOUS
 62
     7
 10
-22.499944999972001
 20
-14.50009000007789
 30
0.0
 11
-23.999944999972069
 21
-14.50009000007789
 31
0.0
  0
LINE
  5
A3
  8
DATA
  6
CONTINUOUS
 62
     7
 10
-23.999944999972069
 20
-12.00004000007797
 30
0.0
 11
-23.999944999972069
 21
-11.500020000077949
 31
0.0
  0
LINE
  5
A4
  8
DATA
  6
CONTINUOUS
 62
     7
 10
-23.999944999972069
 20
-14.50009000007789
 30
0.0
 11
-23.999944999972069
 21
-20.000000000077868
 31
0.0
  0
LINE
  5
A5
  8
DATA
  6
CONTINUOUS
 62
     7
 10
-23.990954999972079
 20
-14.485020000077849
 30
0.0
 11
-23.990954999972079
 21
-12.832130000077949
 31
0.0
  0
LINE
  5
A6
  8
DATA
  6
CONTINUOUS
 62
     7
 10
-23.990954999972079
 20
-12.832130000077949
 30
0.0
 11
-24.342954999972068
 21
-12.832130000077949
 31
0.0
  0
LINE
  5
A7
  8
DATA
  6
CONTINUOUS
 62
     7
 10
-24.342954999972068
 20
-12.832130000077949
 30
0.0
 11
-23.999944999972069
 21
-14.50009000007789
 31
0.0
  0
ARC
  5
A8
  8
DATA
  6
CONTINUOUS
 62
     7
 10
-25.07400499997205
 20
-7.968110000077794
 30
0.0
 40
1.6756891300297689
 50
116.4729985439272
 51
243.52669661332229
  0
LINE
  5
A9
  8
DATA
  6
CONTINUOUS
 62
     7
 10
-25.820994999972061
 20
-6.4681000000777606
 30
0.0
 11
-25.24994499997208
 21
-6.4681000000777606
 31
0.0
  0
LINE
  5
AA
  8
DATA
  6
CONTINUOUS
 62
     7
 10
-25.820994999972061
 20
-9.4680900000777903
 30
0.0
 11
-25.24994499997208
 21
-9.4680900000777903
 31
0.0
  0
LINE
  5
AB
  8
DATA
  6
CONTINUOUS
 62
     7
 10
-22.5
 20
12.999999999922119
 30
0.0
 11
-17.5
 21
12.999999999922119
 31
0.0
  0
LINE
  5
AC
  8
DATA
  6
CONTINUOUS
 62
     7
 10
-25.24994499997208
 20
3.0
 30
0.0
 11
-14.75005499997204
 21
3.0
 31
0.0
  0
LINE
  5
AD
  8
DATA
  6
CONTINUOUS
 62
     7
 10
-23.5
 20
5.0
 30
0.0
 11
-16.4282542623266
 21
5.0
 31
0.0
  0
LINE
  5
AE
  8
DATA
  6
CONTINUOUS
 62
     7
 10
-23.5
 20
5.0
 30
0.0
 11
-23.5
 21
10.0
 31
0.0
  0
LINE
  5
AF
  8
DATA
  6
CONTINUOUS
 62
     7
 10
-16.5
 20
10.0
 30
0.0
 11
-16.5
 21
5.0
 31
0.0
  0
LINE
  5
B0
  8
DATA
  6
CONTINUOUS
 62
     7
 10
-25.24994499997208
 20
3.0
 30
0.0
 11
-23.5
 21
5.0
 31
0.0
  0
LINE
  5
B1
  8
DATA
  6
CONTINUOUS
 62
     7
 10
-14.75005499997204
 20
3.0
 30
0.0
 11
-16.4282542623266
 21
5.0
 31
0.0
  0
LINE
  5
B2
  8
DATA
  6
CONTINUOUS
 62
     7
 10
-23.5
 20
10.0
 30
0.0
 11
-16.5
 21
10.0
 31
0.0
  0
LINE
  5
B3
  8
DATA
  6
CONTINUOUS
 62
     7
 10
-22.5
 20
10.0
 30
0.0
 11
-22.5
 21
12.999999999922119
 31
0.0
  0
LINE
  5
B4
  8
DATA
  6
CONTINUOUS
 62
     7
 10
-17.5
 20
10.0
 30
0.0
 11
-17.5
 21
12.999999999922119
 31
0.0
  0
LINE
  5
B5
  8
DATA
  6
CONTINUOUS
 62
     7
 10
-22.5
 20
12.24999999994159
 30
0.0
 11
-19.909090909213191
 21
12.999999999922119
 31
0.0
  0
LINE
  5
B6
  8
DATA
  6
CONTINUOUS
 62
     7
 10
-22.5
 20
11.24999999994159
 30
0.0
 11
-17.500000000000011
 21
12.69736842102496
 31
0.0
  0
LINE
  5
B7
  8
DATA
  6
CONTINUOUS
 62
     7
 10
-22.5
 20
10.24999999994159
 30
0.0
 11
-17.5
 21
11.69736842102496
 31
0.0
  0
LINE
  5
B8
  8
DATA
  6
CONTINUOUS
 62
     7
 10
-19.909090908944169
 20
10.0
 30
0.0
 11
-17.5
 21
10.69736842102496
 31
0.0
  0
ENDSEC
  0
EOF
