  0
SECTION
  2
HEADER
  9
$ACADVER
  1
AC1009
  9
$INSBASE
 10
0.0
 20
0.0
 30
0.0
  9
$EXTMIN
 10
-180.01097548933731
 20
-272.24591765622512
 30
-0.0015258207003583
  9
$EXTMAX
 10
220.3791121466468
 20
263.5481392710542
 30
0.0000000349246037
  9
$LIMMIN
 10
0.0
 20
0.0
  9
$LIMMAX
 10
0.0
 20
0.0
  9
$ORTHOMODE
 70
     0
  9
$REGENMODE
 70
     1
  9
$FILLMODE
 70
     1
  9
$QTEXTMODE
 70
     0
  9
$MIRRTEXT
 70
     1
  9
$DRAGMODE
 70
     2
  9
$LTSCALE
 40
10.16
  9
$OSMODE
 70
   231
  9
$ATTMODE
 70
     1
  9
$TEXTSIZE
 40
0.0
  9
$TRACEWID
 40
1.0
  9
$TEXTSTYLE
  7
STANDARD
  9
$CLAYER
  8
DATA
  9
$CELTYPE
  6
BYLAYER
  9
$CECOLOR
 62
   256
  9
$DIMSCALE
 40
1.0
  9
$DIMASZ
 40
0.18
  9
$DIMEXO
 40
0.0625
  9
$DIMDLI
 40
0.38
  9
$DIMRND
 40
0.0
  9
$DIMDLE
 40
0.0
  9
$DIMEXE
 40
0.18
  9
$DIMTP
 40
0.0
  9
$DIMTM
 40
0.0
  9
$DIMTXT
 40
0.18
  9
$DIMCEN
 40
0.09
  9
$DIMTSZ
 40
0.0
  9
$DIMTOL
 70
     0
  9
$DIMLIM
 70
     0
  9
$DIMTIH
 70
     1
  9
$DIMTOH
 70
     1
  9
$DIMSE1
 70
     0
  9
$DIMSE2
 70
     0
  9
$DIMTAD
 70
     0
  9
$DIMZIN
 70
     0
  9
$DIMBLK
  1

  9
$DIMASO
 70
     1
  9
$DIMSHO
 70
     1
  9
$DIMPOST
  1

  9
$DIMAPOST
  1

  9
$DIMALT
 70
     0
  9
$DIMALTD
 70
     2
  9
$DIMALTF
 40
25.399999999999999
  9
$DIMLFAC
 40
1.0
  9
$DIMTOFL
 70
     0
  9
$DIMTVP
 40
0.0
  9
$DIMTIX
 70
     0
  9
$DIMSOXD
 70
     0
  9
$DIMSAH
 70
     0
  9
$DIMBLK1
  1

  9
$DIMBLK2
  1

  9
$DIMSTYLE
  2
STANDARD
  9
$DIMCLRD
 70
     0
  9
$DIMCLRE
 70
     0
  9
$DIMCLRT
 70
     0
  9
$DIMTFAC
 40
1.0
  9
$DIMGAP
 40
0.09
  9
$LUNITS
 70
     2
  9
$LUPREC
 70
     4
  9
$SKETCHINC
 40
0.1
  9
$FILLETRAD
 40
0.0
  9
$AUNITS
 70
     0
  9
$AUPREC
 70
     0
  9
$MENU
  1
acad
  9
$ELEVATION
 40
0.0
  9
$PELEVATION
 40
0.0
  9
$THICKNESS
 40
0.0
  9
$LIMCHECK
 70
     0
  9
$BLIPMODE
 70
     0
  9
$CHAMFERA
 40
0.0
  9
$CHAMFERB
 40
0.0
  9
$SKPOLY
 70
     0
  9
$TDCREATE
 40
2456511.7521064822
  9
$TDUPDATE
 40
2456511.7534630098
  9
$TDINDWG
 40
0.0004211111
  9
$TDUSRTIMER
 40
0.0004210417
  9
$USRTIMER
 70
     1
  9
$ANGBASE
 50
0.0
  9
$ANGDIR
 70
     0
  9
$PDMODE
 70
     1
  9
$PDSIZE
 40
-2.0
  9
$PLINEWID
 40
0.0
  9
$COORDS
 70
     2
  9
$SPLFRAME
 70
     0
  9
$SPLINETYPE
 70
     6
  9
$SPLINESEGS
 70
     8
  9
$ATTDIA
 70
     0
  9
$ATTREQ
 70
     1
  9
$HANDLING
 70
     1
  9
$HANDSEED
  5
32E
  9
$SURFTAB1
 70
     6
  9
$SURFTAB2
 70
     6
  9
$SURFTYPE
 70
     6
  9
$SURFU
 70
     6
  9
$SURFV
 70
     6
  9
$UCSNAME
  2

  9
$UCSORG
 10
0.0
 20
0.0
 30
0.0
  9
$UCSXDIR
 10
1.0
 20
0.0
 30
0.0
  9
$UCSYDIR
 10
0.0
 20
1.0
 30
0.0
  9
$PUCSNAME
  2

  9
$PUCSORG
 10
0.0
 20
0.0
 30
0.0
  9
$PUCSXDIR
 10
1.0
 20
0.0
 30
0.0
  9
$PUCSYDIR
 10
0.0
 20
1.0
 30
0.0
  9
$USERI1
 70
     0
  9
$USERI2
 70
     0
  9
$USERI3
 70
     0
  9
$USERI4
 70
     0
  9
$USERI5
 70
     0
  9
$USERR1
 40
0.0
  9
$USERR2
 40
0.0
  9
$USERR3
 40
0.0
  9
$USERR4
 40
0.0
  9
$USERR5
 40
0.0
  9
$WORLDVIEW
 70
     1
  9
$SHADEDGE
 70
     3
  9
$SHADEDIF
 70
    70
  9
$TILEMODE
 70
     1
  9
$MAXACTVP
 70
    64
  9
$PLIMCHECK
 70
     0
  9
$PEXTMIN
 10
1.0000000000000000E+020
 20
1.0000000000000000E+020
 30
1.0000000000000000E+020
  9
$PEXTMAX
 10
-1.0000000000000000E+020
 20
-1.0000000000000000E+020
 30
-1.0000000000000000E+020
  9
$PLIMMIN
 10
0.0
 20
0.0
  9
$PLIMMAX
 10
12.0
 20
9.0
  9
$UNITMODE
 70
     0
  9
$VISRETAIN
 70
     0
  9
$PLINEGEN
 70
     1
  9
$PSLTSCALE
 70
     0
  0
ENDSEC
  0
SECTION
  2
TABLES
  0
TABLE
  2
VPORT
 70
     1
  0
VPORT
  2
*ACTIVE
 70
     0
 10
0.0
 20
0.0
 11
1.0
 21
1.0
 12
0.0000008381901466
 22
-3.8227178667109452
 13
0.0
 23
0.0
 14
1.0
 24
1.0
 15
0.0
 25
0.0
 16
0.0
 26
0.0
 36
1.0
 17
0.0
 27
0.0
 37
0.0
 40
538.87099392244545
 41
2.1585051546391751
 42
50.0
 43
0.0
 44
0.0
 50
0.0
 51
0.0
 71
     0
 72
  2000
 73
     1
 74
     1
 75
     0
 76
     0
 77
     0
 78
     0
  0
ENDTAB
  0
TABLE
  2
LTYPE
 70
    11
  0
LTYPE
  2
CONTINUOUS
 70
     0
  3
Solid line
 72
    65
 73
     0
 40
0.0
  0
LTYPE
  2
STYLE_01
 70
     0
  3

 72
    65
 73
     2
 40
0.4166412353515625
 49
0.208282470703125
 49
-0.2083587646484375
  0
ENDTAB
  0
TABLE
  2
LAYER
 70
     6
  0
LAYER
  2
0
 70
     0
 62
     7
  6
CONTINUOUS
  0
LAYER
  2
DATA
 70
     0
 62
     7
  6
CONTINUOUS
  0
LAYER
  2
HIBINO-BASE
 70
     0
 62
     7
  6
CONTINUOUS
  0
LAYER
  2
SPEC
 70
     0
 62
     7
  6
CONTINUOUS
  0
LAYER
  2
DIMNSIONS
 70
     0
 62
     7
  6
CONTINUOUS
  0
ENDTAB
  0
TABLE
  2
STYLE
 70
     3
  0
STYLE
  2
STANDARD
 70
     0
 40
0.0
 41
1.0
 50
0.0
 71
     0
 42
0.0
  3
txt
  4
BIGFONT.SHX
  0
ENDTAB
  0
TABLE
  2
VIEW
 70
     0
  0
ENDTAB
  0
TABLE
  2
UCS
 70
     0
  0
ENDTAB
  0
TABLE
  2
APPID
 70
     4
  0
APPID
  2
ACAD
 70
     0
  0
APPID
  2
ACADANNOTATIVE
 70
     0
  0
APPID
  2
ACAD_NAV_VCDISPLAY
 70
     0
  0
APPID
  2
ACAD_MLEADERVER
 70
     0
  0
ENDTAB
  0
TABLE
  2
DIMSTYLE
 70
     2
  0
DIMSTYLE
  2
STANDARD
 70
     0
  3

  4

  5

  6

  7

 40
1.0
 41
0.18
 42
0.0625
 43
0.38
 44
0.18
 45
0.0
 46
0.0
 47
0.0
 48
0.0
140
0.18
141
0.09
142
0.0
143
25.399999999999999
144
1.0
145
0.0
146
1.0
147
0.09
 71
     0
 72
     0
 73
     1
 74
     1
 75
     0
 76
     0
 77
     0
 78
     0
170
     0
171
     2
172
     0
173
     0
174
     0
175
     0
176
     0
177
     0
178
     0
  0
ENDTAB
  0
ENDSEC
  0
SECTION
  2
BLOCKS
  0
BLOCK
  8
0
  2
$MODEL_SPACE
 70
     0
 10
0.0
 20
0.0
 30
0.0
  3
$MODEL_SPACE
  1

  0
ENDBLK
  5
263
  8
0
  0
BLOCK
 67
     1
  8
0
  2
$PAPER_SPACE
 70
     0
 10
0.0
 20
0.0
 30
0.0
  3
$PAPER_SPACE
  1

  0
ENDBLK
  5
25F
 67
     1
  8
0
  0
ENDSEC
  0
SECTION
  2
ENTITIES
  0
LINE
  5
2D
  8
HIBINO-BASE
  6
CONTINUOUS
 62
     7
 10
-179.99999
 20
263.53181999999998
 30
0.0
 11
179.99999
 21
263.53181999999998
 31
0.0
  0
LINE
  5
2E
  8
HIBINO-BASE
  6
CONTINUOUS
 62
     7
 10
179.99999
 20
-256.46816999999999
 30
0.0
 11
-179.99999
 21
-256.46816999999999
 31
0.0
  0
LINE
  5
2F
  8
HIBINO-BASE
  6
CONTINUOUS
 62
     7
 10
-179.99999
 20
-256.46816999999999
 30
0.0
 11
-179.99999
 21
263.53181999999998
 31
0.0
  0
LINE
  5
30
  8
HIBINO-BASE
  6
CONTINUOUS
 62
     7
 10
179.99999
 20
263.53181999999998
 30
0.0
 11
179.99999
 21
-256.46816999999999
 31
0.0
  0
LINE
  5
31
  8
HIBINO-BASE
  6
CONTINUOUS
 62
     7
 10
0.0
 20
-211.46817999999999
 30
0.0
 11
179.99999
 21
-211.46817999999999
 31
0.0
  0
LINE
  5
32
  8
HIBINO-BASE
  6
CONTINUOUS
 62
     7
 10
0.0
 20
-256.46816999999999
 30
0.0
 11
0.0
 21
-211.46817999999999
 31
0.0
  0
TEXT
  5
33
  8
HIBINO-BASE
 62
     7
 10
1.799979999999999
 20
-216.86818640000001
 30
0.0
 40
3.6000518750000001
  1
NOTE
 41
0.7
 11
1.799979999999999
 21
-213.26813452499999
 31
0.0
 73
     3
  0
LINE
  5
34
  8
HIBINO-BASE
  6
CONTINUOUS
 62
     7
 10
70.0
 20
-256.46816999999999
 30
0.0
 11
70.0
 21
-211.46817999999999
 31
0.0
  0
TEXT
  5
35
  8
HIBINO-BASE
 62
     7
 10
71.799999999999983
 20
-216.86818640000001
 30
0.0
 40
3.6000518750000001
  1
TITLE
 41
0.7
 11
71.799999999999983
 21
-213.26813452499999
 31
0.0
 73
     3
  0
LINE
  5
36
  8
HIBINO-BASE
  6
CONTINUOUS
 62
     7
 10
0.0
 20
-236.46817999999999
 30
0.0
 11
179.99999
 21
-236.46817999999999
 31
0.0
  0
TEXT
  5
37
  8
HIBINO-BASE
 62
     7
 10
96.799999999999983
 20
-241.75552640000001
 30
0.0
 40
3.6000518750000001
  1
DRAWN
 41
0.7
 11
96.799999999999983
 21
-238.15547452499999
 31
0.0
 73
     3
  0
TEXT
  5
38
  8
HIBINO-BASE
 62
     7
 10
46.79999999999999
 20
-241.75552640000001
 30
0.0
 40
3.6000518750000001
  1
DATE
 41
0.7
 11
46.79999999999999
 21
-238.15547452499999
 31
0.0
 73
     3
  0
TEXT
  5
39
  8
HIBINO-BASE
 62
     7
 10
2.19998
 20
-241.70706519999999
 30
0.0
 40
3.2576720312499998
  1
図面サイズ
 41
0.7
 11
2.19998
 21
-238.44939316874999
 31
0.0
 73
     3
  0
TEXT
  5
3A
  8
HIBINO-BASE
 62
     7
 10
26.799980000000001
 20
-241.75552640000001
 30
0.0
 40
3.6000518750000001
  1
SCALE
 41
0.7
 11
26.799980000000001
 21
-238.15547452499999
 31
0.0
 73
     3
  0
TEXT
  5
3B
  8
HIBINO-BASE
 62
     7
 10
71.799999999999983
 20
-241.75552640000001
 30
0.0
 40
3.6000518750000001
  1
DESIGN
 41
0.7
 11
71.799999999999983
 21
-238.15547452499999
 31
0.0
 73
     3
  0
TEXT
  5
3C
  8
HIBINO-BASE
 62
     7
 10
146.79997999999989
 20
-241.75552640000001
 30
0.0
 40
3.6000518750000001
  1
DRAWING NO.
 41
0.7
 11
146.79997999999989
 21
-238.15547452499999
 31
0.0
 73
     3
  0
TEXT
  5
3D
  8
HIBINO-BASE
 62
     7
 10
121.79998999999999
 20
-241.75552640000001
 30
0.0
 40
3.6000518750000001
  1
CHECK
 41
0.7
 11
121.79998999999999
 21
-238.15547452499999
 31
0.0
 73
     3
  0
LINE
  5
3E
  8
HIBINO-BASE
  6
CONTINUOUS
 62
     7
 10
28.749980000000001
 20
-253.96817999999999
 30
0.0
 11
36.25
 21
-246.46817999999999
 31
0.0
  0
TEXT
  5
3F
  8
HIBINO-BASE
 62
     7
 10
27.499980000000001
 20
-249.8995984
 30
0.0
 40
4.3435729687500002
  1
1
 41
0.7
 11
27.499980000000001
 21
-245.55602543124999
 31
0.0
 73
     3
  0
LINE
  5
40
  8
HIBINO-BASE
  6
CONTINUOUS
 62
     7
 10
24.999980000000001
 20
-256.46816999999999
 30
0.0
 11
24.999980000000001
 21
-236.46817999999999
 31
0.0
  0
LINE
  5
41
  8
HIBINO-BASE
  6
CONTINUOUS
 62
     7
 10
44.99998999999999
 20
-256.46816999999999
 30
0.0
 11
44.99998999999999
 21
-236.46817999999999
 31
0.0
  0
LINE
  5
42
  8
HIBINO-BASE
  6
CONTINUOUS
 62
     7
 10
94.999989999999997
 20
-236.46817999999999
 30
0.0
 11
94.999989999999997
 21
-256.46816999999999
 31
0.0
  0
LINE
  5
43
  8
HIBINO-BASE
  6
CONTINUOUS
 62
     7
 10
145.0
 20
-236.46817999999999
 30
0.0
 11
145.0
 21
-256.46816999999999
 31
0.0
  0
LINE
  5
44
  8
HIBINO-BASE
  6
CONTINUOUS
 62
     7
 10
119.99997999999999
 20
-256.46816999999999
 30
0.0
 11
119.99997999999999
 21
-236.46817999999999
 31
0.0
  0
TEXT
  5
45
  8
HIBINO-BASE
 62
     7
 10
7.8217799999999977
 20
-251.47123899999991
 30
0.0
 40
6.5153517578124989
  1
A4
 41
0.7
 11
7.8217799999999977
 21
-244.9558872421874
 31
0.0
 73
     3
  0
TEXT
  5
46
  8
HIBINO-BASE
 62
     7
 10
46.713079999999991
 20
-251.12348639999999
 30
0.0
 40
3.6000518750000001
  1
'13.08.
 41
0.7
 11
46.713079999999991
 21
-247.523434525
 31
0.0
 73
     3
  0
TEXT
  5
47
  8
HIBINO-BASE
 62
     7
 10
35.0
 20
-253.6495984
 30
0.0
 40
4.3435729687500002
  1
2
 41
0.7
 11
35.0
 21
-249.30602543124999
 31
0.0
 73
     3
  0
TEXT
  5
48
  8
HIBINO-BASE
 62
     7
 10
99.12784600574669
 20
-250.5755159698497
 30
0.0
 40
3.6000518750000001
  1
Ootake
 41
0.7
 11
99.12784600574669
 21
-246.97546409484971
 31
0.0
 73
     3
  0
TEXT
  5
49
  8
HIBINO-BASE
 62
     7
 10
-170.4101522566618
 20
-269.8931471122437
 30
0.0
 40
7.0583116319444441
  1
Hibino-Intersound Corporation
 41
0.7
 11
-170.4101522566618
 21
-262.8348354802992
 31
0.0
 73
     3
  0
TEXT
  5
4A
  8
HIBINO-BASE
 62
     7
 10
28.105235247130089
 20
-269.44111476164272
 30
0.0
 40
7.0583116319444441
  1
ヒビノインターサウンド株式会社
 41
0.7
 11
28.105235247130089
 21
-262.38280312969817
 31
0.0
 73
     3
  0
LINE
  5
4B
  8
SPEC
  6
CONTINUOUS
 62
     7
 10
-164.99999
 20
243.53182000000001
 30
0.0
 11
130.0
 21
243.53182000000001
 31
0.0
  0
LINE
  5
4C
  8
SPEC
  6
CONTINUOUS
 62
     7
 10
-164.99999
 20
243.53182000000001
 30
0.0
 11
-164.99999
 21
153.5318199999999
 31
0.0
  0
LINE
  5
4D
  8
SPEC
  6
CONTINUOUS
 62
     7
 10
-89.999989999999983
 20
243.53182000000001
 30
0.0
 11
-89.999989999999983
 21
161.0318199999999
 31
0.0
  0
LINE
  5
4E
  8
SPEC
  6
CONTINUOUS
 62
     7
 10
130.0
 20
243.53182000000001
 30
0.0
 11
130.0
 21
153.5318199999999
 31
0.0
  0
LINE
  5
4F
  8
SPEC
  6
CONTINUOUS
 62
     7
 10
-164.99999
 20
236.03182000000001
 30
0.0
 11
130.0
 21
236.03182000000001
 31
0.0
  0
TEXT
  5
50
  8
SPEC
 62
     7
 10
-163.29233930542779
 20
237.7880081814466
 30
0.0
 40
3.8006293402777769
  1
形式
 41
0.7
 11
-163.29233930542779
 21
241.58863752172431
 31
0.0
 73
     3
  0
TEXT
  5
51
  8
SPEC
 62
     7
 10
-88.769017435966916
 20
237.89739810438701
 30
0.0
 40
3.8006293402777769
  1
プリポラライズド・コンデンサー型 
 41
0.7
 11
-88.769017435966916
 21
241.6980274446648
 31
0.0
 73
     3
  0
LINE
  5
52
  8
SPEC
  6
CONTINUOUS
 62
     7
 10
-164.99999
 20
228.53182000000001
 30
0.0
 11
130.0
 21
228.53182000000001
 31
0.0
  0
TEXT
  5
53
  8
SPEC
 62
     7
 10
-163.2377170319057
 20
230.43928325186249
 30
0.0
 40
3.8006293402777769
  1
周波数特性(\U+00B12dB)
 41
0.7
 11
-163.2377170319057
 21
234.23991259214031
 31
0.0
 73
     3
  0
TEXT
  5
54
  8
SPEC
 62
     7
 10
-88.124355568595945
 20
230.28851828064549
 30
0.0
 40
3.8006293402777769
  1
20Hz～20kHz
 41
0.7
 11
-88.124355568595945
 21
234.08914762092331
 31
0.0
 73
     3
  0
LINE
  5
55
  8
SPEC
  6
CONTINUOUS
 62
     7
 10
-164.99999
 20
213.53182000000001
 30
0.0
 11
130.0
 21
213.53182000000001
 31
0.0
  0
LINE
  5
56
  8
SPEC
  6
CONTINUOUS
 62
     7
 10
-164.99999
 20
206.03182000000001
 30
0.0
 11
130.0
 21
206.03182000000001
 31
0.0
  0
TEXT
  5
57
  8
SPEC
 62
     7
 10
-163.74882694917281
 20
185.54980473197031
 30
0.0
 40
3.8006293402777769
  1
出力コネクター
 41
0.7
 11
-163.74882694917281
 21
189.35043407224799
 31
0.0
 73
     3
  0
TEXT
  5
58
  8
SPEC
 62
     7
 10
-88.076450899485479
 20
185.4104913515508
 30
0.0
 40
3.8006293402777769
  1
MicroDot
 41
0.7
 11
-88.076450899485479
 21
189.2111206918286
 31
0.0
 73
     3
  0
LINE
  5
59
  8
SPEC
  6
CONTINUOUS
 62
     7
 10
-164.99999
 20
198.53182000000001
 30
0.0
 11
130.0
 21
198.53182000000001
 31
0.0
  0
LINE
  5
5A
  8
SPEC
  6
CONTINUOUS
 62
     7
 10
-164.99999
 20
183.53182000000001
 30
0.0
 11
130.0
 21
183.53182000000001
 31
0.0
  0
TEXT
  5
5B
  8
SPEC
 62
     7
 10
-162.49999
 20
246.31834000000001
 30
0.0
 40
4.8865234375000002
  1
仕様
 41
0.7
 11
-162.49999
 21
251.20486343749999
 31
0.0
 73
     3
  0
TEXT
  5
5C
  8
SPEC
 62
     7
 10
-163.46473433505639
 20
170.40083859046371
 30
0.0
 40
3.8006293402777769
  1
ケーブル長
 41
0.7
 11
-163.46473433505639
 21
174.20146793074139
 31
0.0
 73
     3
  0
TEXT
  5
5D
  8
SPEC
 62
     7
 10
-88.445931545016066
 20
170.3935021779856
 30
0.0
 40
3.8006293402777769
  1
1.3m
 41
0.7
 11
-88.445931545016066
 21
174.19413151826339
 31
0.0
 73
     3
  0
TEXT
  5
5E
  8
SPEC
 62
     7
 10
-163.30608134892489
 20
163.0479845568089
 30
0.0
 40
3.8006293402777769
  1
質量
 41
0.7
 11
-163.30608134892489
 21
166.84861389708661
 31
0.0
 73
     3
  0
LINE
  5
5F
  8
SPEC
  6
CONTINUOUS
 62
     7
 10
-164.99999
 20
221.03182000000001
 30
0.0
 11
130.0
 21
221.03182000000001
 31
0.0
  0
LINE
  5
60
  8
SPEC
  6
CONTINUOUS
 62
     7
 10
-164.99999
 20
191.03182000000001
 30
0.0
 11
130.0
 21
191.03182000000001
 31
0.0
  0
LINE
  5
61
  8
SPEC
  6
CONTINUOUS
 62
     7
 10
-164.99999
 20
176.0318199999999
 30
0.0
 11
130.0
 21
176.0318199999999
 31
0.0
  0
LINE
  5
62
  8
SPEC
  6
CONTINUOUS
 62
     7
 10
-164.99999
 20
168.5318199999999
 30
0.0
 11
130.0
 21
168.5318199999999
 31
0.0
  0
LINE
  5
63
  8
SPEC
  6
CONTINUOUS
 62
     7
 10
-164.99999
 20
161.0318199999999
 30
0.0
 11
130.0
 21
161.0318199999999
 31
0.0
  0
TEXT
  5
64
  8
SPEC
 62
     7
 10
-163.18031292277701
 20
215.51921830908611
 30
0.0
 40
3.8006293402777769
  1
感度(\U+00B13dB)
 41
0.7
 11
-163.18031292277701
 21
219.31984764936379
 31
0.0
 73
     3
  0
TEXT
  5
65
  8
SPEC
 62
     7
 10
-88.035927051470622
 20
215.5283647712323
 30
0.0
 40
3.8006293402777769
  1
-44dB re、1V/Pa
 41
0.7
 11
-88.035927051470622
 21
219.32899411151001
 31
0.0
 73
     3
  0
TEXT
  5
66
  8
SPEC
 62
     7
 10
-163.398525960911
 20
208.11423995387139
 30
0.0
 40
3.8006293402777769
  1
インピーダンス
 41
0.7
 11
-163.398525960911
 21
211.91486929414921
 31
0.0
 73
     3
  0
TEXT
  5
67
  8
SPEC
 62
     7
 10
-88.169335891699006
 20
207.8794117648703
 30
0.0
 40
3.8006293402777769
  1
30～40\U+03A9(MicroDotコネクタ ー使用時）、100\U+03A9(DAD6001-BC使用時)
 41
0.7
 11
-88.169335891699006
 21
211.68004110514809
 31
0.0
 73
     3
  0
TEXT
  5
68
  8
SPEC
 62
     7
 10
-163.30144565237421
 20
200.35180812017651
 30
0.0
 40
3.8006293402777769
  1
等価雑音レベル(Aウェイト)
 41
0.7
 11
-163.30144565237421
 21
204.15243746045419
 31
0.0
 73
     3
  0
TEXT
  5
69
  8
SPEC
 62
     7
 10
-88.261777113885174
 20
200.3909507877533
 30
0.0
 40
3.8006293402777769
  1
28dB SPL
 41
0.7
 11
-88.261777113885174
 21
204.19158012803109
 31
0.0
 73
     3
  0
TEXT
  5
6A
  8
SPEC
 62
     7
 10
-163.18956708256169
 20
192.94197296031751
 30
0.0
 40
3.8006293402777769
  1
最大音圧レベル
 41
0.7
 11
-163.18956708256169
 21
196.74260230059519
 31
0.0
 73
     3
  0
TEXT
  5
6B
  8
SPEC
 62
     7
 10
-88.455193088664686
 20
192.7681782026595
 30
0.0
 40
3.8006293402777769
  1
144dB
 41
0.7
 11
-88.455193088664686
 21
196.56880754293721
 31
0.0
 73
     3
  0
TEXT
  5
6C
  8
SPEC
 62
     7
 10
-163.37304138299069
 20
178.08747380952499
 30
0.0
 40
3.8006293402777769
  1
電源
 41
0.7
 11
-163.37304138299069
 21
181.88810314980279
 31
0.0
 73
     3
  0
TEXT
  5
6D
  8
SPEC
 62
     7
 10
-88.153898981832356
 20
178.0152282572333
 30
0.0
 40
3.8006293402777769
  1
DC48V/5mA(ファンタム）、DC5V～50V（ワイヤレスシステムでの使用時）
 41
0.7
 11
-88.153898981832356
 21
181.8158575975111
 31
0.0
 73
     3
  0
LINE
  5
6E
  8
SPEC
  6
CONTINUOUS
 62
     7
 10
-164.99999
 20
153.5318199999999
 30
0.0
 11
130.0
 21
153.5318199999999
 31
0.0
  0
TEXT
  5
6F
  8
SPEC
 62
     7
 10
-163.2180556019178
 20
155.21563863009891
 30
0.0
 40
3.8006293402777769
  1
FIDF00-M2(ベージュ)、FIDB00-M2(黒)、FIDC00-M2(茶)、FIDLLB00-M2(ライムグリーン)
 41
0.7
 11
-163.2180556019178
 21
159.01626797037659
 31
0.0
 73
     3
  0
TEXT
  5
70
  8
SPEC
 62
     7
 10
-88.506944444444443
 20
163.0381353009935
 30
0.0
 40
3.8006293402777769
  1
10.4g(含ケーブル、コネクター)
 41
0.7
 11
-88.506944444444443
 21
166.8387646412713
 31
0.0
 73
     3
  0
TEXT
  5
71
  8
SPEC
 62
     7
 10
-163.2377170319057
 20
222.88171407723749
 30
0.0
 40
3.8006293402777769
  1
指向特性
 41
0.7
 11
-163.2377170319057
 21
226.68234341751531
 31
0.0
 73
     3
  0
TEXT
  5
72
  8
SPEC
 62
     7
 10
-88.239329233330139
 20
222.9034919453797
 30
0.0
 40
3.8006293402777769
  1
単一指向性
 41
0.7
 11
-88.239329233330139
 21
226.70412128565741
 31
0.0
 73
     3
  0
TEXT
  5
73
  8
DIMNSIONS
 62
     7
 10
-40.0
 20
-231.92919000000001
 30
0.0
 40
4.8865234375000002
  1
(単位：mm)
 41
0.7
 11
-40.0
 21
-227.04266656249999
 31
0.0
 73
     3
  0
LINE
  5
74
  8
DIMNSIONS
  6
CONTINUOUS
 62
     7
 10
113.2885738146377
 20
-150.9999843455999
 30
0.0
 11
95.988573814637761
 21
-150.9999843455999
 31
0.0
  0
LINE
  5
75
  8
DIMNSIONS
  6
CONTINUOUS
 62
     7
 10
114.71857381463769
 20
-50.999984344367682
 30
0.0
 11
95.988573814637761
 21
-50.999984344367682
 31
0.0
  0
LINE
  5
76
  8
DIMNSIONS
  6
CONTINUOUS
 62
     7
 10
99.988573799736642
 20
-150.9999843455999
 30
0.0
 11
99.988573799736642
 21
-50.999984344367682
 31
0.0
  0
LINE
  5
77
  8
DIMNSIONS
  6
CONTINUOUS
 62
     7
 10
99.988573799736642
 20
-150.9999843455999
 30
0.0
 11
98.287096427798957
 21
-144.64998434559999
 31
0.0
  0
LINE
  5
78
  8
DIMNSIONS
  6
CONTINUOUS
 62
     7
 10
99.988573799736642
 20
-150.9999843455999
 30
0.0
 11
101.6900511716742
 21
-144.64998434559999
 31
0.0
  0
LINE
  5
79
  8
DIMNSIONS
  6
CONTINUOUS
 62
     7
 10
99.988573799736642
 20
-50.999984344367682
 30
0.0
 11
101.6900511716742
 21
-57.349984344367677
 31
0.0
  0
LINE
  5
7A
  8
DIMNSIONS
  6
CONTINUOUS
 62
     7
 10
99.988573799736642
 20
-50.999984344367682
 30
0.0
 11
98.287096427798957
 21
-57.349984344367677
 31
0.0
  0
TEXT
  5
7B
  8
DIMNSIONS
 62
     7
 10
97.000795735028646
 20
-106.29165269382599
 30
0.0
 40
5.4294721042196441
  1
100
 50
90.0
 41
0.7
 11
91.571323630809005
 21
-106.29165269382599
 31
0.0
 73
     3
  0
LINE
  5
7C
  8
DIMNSIONS
  6
CONTINUOUS
 62
     7
 10
117.28857379936559
 20
-178.61344236903369
 30
0.0
 11
117.28857379936559
 21
-161.72451002615281
 31
0.0
  0
LINE
  5
7D
  8
DIMNSIONS
  6
CONTINUOUS
 62
     7
 10
122.6885737993656
 20
-178.61344236903369
 30
0.0
 11
122.6885737993656
 21
-161.72451002615281
 31
0.0
  0
LINE
  5
7E
  8
DIMNSIONS
  6
CONTINUOUS
 62
     7
 10
122.6885737993656
 20
-165.7245100112516
 30
0.0
 11
117.28857379936559
 21
-165.7245100112516
 31
0.0
  0
LINE
  5
7F
  8
DIMNSIONS
  6
CONTINUOUS
 62
     7
 10
117.28857379936559
 20
-165.7245100112516
 30
0.0
 11
107.28857378930731
 21
-165.7245100112516
 31
0.0
  0
LINE
  5
80
  8
DIMNSIONS
  6
CONTINUOUS
 62
     7
 10
117.28857379936559
 20
-165.7245100112516
 30
0.0
 11
110.9385737993656
 21
-167.42598738318929
 31
0.0
  0
LINE
  5
81
  8
DIMNSIONS
  6
CONTINUOUS
 62
     7
 10
117.28857379936559
 20
-165.7245100112516
 30
0.0
 11
110.9385737993656
 21
-164.02303263931401
 31
0.0
  0
LINE
  5
82
  8
DIMNSIONS
  6
CONTINUOUS
 62
     7
 10
122.6885737993656
 20
-165.7245100112516
 30
0.0
 11
143.88253321166661
 21
-165.7245100112516
 31
0.0
  0
LINE
  5
83
  8
DIMNSIONS
  6
CONTINUOUS
 62
     7
 10
122.6885737993656
 20
-165.7245100112516
 30
0.0
 11
129.03857379936559
 21
-164.02303263931401
 31
0.0
  0
LINE
  5
84
  8
DIMNSIONS
  6
CONTINUOUS
 62
     7
 10
122.6885737993656
 20
-165.7245100112516
 30
0.0
 11
129.03857379936559
 21
-167.42598738318929
 31
0.0
  0
TEXT
  5
85
  8
DIMNSIONS
 62
     7
 10
133.2991965139822
 20
-164.34156560712981
 30
0.0
 40
5.4294721042196441
  1
5.4
 41
0.7
 11
133.2991965139822
 21
-158.9120935029101
 31
0.0
 73
     3
  0
LINE
  5
86
  8
DIMNSIONS
  6
CONTINUOUS
 62
     7
 10
113.2885738142668
 20
-182.61344235413259
 30
0.0
 11
96.595944684901156
 21
-182.61344235413259
 31
0.0
  0
LINE
  5
87
  8
DIMNSIONS
  6
CONTINUOUS
 62
     7
 10
113.2885738142668
 20
-179.21344235413261
 30
0.0
 11
96.595944684901156
 21
-179.21344235413261
 31
0.0
  0
LINE
  5
88
  8
DIMNSIONS
  6
CONTINUOUS
 62
     7
 10
100.59594466999999
 20
-179.21344235413261
 30
0.0
 11
100.59594466999999
 21
-182.61344235413259
 31
0.0
  0
LINE
  5
89
  8
DIMNSIONS
  6
CONTINUOUS
 62
     7
 10
100.59594466999999
 20
-182.61344235413259
 30
0.0
 11
100.59594466999999
 21
-201.03495860073039
 31
0.0
  0
LINE
  5
8A
  8
DIMNSIONS
  6
CONTINUOUS
 62
     7
 10
100.59594466999999
 20
-182.61344235413259
 30
0.0
 11
102.29742204193759
 21
-188.9634423541325
 31
0.0
  0
LINE
  5
8B
  8
DIMNSIONS
  6
CONTINUOUS
 62
     7
 10
100.59594466999999
 20
-182.61344235413259
 30
0.0
 11
98.894467298062381
 21
-188.9634423541325
 31
0.0
  0
LINE
  5
8C
  8
DIMNSIONS
  6
CONTINUOUS
 62
     7
 10
100.59594466999999
 20
-179.21344235413261
 30
0.0
 11
100.59594466999999
 21
-169.21344234407431
 31
0.0
  0
LINE
  5
8D
  8
DIMNSIONS
  6
CONTINUOUS
 62
     7
 10
100.59594466999999
 20
-179.21344235413261
 30
0.0
 11
98.894467298062381
 21
-172.86344235413259
 31
0.0
  0
LINE
  5
8E
  8
DIMNSIONS
  6
CONTINUOUS
 62
     7
 10
100.59594466999999
 20
-179.21344235413261
 30
0.0
 11
102.29742204193759
 21
-172.86344235413259
 31
0.0
  0
TEXT
  5
8F
  8
DIMNSIONS
 62
     7
 10
97.608166605292041
 20
-201.03495860073039
 30
0.0
 40
5.4294721042196441
  1
3.4
 50
90.0
 41
0.7
 11
92.1786945010724
 21
-201.03495860073039
 31
0.0
 73
     3
  0
LINE
  5
90
  8
DIMNSIONS
  6
CONTINUOUS
 62
     7
 10
-47.393297825060877
 20
99.851925624843204
 30
0.0
 11
-38.197049066804979
 21
106.6701613924009
 31
0.0
  0
LINE
  5
91
  8
DIMNSIONS
  6
CONTINUOUS
 62
     7
 10
-47.393297825060877
 20
99.851925624843204
 30
0.0
 11
-43.256143217114278
 21
104.9608860863423
 31
0.0
  0
LINE
  5
92
  8
DIMNSIONS
  6
CONTINUOUS
 62
     7
 10
-47.393297825060877
 20
99.851925624843204
 30
0.0
 11
-41.255936604445672
 21
102.20783786745839
 31
0.0
  0
LINE
  5
93
  8
DIMNSIONS
  6
CONTINUOUS
 62
     7
 10
-38.197049066804979
 20
106.6701613924009
 30
0.0
 11
-8.5581601753083874
 21
106.6701613924009
 31
0.0
  0
TEXT
  5
94
  8
DIMNSIONS
 62
     7
 10
-26.19704906419727
 20
108.15793917017869
 30
0.0
 40
5.4294704861111107
  1
\U+03C65.8
 41
0.7
 11
-26.19704906419727
 21
113.58740965628979
 31
0.0
 73
     3
  0
LINE
  5
95
  8
DIMNSIONS
  6
CONTINUOUS
 62
     7
 10
-38.833016447812923
 20
91.224751843669395
 30
0.0
 11
-38.833016447812923
 21
76.8327956257652
 31
0.0
  0
LINE
  5
96
  8
DIMNSIONS
  6
CONTINUOUS
 62
     7
 10
-38.833016447812923
 20
80.832795610864039
 30
0.0
 11
85.079686190010534
 21
80.832795610864039
 31
0.0
  0
LINE
  5
97
  8
DIMNSIONS
  6
CONTINUOUS
 62
     7
 10
-38.833016447812923
 20
80.832795610864039
 30
0.0
 11
-32.483016447812922
 21
82.534272982801653
 31
0.0
  0
LINE
  5
98
  8
DIMNSIONS
  6
CONTINUOUS
 62
     7
 10
-38.833016447812923
 20
80.832795610864039
 30
0.0
 11
-32.483016447812922
 21
79.131318238926426
 31
0.0
  0
TEXT
  5
99
  8
DIMNSIONS
 62
     7
 10
26.474685243474131
 20
83.820573675572021
 30
0.0
 40
5.4294721042196441
  1
1.3m
 41
0.7
 11
26.474685243474131
 21
89.250045779791662
 31
0.0
 73
     3
  0
LINE
  5
9A
  8
DIMNSIONS
  6
CONTINUOUS
 62
     7
 10
117.2851308839538
 20
-15.596634991647431
 30
0.0
 11
96.079686204911695
 21
-15.596634991647431
 31
0.0
  0
ARC
  5
9B
  8
DIMNSIONS
  6
CONTINUOUS
 62
     7
 10
85.079686190010534
 20
65.832795610864039
 30
0.0
 40
15.0
 50
0.0
 51
90.0
  0
LINE
  5
9C
  8
DIMNSIONS
  6
CONTINUOUS
 62
     7
 10
123.2385737993656
 20
-186.5426074787315
 30
0.0
 11
128.92974202502771
 21
-196.40000000000001
 31
0.0
  0
LINE
  5
9D
  8
DIMNSIONS
  6
CONTINUOUS
 62
     7
 10
123.2385737993656
 20
-186.5426074787315
 30
0.0
 11
127.88709642742791
 21
-191.19113010679379
 31
0.0
  0
LINE
  5
9E
  8
DIMNSIONS
  6
CONTINUOUS
 62
     7
 10
123.2385737993656
 20
-186.5426074787315
 30
0.0
 11
124.9400511713032
 21
-192.89260747873141
 31
0.0
  0
LINE
  5
9F
  8
DIMNSIONS
  6
CONTINUOUS
 62
     7
 10
128.92974202502771
 20
-196.40000000000001
 30
0.0
 11
155.0408571759678
 21
-196.40000000000001
 31
0.0
  0
TEXT
  5
A0
  8
DIMNSIONS
 62
     7
 10
140.9297420276354
 20
-193.41222192057299
 30
0.0
 40
5.4294721851250713
  1
\U+03C613
 41
0.7
 11
140.9297420276354
 21
-187.9827497354479
 31
0.0
 73
     3
  0
LINE
  5
A1
  8
DIMNSIONS
  6
CONTINUOUS
 62
     7
 10
100.07968619001051
 20
65.832795610864039
 30
0.0
 11
100.07968619001051
 21
-15.596634991647431
 31
0.0
  0
LINE
  5
A2
  8
DIMNSIONS
  6
CONTINUOUS
 62
     7
 10
100.07968619001051
 20
-15.596634991647431
 30
0.0
 11
98.378208818072906
 21
-9.2466349916474329
 31
0.0
  0
LINE
  5
A3
  8
DIMNSIONS
  6
CONTINUOUS
 62
     7
 10
100.07968619001051
 20
-15.596634991647431
 30
0.0
 11
101.78116356194811
 21
-9.2466349916474329
 31
0.0
  0
TEXT
  5
A4
  8
DATA
 62
     7
 10
75.955197216091392
 20
-234.4469206252854
 30
0.0
 40
3.8006293402777769
  1
FIDF00-M2/FIDB00-M2/FIDC00-M2/FIDLLB00-M2
 41
0.7
 11
75.955197216091392
 21
-230.64629128500769
 31
0.0
 73
     3
  0
TEXT
  5
A5
  8
DATA
 62
     7
 10
94.274724553315565
 20
-217.63726475650481
 30
0.0
 40
4.8865234375000002
  1
DPA
 41
0.7
 11
94.274724553315565
 21
-212.75074131900479
 31
0.0
 73
     3
  0
LINE
  5
A6
  8
DATA
  6
CONTINUOUS
 62
     7
 10
115.9885737997366
 20
-7.0
 30
0.0
 11
119.9885737997365
 21
-7.0
 31
0.0
  0
LINE
  5
A7
  8
DATA
  6
CONTINUOUS
 62
     7
 10
117.2885737997366
 20
-150.9999843455999
 30
0.0
 11
117.2885737997366
 21
-148.99998434560001
 31
0.0
  0
LINE
  5
A8
  8
DATA
  6
CONTINUOUS
 62
     7
 10
122.6885737997365
 20
-150.9999843455999
 30
0.0
 11
117.2885737997366
 21
-150.9999843455999
 31
0.0
  0
LINE
  5
A9
  8
DATA
  6
CONTINUOUS
 62
     7
 10
122.6885737997365
 20
-148.99998434560001
 30
0.0
 11
122.6885737997365
 21
-150.9999843455999
 31
0.0
  0
LINE
  5
AA
  8
DATA
  6
CONTINUOUS
 62
     7
 10
117.2885737997366
 20
-148.99998434560001
 30
0.0
 11
118.4885737997365
 21
-148.99998434560001
 31
0.0
  0
LINE
  5
AB
  8
DATA
  6
CONTINUOUS
 62
     7
 10
121.4885737997365
 20
-148.99998434560001
 30
0.0
 11
122.6885737997365
 21
-148.99998434560001
 31
0.0
  0
LINE
  5
AC
  8
DATA
  6
CONTINUOUS
 62
     7
 10
117.38857379973651
 20
-148.99998434560001
 30
0.0
 11
117.38857379973651
 21
-145.63623817191419
 31
0.0
  0
LINE
  5
AD
  8
DATA
  6
CONTINUOUS
 62
     7
 10
120.88857379973641
 20
-140.99998434560001
 30
0.0
 11
119.08857379973649
 21
-140.99998434560001
 31
0.0
  0
ARC
  5
AE
  8
DATA
  6
CONTINUOUS
 62
     7
 10
110.3494705419952
 20
-139.64711546105991
 30
0.0
 40
8.8431996453898272
 50
326.47236921403692
 51
351.2001010229468
  0
ARC
  5
AF
  8
DATA
  6
CONTINUOUS
 62
     7
 10
119.38857379973651
 20
-145.63623817191419
 30
0.0
 40
1.9999999999999469
 50
146.47236921403649
 51
180.0
  0
ARC
  5
B0
  8
DATA
  6
CONTINUOUS
 62
     7
 10
129.6276770574778
 20
-139.64711546105991
 30
0.0
 40
8.8431996453897543
 50
188.7998989770532
 51
213.52763078596331
  0
ARC
  5
B1
  8
DATA
  6
CONTINUOUS
 62
     7
 10
120.58857379973649
 20
-145.63623817191419
 30
0.0
 40
1.9999999999999141
 50
0.0
 51
33.527630785962977
  0
LINE
  5
B2
  8
DATA
  6
CONTINUOUS
 62
     7
 10
122.58857379973639
 20
-145.6399843456
 30
0.0
 11
122.5822802279443
 21
-148.99998434560001
 31
0.0
  0
LINE
  5
B3
  8
DATA
  6
CONTINUOUS
 62
     7
 10
119.38857379973651
 20
-126.23443053
 30
0.0
 11
119.38857379973651
 21
-116.43443053
 31
0.0
  0
LINE
  5
B4
  8
DATA
  6
CONTINUOUS
 62
     7
 10
119.38857379973651
 20
-140.99998434560001
 30
0.0
 11
119.38857379973651
 21
-56.999984344367697
 31
0.0
  0
LINE
  5
B5
  8
DATA
  6
CONTINUOUS
 62
     7
 10
120.58857379973649
 20
-56.999984344367682
 30
0.0
 11
120.58857379973649
 21
-140.99998434560001
 31
0.0
  0
LINE
  5
B6
  8
DATA
  6
CONTINUOUS
 62
     7
 10
120.58857379973649
 20
-116.43443053
 30
0.0
 11
120.58857379973649
 21
-126.23443053
 31
0.0
  0
LINE
  5
B7
  8
DATA
  6
CONTINUOUS
 62
     7
 10
119.8435737997365
 20
-144.99998434560001
 30
0.0
 11
120.1335737997366
 21
-144.99998434560001
 31
0.0
  0
POLYLINE
  5
B8
  8
DATA
  6
CONTINUOUS
 62
     7
 66
     1
 10
0.0
 20
0.0
 30
0.0
  0
VERTEX
  5
294
  8
DATA
  6
CONTINUOUS
 62
     7
 10
121.4885737997365
 20
-147.11885787720891
 30
0.0
  0
VERTEX
  5
295
  8
DATA
  6
CONTINUOUS
 62
     7
 10
121.4885737997365
 20
-150.9999843455999
 30
0.0
  0
VERTEX
  5
296
  8
DATA
  6
CONTINUOUS
 62
     7
 10
118.4885737997365
 20
-150.9999843455999
 30
0.0
  0
VERTEX
  5
297
  8
DATA
  6
CONTINUOUS
 62
     7
 10
118.4885737997365
 20
-147.11885787720891
 30
0.0
  0
SEQEND
  5
298
  8
DATA
  6
CONTINUOUS
 62
     7
  0
ARC
  5
BF
  8
DATA
  6
CONTINUOUS
 62
     7
 10
121.2320955692756
 20
-147.1894211114043
 30
0.0
 40
2.74442906083494
 50
140.6797186864662
 51
181.4733195885471
  0
ARC
  5
C0
  8
DATA
  6
CONTINUOUS
 62
     7
 10
120.1464611300252
 20
-146.3182534609868
 30
0.0
 40
1.352617534793952
 50
102.93977878885281
 51
140.08802550898969
  0
ARC
  5
C1
  8
DATA
  6
CONTINUOUS
 62
     7
 10
118.7450520301974
 20
-147.1894211114043
 30
0.0
 40
2.744429060834896
 50
358.5266804114529
 51
39.320281313533783
  0
ARC
  5
C2
  8
DATA
  6
CONTINUOUS
 62
     7
 10
119.8306864694478
 20
-146.3182534609868
 30
0.0
 40
1.3526175347939151
 50
39.911974491011833
 51
77.06022121114718
  0
LINE
  5
C3
  8
DATA
  6
CONTINUOUS
 62
     7
 10
119.8585255987024
 20
-142.64998434559999
 30
0.0
 11
120.1186220007578
 21
-142.64998434559999
 31
0.0
  0
ARC
  5
C4
  8
DATA
  6
CONTINUOUS
 62
     7
 10
134.21578651367301
 20
-149.93227040916969
 30
0.0
 40
16.853018869757118
 50
161.55468141893621
 51
176.8288567004239
  0
ARC
  5
C5
  8
DATA
  6
CONTINUOUS
 62
     7
 10
123.4522430415258
 20
-146.91726674454691
 30
0.0
 40
5.7145881797452596
 50
136.07735121345311
 51
156.07735121345701
  0
ARC
  5
C6
  8
DATA
  6
CONTINUOUS
 62
     7
 10
120.1068807658191
 20
-143.56677836893039
 30
0.0
 40
0.985177851858794
 50
120.78945751984421
 51
141.47344572419311
  0
ARC
  5
C7
  8
DATA
  6
CONTINUOUS
 62
     7
 10
105.7613610858
 20
-149.93227040916969
 30
0.0
 40
16.853018869757161
 50
3.1711432995761091
 51
18.44531858106366
  0
ARC
  5
C8
  8
DATA
  6
CONTINUOUS
 62
     7
 10
116.5249045579472
 20
-146.91726674454691
 30
0.0
 40
5.7145881797452844
 50
23.92264878654267
 51
43.922648786546659
  0
ARC
  5
C9
  8
DATA
  6
CONTINUOUS
 62
     7
 10
119.8702668336539
 20
-143.56677836893039
 30
0.0
 40
0.9851778518587883
 50
38.526554275806902
 51
59.210542481454389
  0
ARC
  5
CA
  8
DATA
  6
CONTINUOUS
 62
     7
 10
119.8585255987024
 20
-143.14998435303491
 30
0.0
 40
0.5000000074348919
 50
90.0
 51
120.7894575207641
  0
ARC
  5
CB
  8
DATA
  6
CONTINUOUS
 62
     7
 10
120.1186220007578
 20
-143.14998435308129
 30
0.0
 40
0.5000000074812788
 50
59.210542483256368
 51
90.0
  0
POLYLINE
  5
CC
  8
DATA
  6
STYLE_01
 62
     7
 66
     1
 10
0.0
 20
0.0
 30
0.0
 70
   129
  0
VERTEX
  5
299
  8
DATA
  6
STYLE_01
 62
     7
 10
118.4885737997365
 20
-138.3344305299677
 30
0.0
  0
VERTEX
  5
29A
  8
DATA
  6
STYLE_01
 62
     7
 10
121.4885737997365
 20
-138.3344305299677
 30
0.0
  0
VERTEX
  5
29B
  8
DATA
  6
STYLE_01
 62
     7
 10
121.4885737997365
 20
-138.3344305299677
 30
0.0
 42
-0.4142135623730901
  0
VERTEX
  5
29C
  8
DATA
  6
STYLE_01
 62
     7
 10
126.4885737997364
 20
-143.3344305299677
 30
0.0
  0
VERTEX
  5
29D
  8
DATA
  6
STYLE_01
 62
     7
 10
126.4885737997364
 20
-148.3344305299677
 30
0.0
  0
VERTEX
  5
29E
  8
DATA
  6
STYLE_01
 62
     7
 10
126.4885737997364
 20
-148.3344305299677
 30
0.0
 42
-0.4142135623730984
  0
VERTEX
  5
29F
  8
DATA
  6
STYLE_01
 62
     7
 10
121.4885737997365
 20
-153.3344305299677
 30
0.0
  0
VERTEX
  5
2A0
  8
DATA
  6
STYLE_01
 62
     7
 10
118.4885737997365
 20
-153.3344305299677
 30
0.0
  0
VERTEX
  5
2A1
  8
DATA
  6
STYLE_01
 62
     7
 10
118.4885737997365
 20
-153.3344305299677
 30
0.0
 42
-0.4142135623730918
  0
VERTEX
  5
2A2
  8
DATA
  6
STYLE_01
 62
     7
 10
113.4885737997366
 20
-148.3344305299677
 30
0.0
  0
VERTEX
  5
2A3
  8
DATA
  6
STYLE_01
 62
     7
 10
113.4885737997366
 20
-143.33443052996759
 30
0.0
  0
VERTEX
  5
2A4
  8
DATA
  6
STYLE_01
 62
     7
 10
113.4885737997366
 20
-143.33443052996759
 30
0.0
 42
-0.4142135623730951
  0
VERTEX
  5
2A5
  8
DATA
  6
STYLE_01
 62
     7
 10
118.4885737997365
 20
-138.3344305299677
 30
0.0
  0
SEQEND
  5
2A6
  8
DATA
  6
STYLE_01
 62
     7
  0
POLYLINE
  5
DB
  8
DATA
  6
CONTINUOUS
 62
     7
 66
     1
 10
0.0
 20
0.0
 30
0.0
  0
VERTEX
  5
2A7
  8
DATA
  6
CONTINUOUS
 62
     7
 10
118.4885737997365
 20
-55.00553816
 30
0.0
  0
VERTEX
  5
2A8
  8
DATA
  6
CONTINUOUS
 62
     7
 10
118.4885737997365
 20
-50.999984344367682
 30
0.0
  0
VERTEX
  5
2A9
  8
DATA
  6
CONTINUOUS
 62
     7
 10
121.4885737997365
 20
-50.999984344367682
 30
0.0
  0
VERTEX
  5
2AA
  8
DATA
  6
CONTINUOUS
 62
     7
 10
121.4885737997365
 20
-55.00553816
 30
0.0
  0
SEQEND
  5
2AB
  8
DATA
  6
CONTINUOUS
 62
     7
  0
LINE
  5
E2
  8
DATA
  6
CONTINUOUS
 62
     7
 10
120.7385737997365
 20
-56.999984344367682
 30
0.0
 11
119.2385737997365
 21
-56.999984344367682
 31
0.0
  0
LINE
  5
E3
  8
DATA
  6
CONTINUOUS
 62
     7
 10
119.2385737997365
 20
-56.999984344367682
 30
0.0
 11
118.4885737997365
 21
-55.00553816
 31
0.0
  0
LINE
  5
E4
  8
DATA
  6
CONTINUOUS
 62
     7
 10
120.7385737997365
 20
-56.999984344367682
 30
0.0
 11
121.4885737997365
 21
-55.00553816
 31
0.0
  0
LINE
  5
E5
  8
DATA
  6
CONTINUOUS
 62
     7
 10
118.7185737997365
 20
-50.105538160000002
 30
0.0
 11
119.40664792260679
 21
-49.385693049459782
 31
0.0
  0
LINE
  5
E6
  8
DATA
  6
CONTINUOUS
 62
     7
 10
121.2185737997365
 20
-50.105538160000002
 30
0.0
 11
120.5662437871452
 21
-49.385693049459782
 31
0.0
  0
LINE
  5
E7
  8
DATA
  6
CONTINUOUS
 62
     7
 10
118.7185737997365
 20
-50.105538160000002
 30
0.0
 11
118.7185737997365
 21
-50.999984344367682
 31
0.0
  0
LINE
  5
E8
  8
DATA
  6
CONTINUOUS
 62
     7
 10
121.2185737997365
 20
-50.105538160000002
 30
0.0
 11
121.2185737997365
 21
-50.999984344367682
 31
0.0
  0
LINE
  5
E9
  8
DATA
  6
CONTINUOUS
 62
     7
 10
119.40664792260679
 20
-49.385693049459782
 30
0.0
 11
120.5662437871452
 21
-49.385693049459782
 31
0.0
  0
LINE
  5
EA
  8
DATA
  6
CONTINUOUS
 62
     7
 10
118.7185737997365
 20
-50.438562637754877
 30
0.0
 11
121.2185737997365
 21
-50.438562637754877
 31
0.0
  0
LINE
  5
EB
  8
DATA
  6
CONTINUOUS
 62
     7
 10
108.96754080460499
 20
-46.383564742944991
 30
0.0
 11
117.88857379973651
 21
-46.383564742944991
 31
0.0
  0
LINE
  5
EC
  8
DATA
  6
CONTINUOUS
 62
     7
 10
118.7725182378226
 20
-50.049102902944973
 30
0.0
 11
121.1674316701225
 21
-50.049102902944973
 31
0.0
  0
LINE
  5
ED
  8
DATA
  6
CONTINUOUS
 62
     7
 10
116.8827469607906
 20
-45.349716315478318
 30
0.0
 11
119.9885737997365
 21
-7.0
 31
0.0
  0
LINE
  5
EE
  8
DATA
  6
CONTINUOUS
 62
     7
 10
115.14258494615861
 20
-17.445988853578111
 30
0.0
 11
115.9885737997366
 21
-7.0
 31
0.0
  0
ARC
  5
EF
  8
DATA
  6
CONTINUOUS
 62
     7
 10
97.160350534042834
 20
-31.698815907733291
 30
0.0
 40
15.00000000000024
 50
48.442360419984098
 51
307.04266197166078
  0
ARC
  5
F0
  8
DATA
  6
CONTINUOUS
 62
     7
 10
109.9003569120152
 20
-15.70777196585648
 30
0.0
 40
5.5228935089063871
 50
239.66446817276679
 51
341.65552209671591
  0
ARC
  5
F1
  8
DATA
  6
CONTINUOUS
 62
     7
 10
97.160350534043104
 20
-31.698815907733088
 30
0.0
 40
13.99999999999989
 50
41.557816121870772
 51
303.57975176696971
  0
ARC
  5
F2
  8
DATA
  6
CONTINUOUS
 62
     7
 10
108.96754080460499
 20
-44.383564742944991
 30
0.0
 40
1.9999999999999281
 50
199.37339627302691
 51
270.0
  0
ARC
  5
F3
  8
DATA
  6
CONTINUOUS
 62
     7
 10
98.779149132366442
 20
-31.73312787459761
 30
0.0
 40
14.937590113747589
 50
305.45589426799842
 51
356.4809621018008
  0
ARC
  5
F4
  8
DATA
  6
CONTINUOUS
 62
     7
 10
101.8660662844823
 20
-32.730562911587761
 30
0.0
 40
11.82278200471303
 50
0.3904284575585297
 51
60.786454707486818
  0
ARC
  5
F5
  8
DATA
  6
CONTINUOUS
 62
     7
 10
80.798006576366646
 20
-30.134552934170092
 30
0.0
 40
28.35674604196949
 50
338.40239831911077
 51
6.2059687764673859
  0
ARC
  5
F6
  8
DATA
  6
CONTINUOUS
 62
     7
 10
83.376884862074931
 20
-31.021460106367378
 30
0.0
 40
26.75171783511167
 50
337.73976396328828
 51
8.4445318472079975
  0
LINE
  5
F7
  8
DATA
  6
CONTINUOUS
 62
     7
 10
109.83857379973659
 20
-27.09292021273475
 30
0.0
 11
108.9885737997367
 21
-27.06910586834017
 31
0.0
  0
LINE
  5
F8
  8
DATA
  6
CONTINUOUS
 62
     7
 10
116.8827469607906
 20
-45.349716315478318
 30
0.0
 11
117.88857379973651
 21
-45.349414106606631
 31
0.0
  0
LINE
  5
F9
  8
DATA
  6
CONTINUOUS
 62
     7
 10
117.88857379973651
 20
-45.349414106606631
 30
0.0
 11
117.88857379973651
 21
-46.383564742944991
 31
0.0
  0
ARC
  5
FA
  8
DATA
  6
CONTINUOUS
 62
     7
 10
101.5851278277545
 20
-38.363749958498701
 30
0.0
 40
6.0000000000000062
 50
303.57975176696999
 51
338.40239831911077
  0
ARC
  5
FB
  8
DATA
  6
CONTINUOUS
 62
     7
 10
102.5820361580397
 20
-38.882500546868641
 30
0.0
 40
6.0
 50
307.042661971661
 51
337.7397639632884
  0
ARC
  5
FC
  8
DATA
  6
CONTINUOUS
 62
     7
 10
108.0241640184103
 20
-44.71528787941395
 30
0.0
 40
1.000000000000008
 50
125.4558942679987
 51
199.373396273026
  0
LINE
  5
FD
  8
DATA
  6
CONTINUOUS
 62
     7
 10
119.4864458548759
 20
-49.385693049459782
 30
0.0
 11
119.4864458548759
 21
-47.285515621809722
 31
0.0
  0
LINE
  5
FE
  8
DATA
  6
CONTINUOUS
 62
     7
 10
120.4864458548759
 20
-46.819207963654719
 30
0.0
 11
120.4864458548759
 21
-49.385693049459782
 31
0.0
  0
LINE
  5
FF
  8
DATA
  6
CONTINUOUS
 62
     7
 10
118.7720210742491
 20
-45.753426735571779
 30
0.0
 11
116.97235033386571
 21
-44.243323681075459
 31
0.0
  0
LINE
  5
100
  8
DATA
  6
CONTINUOUS
 62
     7
 10
119.772021074249
 20
-45.287119077416747
 30
0.0
 11
117.0713440676585
 21
-43.020981997257607
 31
0.0
  0
ARC
  5
101
  8
DATA
  6
CONTINUOUS
 62
     7
 10
117.486445854876
 20
-47.285515621809701
 30
0.0
 40
1.9999999999999709
 50
359.99999999999937
 51
49.999999999998799
  0
ARC
  5
102
  8
DATA
  6
CONTINUOUS
 62
     7
 10
118.486445854876
 20
-46.819207963654719
 30
0.0
 40
1.9999999999999709
 50
0.0000000000002274
 51
50.000000000000632
  0
LINE
  5
103
  8
DATA
  6
CONTINUOUS
 62
     7
 10
119.09088672368451
 20
-37.301230550609233
 30
0.0
 11
117.421096885324
 21
-38.70235058812117
 31
0.0
  0
LINE
  5
104
  8
DATA
  6
CONTINUOUS
 62
     7
 10
120.0280097599038
 20
-37.820298245882142
 30
0.0
 11
117.30766771380669
 21
-40.102936253438287
 31
0.0
  0
ARC
  5
105
  8
DATA
  6
CONTINUOUS
 62
     7
 10
117.8053115043114
 20
-35.769141664371311
 30
0.0
 40
1.9999999999999749
 50
310.0000000000004
 51
347.50000000000119
  0
LINE
  5
106
  8
DATA
  6
CONTINUOUS
 62
     7
 10
119.7579035185513
 20
-36.202020892247468
 30
0.0
 11
119.8161088106763
 21
-35.545021666693962
 31
0.0
  0
LINE
  5
107
  8
DATA
  6
CONTINUOUS
 62
     7
 10
120.7346317865964
 20
-36.464703361718982
 30
0.0
 11
120.80826415391221
 21
-35.633569172095122
 31
0.0
  0
ARC
  5
108
  8
DATA
  6
CONTINUOUS
 62
     7
 10
118.7424345405307
 20
-36.288209359644192
 30
0.0
 40
2.0000000000000271
 50
310.00000000000119
 51
354.93723365184729
  0
POLYLINE
  5
109
  8
DATA
  6
CONTINUOUS
 62
     7
 66
     1
 10
0.0
 20
0.0
 30
0.0
  0
VERTEX
  5
2AC
  8
DATA
  6
CONTINUOUS
 62
     7
 10
122.38413754991051
 20
-30.754338775597411
 30
0.0
  0
VERTEX
  5
2AD
  8
DATA
  6
CONTINUOUS
 62
     7
 10
121.93966606557839
 20
-35.734544102651263
 30
0.0
  0
VERTEX
  5
2AE
  8
DATA
  6
CONTINUOUS
 62
     7
 10
118.6527305497228
 20
-35.441192922992002
 30
0.0
  0
VERTEX
  5
2AF
  8
DATA
  6
CONTINUOUS
 62
     7
 10
119.0972020340551
 20
-30.46098759593815
 30
0.0
  0
SEQEND
  5
2B0
  8
DATA
  6
CONTINUOUS
 62
     7
  0
LINE
  5
110
  8
DATA
  6
CONTINUOUS
 62
     7
 10
121.1776472861098
 20
-15.587042337426441
 30
0.0
 11
122.9705212038491
 21
-15.74705207178603
 31
0.0
  0
LINE
  5
111
  8
DATA
  6
CONTINUOUS
 62
     7
 10
121.1776472861098
 20
-15.587042337426441
 30
0.0
 11
119.0972020340551
 21
-30.46098759593815
 31
0.0
  0
LINE
  5
112
  8
DATA
  6
CONTINUOUS
 62
     7
 10
122.9705212038491
 20
-15.74705207178603
 30
0.0
 11
122.38413754991051
 21
-30.754338775597411
 31
0.0
  0
LINE
  5
113
  8
DATA
  6
CONTINUOUS
 62
     7
 10
121.28513086905259
 20
-15.596634991647431
 30
0.0
 11
122.4989059815239
 21
58.65742115409661
 31
0.0
  0
LINE
  5
114
  8
DATA
  6
CONTINUOUS
 62
     7
 10
124.0066303918686
 20
57.057421154096602
 30
0.0
 11
122.87879657370981
 21
-15.738865866633731
 31
0.0
  0
TEXT
  5
115
  8
DATA
 62
     7
 10
86.296011213563006
 20
-222.79022846932261
 30
0.0
 40
3.8006293402777769
  1
d:fine デュアルイヤー・ヘットセット・
 41
0.7
 11
86.296011213563006
 21
-220.88991379918369
 31
0.0
 73
     2
  0
TEXT
  5
116
  8
DATA
 62
     7
 10
90.889300318921357
 20
-228.17244169172909
 30
0.0
 40
3.8006293402777769
  1
マイクロホン 単一指向性
 41
0.7
 11
90.889300318921357
 21
-226.27212702159019
 31
0.0
 73
     2
  0
LINE
  5
117
  8
DATA
  6
CONTINUOUS
 62
     7
 10
-81.310653832344073
 20
-7.0
 30
0.0
 11
-78.510653832344033
 21
-7.0
 31
0.0
  0
LINE
  5
118
  8
DATA
  6
CONTINUOUS
 62
     7
 10
-81.310653832344073
 20
-7.0
 30
0.0
 11
-81.310653832344073
 21
-21.385359893340489
 31
0.0
  0
LINE
  5
119
  8
DATA
  6
CONTINUOUS
 62
     7
 10
-81.310653832344073
 20
-31.975894721417749
 30
0.0
 11
-81.310653832344073
 21
-42.034999999999989
 31
0.0
  0
LINE
  5
11A
  8
DATA
  6
CONTINUOUS
 62
     7
 10
-78.510653832344033
 20
-7.0
 30
0.0
 11
-78.510653832344033
 21
-22.56642954949498
 31
0.0
  0
LINE
  5
11B
  8
DATA
  6
CONTINUOUS
 62
     7
 10
-78.510653832344033
 20
-31.975894721417749
 30
0.0
 11
-78.510653832344033
 21
-42.034999999999997
 31
0.0
  0
POLYLINE
  5
11C
  8
DATA
  6
CONTINUOUS
 62
     7
 66
     1
 10
0.0
 20
0.0
 30
0.0
 70
   128
  0
VERTEX
  5
2B1
  8
DATA
  6
CONTINUOUS
 62
     7
 10
-78.010653832344033
 20
-43.383564742944984
 30
0.0
  0
VERTEX
  5
2B2
  8
DATA
  6
CONTINUOUS
 62
     7
 10
-78.010653832344033
 20
-46.383564742944969
 30
0.0
  0
VERTEX
  5
2B3
  8
DATA
  6
CONTINUOUS
 62
     7
 10
-81.510653832344076
 20
-46.383564742944991
 30
0.0
  0
VERTEX
  5
2B4
  8
DATA
  6
CONTINUOUS
 62
     7
 10
-81.510653832344119
 20
-46.383564742944991
 30
0.0
 42
-0.198912367379595
  0
VERTEX
  5
2B5
  8
DATA
  6
CONTINUOUS
 62
     7
 10
-81.722785866700065
 20
-46.295696777300961
 30
0.0
  0
VERTEX
  5
2B6
  8
DATA
  6
CONTINUOUS
 62
     7
 10
-81.722785866700065
 20
-46.295696777300968
 30
0.0
 42
-0.1989123673796667
  0
VERTEX
  5
2B7
  8
DATA
  6
CONTINUOUS
 62
     7
 10
-81.810653832344087
 20
-46.083564742944993
 30
0.0
  0
VERTEX
  5
2B8
  8
DATA
  6
CONTINUOUS
 62
     7
 10
-81.810653832344087
 20
-43.383564742944984
 30
0.0
  0
SEQEND
  5
2B9
  8
DATA
  6
CONTINUOUS
 62
     7
  0
ARC
  5
126
  8
DATA
  6
CONTINUOUS
 62
     7
 10
-84.308839639741052
 20
-41.690352497406742
 30
0.0
 40
3.0179297600706798
 50
325.87149346366391
 51
353.44251701606572
  0
ARC
  5
127
  8
DATA
  6
CONTINUOUS
 62
     7
 10
-75.512468024947069
 20
-41.690352497406742
 30
0.0
 40
3.0179297600706789
 50
186.55748298393439
 51
214.12850653633629
  0
POLYLINE
  5
128
  8
DATA
  6
CONTINUOUS
 62
     7
 66
     1
 10
0.0
 20
0.0
 30
0.0
  0
VERTEX
  5
2BA
  8
DATA
  6
CONTINUOUS
 62
     7
 10
-78.290180573747875
 20
-26.975894721417731
 30
0.0
  0
VERTEX
  5
2BB
  8
DATA
  6
CONTINUOUS
 62
     7
 10
-78.290180573747875
 20
-31.975894721417749
 30
0.0
  0
VERTEX
  5
2BC
  8
DATA
  6
CONTINUOUS
 62
     7
 10
-81.590180573747972
 20
-31.975894721417749
 30
0.0
  0
VERTEX
  5
2BD
  8
DATA
  6
CONTINUOUS
 62
     7
 10
-81.590180573747972
 20
-26.975894721417731
 30
0.0
  0
SEQEND
  5
2BE
  8
DATA
  6
CONTINUOUS
 62
     7
  0
LINE
  5
12F
  8
DATA
  6
CONTINUOUS
 62
     7
 10
-80.840180573747944
 20
-11.975894721417751
 30
0.0
 11
-79.04018057374789
 21
-11.975894721417751
 31
0.0
  0
LINE
  5
130
  8
DATA
  6
CONTINUOUS
 62
     7
 10
-80.840180573747944
 20
-11.975894721417751
 30
0.0
 11
-81.590180573747972
 21
-26.975894721417731
 31
0.0
  0
LINE
  5
131
  8
DATA
  6
CONTINUOUS
 62
     7
 10
-79.04018057374789
 20
-11.975894721417751
 30
0.0
 11
-78.290180573747875
 21
-26.975894721417731
 31
0.0
  0
POLYLINE
  5
132
  8
DATA
  6
CONTINUOUS
 62
     7
 66
     1
 10
0.0
 20
0.0
 30
0.0
 70
     1
  0
VERTEX
  5
2BF
  8
DATA
  6
CONTINUOUS
 62
     7
 10
117.9885737997365
 20
-116.23443053
 30
0.0
  0
VERTEX
  5
2C0
  8
DATA
  6
CONTINUOUS
 62
     7
 10
121.9885737997365
 20
-116.23443053
 30
0.0
  0
VERTEX
  5
2C1
  8
DATA
  6
CONTINUOUS
 62
     7
 10
121.9885737997365
 20
-116.43443053
 30
0.0
  0
VERTEX
  5
2C2
  8
DATA
  6
CONTINUOUS
 62
     7
 10
117.9885737997365
 20
-116.43443053
 30
0.0
  0
SEQEND
  5
2C3
  8
DATA
  6
CONTINUOUS
 62
     7
  0
LINE
  5
139
  8
DATA
  6
CONTINUOUS
 62
     7
 10
50.889346167656157
 20
-140.99998434560001
 30
0.0
 11
49.28934616765622
 21
-140.99998434560001
 31
0.0
  0
LINE
  5
13A
  8
DATA
  6
CONTINUOUS
 62
     7
 10
49.489346167656137
 20
-140.99998434560001
 30
0.0
 11
49.489346167656137
 21
-130.09999999999999
 31
0.0
  0
LINE
  5
13B
  8
DATA
  6
CONTINUOUS
 62
     7
 10
49.489346167656137
 20
-139.90000000000001
 30
0.0
 11
49.489346167656137
 21
-130.09999999999999
 31
0.0
  0
LINE
  5
13C
  8
DATA
  6
CONTINUOUS
 62
     7
 10
49.489346167656137
 20
-129.90000000000001
 30
0.0
 11
49.489346167656137
 21
-56.999984344367697
 31
0.0
  0
LINE
  5
13D
  8
DATA
  6
CONTINUOUS
 62
     7
 10
50.689346167656133
 20
-56.999984344367682
 30
0.0
 11
50.689346167656133
 21
-129.90000000000001
 31
0.0
  0
LINE
  5
13E
  8
DATA
  6
CONTINUOUS
 62
     7
 10
50.689346167656133
 20
-130.09999999999999
 30
0.0
 11
50.689346167656133
 21
-139.90000000000001
 31
0.0
  0
LINE
  5
13F
  8
DATA
  6
CONTINUOUS
 62
     7
 10
50.689346167656133
 20
-130.09999999999991
 30
0.0
 11
50.689346167656133
 21
-140.99998434560001
 31
0.0
  0
POLYLINE
  5
140
  8
DATA
  6
STYLE_01
 62
     7
 66
     1
 10
0.0
 20
0.0
 30
0.0
 70
   129
  0
VERTEX
  5
2C4
  8
DATA
  6
STYLE_01
 62
     7
 10
48.589346167656139
 20
-138.3344305299677
 30
0.0
  0
VERTEX
  5
2C5
  8
DATA
  6
STYLE_01
 62
     7
 10
51.589346167656139
 20
-138.3344305299677
 30
0.0
  0
VERTEX
  5
2C6
  8
DATA
  6
STYLE_01
 62
     7
 10
51.58934616765621
 20
-138.3344305299677
 30
0.0
 42
-0.4142135623730921
  0
VERTEX
  5
2C7
  8
DATA
  6
STYLE_01
 62
     7
 10
56.589346167656089
 20
-143.3344305299677
 30
0.0
  0
VERTEX
  5
2C8
  8
DATA
  6
STYLE_01
 62
     7
 10
56.589346167656089
 20
-148.3344305299677
 30
0.0
  0
VERTEX
  5
2C9
  8
DATA
  6
STYLE_01
 62
     7
 10
56.589346167656089
 20
-148.3344305299677
 30
0.0
 42
-0.4142135623730984
  0
VERTEX
  5
2CA
  8
DATA
  6
STYLE_01
 62
     7
 10
51.589346167656139
 20
-153.3344305299677
 30
0.0
  0
VERTEX
  5
2CB
  8
DATA
  6
STYLE_01
 62
     7
 10
48.589346167656139
 20
-153.3344305299677
 30
0.0
  0
VERTEX
  5
2CC
  8
DATA
  6
STYLE_01
 62
     7
 10
48.589346167656139
 20
-153.3344305299677
 30
0.0
 42
-0.414213562373101
  0
VERTEX
  5
2CD
  8
DATA
  6
STYLE_01
 62
     7
 10
43.589346167656039
 20
-148.3344305299677
 30
0.0
  0
VERTEX
  5
2CE
  8
DATA
  6
STYLE_01
 62
     7
 10
43.589346167656039
 20
-143.33443052996759
 30
0.0
  0
VERTEX
  5
2CF
  8
DATA
  6
STYLE_01
 62
     7
 10
43.589346167656039
 20
-143.33443052996759
 30
0.0
 42
-0.4142135623730868
  0
VERTEX
  5
2D0
  8
DATA
  6
STYLE_01
 62
     7
 10
48.589346167656139
 20
-138.3344305299677
 30
0.0
  0
SEQEND
  5
2D1
  8
DATA
  6
STYLE_01
 62
     7
  0
LINE
  5
14F
  8
DATA
  6
CONTINUOUS
 62
     7
 10
48.68934616765614
 20
-7.0
 30
0.0
 11
51.489346167656109
 21
-7.0
 31
0.0
  0
LINE
  5
150
  8
DATA
  6
CONTINUOUS
 62
     7
 10
48.68934616765614
 20
-7.0
 30
0.0
 11
48.68934616765614
 21
-21.385359893340489
 31
0.0
  0
LINE
  5
151
  8
DATA
  6
CONTINUOUS
 62
     7
 10
48.68934616765614
 20
-31.975894721417749
 30
0.0
 11
48.68934616765614
 21
-42.034999999999989
 31
0.0
  0
LINE
  5
152
  8
DATA
  6
CONTINUOUS
 62
     7
 10
51.489346167656109
 20
-7.0
 30
0.0
 11
51.489346167656109
 21
-22.56642954949498
 31
0.0
  0
LINE
  5
153
  8
DATA
  6
CONTINUOUS
 62
     7
 10
51.489346167656109
 20
-31.975894721417749
 30
0.0
 11
51.489346167656109
 21
-42.034999999999997
 31
0.0
  0
POLYLINE
  5
154
  8
DATA
  6
CONTINUOUS
 62
     7
 66
     1
 10
0.0
 20
0.0
 30
0.0
 70
   128
  0
VERTEX
  5
2D2
  8
DATA
  6
CONTINUOUS
 62
     7
 10
51.989346167656088
 20
-43.383564742944984
 30
0.0
  0
VERTEX
  5
2D3
  8
DATA
  6
CONTINUOUS
 62
     7
 10
51.989346167656088
 20
-46.383564742944969
 30
0.0
  0
VERTEX
  5
2D4
  8
DATA
  6
CONTINUOUS
 62
     7
 10
48.489346167656088
 20
-46.383564742944991
 30
0.0
  0
VERTEX
  5
2D5
  8
DATA
  6
CONTINUOUS
 62
     7
 10
48.489346167656088
 20
-46.383564742944991
 30
0.0
 42
-0.4142135623731091
  0
VERTEX
  5
2D6
  8
DATA
  6
CONTINUOUS
 62
     7
 10
48.18934616765609
 20
-46.083564742944993
 30
0.0
  0
VERTEX
  5
2D7
  8
DATA
  6
CONTINUOUS
 62
     7
 10
48.18934616765609
 20
-43.383564742944984
 30
0.0
  0
SEQEND
  5
2D8
  8
DATA
  6
CONTINUOUS
 62
     7
  0
ARC
  5
15C
  8
DATA
  6
CONTINUOUS
 62
     7
 10
45.691160360259218
 20
-41.690352497406742
 30
0.0
 40
3.0179297600705981
 50
325.87149346366277
 51
353.44251701606561
  0
ARC
  5
15D
  8
DATA
  6
CONTINUOUS
 62
     7
 10
54.487531975053017
 20
-41.690352497406742
 30
0.0
 40
3.0179297600706372
 50
186.55748298393451
 51
214.1285065363366
  0
POLYLINE
  5
15E
  8
DATA
  6
CONTINUOUS
 62
     7
 66
     1
 10
0.0
 20
0.0
 30
0.0
  0
VERTEX
  5
2D9
  8
DATA
  6
CONTINUOUS
 62
     7
 10
51.70981942625226
 20
-26.975894721417731
 30
0.0
  0
VERTEX
  5
2DA
  8
DATA
  6
CONTINUOUS
 62
     7
 10
51.70981942625226
 20
-31.975894721417749
 30
0.0
  0
VERTEX
  5
2DB
  8
DATA
  6
CONTINUOUS
 62
     7
 10
48.409819426252298
 20
-31.975894721417749
 30
0.0
  0
VERTEX
  5
2DC
  8
DATA
  6
CONTINUOUS
 62
     7
 10
48.409819426252298
 20
-26.975894721417731
 30
0.0
  0
SEQEND
  5
2DD
  8
DATA
  6
CONTINUOUS
 62
     7
  0
LINE
  5
165
  8
DATA
  6
CONTINUOUS
 62
     7
 10
49.159819426252277
 20
-11.975894721417751
 30
0.0
 11
50.95981942625221
 21
-11.975894721417751
 31
0.0
  0
LINE
  5
166
  8
DATA
  6
CONTINUOUS
 62
     7
 10
49.159819426252277
 20
-11.975894721417751
 30
0.0
 11
48.409819426252298
 21
-26.975894721417731
 31
0.0
  0
LINE
  5
167
  8
DATA
  6
CONTINUOUS
 62
     7
 10
50.95981942625221
 20
-11.975894721417751
 30
0.0
 11
51.70981942625226
 21
-26.975894721417731
 31
0.0
  0
POLYLINE
  5
168
  8
DATA
  6
CONTINUOUS
 62
     7
 66
     1
 10
0.0
 20
0.0
 30
0.0
 70
     1
  0
VERTEX
  5
2DE
  8
DATA
  6
CONTINUOUS
 62
     7
 10
48.089346167656082
 20
-129.90000000000001
 30
0.0
  0
VERTEX
  5
2DF
  8
DATA
  6
CONTINUOUS
 62
     7
 10
52.089346167655677
 20
-129.90000000000001
 30
0.0
  0
VERTEX
  5
2E0
  8
DATA
  6
CONTINUOUS
 62
     7
 10
52.089346167655677
 20
-130.09999999999999
 30
0.0
  0
VERTEX
  5
2E1
  8
DATA
  6
CONTINUOUS
 62
     7
 10
48.089346167656082
 20
-130.09999999999999
 30
0.0
  0
SEQEND
  5
2E2
  8
DATA
  6
CONTINUOUS
 62
     7
  0
POLYLINE
  5
16F
  8
DATA
  6
CONTINUOUS
 62
     7
 66
     1
 10
0.0
 20
0.0
 30
0.0
  0
VERTEX
  5
2E3
  8
DATA
  6
CONTINUOUS
 62
     7
 10
48.589346167656139
 20
-55.00553816
 30
0.0
  0
VERTEX
  5
2E4
  8
DATA
  6
CONTINUOUS
 62
     7
 10
48.589346167656139
 20
-50.999984344367682
 30
0.0
  0
VERTEX
  5
2E5
  8
DATA
  6
CONTINUOUS
 62
     7
 10
51.589346167656139
 20
-50.999984344367682
 30
0.0
  0
VERTEX
  5
2E6
  8
DATA
  6
CONTINUOUS
 62
     7
 10
51.589346167656139
 20
-55.00553816
 30
0.0
  0
SEQEND
  5
2E7
  8
DATA
  6
CONTINUOUS
 62
     7
  0
LINE
  5
176
  8
DATA
  6
CONTINUOUS
 62
     7
 10
50.839346167656103
 20
-56.999984344367682
 30
0.0
 11
49.339346167656181
 21
-56.999984344367682
 31
0.0
  0
LINE
  5
177
  8
DATA
  6
CONTINUOUS
 62
     7
 10
49.339346167656181
 20
-56.999984344367682
 30
0.0
 11
48.589346167656139
 21
-55.00553816
 31
0.0
  0
LINE
  5
178
  8
DATA
  6
CONTINUOUS
 62
     7
 10
50.839346167656103
 20
-56.999984344367682
 30
0.0
 11
51.589346167656139
 21
-55.00553816
 31
0.0
  0
LINE
  5
179
  8
DATA
  6
CONTINUOUS
 62
     7
 10
48.819346167656128
 20
-50.105538160000002
 30
0.0
 11
49.507420290526341
 21
-49.385693049459782
 31
0.0
  0
LINE
  5
17A
  8
DATA
  6
CONTINUOUS
 62
     7
 10
51.3193461676561
 20
-50.105538160000002
 30
0.0
 11
50.66701615506485
 21
-49.385693049459782
 31
0.0
  0
LINE
  5
17B
  8
DATA
  6
CONTINUOUS
 62
     7
 10
48.819346167656128
 20
-50.105538160000002
 30
0.0
 11
48.819346167656128
 21
-50.999984344367682
 31
0.0
  0
LINE
  5
17C
  8
DATA
  6
CONTINUOUS
 62
     7
 10
51.3193461676561
 20
-50.105538160000002
 30
0.0
 11
51.3193461676561
 21
-50.999984344367682
 31
0.0
  0
LINE
  5
17D
  8
DATA
  6
CONTINUOUS
 62
     7
 10
49.507420290526341
 20
-49.385693049459782
 30
0.0
 11
50.66701615506485
 21
-49.385693049459782
 31
0.0
  0
LINE
  5
17E
  8
DATA
  6
CONTINUOUS
 62
     7
 10
48.819346167656128
 20
-50.438562637754877
 30
0.0
 11
51.3193461676561
 21
-50.438562637754877
 31
0.0
  0
LINE
  5
17F
  8
DATA
  6
CONTINUOUS
 62
     7
 10
48.873290605742092
 20
-50.049102902944973
 30
0.0
 11
51.268204038042057
 21
-50.049102902944973
 31
0.0
  0
LINE
  5
180
  8
DATA
  6
CONTINUOUS
 62
     7
 10
49.58721822279557
 20
-49.385693049459782
 30
0.0
 11
49.58721822279557
 21
-46.383564742944991
 31
0.0
  0
LINE
  5
181
  8
DATA
  6
CONTINUOUS
 62
     7
 10
50.58721822279562
 20
-46.383564742944969
 30
0.0
 11
50.58721822279562
 21
-49.385693049459782
 31
0.0
  0
ARC
  5
182
  8
DATA
  6
CONTINUOUS
 62
     7
 10
-14.910653832344339
 20
-3.1622234565187921
 30
0.0
 40
65.1131978081076
 50
356.62102433313993
 51
78.232046884154144
  0
ARC
  5
183
  8
DATA
  6
CONTINUOUS
 62
     7
 10
-14.910653832344339
 20
-3.1622234565187921
 30
0.0
 40
65.113197808107202
 50
102.4137219414412
 51
183.3789756668601
  0
LINE
  5
184
  8
DATA
  6
CONTINUOUS
 62
     7
 10
-36.630913753798133
 20
61.304180752008953
 30
0.0
 11
-60.410653832344252
 21
61.304180752008953
 31
0.0
  0
LINE
  5
185
  8
DATA
  6
CONTINUOUS
 62
     7
 10
-36.630913753798133
 20
62.804180752008953
 30
0.0
 11
-60.410653832344252
 21
62.804180752008953
 31
0.0
  0
ARC
  5
186
  8
DATA
  6
CONTINUOUS
 62
     7
 10
-15.8623635321786
 20
-2.4667960955877488
 30
0.0
 40
65.32917941347894
 50
356.02103772525862
 51
77.417675587835902
  0
ARC
  5
187
  8
DATA
  6
CONTINUOUS
 62
     7
 10
-14.69173018925602
 20
-2.0564581027642559
 30
0.0
 40
65.667419374827631
 50
355.6826031496829
 51
78.527744346522852
  0
LINE
  5
188
  8
DATA
  6
CONTINUOUS
 62
     7
 10
-1.6309137537978671
 20
64.045227324364504
 30
0.0
 11
-1.6309137537978671
 21
60.045227324364518
 31
0.0
  0
LINE
  5
189
  8
DATA
  6
CONTINUOUS
 62
     7
 10
-36.630913753798133
 20
60.537248248308487
 30
0.0
 11
-36.630913753798133
 21
63.553206400420549
 31
0.0
  0
LINE
  5
18A
  8
DATA
  6
CONTINUOUS
 62
     7
 10
-1.6309137537978671
 20
64.045227324364504
 30
0.0
 11
-36.630913753798133
 21
63.553206400420549
 31
0.0
  0
LINE
  5
18B
  8
DATA
  6
CONTINUOUS
 62
     7
 10
-1.6309137537978671
 20
60.045227324364518
 30
0.0
 11
-36.630913753798133
 21
60.537248248308487
 31
0.0
  0
LINE
  5
18C
  8
DATA
  6
CONTINUOUS
 62
     7
 10
48.339346167656132
 20
-150.9999843455999
 30
0.0
 11
48.339346167656132
 21
-142.49998434560001
 31
0.0
  0
LINE
  5
18D
  8
DATA
  6
CONTINUOUS
 62
     7
 10
51.839346167656153
 20
-150.9999843455999
 30
0.0
 11
48.339346167656132
 21
-150.9999843455999
 31
0.0
  0
LINE
  5
18E
  8
DATA
  6
CONTINUOUS
 62
     7
 10
51.839346167656153
 20
-142.49998434560001
 30
0.0
 11
51.839346167656153
 21
-150.9999843455999
 31
0.0
  0
ARC
  5
18F
  8
DATA
  6
CONTINUOUS
 62
     7
 10
47.518891622201501
 20
-140.92952980014539
 30
0.0
 40
1.7718558464209671
 50
297.58397367869719
 51
357.72113932241888
  0
ARC
  5
190
  8
DATA
  6
CONTINUOUS
 62
     7
 10
52.659800713110663
 20
-140.92952980014539
 30
0.0
 40
1.7718558464208389
 50
182.27886067758121
 51
242.41602632130599
  0
LINE
  5
191
  8
DATA
  6
CONTINUOUS
 62
     7
 10
-4.6309137537978939
 20
64.003054102312177
 30
0.0
 11
-4.6309137537978939
 21
60.087400546416852
 31
0.0
  0
LINE
  5
192
  8
DATA
  6
CONTINUOUS
 62
     7
 10
-7.6309137537979259
 20
63.96088088025985
 30
0.0
 11
-7.6309137537979259
 21
60.129573768469193
 31
0.0
  0
LINE
  5
193
  8
DATA
  6
CONTINUOUS
 62
     7
 10
-10.63091375379795
 20
63.918707658207502
 30
0.0
 11
-10.63091375379795
 21
60.171746990521527
 31
0.0
  0
LINE
  5
194
  8
DATA
  6
CONTINUOUS
 62
     7
 10
-13.63091375379806
 20
63.876534436155147
 30
0.0
 11
-13.63091375379806
 21
60.213920212573861
 31
0.0
  0
LINE
  5
195
  8
DATA
  6
CONTINUOUS
 62
     7
 10
-16.630913753798051
 20
63.834361214102813
 30
0.0
 11
-16.630913753798051
 21
60.256093434626223
 31
0.0
  0
LINE
  5
196
  8
DATA
  6
CONTINUOUS
 62
     7
 10
-19.630913753798051
 20
63.792187992050458
 30
0.0
 11
-19.630913753798051
 21
60.298266656678557
 31
0.0
  0
LINE
  5
197
  8
DATA
  6
CONTINUOUS
 62
     7
 10
-22.630913753798051
 20
63.750014769998131
 30
0.0
 11
-22.630913753798051
 21
60.340439878730898
 31
0.0
  0
LINE
  5
198
  8
DATA
  6
CONTINUOUS
 62
     7
 10
-25.630913753798168
 20
63.707841547945783
 30
0.0
 11
-25.630913753798168
 21
60.38261310078326
 31
0.0
  0
LINE
  5
199
  8
DATA
  6
CONTINUOUS
 62
     7
 10
-28.630913753798168
 20
63.665668325893449
 30
0.0
 11
-28.630913753798168
 21
60.424786322835601
 31
0.0
  0
LINE
  5
19A
  8
DATA
  6
CONTINUOUS
 62
     7
 10
-31.630913753798168
 20
63.623495103841108
 30
0.0
 11
-31.630913753798168
 21
60.466959544887921
 31
0.0
  0
LINE
  5
19B
  8
DATA
  6
CONTINUOUS
 62
     7
 10
-34.630913753798168
 20
63.581321881788782
 30
0.0
 11
-34.630913753798168
 21
60.509132766940262
 31
0.0
  0
TEXT
  5
19C
  8
DATA
 62
     7
 10
-28.07652707089748
 20
-167.50871186338429
 30
0.0
 40
5.4294708097328099
  1
ウインドスクリーン
 41
0.7
 11
-28.07652707089748
 21
-164.7939764585179
 31
0.0
 73
     2
  0
CIRCLE
  5
19D
  8
DATA
  6
STYLE_01
 62
     7
 10
119.9885737993656
 20
-180.91344235413251
 30
0.0
 40
6.5
  0
POLYLINE
  5
19E
  8
DATA
  6
CONTINUOUS
 62
     7
 66
     1
 10
0.0
 20
0.0
 30
0.0
 70
     1
  0
VERTEX
  5
2E8
  8
DATA
  6
CONTINUOUS
 62
     7
 10
117.28857379936559
 20
-179.21344235413261
 30
0.0
  0
VERTEX
  5
2E9
  8
DATA
  6
CONTINUOUS
 62
     7
 10
122.6885737993656
 20
-179.21344235413261
 30
0.0
  0
VERTEX
  5
2EA
  8
DATA
  6
CONTINUOUS
 62
     7
 10
122.6885737993656
 20
-182.61344235413259
 30
0.0
  0
VERTEX
  5
2EB
  8
DATA
  6
CONTINUOUS
 62
     7
 10
117.28857379936559
 20
-182.61344235413259
 30
0.0
  0
SEQEND
  5
2EC
  8
DATA
  6
CONTINUOUS
 62
     7
  0
LINE
  5
1A5
  8
DATA
  6
CONTINUOUS
 62
     7
 10
121.33857379936561
 20
-179.21344235413261
 30
0.0
 11
121.33857379936561
 21
-182.61344235413259
 31
0.0
  0
LINE
  5
1A6
  8
DATA
  6
CONTINUOUS
 62
     7
 10
118.6385737993656
 20
-179.21344235413261
 30
0.0
 11
118.6385737993656
 21
-182.61344235413259
 31
0.0
  0
LINE
  5
1A7
  8
DATA
  6
CONTINUOUS
 62
     7
 10
-124.6188555697164
 20
-7.0
 30
0.0
 11
-128.61885556971669
 21
-7.0
 31
0.0
  0
LINE
  5
1A8
  8
DATA
  6
CONTINUOUS
 62
     7
 10
-117.5978225745845
 20
-46.383564742944991
 30
0.0
 11
-126.51885556971661
 21
-46.383564742944991
 31
0.0
  0
LINE
  5
1A9
  8
DATA
  6
CONTINUOUS
 62
     7
 10
-125.5130287307706
 20
-45.349716315478318
 30
0.0
 11
-128.61885556971669
 21
-7.0
 31
0.0
  0
LINE
  5
1AA
  8
DATA
  6
CONTINUOUS
 62
     7
 10
-123.7728667161384
 20
-17.445988853578111
 30
0.0
 11
-124.6188555697165
 21
-7.0
 31
0.0
  0
ARC
  5
1AB
  8
DATA
  6
CONTINUOUS
 62
     7
 10
-105.7906323040216
 20
-31.698815907733291
 30
0.0
 40
15.00000000000057
 50
232.95733802833749
 51
131.55763958001751
  0
ARC
  5
1AC
  8
DATA
  6
CONTINUOUS
 62
     7
 10
-118.5306386819947
 20
-15.70777196585648
 30
0.0
 40
5.5228935089066571
 50
198.34447790328289
 51
300.33553182723477
  0
ARC
  5
1AD
  8
DATA
  6
CONTINUOUS
 62
     7
 10
-105.7906323040218
 20
-31.698815907733088
 30
0.0
 40
14.000000000000229
 50
236.4202482330285
 51
138.44218387813109
  0
ARC
  5
1AE
  8
DATA
  6
CONTINUOUS
 62
     7
 10
-117.5978225745845
 20
-44.383564742944991
 30
0.0
 40
2.0
 50
270.0
 51
340.62660372697468
  0
ARC
  5
1AF
  8
DATA
  6
CONTINUOUS
 62
     7
 10
-107.40943090234531
 20
-31.73312787459761
 30
0.0
 40
14.937590113748371
 50
183.51903789819889
 51
234.54410573199991
  0
ARC
  5
1B0
  8
DATA
  6
CONTINUOUS
 62
     7
 10
-110.49634805446139
 20
-32.730562911587761
 30
0.0
 40
11.82278200471336
 50
119.2135452925147
 51
179.6095715424415
  0
ARC
  5
1B1
  8
DATA
  6
CONTINUOUS
 62
     7
 10
-89.428288346344445
 20
-30.134552934170092
 30
0.0
 40
28.356746041971121
 50
173.79403122353301
 51
201.5976016808882
  0
ARC
  5
1B2
  8
DATA
  6
CONTINUOUS
 62
     7
 10
-92.007166632052886
 20
-31.021460106367378
 30
0.0
 40
26.75171783511324
 50
171.55546815279251
 51
202.2602360367105
  0
LINE
  5
1B3
  8
DATA
  6
CONTINUOUS
 62
     7
 10
-118.4688555697162
 20
-27.09292021273475
 30
0.0
 11
-117.6188555697162
 21
-27.06910586834017
 31
0.0
  0
LINE
  5
1B4
  8
DATA
  6
CONTINUOUS
 62
     7
 10
-125.5130287307706
 20
-45.349716315478318
 30
0.0
 11
-126.51885556971661
 21
-45.349414106606631
 31
0.0
  0
LINE
  5
1B5
  8
DATA
  6
CONTINUOUS
 62
     7
 10
-126.51885556971661
 20
-45.349414106606631
 30
0.0
 11
-126.51885556971661
 21
-46.383564742944991
 31
0.0
  0
ARC
  5
1B6
  8
DATA
  6
CONTINUOUS
 62
     7
 10
-110.2154095977336
 20
-38.363749958498701
 30
0.0
 40
6.000000000000222
 50
201.59760168088829
 51
236.4202482330285
  0
ARC
  5
1B7
  8
DATA
  6
CONTINUOUS
 62
     7
 10
-111.2123179280189
 20
-38.882500546868641
 30
0.0
 40
6.000000000000302
 50
202.26023603671041
 51
232.95733802833729
  0
ARC
  5
1B8
  8
DATA
  6
CONTINUOUS
 62
     7
 10
-116.65444578838969
 20
-44.71528787941395
 30
0.0
 40
1.000000000000042
 50
340.62660372697519
 51
54.54410573200061
  0
LINE
  5
1B9
  8
DATA
  6
CONTINUOUS
 62
     7
 10
109.0066303918689
 20
98.924751831257552
 30
0.0
 11
63.415584888561582
 21
98.924751831257552
 31
0.0
  0
LINE
  5
1BA
  8
DATA
  6
CONTINUOUS
 62
     7
 10
47.909205030323918
 20
98.924751831257552
 30
0.0
 11
6.9305885255817561
 21
98.924751831257552
 31
0.0
  0
LINE
  5
1BB
  8
DATA
  6
CONTINUOUS
 62
     7
 10
107.4989059815241
 20
97.324751831257572
 30
0.0
 11
63.583614604713659
 21
97.324751831257572
 31
0.0
  0
LINE
  5
1BC
  8
DATA
  6
CONTINUOUS
 62
     7
 10
47.741175314171819
 20
97.324751831257572
 30
0.0
 11
7.8751454755437651
 21
97.324751831257572
 31
0.0
  0
CIRCLE
  5
1BD
  8
DATA
  6
CONTINUOUS
 62
     7
 10
-49.722862307565677
 20
98.124751828768197
 30
0.0
 40
2.8999999999999342
  0
CIRCLE
  5
1BE
  8
DATA
  6
CONTINUOUS
 62
     7
 10
-49.722862307565677
 20
98.124751828768197
 30
0.0
 40
1.9999999999999849
  0
CIRCLE
  5
1BF
  8
DATA
  6
CONTINUOUS
 62
     7
 10
-49.722862307565677
 20
98.124751828768197
 30
0.0
 40
0.3900000000000148
  0
LINE
  5
1C0
  8
DATA
  6
CONTINUOUS
 62
     7
 10
-51.707175790864142
 20
97.874751828768197
 30
0.0
 11
-50.794076571846801
 21
97.874751828768197
 31
0.0
  0
LINE
  5
1C1
  8
DATA
  6
CONTINUOUS
 62
     7
 10
-48.651648043284652
 20
97.874751828768197
 30
0.0
 11
-47.738548824267212
 21
97.874751828768197
 31
0.0
  0
LINE
  5
1C2
  8
DATA
  6
CONTINUOUS
 62
     7
 10
-47.738548824267212
 20
98.374751828768197
 30
0.0
 11
-48.651648043284652
 21
98.374751828768197
 31
0.0
  0
LINE
  5
1C3
  8
DATA
  6
CONTINUOUS
 62
     7
 10
-50.794076571846688
 20
98.374751828768197
 30
0.0
 11
-51.707175790864142
 21
98.374751828768197
 31
0.0
  0
CIRCLE
  5
1C4
  8
DATA
  6
CONTINUOUS
 62
     7
 10
-49.722862307565677
 20
98.124751828768197
 30
0.0
 40
1.0999999999999801
  0
LINE
  5
1C5
  8
DATA
  6
CONTINUOUS
 62
     7
 10
-38.833016447812923
 20
98.514751828768198
 30
0.0
 11
-39.823016447513012
 21
98.514751828768212
 31
0.0
  0
LINE
  5
1C6
  8
DATA
  6
CONTINUOUS
 62
     7
 10
-40.433016447512927
 20
98.259751828768202
 30
0.0
 11
-40.433016447512927
 21
97.989751828768192
 31
0.0
  0
LINE
  5
1C7
  8
DATA
  6
CONTINUOUS
 62
     7
 10
-39.823016447513012
 20
97.734751828768196
 30
0.0
 11
-38.833016447813037
 21
97.734751828768196
 31
0.0
  0
LINE
  5
1C8
  8
DATA
  6
CONTINUOUS
 62
     7
 10
-40.433016447512927
 20
97.989751828768192
 30
0.0
 11
-39.823016447513012
 21
97.734751828768196
 31
0.0
  0
LINE
  5
1C9
  8
DATA
  6
CONTINUOUS
 62
     7
 10
-40.433016447512927
 20
98.259751828768202
 30
0.0
 11
-39.823016447513012
 21
98.514751828768198
 31
0.0
  0
LINE
  5
1CA
  8
DATA
  6
CONTINUOUS
 62
     7
 10
-33.833016447813222
 20
95.224751828768277
 30
0.0
 11
-33.833016447813222
 21
101.024751828768
 31
0.0
  0
LINE
  5
1CB
  8
DATA
  6
CONTINUOUS
 62
     7
 10
-33.033016447813182
 20
95.224751828768277
 30
0.0
 11
-33.033016447813303
 21
101.024751828768
 31
0.0
  0
LINE
  5
1CC
  8
DATA
  6
CONTINUOUS
 62
     7
 10
-27.733016447813188
 20
95.224751828768234
 30
0.0
 11
-27.733016447813188
 21
101.0247518287681
 31
0.0
  0
LINE
  5
1CD
  8
DATA
  6
CONTINUOUS
 62
     7
 10
-24.133016447813251
 20
100.2497518287681
 30
0.0
 11
-24.133016447813251
 21
95.999751828768225
 31
0.0
  0
LINE
  5
1CE
  8
DATA
  6
CONTINUOUS
 62
     7
 10
-38.833016447812923
 20
95.224751828768234
 30
0.0
 11
-27.733016447813188
 21
95.224751828768234
 31
0.0
  0
LINE
  5
1CF
  8
DATA
  6
CONTINUOUS
 62
     7
 10
-38.833016447812923
 20
101.0247518287681
 30
0.0
 11
-27.733016447813188
 21
101.0247518287681
 31
0.0
  0
LINE
  5
1D0
  8
DATA
  6
CONTINUOUS
 62
     7
 10
-38.833016447812923
 20
101.0247518287681
 30
0.0
 11
-38.833016447812923
 21
95.224751828768234
 31
0.0
  0
LINE
  5
1D1
  8
DATA
  6
CONTINUOUS
 62
     7
 10
-24.133016447813251
 20
95.999751828768225
 30
0.0
 11
-27.733016447813188
 21
95.224751828768234
 31
0.0
  0
LINE
  5
1D2
  8
DATA
  6
CONTINUOUS
 62
     7
 10
-24.133016447813251
 20
100.2497518287681
 30
0.0
 11
-27.733016447813188
 21
101.0247518287681
 31
0.0
  0
LINE
  5
1D3
  8
DATA
  6
CONTINUOUS
 62
     7
 10
-12.83301644781336
 20
99.058784006161744
 30
0.0
 11
-12.83301644781336
 21
97.190719651374735
 31
0.0
  0
LINE
  5
1D4
  8
DATA
  6
CONTINUOUS
 62
     7
 10
-24.133016447813251
 20
100.2497518287681
 30
0.0
 11
-12.83301644781336
 21
99.058784006161744
 31
0.0
  0
LINE
  5
1D5
  8
DATA
  6
CONTINUOUS
 62
     7
 10
-24.133016447813251
 20
95.999751828768211
 30
0.0
 11
-12.83301644781336
 21
97.190719651374735
 31
0.0
  0
LINE
  5
1D6
  8
DATA
  6
CONTINUOUS
 62
     7
 10
-12.83301644781336
 20
97.374751828768211
 30
0.0
 11
5.7244650264881907
 21
97.37475182876824
 31
0.0
  0
LINE
  5
1D7
  8
DATA
  6
CONTINUOUS
 62
     7
 10
4.6936694148468714
 20
98.874751828768254
 30
0.0
 11
-12.83301644781336
 21
98.874751828768254
 31
0.0
  0
ARC
  5
1D8
  8
DATA
  6
CONTINUOUS
 62
     7
 10
6.7150319371293534
 20
99.477959338027802
 30
0.0
 40
2.1094467866517008
 50
102.2698274431
 51
227.7301725569028
  0
ARC
  5
1D9
  8
DATA
  6
CONTINUOUS
 62
     7
 10
3.8773074111420489
 20
96.356039656570331
 30
0.0
 40
2.1094467866517759
 50
282.26982744309862
 51
47.730172556899142
  0
ARC
  5
1DA
  8
DATA
  6
CONTINUOUS
 62
     7
 10
9.0242367808852197
 20
99.182439100598373
 30
0.0
 40
2.109446786651703
 50
102.2698274431004
 51
227.73017255689879
  0
ARC
  5
1DB
  8
DATA
  6
CONTINUOUS
 62
     7
 10
6.186512254897889
 20
96.060519419140832
 30
0.0
 40
2.109446786651751
 50
282.26982744309902
 51
47.730172556903803
  0
ARC
  5
1DC
  8
DATA
  6
CONTINUOUS
 62
     7
 10
55.662394959442778
 20
103.80391066396599
 30
0.0
 40
11.43758489751588
 50
234.16558680993319
 51
305.83441319006653
  0
ARC
  5
1DD
  8
DATA
  6
CONTINUOUS
 62
     7
 10
35.259135053300838
 20
95.158978539741597
 30
0.0
 40
28.40715958712957
 50
4.0727137979075092
 51
33.999575354186071
  0
ARC
  5
1DE
  8
DATA
  6
CONTINUOUS
 62
     7
 10
60.602134431677072
 20
96.963456523396204
 30
0.0
 40
2.9999999999999778
 50
305.83441319006607
 51
4.072713797907852
  0
LINE
  5
1DF
  8
DATA
  6
CONTINUOUS
 62
     7
 10
56.322730260805471
 20
112.36632576644961
 30
0.0
 11
55.002059658080128
 21
112.36632576644961
 31
0.0
  0
ARC
  5
1E0
  8
DATA
  6
CONTINUOUS
 62
     7
 10
56.322730260805471
 20
109.36632576644971
 30
0.0
 40
3.0000000000000249
 50
33.999575354186589
 51
90.0
  0
ARC
  5
1E1
  8
DATA
  6
CONTINUOUS
 62
     7
 10
76.065654865584619
 20
95.158978539741597
 30
0.0
 40
28.40715958712936
 50
146.00042464581369
 51
175.92728620209249
  0
ARC
  5
1E2
  8
DATA
  6
CONTINUOUS
 62
     7
 10
55.002059658080128
 20
109.36632576644971
 30
0.0
 40
2.9999999999999569
 50
90.0
 51
146.00042464581341
  0
ARC
  5
1E3
  8
DATA
  6
CONTINUOUS
 62
     7
 10
50.722655487208421
 20
96.963456523396204
 30
0.0
 40
2.9999999999999538
 50
175.92728620209209
 51
234.16558680993381
  0
CIRCLE
  5
1E4
  8
DATA
  6
CONTINUOUS
 62
     7
 10
55.662394959442778
 20
97.752512974794371
 30
0.0
 40
2.499999999999972
  0
TEXT
  5
1E5
  8
DATA
 62
     7
 10
-175.08933711247539
 20
-243.5496725104943
 30
0.0
 40
3.8006293402777769
  1
※仕様及び外観は予告なく変更されることがあります。
 41
0.7
 11
-175.08933711247539
 21
-239.74904317021659
 31
0.0
 73
     3
  0
TEXT
  5
1E6
  8
DATA
 62
     7
 10
-175.08933711247539
 20
-248.4885613993832
 30
0.0
 40
3.8006293402777769
  1
　また、同一商品でも若干の個体差があることがあります。ご了承ください。
 41
0.7
 11
-175.08933711247539
 21
-244.68793205910549
 31
0.0
 73
     3
  0
LINE
  5
1E7
  8
DATA
  6
CONTINUOUS
 62
     7
 10
-126.6188555697165
 20
-7.0
 30
0.0
 11
-129.6628163401376
 21
60.256093434626223
 31
0.0
  0
LINE
  5
1E8
  8
DATA
  6
CONTINUOUS
 62
     7
 10
117.9885737997365
 20
-7.0
 30
0.0
 11
117.9885737997365
 21
59.833551463057432
 31
0.0
  0
ARC
  5
1E9
  8
DATA
  6
CONTINUOUS
 62
     7
 10
107.4989059815241
 20
82.324751831257544
 30
0.0
 40
14.99999999999979
 50
0.0
 51
90.0
  0
ARC
  5
1EA
  8
DATA
  6
CONTINUOUS
 62
     7
 10
109.0066303918689
 20
83.924751831257524
 30
0.0
 40
14.999999999999771
 50
0.0
 51
90.0
  0
LINE
  5
1EB
  8
DATA
  6
CONTINUOUS
 62
     7
 10
46.675929005830717
 20
-152.9538281925241
 30
0.0
 11
39.650070391320959
 21
-169.91575134698789
 31
0.0
  0
LINE
  5
1EC
  8
DATA
  6
CONTINUOUS
 62
     7
 10
46.675929005830717
 20
-152.9538281925241
 30
0.0
 11
45.874759485810969
 21
-159.47883031109899
 31
0.0
  0
LINE
  5
1ED
  8
DATA
  6
CONTINUOUS
 62
     7
 10
46.675929005830717
 20
-152.9538281925241
 30
0.0
 11
42.71959478946836
 21
-158.20406102694739
 31
0.0
  0
LINE
  5
1EE
  8
DATA
  6
CONTINUOUS
 62
     7
 10
39.650070391320959
 20
-169.91575134698789
 30
0.0
 11
-30.40063354007269
 21
-169.91575134698789
 31
0.0
  0
LINE
  5
1EF
  8
DATA
  6
CONTINUOUS
 62
     7
 10
122.4989059815239
 20
58.65742115409661
 30
0.0
 11
122.4989059815239
 21
82.324751831257544
 31
0.0
  0
LINE
  5
1F0
  8
DATA
  6
CONTINUOUS
 62
     7
 10
124.0066303918686
 20
83.924751831257524
 30
0.0
 11
124.0066303918686
 21
57.057421154096602
 31
0.0
  0
ENDSEC
  0
EOF
