  0
SECTION
  2
HEADER
  9
$ACADVER
  1
AC1009
  9
$INSBASE
 10
0.0
 20
0.0
 30
0.0
  9
$EXTMIN
 10
9.9963383446405487
 20
2.381287252508741
 30
-0.0015258207003583
  9
$EXTMAX
 10
190.00579878222879
 20
270.00824037474621
 30
0.0000000349246037
  9
$LIMMIN
 10
0.0
 20
0.0
  9
$LIMMAX
 10
0.0
 20
0.0
  9
$ORTHOMODE
 70
     0
  9
$REGENMODE
 70
     1
  9
$FILLMODE
 70
     1
  9
$QTEXTMODE
 70
     0
  9
$MIRRTEXT
 70
     1
  9
$DRAGMODE
 70
     2
  9
$LTSCALE
 40
5.0800000000000001
  9
$OSMODE
 70
   231
  9
$ATTMODE
 70
     1
  9
$TEXTSIZE
 40
0.0
  9
$TRACEWID
 40
1.0
  9
$TEXTSTYLE
  7
STANDARD
  9
$CLAYER
  8
DATA
  9
$CELTYPE
  6
BYLAYER
  9
$CECOLOR
 62
   256
  9
$DIMSCALE
 40
1.0
  9
$DIMASZ
 40
0.18
  9
$DIMEXO
 40
0.0625
  9
$DIMDLI
 40
0.38
  9
$DIMRND
 40
0.0
  9
$DIMDLE
 40
0.0
  9
$DIMEXE
 40
0.18
  9
$DIMTP
 40
0.0
  9
$DIMTM
 40
0.0
  9
$DIMTXT
 40
0.18
  9
$DIMCEN
 40
0.09
  9
$DIMTSZ
 40
0.0
  9
$DIMTOL
 70
     0
  9
$DIMLIM
 70
     0
  9
$DIMTIH
 70
     1
  9
$DIMTOH
 70
     1
  9
$DIMSE1
 70
     0
  9
$DIMSE2
 70
     0
  9
$DIMTAD
 70
     0
  9
$DIMZIN
 70
     0
  9
$DIMBLK
  1

  9
$DIMASO
 70
     1
  9
$DIMSHO
 70
     1
  9
$DIMPOST
  1

  9
$DIMAPOST
  1

  9
$DIMALT
 70
     0
  9
$DIMALTD
 70
     2
  9
$DIMALTF
 40
25.399999999999999
  9
$DIMLFAC
 40
1.0
  9
$DIMTOFL
 70
     0
  9
$DIMTVP
 40
0.0
  9
$DIMTIX
 70
     0
  9
$DIMSOXD
 70
     0
  9
$DIMSAH
 70
     0
  9
$DIMBLK1
  1

  9
$DIMBLK2
  1

  9
$DIMSTYLE
  2
STANDARD
  9
$DIMCLRD
 70
     0
  9
$DIMCLRE
 70
     0
  9
$DIMCLRT
 70
     0
  9
$DIMTFAC
 40
1.0
  9
$DIMGAP
 40
0.09
  9
$LUNITS
 70
     2
  9
$LUPREC
 70
     4
  9
$SKETCHINC
 40
0.1
  9
$FILLETRAD
 40
0.0
  9
$AUNITS
 70
     0
  9
$AUPREC
 70
     0
  9
$MENU
  1
acad
  9
$ELEVATION
 40
0.0
  9
$PELEVATION
 40
0.0
  9
$THICKNESS
 40
0.0
  9
$LIMCHECK
 70
     0
  9
$BLIPMODE
 70
     0
  9
$CHAMFERA
 40
0.0
  9
$CHAMFERB
 40
0.0
  9
$SKPOLY
 70
     0
  9
$TDCREATE
 40
2456597.4452430559
  9
$TDUPDATE
 40
2456597.4610012379
  9
$TDINDWG
 40
0.0003043981
  9
$TDUSRTIMER
 40
0.0003043519
  9
$USRTIMER
 70
     1
  9
$ANGBASE
 50
0.0
  9
$ANGDIR
 70
     0
  9
$PDMODE
 70
     1
  9
$PDSIZE
 40
-2.0
  9
$PLINEWID
 40
0.0
  9
$COORDS
 70
     2
  9
$SPLFRAME
 70
     0
  9
$SPLINETYPE
 70
     6
  9
$SPLINESEGS
 70
     8
  9
$ATTDIA
 70
     0
  9
$ATTREQ
 70
     1
  9
$HANDLING
 70
     1
  9
$HANDSEED
  5
1F1
  9
$SURFTAB1
 70
     6
  9
$SURFTAB2
 70
     6
  9
$SURFTYPE
 70
     6
  9
$SURFU
 70
     6
  9
$SURFV
 70
     6
  9
$UCSNAME
  2

  9
$UCSORG
 10
0.0
 20
0.0
 30
0.0
  9
$UCSXDIR
 10
1.0
 20
0.0
 30
0.0
  9
$UCSYDIR
 10
0.0
 20
1.0
 30
0.0
  9
$PUCSNAME
  2

  9
$PUCSORG
 10
0.0
 20
0.0
 30
0.0
  9
$PUCSXDIR
 10
1.0
 20
0.0
 30
0.0
  9
$PUCSYDIR
 10
0.0
 20
1.0
 30
0.0
  9
$USERI1
 70
     0
  9
$USERI2
 70
     0
  9
$USERI3
 70
     0
  9
$USERI4
 70
     0
  9
$USERI5
 70
     0
  9
$USERR1
 40
0.0
  9
$USERR2
 40
0.0
  9
$USERR3
 40
0.0
  9
$USERR4
 40
0.0
  9
$USERR5
 40
0.0
  9
$WORLDVIEW
 70
     1
  9
$SHADEDGE
 70
     3
  9
$SHADEDIF
 70
    70
  9
$TILEMODE
 70
     1
  9
$MAXACTVP
 70
    64
  9
$PLIMCHECK
 70
     0
  9
$PEXTMIN
 10
1.0000000000000000E+020
 20
1.0000000000000000E+020
 30
1.0000000000000000E+020
  9
$PEXTMAX
 10
-1.0000000000000000E+020
 20
-1.0000000000000000E+020
 30
-1.0000000000000000E+020
  9
$PLIMMIN
 10
0.0
 20
0.0
  9
$PLIMMAX
 10
12.0
 20
9.0
  9
$UNITMODE
 70
     0
  9
$VISRETAIN
 70
     0
  9
$PLINEGEN
 70
     1
  9
$PSLTSCALE
 70
     0
  0
ENDSEC
  0
SECTION
  2
TABLES
  0
TABLE
  2
VPORT
 70
     1
  0
VPORT
  2
*ACTIVE
 70
     0
 10
0.0
 20
0.0
 11
1.0
 21
1.0
 12
100.0010685634346
 22
136.19476381362739
 13
0.0
 23
0.0
 14
1.0
 24
1.0
 15
0.0
 25
0.0
 16
0.0
 26
0.0
 36
1.0
 17
0.0
 27
0.0
 37
0.0
 40
269.73425196571958
 41
2.1787122207621552
 42
50.0
 43
0.0
 44
0.0
 50
0.0
 51
0.0
 71
     0
 72
  2000
 73
     1
 74
     1
 75
     0
 76
     0
 77
     0
 78
     0
  0
ENDTAB
  0
TABLE
  2
LTYPE
 70
    11
  0
LTYPE
  2
CONTINUOUS
 70
     0
  3
Solid line
 72
    65
 73
     0
 40
0.0
  0
ENDTAB
  0
TABLE
  2
LAYER
 70
     5
  0
LAYER
  2
0
 70
     0
 62
     7
  6
CONTINUOUS
  0
LAYER
  2
DATA
 70
     0
 62
     7
  6
CONTINUOUS
  0
LAYER
  2
HIBINO-BASE
 70
     0
 62
     7
  6
CONTINUOUS
  0
LAYER
  2
SPEC
 70
     0
 62
     7
  6
CONTINUOUS
  0
LAYER
  2
DIMNSIONS
 70
     0
 62
     7
  6
CONTINUOUS
  0
ENDTAB
  0
TABLE
  2
STYLE
 70
     3
  0
STYLE
  2
STANDARD
 70
     0
 40
0.0
 41
1.0
 50
0.0
 71
     0
 42
0.0
  3
txt
  4
BIGFONT.SHX
  0
ENDTAB
  0
TABLE
  2
VIEW
 70
     0
  0
ENDTAB
  0
TABLE
  2
UCS
 70
     0
  0
ENDTAB
  0
TABLE
  2
APPID
 70
     4
  0
APPID
  2
ACAD
 70
     0
  0
APPID
  2
ACADANNOTATIVE
 70
     0
  0
APPID
  2
ACAD_NAV_VCDISPLAY
 70
     0
  0
APPID
  2
ACAD_MLEADERVER
 70
     0
  0
ENDTAB
  0
TABLE
  2
DIMSTYLE
 70
     2
  0
DIMSTYLE
  2
STANDARD
 70
     0
  3

  4

  5

  6

  7

 40
1.0
 41
0.18
 42
0.0625
 43
0.38
 44
0.18
 45
0.0
 46
0.0
 47
0.0
 48
0.0
140
0.18
141
0.09
142
0.0
143
25.399999999999999
144
1.0
145
0.0
146
1.0
147
0.09
 71
     0
 72
     0
 73
     1
 74
     1
 75
     0
 76
     0
 77
     0
 78
     0
170
     0
171
     2
172
     0
173
     0
174
     0
175
     0
176
     0
177
     0
178
     0
  0
ENDTAB
  0
ENDSEC
  0
SECTION
  2
BLOCKS
  0
BLOCK
  8
0
  2
$MODEL_SPACE
 70
     0
 10
0.0
 20
0.0
 30
0.0
  3
$MODEL_SPACE
  1

  0
ENDBLK
  5
180
  8
0
  0
BLOCK
 67
     1
  8
0
  2
$PAPER_SPACE
 70
     0
 10
0.0
 20
0.0
 30
0.0
  3
$PAPER_SPACE
  1

  0
ENDBLK
  5
17C
 67
     1
  8
0
  0
ENDSEC
  0
SECTION
  2
ENTITIES
  0
LINE
  5
2C
  8
HIBINO-BASE
  6
CONTINUOUS
 62
     7
 10
10.0
 20
270.0
 30
0.0
 11
190.0
 21
270.0
 31
0.0
  0
LINE
  5
2D
  8
HIBINO-BASE
  6
CONTINUOUS
 62
     7
 10
190.0
 20
10.0
 30
0.0
 11
10.0
 21
10.0
 31
0.0
  0
LINE
  5
2E
  8
HIBINO-BASE
  6
CONTINUOUS
 62
     7
 10
10.0
 20
10.0
 30
0.0
 11
10.0
 21
270.0
 31
0.0
  0
LINE
  5
2F
  8
HIBINO-BASE
  6
CONTINUOUS
 62
     7
 10
190.0
 20
270.0
 30
0.0
 11
190.0
 21
10.0
 31
0.0
  0
LINE
  5
30
  8
HIBINO-BASE
  6
CONTINUOUS
 62
     7
 10
100.0
 20
32.500000000000007
 30
0.0
 11
190.0
 21
32.500000000000007
 31
0.0
  0
LINE
  5
31
  8
HIBINO-BASE
  6
CONTINUOUS
 62
     7
 10
100.0
 20
10.0
 30
0.0
 11
100.0
 21
32.500000000000007
 31
0.0
  0
TEXT
  5
32
  8
HIBINO-BASE
 62
     7
 10
100.90000000000001
 20
29.991306666666681
 30
0.0
 40
1.6288411458333329
  1
NOTE
 41
0.7
 11
100.90000000000001
 21
31.620147812500011
 31
0.0
 73
     3
  0
LINE
  5
33
  8
HIBINO-BASE
  6
CONTINUOUS
 62
     7
 10
135.0
 20
10.0
 30
0.0
 11
135.0
 21
32.500000000000007
 31
0.0
  0
TEXT
  5
34
  8
HIBINO-BASE
 62
     7
 10
135.89999999999989
 20
29.991306666666681
 30
0.0
 40
1.6288411458333329
  1
TITLE
 41
0.7
 11
135.89999999999989
 21
31.620147812500011
 31
0.0
 73
     3
  0
LINE
  5
35
  8
HIBINO-BASE
  6
CONTINUOUS
 62
     7
 10
100.0
 20
20.000000000000011
 30
0.0
 11
190.0
 21
20.000000000000011
 31
0.0
  0
TEXT
  5
36
  8
HIBINO-BASE
 62
     7
 10
148.39999999999989
 20
17.54762666666667
 30
0.0
 40
1.6288411458333329
  1
DRAWN
 41
0.7
 11
148.39999999999989
 21
19.176467812500011
 31
0.0
 73
     3
  0
TEXT
  5
37
  8
HIBINO-BASE
 62
     7
 10
123.39999999999991
 20
17.54762666666667
 30
0.0
 40
1.6288411458333329
  1
DATE
 41
0.7
 11
123.39999999999991
 21
19.176467812500011
 31
0.0
 73
     3
  0
TEXT
  5
38
  8
HIBINO-BASE
 62
     7
 10
113.40000000000001
 20
17.54762666666667
 30
0.0
 40
1.6288411458333329
  1
SCALE
 41
0.7
 11
113.40000000000001
 21
19.176467812500011
 31
0.0
 73
     3
  0
TEXT
  5
39
  8
HIBINO-BASE
 62
     7
 10
135.89999999999989
 20
17.54762666666667
 30
0.0
 40
1.6288411458333329
  1
DESIGN
 41
0.7
 11
135.89999999999989
 21
19.176467812500011
 31
0.0
 73
     3
  0
TEXT
  5
3A
  8
HIBINO-BASE
 62
     7
 10
173.39999999999989
 20
17.54762666666667
 30
0.0
 40
1.6288411458333329
  1
DRAWING NO.
 41
0.7
 11
173.39999999999989
 21
19.176467812500011
 31
0.0
 73
     3
  0
TEXT
  5
3B
  8
HIBINO-BASE
 62
     7
 10
160.89999999999989
 20
17.54762666666667
 30
0.0
 40
1.6288411458333329
  1
CHECK
 41
0.7
 11
160.89999999999989
 21
19.176467812500011
 31
0.0
 73
     3
  0
LINE
  5
3C
  8
HIBINO-BASE
  6
CONTINUOUS
 62
     7
 10
114.375
 20
11.25
 30
0.0
 11
118.125
 21
15.000000000000011
 31
0.0
  0
TEXT
  5
3D
  8
HIBINO-BASE
 62
     7
 10
113.75
 20
13.891056666666669
 30
0.0
 40
1.6288411458333329
  1
1
 41
0.7
 11
113.75
 21
15.5198978125
 31
0.0
 73
     3
  0
LINE
  5
3E
  8
HIBINO-BASE
  6
CONTINUOUS
 62
     7
 10
112.5
 20
10.0
 30
0.0
 11
112.5
 21
20.000000000000011
 31
0.0
  0
LINE
  5
3F
  8
HIBINO-BASE
  6
CONTINUOUS
 62
     7
 10
122.5
 20
10.0
 30
0.0
 11
122.5
 21
20.000000000000011
 31
0.0
  0
LINE
  5
40
  8
HIBINO-BASE
  6
CONTINUOUS
 62
     7
 10
147.49999999999989
 20
20.000000000000011
 30
0.0
 11
147.49999999999989
 21
10.0
 31
0.0
  0
LINE
  5
41
  8
HIBINO-BASE
  6
CONTINUOUS
 62
     7
 10
172.5
 20
20.000000000000011
 30
0.0
 11
172.5
 21
10.0
 31
0.0
  0
LINE
  5
42
  8
HIBINO-BASE
  6
CONTINUOUS
 62
     7
 10
159.99999999999989
 20
10.0
 30
0.0
 11
159.99999999999989
 21
20.000000000000011
 31
0.0
  0
TEXT
  5
43
  8
HIBINO-BASE
 62
     7
 10
123.35654
 20
12.86364666666667
 30
0.0
 40
1.6288411458333329
  1
'13.10.
 41
0.7
 11
123.35654
 21
14.4924878125
 31
0.0
 73
     3
  0
TEXT
  5
44
  8
HIBINO-BASE
 62
     7
 10
117.5
 20
12.016056666666669
 30
0.0
 40
1.6288411458333329
  1
1
 41
0.7
 11
117.5
 21
13.6448978125
 31
0.0
 73
     3
  0
TEXT
  5
45
  8
HIBINO-BASE
 62
     7
 10
149.00581001103461
 20
12.86364666666667
 30
0.0
 40
1.6288411458333329
  1
Ootake
 41
0.7
 11
149.00581001103461
 21
14.4924878125
 31
0.0
 73
     3
  0
TEXT
  5
46
  8
HIBINO-BASE
 62
     7
 10
103.8833333333333
 20
11.97600000000001
 30
0.0
 40
3.2576822916666659
  1
A4
 41
0.7
 11
103.8833333333333
 21
15.23368229166668
 31
0.0
 73
     3
  0
TEXT
  5
47
  8
HIBINO-BASE
 62
     7
 10
100.9583333333333
 20
17.380545000000009
 30
0.0
 40
1.6288411458333329
  1
PAPER SIZE
 41
0.7
 11
100.9583333333333
 21
19.009386145833339
 31
0.0
 73
     3
  0
TEXT
  5
48
  8
HIBINO-BASE
 62
     7
 10
12.75963525689018
 20
3.5747597658237509
 30
0.0
 40
3.5291558159722221
  1
Hibino-Intersound Corporation
 41
0.7
 11
12.75963525689018
 21
7.1039155817959729
 31
0.0
 73
     3
  0
TEXT
  5
49
  8
HIBINO-BASE
 62
     7
 10
120.18060968021391
 20
3.9258480191131699
 30
0.0
 40
3.5291558159722221
  1
ヒビノインターサウンド株式会社
 41
0.7
 11
120.18060968021391
 21
7.4550038350853924
 31
0.0
 73
     3
  0
LINE
  5
4A
  8
SPEC
  6
CONTINUOUS
 62
     7
 10
17.5
 20
260.0
 30
0.0
 11
165.0
 21
260.0
 31
0.0
  0
LINE
  5
4B
  8
SPEC
  6
CONTINUOUS
 62
     7
 10
17.5
 20
256.25
 30
0.0
 11
165.0
 21
256.25
 31
0.0
  0
LINE
  5
4C
  8
SPEC
  6
CONTINUOUS
 62
     7
 10
17.5
 20
252.5
 30
0.0
 11
165.0
 21
252.5
 31
0.0
  0
LINE
  5
4D
  8
SPEC
  6
CONTINUOUS
 62
     7
 10
17.5
 20
260.0
 30
0.0
 11
17.5
 21
245.0
 31
0.0
  0
TEXT
  5
4E
  8
SPEC
 62
     7
 10
18.75
 20
261.39326999999997
 30
0.0
 40
2.4432617187500001
  1
仕様
 41
0.7
 11
18.75
 21
263.83653171875
 31
0.0
 73
     3
  0
LINE
  5
4F
  8
SPEC
  6
CONTINUOUS
 62
     7
 10
50.0
 20
260.0
 30
0.0
 11
50.0
 21
245.0
 31
0.0
  0
LINE
  5
50
  8
SPEC
  6
CONTINUOUS
 62
     7
 10
165.0
 20
260.0
 30
0.0
 11
165.0
 21
245.0
 31
0.0
  0
TEXT
  5
51
  8
SPEC
 62
     7
 10
18.352384361144161
 20
249.69289625356649
 30
0.0
 40
1.900314670138888
  1
寸法(長さ)
 41
0.7
 11
18.352384361144161
 21
251.59321092370541
 31
0.0
 73
     3
  0
TEXT
  5
52
  8
SPEC
 62
     7
 10
50.778283070187243
 20
249.65497494970629
 30
0.0
 40
1.900314670138888
  1
1870mm(除突起部）
 41
0.7
 11
50.778283070187243
 21
251.55528961984521
 31
0.0
 73
     3
  0
TEXT
  5
53
  8
SPEC
 62
     7
 10
50.767880670132151
 20
245.9556894638915
 30
0.0
 40
1.900314670138888
  1
10g
 41
0.7
 11
50.767880670132151
 21
247.8560041340304
 31
0.0
 73
     3
  0
TEXT
  5
54
  8
SPEC
 62
     7
 10
18.32130889377137
 20
245.99943062018741
 30
0.0
 40
1.900314670138888
  1
質量
 41
0.7
 11
18.32130889377137
 21
247.89974529032631
 31
0.0
 73
     3
  0
LINE
  5
55
  8
SPEC
  6
CONTINUOUS
 62
     7
 10
17.5
 20
248.75
 30
0.0
 11
165.0
 21
248.75
 31
0.0
  0
TEXT
  5
56
  8
SPEC
 62
     7
 10
18.352384361144161
 20
253.3763831179665
 30
0.0
 40
1.900314670138888
  1
ケーブル径
 41
0.7
 11
18.352384361144161
 21
255.27669778810539
 31
0.0
 73
     3
  0
TEXT
  5
57
  8
SPEC
 62
     7
 10
50.778283070187243
 20
253.40497494970629
 30
0.0
 40
1.900314670138888
  1
\U+03A61.6mm
 41
0.7
 11
50.778283070187243
 21
255.30528961984521
 31
0.0
 73
     3
  0
LINE
  5
58
  8
SPEC
  6
CONTINUOUS
 62
     7
 10
17.5
 20
245.0
 30
0.0
 11
165.0
 21
245.0
 31
0.0
  0
TEXT
  5
59
  8
SPEC
 62
     7
 10
18.352384361144161
 20
257.1263831179665
 30
0.0
 40
1.900314670138888
  1
コネクター
 41
0.7
 11
18.352384361144161
 21
259.02669778810542
 31
0.0
 73
     3
  0
TEXT
  5
5A
  8
SPEC
 62
     7
 10
50.778283070187243
 20
257.1549749497064
 30
0.0
 40
1.900314670138888
  1
マイクロドット
 41
0.7
 11
50.778283070187243
 21
259.05528961984521
 31
0.0
 73
     3
  0
TEXT
  5
5B
  8
DIMNSIONS
 62
     7
 10
79.999999999999986
 20
22.269490000000012
 30
0.0
 40
2.4432617187500001
  1
(単位：mm)
 41
0.7
 11
79.999999999999986
 21
24.71275171875001
 31
0.0
 73
     3
  0
LINE
  5
5C
  8
DIMNSIONS
  6
CONTINUOUS
 62
     7
 10
150.0
 20
130.0
 30
0.0
 11
150.0
 21
110.0
 31
0.0
  0
ARC
  5
5D
  8
DIMNSIONS
  6
CONTINUOUS
 62
     7
 10
140.0
 20
130.0
 30
0.0
 40
10.0
 50
0.0
 51
90.0
  0
LINE
  5
5E
  8
DIMNSIONS
  6
CONTINUOUS
 62
     7
 10
40.0
 20
155.65000000000001
 30
0.0
 11
40.0
 21
138.0
 31
0.0
  0
LINE
  5
5F
  8
DIMNSIONS
  6
CONTINUOUS
 62
     7
 10
40.0
 20
140.0
 30
0.0
 11
140.0
 21
140.0
 31
0.0
  0
LINE
  5
60
  8
DIMNSIONS
  6
CONTINUOUS
 62
     7
 10
40.0
 20
140.0
 30
0.0
 11
42.500622558593747
 21
140.67003979515019
 31
0.0
  0
LINE
  5
61
  8
DIMNSIONS
  6
CONTINUOUS
 62
     7
 10
40.0
 20
140.0
 30
0.0
 11
42.500622558593747
 21
139.3299602048497
 31
0.0
  0
TEXT
  5
62
  8
DIMNSIONS
 62
     7
 10
86.076036241319457
 20
141.52305555555549
 30
0.0
 40
2.7147352430555549
  1
1870
 41
0.7
 11
86.076036241319457
 21
144.23779079861109
 31
0.0
 73
     3
  0
LINE
  5
63
  8
DIMNSIONS
  6
CONTINUOUS
 62
     7
 10
40.0
 20
84.900000000000006
 30
0.0
 11
40.0
 21
102.0
 31
0.0
  0
LINE
  5
64
  8
DIMNSIONS
  6
CONTINUOUS
 62
     7
 10
40.0
 20
100.0
 30
0.0
 11
140.0
 21
100.0
 31
0.0
  0
LINE
  5
65
  8
DIMNSIONS
  6
CONTINUOUS
 62
     7
 10
40.0
 20
100.0
 30
0.0
 11
42.500622558593747
 21
100.6700397951502
 31
0.0
  0
LINE
  5
66
  8
DIMNSIONS
  6
CONTINUOUS
 62
     7
 10
40.0
 20
100.0
 30
0.0
 11
42.500622558593747
 21
99.329960204849755
 31
0.0
  0
ARC
  5
67
  8
DIMNSIONS
  6
CONTINUOUS
 62
     7
 10
140.0
 20
110.0
 30
0.0
 40
10.0
 50
270.0
 51
0.0
  0
LINE
  5
68
  8
DIMNSIONS
  6
CONTINUOUS
 62
     7
 10
30.91706052144885
 20
77.248818435653462
 30
0.0
 11
35.0
 21
65.0
 31
0.0
  0
LINE
  5
69
  8
DIMNSIONS
  6
CONTINUOUS
 62
     7
 10
30.91706052144885
 20
77.248818435653462
 30
0.0
 11
32.364718665549461
 21
75.102576975460295
 31
0.0
  0
LINE
  5
6A
  8
DIMNSIONS
  6
CONTINUOUS
 62
     7
 10
30.91706052144885
 20
77.248818435653462
 30
0.0
 11
31.09764852013884
 21
74.666289736420495
 31
0.0
  0
LINE
  5
6B
  8
DIMNSIONS
  6
CONTINUOUS
 62
     7
 10
35.0
 20
65.0
 30
0.0
 11
45.819444444444429
 21
65.0
 31
0.0
  0
TEXT
  5
6C
  8
DIMNSIONS
 62
     7
 10
37.0
 20
65.993888888888875
 30
0.0
 40
2.7147352430555549
  1
\U+03C65.8
 41
0.7
 11
37.0
 21
68.708624131944433
 31
0.0
 73
     3
  0
LINE
  5
6D
  8
DIMNSIONS
  6
CONTINUOUS
 62
     7
 10
31.050951949424899
 20
162.1019038988498
 30
0.0
 11
35.0
 21
170.0
 31
0.0
  0
LINE
  5
6E
  8
DIMNSIONS
  6
CONTINUOUS
 62
     7
 10
31.050951949424899
 20
162.1019038988498
 30
0.0
 11
31.589201005516159
 21
164.6341666145351
 31
0.0
  0
LINE
  5
6F
  8
DIMNSIONS
  6
CONTINUOUS
 62
     7
 10
31.050951949424899
 20
162.1019038988498
 30
0.0
 11
32.783220663405558
 21
164.02578321164381
 31
0.0
  0
LINE
  5
70
  8
DIMNSIONS
  6
CONTINUOUS
 62
     7
 10
35.0
 20
170.0
 30
0.0
 11
45.81944511731465
 21
170.0
 31
0.0
  0
TEXT
  5
71
  8
DIMNSIONS
 62
     7
 10
37.0
 20
170.9938889477651
 30
0.0
 40
2.714735566677259
  1
\U+03C64.7
 41
0.7
 11
37.0
 21
173.70862451444231
 31
0.0
 73
     3
  0
LINE
  5
72
  8
DIMNSIONS
  6
CONTINUOUS
 62
     7
 10
90.0
 20
79.200000000000017
 30
0.0
 11
90.0
 21
80.800000000000026
 31
0.0
  0
LINE
  5
73
  8
DIMNSIONS
  6
CONTINUOUS
 62
     7
 10
90.0
 20
80.800000000000026
 30
0.0
 11
90.0
 21
85.800000000000026
 31
0.0
  0
LINE
  5
74
  8
DIMNSIONS
  6
CONTINUOUS
 62
     7
 10
90.0
 20
80.800000000000026
 30
0.0
 11
89.329960204849741
 21
83.300622558593773
 31
0.0
  0
LINE
  5
75
  8
DIMNSIONS
  6
CONTINUOUS
 62
     7
 10
90.0
 20
80.800000000000026
 30
0.0
 11
90.670039795150245
 21
83.300622558593773
 31
0.0
  0
LINE
  5
76
  8
DIMNSIONS
  6
CONTINUOUS
 62
     7
 10
90.0
 20
79.200000000000017
 30
0.0
 11
90.0
 21
72.354165993796457
 31
0.0
  0
LINE
  5
77
  8
DIMNSIONS
  6
CONTINUOUS
 62
     7
 10
90.0
 20
79.200000000000017
 30
0.0
 11
90.670039795150245
 21
76.69937744140627
 31
0.0
  0
LINE
  5
78
  8
DIMNSIONS
  6
CONTINUOUS
 62
     7
 10
90.0
 20
79.200000000000017
 30
0.0
 11
89.329960204849741
 21
76.69937744140627
 31
0.0
  0
TEXT
  5
79
  8
DIMNSIONS
 62
     7
 10
89.006110993358774
 20
72.354165993796457
 30
0.0
 40
2.714735890298968
  1
1.6
 50
90.0
 41
0.7
 11
86.291375103059806
 21
72.354165993796457
 31
0.0
 73
     3
  0
TEXT
  5
7A
  8
DATA
 62
     7
 10
149.91379539902121
 20
21.010791121836942
 30
0.0
 40
2.4432617187500001
  1
CM1618B00
 41
0.7
 11
149.91379539902121
 21
23.45405284058694
 31
0.0
 73
     3
  0
TEXT
  5
7B
  8
DATA
 62
     7
 10
149.85632566503531
 20
28.380890000000011
 30
0.0
 40
2.4432617187500001
  1
DPA
 41
0.7
 11
149.85632566503531
 21
30.824151718750009
 31
0.0
 73
     3
  0
TEXT
  5
7C
  8
DATA
 62
     7
 10
148.2624886792093
 20
25.103457061064791
 30
0.0
 40
1.6288437109374989
  1
マイクケーブル
 41
0.7
 11
148.2624886792093
 21
26.73230077200229
 31
0.0
 73
     3
  0
TEXT
  5
7D
  8
DATA
 62
     7
 10
12.57012263196655
 20
16.626277517656501
 30
0.0
 40
1.900314670138888
  1
※仕様及び外観は予告なく変更されることがあります。
 41
0.7
 11
12.57012263196655
 21
18.526592187795391
 31
0.0
 73
     3
  0
TEXT
  5
7E
  8
DATA
 62
     7
 10
12.57012263196655
 20
14.15683307321205
 30
0.0
 40
1.900314670138888
  1
　また、同一商品でも若干の個体差があることがあります。ご了承ください。
 41
0.7
 11
12.57012263196655
 21
16.057147743350939
 31
0.0
 73
     3
  0
CIRCLE
  5
7F
  8
DATA
  6
CONTINUOUS
 62
     7
 10
30.0
 20
80.0
 30
0.0
 40
2.899999999999991
  0
CIRCLE
  5
80
  8
DATA
  6
CONTINUOUS
 62
     7
 10
30.0
 20
80.0
 30
0.0
 40
0.375
  0
LINE
  5
81
  8
DATA
  6
CONTINUOUS
 62
     7
 10
40.0
 20
77.100000000000023
 30
0.0
 11
40.0
 21
82.900000000000006
 31
0.0
  0
LINE
  5
82
  8
DATA
  6
CONTINUOUS
 62
     7
 10
40.0
 20
82.900000000000006
 30
0.0
 11
44.999999999999993
 21
82.900000000000006
 31
0.0
  0
LINE
  5
83
  8
DATA
  6
CONTINUOUS
 62
     7
 10
40.0
 20
77.09999999999998
 30
0.0
 11
44.999999999999993
 21
77.09999999999998
 31
0.0
  0
CIRCLE
  5
84
  8
DATA
  6
CONTINUOUS
 62
     7
 10
30.0
 20
80.0
 30
0.0
 40
2.1000000000000081
  0
LINE
  5
85
  8
DATA
  6
CONTINUOUS
 62
     7
 10
45.0
 20
77.100000000000023
 30
0.0
 11
45.0
 21
82.900000000000006
 31
0.0
  0
LINE
  5
86
  8
DATA
  6
CONTINUOUS
 62
     7
 10
39.0
 20
79.8125
 30
0.0
 11
39.0
 21
80.187500000000014
 31
0.0
  0
LINE
  5
87
  8
DATA
  6
CONTINUOUS
 62
     7
 10
39.1875
 20
79.625
 30
0.0
 11
40.0
 21
79.625
 31
0.0
  0
LINE
  5
88
  8
DATA
  6
CONTINUOUS
 62
     7
 10
39.187499999999972
 20
80.374999999999986
 30
0.0
 11
40.0
 21
80.374999999999986
 31
0.0
  0
LINE
  5
89
  8
DATA
  6
CONTINUOUS
 62
     7
 10
39.0
 20
79.8125
 30
0.0
 11
39.1875
 21
79.625
 31
0.0
  0
LINE
  5
8A
  8
DATA
  6
CONTINUOUS
 62
     7
 10
39.0
 20
80.187500000000014
 30
0.0
 11
39.1875
 21
80.375000000000028
 31
0.0
  0
LINE
  5
8B
  8
DATA
  6
CONTINUOUS
 62
     7
 10
66.0
 20
78.700000000000003
 30
0.0
 11
66.0
 21
81.300000000000026
 31
0.0
  0
LINE
  5
8C
  8
DATA
  6
CONTINUOUS
 62
     7
 10
45.299999999999997
 20
77.750000000000014
 30
0.0
 11
45.299999999999997
 21
82.250000000000014
 31
0.0
  0
LINE
  5
8D
  8
DATA
  6
CONTINUOUS
 62
     7
 10
45.299999999999997
 20
82.250000000000014
 30
0.0
 11
53.0
 21
82.250000000000014
 31
0.0
  0
LINE
  5
8E
  8
DATA
  6
CONTINUOUS
 62
     7
 10
45.299999999999997
 20
77.750000000000014
 30
0.0
 11
53.0
 21
77.750000000000014
 31
0.0
  0
LINE
  5
8F
  8
DATA
  6
CONTINUOUS
 62
     7
 10
45.299999999999997
 20
81.924339076688454
 30
0.0
 11
44.999999999999993
 21
81.924339076688454
 31
0.0
  0
LINE
  5
90
  8
DATA
  6
CONTINUOUS
 62
     7
 10
45.299999999999997
 20
78.07566092331156
 30
0.0
 11
44.999999999999993
 21
78.07566092331156
 31
0.0
  0
LINE
  5
91
  8
DATA
  6
CONTINUOUS
 62
     7
 10
66.0
 20
81.300000000000026
 30
0.0
 11
63.299999999999997
 21
81.501968503937036
 31
0.0
  0
LINE
  5
92
  8
DATA
  6
CONTINUOUS
 62
     7
 10
62.799999999999997
 20
81.539370078740177
 30
0.0
 11
62.299999999999997
 21
81.576771653543346
 31
0.0
  0
LINE
  5
93
  8
DATA
  6
CONTINUOUS
 62
     7
 10
61.79999999999999
 20
81.614173228346488
 30
0.0
 11
61.29999999999999
 21
81.651574803149629
 31
0.0
  0
LINE
  5
94
  8
DATA
  6
CONTINUOUS
 62
     7
 10
60.799999999999997
 20
81.688976377952784
 30
0.0
 11
60.299999999999997
 21
81.726377952755954
 31
0.0
  0
LINE
  5
95
  8
DATA
  6
CONTINUOUS
 62
     7
 10
59.799999999999997
 20
81.76377952755908
 30
0.0
 11
59.29999999999999
 21
81.801181102362222
 31
0.0
  0
LINE
  5
96
  8
DATA
  6
CONTINUOUS
 62
     7
 10
58.79999999999999
 20
81.838582677165377
 30
0.0
 11
58.299999999999997
 21
81.875984251968532
 31
0.0
  0
LINE
  5
97
  8
DATA
  6
CONTINUOUS
 62
     7
 10
57.799999999999997
 20
81.913385826771659
 30
0.0
 11
57.299999999999997
 21
81.950787401574814
 31
0.0
  0
LINE
  5
98
  8
DATA
  6
CONTINUOUS
 62
     7
 10
56.79999999999999
 20
81.988188976377984
 30
0.0
 11
56.300000000000011
 21
82.025590551181125
 31
0.0
  0
LINE
  5
99
  8
DATA
  6
CONTINUOUS
 62
     7
 10
55.799999999999997
 20
82.062992125984266
 30
0.0
 11
55.299999999999997
 21
82.100393700787421
 31
0.0
  0
LINE
  5
9A
  8
DATA
  6
CONTINUOUS
 62
     7
 10
54.800000000000011
 20
82.137795275590577
 30
0.0
 11
54.29999999999999
 21
82.175196850393732
 31
0.0
  0
LINE
  5
9B
  8
DATA
  6
CONTINUOUS
 62
     7
 10
53.79999999999999
 20
82.212598425196845
 30
0.0
 11
53.299999999999997
 21
82.250000000000014
 31
0.0
  0
LINE
  5
9C
  8
DATA
  6
CONTINUOUS
 62
     7
 10
66.0
 20
78.700000000000003
 30
0.0
 11
63.299999999999997
 21
78.498031496062978
 31
0.0
  0
LINE
  5
9D
  8
DATA
  6
CONTINUOUS
 62
     7
 10
62.799999999999997
 20
78.460629921259809
 30
0.0
 11
62.299999999999997
 21
78.423228346456668
 31
0.0
  0
LINE
  5
9E
  8
DATA
  6
CONTINUOUS
 62
     7
 10
61.79999999999999
 20
78.385826771653541
 30
0.0
 11
61.29999999999999
 21
78.348425196850386
 31
0.0
  0
LINE
  5
9F
  8
DATA
  6
CONTINUOUS
 62
     7
 10
60.799999999999997
 20
78.31102362204723
 30
0.0
 11
60.299999999999997
 21
78.273622047244075
 31
0.0
  0
LINE
  5
A0
  8
DATA
  6
CONTINUOUS
 62
     7
 10
59.799999999999997
 20
78.236220472440948
 30
0.0
 11
59.29999999999999
 21
78.198818897637793
 31
0.0
  0
LINE
  5
A1
  8
DATA
  6
CONTINUOUS
 62
     7
 10
58.79999999999999
 20
78.161417322834623
 30
0.0
 11
58.299999999999997
 21
78.124015748031482
 31
0.0
  0
LINE
  5
A2
  8
DATA
  6
CONTINUOUS
 62
     7
 10
57.799999999999997
 20
78.086614173228341
 30
0.0
 11
57.299999999999997
 21
78.049212598425214
 31
0.0
  0
LINE
  5
A3
  8
DATA
  6
CONTINUOUS
 62
     7
 10
56.79999999999999
 20
78.011811023622045
 30
0.0
 11
56.300000000000011
 21
77.974409448818903
 31
0.0
  0
LINE
  5
A4
  8
DATA
  6
CONTINUOUS
 62
     7
 10
55.799999999999997
 20
77.937007874015777
 30
0.0
 11
55.299999999999997
 21
77.899606299212607
 31
0.0
  0
LINE
  5
A5
  8
DATA
  6
CONTINUOUS
 62
     7
 10
54.799999999999997
 20
77.862204724409452
 30
0.0
 11
54.29999999999999
 21
77.824803149606296
 31
0.0
  0
LINE
  5
A6
  8
DATA
  6
CONTINUOUS
 62
     7
 10
53.79999999999999
 20
77.78740157480317
 30
0.0
 11
53.299999999999997
 21
77.750000000000014
 31
0.0
  0
LINE
  5
A7
  8
DATA
  6
CONTINUOUS
 62
     7
 10
63.299999999999997
 20
80.750000000000014
 30
0.0
 11
62.799999999999997
 21
80.750000000000014
 31
0.0
  0
LINE
  5
A8
  8
DATA
  6
CONTINUOUS
 62
     7
 10
62.299999999999997
 20
80.750000000000014
 30
0.0
 11
61.79999999999999
 21
80.750000000000014
 31
0.0
  0
LINE
  5
A9
  8
DATA
  6
CONTINUOUS
 62
     7
 10
61.29999999999999
 20
80.750000000000014
 30
0.0
 11
60.799999999999997
 21
80.750000000000014
 31
0.0
  0
LINE
  5
AA
  8
DATA
  6
CONTINUOUS
 62
     7
 10
60.299999999999997
 20
80.750000000000014
 30
0.0
 11
59.799999999999997
 21
80.750000000000014
 31
0.0
  0
LINE
  5
AB
  8
DATA
  6
CONTINUOUS
 62
     7
 10
59.29999999999999
 20
80.750000000000014
 30
0.0
 11
58.79999999999999
 21
80.750000000000014
 31
0.0
  0
LINE
  5
AC
  8
DATA
  6
CONTINUOUS
 62
     7
 10
58.299999999999997
 20
80.750000000000014
 30
0.0
 11
57.799999999999997
 21
80.750000000000014
 31
0.0
  0
LINE
  5
AD
  8
DATA
  6
CONTINUOUS
 62
     7
 10
57.299999999999997
 20
80.750000000000014
 30
0.0
 11
56.79999999999999
 21
80.750000000000014
 31
0.0
  0
LINE
  5
AE
  8
DATA
  6
CONTINUOUS
 62
     7
 10
56.29999999999999
 20
80.750000000000014
 30
0.0
 11
55.799999999999997
 21
80.750000000000014
 31
0.0
  0
LINE
  5
AF
  8
DATA
  6
CONTINUOUS
 62
     7
 10
55.29999999999999
 20
80.750000000000014
 30
0.0
 11
54.799999999999997
 21
80.750000000000014
 31
0.0
  0
LINE
  5
B0
  8
DATA
  6
CONTINUOUS
 62
     7
 10
54.29999999999999
 20
80.750000000000014
 30
0.0
 11
53.79999999999999
 21
80.750000000000014
 31
0.0
  0
LINE
  5
B1
  8
DATA
  6
CONTINUOUS
 62
     7
 10
53.299999999999997
 20
80.750000000000014
 30
0.0
 11
53.0
 21
80.750000000000014
 31
0.0
  0
LINE
  5
B2
  8
DATA
  6
CONTINUOUS
 62
     7
 10
63.299999999999997
 20
79.250000000000014
 30
0.0
 11
62.799999999999997
 21
79.250000000000014
 31
0.0
  0
LINE
  5
B3
  8
DATA
  6
CONTINUOUS
 62
     7
 10
62.299999999999997
 20
79.250000000000014
 30
0.0
 11
61.79999999999999
 21
79.250000000000014
 31
0.0
  0
LINE
  5
B4
  8
DATA
  6
CONTINUOUS
 62
     7
 10
61.29999999999999
 20
79.250000000000014
 30
0.0
 11
60.799999999999997
 21
79.250000000000014
 31
0.0
  0
LINE
  5
B5
  8
DATA
  6
CONTINUOUS
 62
     7
 10
60.299999999999997
 20
79.250000000000014
 30
0.0
 11
59.799999999999997
 21
79.250000000000014
 31
0.0
  0
LINE
  5
B6
  8
DATA
  6
CONTINUOUS
 62
     7
 10
59.29999999999999
 20
79.250000000000014
 30
0.0
 11
58.79999999999999
 21
79.250000000000014
 31
0.0
  0
LINE
  5
B7
  8
DATA
  6
CONTINUOUS
 62
     7
 10
58.299999999999997
 20
79.250000000000014
 30
0.0
 11
57.799999999999997
 21
79.250000000000014
 31
0.0
  0
LINE
  5
B8
  8
DATA
  6
CONTINUOUS
 62
     7
 10
57.299999999999997
 20
79.250000000000014
 30
0.0
 11
56.79999999999999
 21
79.250000000000014
 31
0.0
  0
LINE
  5
B9
  8
DATA
  6
CONTINUOUS
 62
     7
 10
56.29999999999999
 20
79.250000000000014
 30
0.0
 11
55.799999999999997
 21
79.250000000000014
 31
0.0
  0
LINE
  5
BA
  8
DATA
  6
CONTINUOUS
 62
     7
 10
55.299999999999997
 20
79.250000000000014
 30
0.0
 11
54.799999999999997
 21
79.250000000000014
 31
0.0
  0
LINE
  5
BB
  8
DATA
  6
CONTINUOUS
 62
     7
 10
54.29999999999999
 20
79.250000000000014
 30
0.0
 11
53.79999999999999
 21
79.250000000000014
 31
0.0
  0
LINE
  5
BC
  8
DATA
  6
CONTINUOUS
 62
     7
 10
53.299999999999997
 20
79.250000000000014
 30
0.0
 11
53.0
 21
79.250000000000014
 31
0.0
  0
LINE
  5
BD
  8
DATA
  6
CONTINUOUS
 62
     7
 10
53.0
 20
77.750000000000014
 30
0.0
 11
53.0
 21
82.250000000000014
 31
0.0
  0
LINE
  5
BE
  8
DATA
  6
CONTINUOUS
 62
     7
 10
53.299999999999997
 20
77.750000000000014
 30
0.0
 11
53.299999999999997
 21
82.250000000000014
 31
0.0
  0
LINE
  5
BF
  8
DATA
  6
CONTINUOUS
 62
     7
 10
53.79999999999999
 20
77.78740157480317
 30
0.0
 11
53.79999999999999
 21
82.212598425196845
 31
0.0
  0
LINE
  5
C0
  8
DATA
  6
CONTINUOUS
 62
     7
 10
54.29999999999999
 20
77.824803149606296
 30
0.0
 11
54.29999999999999
 21
82.175196850393732
 31
0.0
  0
LINE
  5
C1
  8
DATA
  6
CONTINUOUS
 62
     7
 10
54.799999999999997
 20
77.862204724409452
 30
0.0
 11
54.799999999999997
 21
82.137795275590562
 31
0.0
  0
LINE
  5
C2
  8
DATA
  6
CONTINUOUS
 62
     7
 10
55.299999999999997
 20
77.899606299212621
 30
0.0
 11
55.299999999999997
 21
82.100393700787421
 31
0.0
  0
LINE
  5
C3
  8
DATA
  6
CONTINUOUS
 62
     7
 10
55.799999999999997
 20
77.937007874015777
 30
0.0
 11
55.799999999999997
 21
82.062992125984266
 31
0.0
  0
LINE
  5
C4
  8
DATA
  6
CONTINUOUS
 62
     7
 10
56.29999999999999
 20
77.974409448818903
 30
0.0
 11
56.29999999999999
 21
82.025590551181125
 31
0.0
  0
LINE
  5
C5
  8
DATA
  6
CONTINUOUS
 62
     7
 10
56.79999999999999
 20
78.011811023622059
 30
0.0
 11
56.79999999999999
 21
81.988188976377984
 31
0.0
  0
LINE
  5
C6
  8
DATA
  6
CONTINUOUS
 62
     7
 10
57.299999999999997
 20
78.049212598425214
 30
0.0
 11
57.299999999999997
 21
81.950787401574814
 31
0.0
  0
LINE
  5
C7
  8
DATA
  6
CONTINUOUS
 62
     7
 10
57.799999999999997
 20
78.086614173228341
 30
0.0
 11
57.799999999999997
 21
81.913385826771659
 31
0.0
  0
LINE
  5
C8
  8
DATA
  6
CONTINUOUS
 62
     7
 10
58.299999999999997
 20
78.124015748031482
 30
0.0
 11
58.299999999999997
 21
81.875984251968532
 31
0.0
  0
LINE
  5
C9
  8
DATA
  6
CONTINUOUS
 62
     7
 10
58.79999999999999
 20
78.161417322834623
 30
0.0
 11
58.79999999999999
 21
81.838582677165377
 31
0.0
  0
LINE
  5
CA
  8
DATA
  6
CONTINUOUS
 62
     7
 10
59.29999999999999
 20
78.198818897637793
 30
0.0
 11
59.29999999999999
 21
81.801181102362222
 31
0.0
  0
LINE
  5
CB
  8
DATA
  6
CONTINUOUS
 62
     7
 10
59.799999999999997
 20
78.236220472440948
 30
0.0
 11
59.799999999999997
 21
81.76377952755908
 31
0.0
  0
LINE
  5
CC
  8
DATA
  6
CONTINUOUS
 62
     7
 10
60.299999999999997
 20
78.273622047244075
 30
0.0
 11
60.299999999999997
 21
81.726377952755925
 31
0.0
  0
LINE
  5
CD
  8
DATA
  6
CONTINUOUS
 62
     7
 10
60.799999999999997
 20
78.31102362204723
 30
0.0
 11
60.799999999999997
 21
81.688976377952784
 31
0.0
  0
LINE
  5
CE
  8
DATA
  6
CONTINUOUS
 62
     7
 10
61.29999999999999
 20
78.348425196850386
 30
0.0
 11
61.29999999999999
 21
81.651574803149629
 31
0.0
  0
LINE
  5
CF
  8
DATA
  6
CONTINUOUS
 62
     7
 10
61.79999999999999
 20
78.385826771653541
 30
0.0
 11
61.79999999999999
 21
81.614173228346488
 31
0.0
  0
LINE
  5
D0
  8
DATA
  6
CONTINUOUS
 62
     7
 10
62.299999999999997
 20
78.423228346456668
 30
0.0
 11
62.299999999999997
 21
81.576771653543346
 31
0.0
  0
LINE
  5
D1
  8
DATA
  6
CONTINUOUS
 62
     7
 10
62.799999999999997
 20
78.460629921259809
 30
0.0
 11
62.799999999999997
 21
81.539370078740177
 31
0.0
  0
LINE
  5
D2
  8
DATA
  6
CONTINUOUS
 62
     7
 10
63.299999999999997
 20
78.498031496062978
 30
0.0
 11
63.299999999999997
 21
81.501968503937036
 31
0.0
  0
CIRCLE
  5
D3
  8
DATA
  6
CONTINUOUS
 62
     7
 10
30.0
 20
160.0
 30
0.0
 40
2.3500000000000081
  0
CIRCLE
  5
D4
  8
DATA
  6
CONTINUOUS
 62
     7
 10
30.0
 20
160.0
 30
0.0
 40
3.0
  0
CIRCLE
  5
D5
  8
DATA
  6
CONTINUOUS
 62
     7
 10
30.0
 20
160.0
 30
0.0
 40
0.375
  0
CIRCLE
  5
D6
  8
DATA
  6
CONTINUOUS
 62
     7
 10
30.0
 20
160.0
 30
0.0
 40
1.3850000000000049
  0
LINE
  5
D7
  8
DATA
  6
CONTINUOUS
 62
     7
 10
40.0
 20
157.65000000000001
 30
0.0
 11
40.0
 21
162.34999999999999
 31
0.0
  0
LINE
  5
D8
  8
DATA
  6
CONTINUOUS
 62
     7
 10
42.799999999999997
 20
157.0
 30
0.0
 11
42.799999999999997
 21
163.0
 31
0.0
  0
LINE
  5
D9
  8
DATA
  6
CONTINUOUS
 62
     7
 10
40.0
 20
162.34999999999999
 30
0.0
 11
42.79999999999999
 21
162.34999999999999
 31
0.0
  0
LINE
  5
DA
  8
DATA
  6
CONTINUOUS
 62
     7
 10
40.0
 20
157.65000000000001
 30
0.0
 11
42.799999999999997
 21
157.65000000000001
 31
0.0
  0
LINE
  5
DB
  8
DATA
  6
CONTINUOUS
 62
     7
 10
40.0
 20
161.9481461235745
 30
0.0
 11
40.468387718594649
 21
157.65000000000001
 31
0.0
  0
LINE
  5
DC
  8
DATA
  6
CONTINUOUS
 62
     7
 10
40.756208243336097
 20
162.34999999999999
 30
0.0
 11
41.268387730515578
 21
157.65000000000001
 31
0.0
  0
LINE
  5
DD
  8
DATA
  6
CONTINUOUS
 62
     7
 10
41.556208255257019
 20
162.34999999999999
 30
0.0
 11
42.068387742436521
 21
157.65000000000001
 31
0.0
  0
LINE
  5
DE
  8
DATA
  6
CONTINUOUS
 62
     7
 10
42.356208267177962
 20
162.34999999999999
 30
0.0
 11
42.799999999999997
 21
158.27755821645661
 31
0.0
  0
LINE
  5
DF
  8
DATA
  6
CONTINUOUS
 62
     7
 10
78.799999999999983
 20
159.0
 30
0.0
 11
78.799999999999983
 21
161.0
 31
0.0
  0
LINE
  5
E0
  8
DATA
  6
CONTINUOUS
 62
     7
 10
49.29999999999999
 20
157.0
 30
0.0
 11
49.29999999999999
 21
163.0
 31
0.0
  0
LINE
  5
E1
  8
DATA
  6
CONTINUOUS
 62
     7
 10
52.299999999999997
 20
157.84999999999999
 30
0.0
 11
52.299999999999997
 21
162.15000000000001
 31
0.0
  0
LINE
  5
E2
  8
DATA
  6
CONTINUOUS
 62
     7
 10
52.299999999999997
 20
162.15000000000001
 30
0.0
 11
49.29999999999999
 21
162.59736842105261
 31
0.0
  0
LINE
  5
E3
  8
DATA
  6
CONTINUOUS
 62
     7
 10
52.299999999999997
 20
157.84999999999999
 30
0.0
 11
49.29999999999999
 21
157.40263157894731
 31
0.0
  0
LINE
  5
E4
  8
DATA
  6
CONTINUOUS
 62
     7
 10
52.299999999999997
 20
162.15000000000001
 30
0.0
 11
78.799999999999983
 21
161.0
 31
0.0
  0
LINE
  5
E5
  8
DATA
  6
CONTINUOUS
 62
     7
 10
52.299999999999997
 20
157.84999999999999
 30
0.0
 11
78.799999999999983
 21
159.0
 31
0.0
  0
LINE
  5
E6
  8
DATA
  6
CONTINUOUS
 62
     7
 10
52.299999999999997
 20
162.15000000000001
 30
0.0
 11
52.299999999999997
 21
157.84999999999999
 31
0.0
  0
LINE
  5
E7
  8
DATA
  6
CONTINUOUS
 62
     7
 10
55.100000000000001
 20
162.0284905660377
 30
0.0
 11
55.100000000000001
 21
157.9715094339623
 31
0.0
  0
LINE
  5
E8
  8
DATA
  6
CONTINUOUS
 62
     7
 10
55.600000000000001
 20
162.00679245283021
 30
0.0
 11
55.600000000000001
 21
157.99320754716979
 31
0.0
  0
LINE
  5
E9
  8
DATA
  6
CONTINUOUS
 62
     7
 10
55.600000000000001
 20
162.00679245283021
 30
0.0
 11
55.600000000000001
 21
157.99320754716979
 31
0.0
  0
LINE
  5
EA
  8
DATA
  6
CONTINUOUS
 62
     7
 10
58.399999999999991
 20
161.88528301886791
 30
0.0
 11
58.399999999999991
 21
158.11471698113201
 31
0.0
  0
LINE
  5
EB
  8
DATA
  6
CONTINUOUS
 62
     7
 10
58.899999999999999
 20
161.86358490566039
 30
0.0
 11
58.899999999999999
 21
158.13641509433961
 31
0.0
  0
LINE
  5
EC
  8
DATA
  6
CONTINUOUS
 62
     7
 10
61.700000000000003
 20
161.74207547169809
 30
0.0
 11
61.700000000000003
 21
158.2579245283018
 31
0.0
  0
LINE
  5
ED
  8
DATA
  6
CONTINUOUS
 62
     7
 10
62.200000000000003
 20
161.72037735849051
 30
0.0
 11
62.200000000000003
 21
158.27962264150941
 31
0.0
  0
LINE
  5
EE
  8
DATA
  6
CONTINUOUS
 62
     7
 10
65.0
 20
161.59886792452821
 30
0.0
 11
65.0
 21
158.40113207547171
 31
0.0
  0
LINE
  5
EF
  8
DATA
  6
CONTINUOUS
 62
     7
 10
65.5
 20
161.57716981132069
 30
0.0
 11
65.5
 21
158.4228301886792
 31
0.0
  0
LINE
  5
F0
  8
DATA
  6
CONTINUOUS
 62
     7
 10
68.299999999999997
 20
161.4556603773585
 30
0.0
 11
68.299999999999997
 21
158.5443396226415
 31
0.0
  0
LINE
  5
F1
  8
DATA
  6
CONTINUOUS
 62
     7
 10
68.799999999999983
 20
161.43396226415089
 30
0.0
 11
68.799999999999983
 21
158.56603773584899
 31
0.0
  0
LINE
  5
F2
  8
DATA
  6
CONTINUOUS
 62
     7
 10
71.599999999999994
 20
161.3124528301887
 30
0.0
 11
71.599999999999994
 21
158.6875471698113
 31
0.0
  0
LINE
  5
F3
  8
DATA
  6
CONTINUOUS
 62
     7
 10
72.09999999999998
 20
161.2907547169811
 30
0.0
 11
72.09999999999998
 21
158.7092452830189
 31
0.0
  0
LINE
  5
F4
  8
DATA
  6
CONTINUOUS
 62
     7
 10
74.900000000000006
 20
161.16924528301891
 30
0.0
 11
74.900000000000006
 21
158.83075471698109
 31
0.0
  0
LINE
  5
F5
  8
DATA
  6
CONTINUOUS
 62
     7
 10
75.400000000000006
 20
161.1475471698113
 30
0.0
 11
75.400000000000006
 21
158.8524528301887
 31
0.0
  0
LINE
  5
F6
  8
DATA
  6
CONTINUOUS
 62
     7
 10
78.200000000000003
 20
161.026037735849
 30
0.0
 11
78.200000000000003
 21
158.97396226415091
 31
0.0
  0
LINE
  5
F7
  8
DATA
  6
CONTINUOUS
 62
     7
 10
162.5
 20
139.19999999999999
 30
0.0
 11
162.5
 21
121.7906906259321
 31
0.0
  0
LINE
  5
F8
  8
DATA
  6
CONTINUOUS
 62
     7
 10
162.5
 20
120.8574591466605
 30
0.0
 11
162.5
 21
100.8
 31
0.0
  0
LINE
  5
F9
  8
DATA
  6
CONTINUOUS
 62
     7
 10
42.799999999999997
 20
163.0
 30
0.0
 11
49.299999999999983
 21
163.0
 31
0.0
  0
LINE
  5
FA
  8
DATA
  6
CONTINUOUS
 62
     7
 10
42.799999999999997
 20
157.0
 30
0.0
 11
49.299999999999983
 21
157.0
 31
0.0
  0
ARC
  5
FB
  8
DATA
  6
CONTINUOUS
 62
     7
 10
161.73216707120361
 20
120.1683142358207
 30
0.0
 40
1.7949018239822241
 50
37.954904194630053
 51
155.3714170933664
  0
ARC
  5
FC
  8
DATA
  6
CONTINUOUS
 62
     7
 10
164.5017676811122
 20
122.4790305635139
 30
0.0
 40
1.8139793662873629
 50
221.702701641164
 51
345.90121334720538
  0
ARC
  5
FD
  8
DATA
  6
CONTINUOUS
 62
     7
 10
161.73216707120361
 20
119.2350827565492
 30
0.0
 40
1.7949018239822241
 50
37.954904194630053
 51
155.3714170933664
  0
ARC
  5
FE
  8
DATA
  6
CONTINUOUS
 62
     7
 10
164.5017676811122
 20
121.5457990842423
 30
0.0
 40
1.8139793662873629
 50
221.702701641164
 51
345.90121334720538
  0
LINE
  5
FF
  8
DATA
  6
CONTINUOUS
 62
     7
 10
32.061552812808841
 20
79.59999999999998
 30
0.0
 11
31.078192932642391
 21
79.59999999999998
 31
0.0
  0
LINE
  5
100
  8
DATA
  6
CONTINUOUS
 62
     7
 10
28.921807067357609
 20
79.59999999999998
 30
0.0
 11
27.938447187191159
 21
79.59999999999998
 31
0.0
  0
LINE
  5
101
  8
DATA
  6
CONTINUOUS
 62
     7
 10
27.938447187191159
 20
80.399999999999963
 30
0.0
 11
28.921807067357609
 21
80.399999999999963
 31
0.0
  0
LINE
  5
102
  8
DATA
  6
CONTINUOUS
 62
     7
 10
31.078192932642409
 20
80.399999999999963
 30
0.0
 11
32.061552812808841
 21
80.399999999999963
 31
0.0
  0
CIRCLE
  5
103
  8
DATA
  6
CONTINUOUS
 62
     7
 10
30.0
 20
80.0
 30
0.0
 40
1.150000000000005
  0
LINE
  5
104
  8
DATA
  6
CONTINUOUS
 62
     7
 10
142.5
 20
159.19999999999999
 30
0.0
 11
78.799999999999983
 21
159.19999999999999
 31
0.0
  0
LINE
  5
105
  8
DATA
  6
CONTINUOUS
 62
     7
 10
78.799999999999983
 20
160.80000000000001
 30
0.0
 11
144.09999999999999
 21
160.80000000000001
 31
0.0
  0
LINE
  5
106
  8
DATA
  6
CONTINUOUS
 62
     7
 10
144.09999999999999
 20
79.200000000000017
 30
0.0
 11
65.999999999999929
 21
79.200000000000017
 31
0.0
  0
LINE
  5
107
  8
DATA
  6
CONTINUOUS
 62
     7
 10
66.0
 20
80.800000000000026
 30
0.0
 11
142.5
 21
80.800000000000026
 31
0.0
  0
LINE
  5
108
  8
DATA
  6
CONTINUOUS
 62
     7
 10
164.09999999999999
 20
140.80000000000001
 30
0.0
 11
164.09999999999999
 21
120.7101032411713
 31
0.0
  0
LINE
  5
109
  8
DATA
  6
CONTINUOUS
 62
     7
 10
164.09999999999999
 20
119.7768717618997
 30
0.0
 11
164.09999999999999
 21
99.200000000000017
 31
0.0
  0
ARC
  5
10A
  8
DATA
  6
CONTINUOUS
 62
     7
 10
142.5
 20
139.19999999999999
 30
0.0
 40
20.0
 50
0.0
 51
90.0
  0
ARC
  5
10B
  8
DATA
  6
CONTINUOUS
 62
     7
 10
144.09999999999999
 20
140.80000000000001
 30
0.0
 40
20.0
 50
0.0
 51
90.0
  0
ARC
  5
10C
  8
DATA
  6
CONTINUOUS
 62
     7
 10
142.5
 20
100.8
 30
0.0
 40
20.0
 50
270.0
 51
0.0
  0
ARC
  5
10D
  8
DATA
  6
CONTINUOUS
 62
     7
 10
144.09999999999999
 20
99.200000000000017
 30
0.0
 40
20.0
 50
270.0
 51
0.0
  0
ENDSEC
  0
EOF
