  0
SECTION
  2
HEADER
  9
$ACADVER
  1
AC1009
  9
$INSBASE
 10
0.0
 20
0.0
 30
0.0
  9
$EXTMIN
 10
9.9963383446405487
 20
2.381287252508741
 30
-0.0015258207003583
  9
$EXTMAX
 10
190.00579878222879
 20
270.00824037474621
 30
0.0000000349246037
  9
$LIMMIN
 10
0.0
 20
0.0
  9
$LIMMAX
 10
0.0
 20
0.0
  9
$ORTHOMODE
 70
     0
  9
$REGENMODE
 70
     1
  9
$FILLMODE
 70
     1
  9
$QTEXTMODE
 70
     0
  9
$MIRRTEXT
 70
     1
  9
$DRAGMODE
 70
     2
  9
$LTSCALE
 40
25.399999999999999
  9
$OSMODE
 70
   231
  9
$ATTMODE
 70
     1
  9
$TEXTSIZE
 40
0.0
  9
$TRACEWID
 40
1.0
  9
$TEXTSTYLE
  7
STANDARD
  9
$CLAYER
  8
DATA
  9
$CELTYPE
  6
BYLAYER
  9
$CECOLOR
 62
   256
  9
$DIMSCALE
 40
1.0
  9
$DIMASZ
 40
0.18
  9
$DIMEXO
 40
0.0625
  9
$DIMDLI
 40
0.38
  9
$DIMRND
 40
0.0
  9
$DIMDLE
 40
0.0
  9
$DIMEXE
 40
0.18
  9
$DIMTP
 40
0.0
  9
$DIMTM
 40
0.0
  9
$DIMTXT
 40
0.18
  9
$DIMCEN
 40
0.09
  9
$DIMTSZ
 40
0.0
  9
$DIMTOL
 70
     0
  9
$DIMLIM
 70
     0
  9
$DIMTIH
 70
     1
  9
$DIMTOH
 70
     1
  9
$DIMSE1
 70
     0
  9
$DIMSE2
 70
     0
  9
$DIMTAD
 70
     0
  9
$DIMZIN
 70
     0
  9
$DIMBLK
  1

  9
$DIMASO
 70
     1
  9
$DIMSHO
 70
     1
  9
$DIMPOST
  1

  9
$DIMAPOST
  1

  9
$DIMALT
 70
     0
  9
$DIMALTD
 70
     2
  9
$DIMALTF
 40
25.399999999999999
  9
$DIMLFAC
 40
1.0
  9
$DIMTOFL
 70
     0
  9
$DIMTVP
 40
0.0
  9
$DIMTIX
 70
     0
  9
$DIMSOXD
 70
     0
  9
$DIMSAH
 70
     0
  9
$DIMBLK1
  1

  9
$DIMBLK2
  1

  9
$DIMSTYLE
  2
STANDARD
  9
$DIMCLRD
 70
     0
  9
$DIMCLRE
 70
     0
  9
$DIMCLRT
 70
     0
  9
$DIMTFAC
 40
1.0
  9
$DIMGAP
 40
0.09
  9
$LUNITS
 70
     2
  9
$LUPREC
 70
     4
  9
$SKETCHINC
 40
0.1
  9
$FILLETRAD
 40
0.0
  9
$AUNITS
 70
     0
  9
$AUPREC
 70
     0
  9
$MENU
  1
acad
  9
$ELEVATION
 40
0.0
  9
$PELEVATION
 40
0.0
  9
$THICKNESS
 40
0.0
  9
$LIMCHECK
 70
     0
  9
$BLIPMODE
 70
     0
  9
$CHAMFERA
 40
0.0
  9
$CHAMFERB
 40
0.0
  9
$SKPOLY
 70
     0
  9
$TDCREATE
 40
2456597.44712963
  9
$TDUPDATE
 40
2456597.4618390631
  9
$TDINDWG
 40
0.0003201389
  9
$TDUSRTIMER
 40
0.0003200579
  9
$USRTIMER
 70
     1
  9
$ANGBASE
 50
0.0
  9
$ANGDIR
 70
     0
  9
$PDMODE
 70
     1
  9
$PDSIZE
 40
-2.0
  9
$PLINEWID
 40
0.0
  9
$COORDS
 70
     2
  9
$SPLFRAME
 70
     0
  9
$SPLINETYPE
 70
     6
  9
$SPLINESEGS
 70
     8
  9
$ATTDIA
 70
     0
  9
$ATTREQ
 70
     1
  9
$HANDLING
 70
     1
  9
$HANDSEED
  5
1A5
  9
$SURFTAB1
 70
     6
  9
$SURFTAB2
 70
     6
  9
$SURFTYPE
 70
     6
  9
$SURFU
 70
     6
  9
$SURFV
 70
     6
  9
$UCSNAME
  2

  9
$UCSORG
 10
0.0
 20
0.0
 30
0.0
  9
$UCSXDIR
 10
1.0
 20
0.0
 30
0.0
  9
$UCSYDIR
 10
0.0
 20
1.0
 30
0.0
  9
$PUCSNAME
  2

  9
$PUCSORG
 10
0.0
 20
0.0
 30
0.0
  9
$PUCSXDIR
 10
1.0
 20
0.0
 30
0.0
  9
$PUCSYDIR
 10
0.0
 20
1.0
 30
0.0
  9
$USERI1
 70
     0
  9
$USERI2
 70
     0
  9
$USERI3
 70
     0
  9
$USERI4
 70
     0
  9
$USERI5
 70
     0
  9
$USERR1
 40
0.0
  9
$USERR2
 40
0.0
  9
$USERR3
 40
0.0
  9
$USERR4
 40
0.0
  9
$USERR5
 40
0.0
  9
$WORLDVIEW
 70
     1
  9
$SHADEDGE
 70
     3
  9
$SHADEDIF
 70
    70
  9
$TILEMODE
 70
     1
  9
$MAXACTVP
 70
    64
  9
$PLIMCHECK
 70
     0
  9
$PEXTMIN
 10
1.0000000000000000E+020
 20
1.0000000000000000E+020
 30
1.0000000000000000E+020
  9
$PEXTMAX
 10
-1.0000000000000000E+020
 20
-1.0000000000000000E+020
 30
-1.0000000000000000E+020
  9
$PLIMMIN
 10
0.0
 20
0.0
  9
$PLIMMAX
 10
12.0
 20
9.0
  9
$UNITMODE
 70
     0
  9
$VISRETAIN
 70
     0
  9
$PLINEGEN
 70
     1
  9
$PSLTSCALE
 70
     0
  0
ENDSEC
  0
SECTION
  2
TABLES
  0
TABLE
  2
VPORT
 70
     1
  0
VPORT
  2
*ACTIVE
 70
     0
 10
0.0
 20
0.0
 11
1.0
 21
1.0
 12
100.0010685634346
 22
136.19476381362739
 13
0.0
 23
0.0
 14
1.0
 24
1.0
 15
0.0
 25
0.0
 16
0.0
 26
0.0
 36
1.0
 17
0.0
 27
0.0
 37
0.0
 40
269.73425196571958
 41
2.1787122207621552
 42
50.0
 43
0.0
 44
0.0
 50
0.0
 51
0.0
 71
     0
 72
  2000
 73
     1
 74
     1
 75
     0
 76
     0
 77
     0
 78
     0
  0
ENDTAB
  0
TABLE
  2
LTYPE
 70
     2
  0
LTYPE
  2
CONTINUOUS
 70
     0
  3
Solid line
 72
    65
 73
     0
 40
0.0
  0
ENDTAB
  0
TABLE
  2
LAYER
 70
     5
  0
LAYER
  2
0
 70
     0
 62
     7
  6
CONTINUOUS
  0
LAYER
  2
DATA
 70
     0
 62
     7
  6
CONTINUOUS
  0
LAYER
  2
HIBINO-BASE
 70
     0
 62
     7
  6
CONTINUOUS
  0
LAYER
  2
SPEC
 70
     0
 62
     7
  6
CONTINUOUS
  0
LAYER
  2
DIMNSIONS
 70
     0
 62
     7
  6
CONTINUOUS
  0
ENDTAB
  0
TABLE
  2
STYLE
 70
     3
  0
STYLE
  2
STANDARD
 70
     0
 40
0.0
 41
1.0
 50
0.0
 71
     0
 42
0.0
  3
txt
  4
BIGFONT.SHX
  0
ENDTAB
  0
TABLE
  2
VIEW
 70
     0
  0
ENDTAB
  0
TABLE
  2
UCS
 70
     0
  0
ENDTAB
  0
TABLE
  2
APPID
 70
     4
  0
APPID
  2
ACAD
 70
     0
  0
APPID
  2
ACADANNOTATIVE
 70
     0
  0
APPID
  2
ACAD_NAV_VCDISPLAY
 70
     0
  0
APPID
  2
ACAD_MLEADERVER
 70
     0
  0
ENDTAB
  0
TABLE
  2
DIMSTYLE
 70
     2
  0
DIMSTYLE
  2
STANDARD
 70
     0
  3

  4

  5

  6

  7

 40
1.0
 41
0.18
 42
0.0625
 43
0.38
 44
0.18
 45
0.0
 46
0.0
 47
0.0
 48
0.0
140
0.18
141
0.09
142
0.0
143
25.399999999999999
144
1.0
145
0.0
146
1.0
147
0.09
 71
     0
 72
     0
 73
     1
 74
     1
 75
     0
 76
     0
 77
     0
 78
     0
170
     0
171
     2
172
     0
173
     0
174
     0
175
     0
176
     0
177
     0
178
     0
  0
ENDTAB
  0
ENDSEC
  0
SECTION
  2
BLOCKS
  0
BLOCK
  8
0
  2
$MODEL_SPACE
 70
     0
 10
0.0
 20
0.0
 30
0.0
  3
$MODEL_SPACE
  1

  0
ENDBLK
  5
13D
  8
0
  0
BLOCK
 67
     1
  8
0
  2
$PAPER_SPACE
 70
     0
 10
0.0
 20
0.0
 30
0.0
  3
$PAPER_SPACE
  1

  0
ENDBLK
  5
139
 67
     1
  8
0
  0
ENDSEC
  0
SECTION
  2
ENTITIES
  0
LINE
  5
23
  8
HIBINO-BASE
  6
CONTINUOUS
 62
     7
 10
10.0
 20
270.0
 30
0.0
 11
190.0
 21
270.0
 31
0.0
  0
LINE
  5
24
  8
HIBINO-BASE
  6
CONTINUOUS
 62
     7
 10
190.0
 20
10.0
 30
0.0
 11
10.0
 21
10.0
 31
0.0
  0
LINE
  5
25
  8
HIBINO-BASE
  6
CONTINUOUS
 62
     7
 10
10.0
 20
10.0
 30
0.0
 11
10.0
 21
270.0
 31
0.0
  0
LINE
  5
26
  8
HIBINO-BASE
  6
CONTINUOUS
 62
     7
 10
190.0
 20
270.0
 30
0.0
 11
190.0
 21
10.0
 31
0.0
  0
LINE
  5
27
  8
HIBINO-BASE
  6
CONTINUOUS
 62
     7
 10
100.0
 20
32.500000000000007
 30
0.0
 11
190.0
 21
32.500000000000007
 31
0.0
  0
LINE
  5
28
  8
HIBINO-BASE
  6
CONTINUOUS
 62
     7
 10
100.0
 20
10.0
 30
0.0
 11
100.0
 21
32.500000000000007
 31
0.0
  0
TEXT
  5
29
  8
HIBINO-BASE
 62
     7
 10
100.90000000000001
 20
29.991306666666681
 30
0.0
 40
1.6288411458333329
  1
NOTE
 41
0.7
 11
100.90000000000001
 21
31.620147812500011
 31
0.0
 73
     3
  0
LINE
  5
2A
  8
HIBINO-BASE
  6
CONTINUOUS
 62
     7
 10
135.0
 20
10.0
 30
0.0
 11
135.0
 21
32.500000000000007
 31
0.0
  0
TEXT
  5
2B
  8
HIBINO-BASE
 62
     7
 10
135.89999999999989
 20
29.991306666666681
 30
0.0
 40
1.6288411458333329
  1
TITLE
 41
0.7
 11
135.89999999999989
 21
31.620147812500011
 31
0.0
 73
     3
  0
LINE
  5
2C
  8
HIBINO-BASE
  6
CONTINUOUS
 62
     7
 10
100.0
 20
20.000000000000011
 30
0.0
 11
190.0
 21
20.000000000000011
 31
0.0
  0
TEXT
  5
2D
  8
HIBINO-BASE
 62
     7
 10
148.39999999999989
 20
17.54762666666667
 30
0.0
 40
1.6288411458333329
  1
DRAWN
 41
0.7
 11
148.39999999999989
 21
19.176467812500011
 31
0.0
 73
     3
  0
TEXT
  5
2E
  8
HIBINO-BASE
 62
     7
 10
123.39999999999991
 20
17.54762666666667
 30
0.0
 40
1.6288411458333329
  1
DATE
 41
0.7
 11
123.39999999999991
 21
19.176467812500011
 31
0.0
 73
     3
  0
TEXT
  5
2F
  8
HIBINO-BASE
 62
     7
 10
113.40000000000001
 20
17.54762666666667
 30
0.0
 40
1.6288411458333329
  1
SCALE
 41
0.7
 11
113.40000000000001
 21
19.176467812500011
 31
0.0
 73
     3
  0
TEXT
  5
30
  8
HIBINO-BASE
 62
     7
 10
135.89999999999989
 20
17.54762666666667
 30
0.0
 40
1.6288411458333329
  1
DESIGN
 41
0.7
 11
135.89999999999989
 21
19.176467812500011
 31
0.0
 73
     3
  0
TEXT
  5
31
  8
HIBINO-BASE
 62
     7
 10
173.39999999999989
 20
17.54762666666667
 30
0.0
 40
1.6288411458333329
  1
DRAWING NO.
 41
0.7
 11
173.39999999999989
 21
19.176467812500011
 31
0.0
 73
     3
  0
TEXT
  5
32
  8
HIBINO-BASE
 62
     7
 10
160.89999999999989
 20
17.54762666666667
 30
0.0
 40
1.6288411458333329
  1
CHECK
 41
0.7
 11
160.89999999999989
 21
19.176467812500011
 31
0.0
 73
     3
  0
LINE
  5
33
  8
HIBINO-BASE
  6
CONTINUOUS
 62
     7
 10
114.375
 20
11.25
 30
0.0
 11
118.125
 21
15.000000000000011
 31
0.0
  0
TEXT
  5
34
  8
HIBINO-BASE
 62
     7
 10
113.75
 20
13.891056666666669
 30
0.0
 40
1.6288411458333329
  1
1
 41
0.7
 11
113.75
 21
15.5198978125
 31
0.0
 73
     3
  0
LINE
  5
35
  8
HIBINO-BASE
  6
CONTINUOUS
 62
     7
 10
112.5
 20
10.0
 30
0.0
 11
112.5
 21
20.000000000000011
 31
0.0
  0
LINE
  5
36
  8
HIBINO-BASE
  6
CONTINUOUS
 62
     7
 10
122.5
 20
10.0
 30
0.0
 11
122.5
 21
20.000000000000011
 31
0.0
  0
LINE
  5
37
  8
HIBINO-BASE
  6
CONTINUOUS
 62
     7
 10
147.49999999999989
 20
20.000000000000011
 30
0.0
 11
147.49999999999989
 21
10.0
 31
0.0
  0
LINE
  5
38
  8
HIBINO-BASE
  6
CONTINUOUS
 62
     7
 10
172.5
 20
20.000000000000011
 30
0.0
 11
172.5
 21
10.0
 31
0.0
  0
LINE
  5
39
  8
HIBINO-BASE
  6
CONTINUOUS
 62
     7
 10
159.99999999999989
 20
10.0
 30
0.0
 11
159.99999999999989
 21
20.000000000000011
 31
0.0
  0
TEXT
  5
3A
  8
HIBINO-BASE
 62
     7
 10
123.35654
 20
12.86364666666667
 30
0.0
 40
1.6288411458333329
  1
'13.10.
 41
0.7
 11
123.35654
 21
14.4924878125
 31
0.0
 73
     3
  0
TEXT
  5
3B
  8
HIBINO-BASE
 62
     7
 10
117.5
 20
12.016056666666669
 30
0.0
 40
1.6288411458333329
  1
1
 41
0.7
 11
117.5
 21
13.6448978125
 31
0.0
 73
     3
  0
TEXT
  5
3C
  8
HIBINO-BASE
 62
     7
 10
149.00581001103461
 20
12.86364666666667
 30
0.0
 40
1.6288411458333329
  1
Ootake
 41
0.7
 11
149.00581001103461
 21
14.4924878125
 31
0.0
 73
     3
  0
TEXT
  5
3D
  8
HIBINO-BASE
 62
     7
 10
103.8833333333333
 20
11.97600000000001
 30
0.0
 40
3.2576822916666659
  1
A4
 41
0.7
 11
103.8833333333333
 21
15.23368229166668
 31
0.0
 73
     3
  0
TEXT
  5
3E
  8
HIBINO-BASE
 62
     7
 10
100.9583333333333
 20
17.380545000000009
 30
0.0
 40
1.6288411458333329
  1
PAPER SIZE
 41
0.7
 11
100.9583333333333
 21
19.009386145833339
 31
0.0
 73
     3
  0
TEXT
  5
3F
  8
HIBINO-BASE
 62
     7
 10
12.75963525689018
 20
3.5747597658237509
 30
0.0
 40
3.5291558159722221
  1
Hibino-Intersound Corporation
 41
0.7
 11
12.75963525689018
 21
7.1039155817959729
 31
0.0
 73
     3
  0
TEXT
  5
40
  8
HIBINO-BASE
 62
     7
 10
120.18060968021391
 20
3.9258480191131699
 30
0.0
 40
3.5291558159722221
  1
ヒビノインターサウンド株式会社
 41
0.7
 11
120.18060968021391
 21
7.4550038350853924
 31
0.0
 73
     3
  0
LINE
  5
41
  8
SPEC
  6
CONTINUOUS
 62
     7
 10
17.5
 20
260.0
 30
0.0
 11
165.0
 21
260.0
 31
0.0
  0
LINE
  5
42
  8
SPEC
  6
CONTINUOUS
 62
     7
 10
17.5
 20
256.25
 30
0.0
 11
165.0
 21
256.25
 31
0.0
  0
LINE
  5
43
  8
SPEC
  6
CONTINUOUS
 62
     7
 10
17.5
 20
252.5
 30
0.0
 11
165.0
 21
252.5
 31
0.0
  0
LINE
  5
44
  8
SPEC
  6
CONTINUOUS
 62
     7
 10
17.5
 20
260.0
 30
0.0
 11
17.5
 21
252.5
 31
0.0
  0
TEXT
  5
45
  8
SPEC
 62
     7
 10
18.75
 20
261.39326999999997
 30
0.0
 40
2.4432617187500001
  1
仕様
 41
0.7
 11
18.75
 21
263.83653171875
 31
0.0
 73
     3
  0
LINE
  5
46
  8
SPEC
  6
CONTINUOUS
 62
     7
 10
50.0
 20
260.0
 30
0.0
 11
50.0
 21
252.5
 31
0.0
  0
LINE
  5
47
  8
SPEC
  6
CONTINUOUS
 62
     7
 10
165.0
 20
260.0
 30
0.0
 11
165.0
 21
252.5
 31
0.0
  0
TEXT
  5
48
  8
SPEC
 62
     7
 10
18.287460849109721
 20
257.1769053268028
 30
0.0
 40
1.900314670138888
  1
寸法(W\U+00D7H\U+00D7D）
 41
0.7
 11
18.287460849109721
 21
259.07721999694172
 31
0.0
 73
     3
  0
TEXT
  5
49
  8
SPEC
 62
     7
 10
50.882171915558857
 20
257.12249798748451
 30
0.0
 40
1.900314670138888
  1
27.0\U+00D760.0\U+00D716.0mm(除突起部)
 41
0.7
 11
50.882171915558857
 21
259.02281265762332
 31
0.0
 73
     3
  0
TEXT
  5
4A
  8
SPEC
 62
     7
 10
50.773029171615889
 20
253.4946013572856
 30
0.0
 40
1.900314670138888
  1
13g
 41
0.7
 11
50.773029171615889
 21
255.3949160274245
 31
0.0
 73
     3
  0
TEXT
  5
4B
  8
SPEC
 62
     7
 10
18.335236674738169
 20
253.5164600667178
 30
0.0
 40
1.900314670138888
  1
質量
 41
0.7
 11
18.335236674738169
 21
255.41677473685669
 31
0.0
 73
     3
  0
TEXT
  5
4C
  8
DIMNSIONS
 62
     7
 10
79.999999999999986
 20
22.269490000000012
 30
0.0
 40
2.4432617187500001
  1
(単位：mm)
 41
0.7
 11
79.999999999999986
 21
24.71275171875001
 31
0.0
 73
     3
  0
LINE
  5
4D
  8
DIMNSIONS
  6
CONTINUOUS
 62
     7
 10
86.5
 20
144.5
 30
0.0
 11
86.5
 21
98.0
 31
0.0
  0
LINE
  5
4E
  8
DIMNSIONS
  6
CONTINUOUS
 62
     7
 10
113.499999999808
 20
144.5
 30
0.0
 11
113.499999999808
 21
98.0
 31
0.0
  0
LINE
  5
4F
  8
DIMNSIONS
  6
CONTINUOUS
 62
     7
 10
86.5
 20
100.0
 30
0.0
 11
113.499999999808
 21
100.0
 31
0.0
  0
LINE
  5
50
  8
DIMNSIONS
  6
CONTINUOUS
 62
     7
 10
86.5
 20
100.0
 30
0.0
 11
89.000622558593719
 21
100.6700397951502
 31
0.0
  0
LINE
  5
51
  8
DIMNSIONS
  6
CONTINUOUS
 62
     7
 10
86.5
 20
100.0
 30
0.0
 11
89.000622558593719
 21
99.329960204849755
 31
0.0
  0
LINE
  5
52
  8
DIMNSIONS
  6
CONTINUOUS
 62
     7
 10
113.499999999808
 20
100.0
 30
0.0
 11
110.99937744121431
 21
99.329960204849755
 31
0.0
  0
LINE
  5
53
  8
DIMNSIONS
  6
CONTINUOUS
 62
     7
 10
113.499999999808
 20
100.0
 30
0.0
 11
110.99937744121431
 21
100.6700397951502
 31
0.0
  0
TEXT
  5
54
  8
DIMNSIONS
 62
     7
 10
96.472222222126234
 20
100.99388889624839
 30
0.0
 40
2.7147352835082641
  1
27.0
 41
0.7
 11
96.472222222126234
 21
103.7086241797567
 31
0.0
 73
     3
  0
LINE
  5
55
  8
DIMNSIONS
  6
CONTINUOUS
 62
     7
 10
96.831700882644228
 20
110.0
 30
0.0
 11
73.0
 21
110.0
 31
0.0
  0
LINE
  5
56
  8
DIMNSIONS
  6
CONTINUOUS
 62
     7
 10
95.551259113074835
 20
169.999837399424
 30
0.0
 11
73.0
 21
169.999837399424
 31
0.0
  0
LINE
  5
57
  8
DIMNSIONS
  6
CONTINUOUS
 62
     7
 10
75.0
 20
110.0
 30
0.0
 11
75.0
 21
169.999837399424
 31
0.0
  0
LINE
  5
58
  8
DIMNSIONS
  6
CONTINUOUS
 62
     7
 10
75.0
 20
110.0
 30
0.0
 11
74.329960204849741
 21
112.5006225585938
 31
0.0
  0
LINE
  5
59
  8
DIMNSIONS
  6
CONTINUOUS
 62
     7
 10
75.0
 20
110.0
 30
0.0
 11
75.670039795150231
 21
112.5006225585938
 31
0.0
  0
LINE
  5
5A
  8
DIMNSIONS
  6
CONTINUOUS
 62
     7
 10
75.0
 20
169.999837399424
 30
0.0
 11
75.670039795150231
 21
167.49921484083021
 31
0.0
  0
LINE
  5
5B
  8
DIMNSIONS
  6
CONTINUOUS
 62
     7
 10
75.0
 20
169.999837399424
 30
0.0
 11
74.329960204849741
 21
167.49921484083021
 31
0.0
  0
TEXT
  5
5C
  8
DIMNSIONS
 62
     7
 10
74.006111103751593
 20
136.4721409219342
 30
0.0
 40
2.7147352835082641
  1
60.0
 50
90.0
 41
0.7
 11
71.291375820243331
 21
136.4721409219342
 31
0.0
 73
     3
  0
LINE
  5
5D
  8
DIMNSIONS
  6
CONTINUOUS
 62
     7
 10
84.500000000000014
 20
180.0
 30
0.0
 11
73.0
 21
180.0
 31
0.0
  0
LINE
  5
5E
  8
DIMNSIONS
  6
CONTINUOUS
 62
     7
 10
84.500000000000014
 20
196.0
 30
0.0
 11
73.0
 21
196.0
 31
0.0
  0
LINE
  5
5F
  8
DIMNSIONS
  6
CONTINUOUS
 62
     7
 10
75.0
 20
180.0
 30
0.0
 11
75.0
 21
196.0
 31
0.0
  0
LINE
  5
60
  8
DIMNSIONS
  6
CONTINUOUS
 62
     7
 10
75.0
 20
180.0
 30
0.0
 11
74.329960204849741
 21
182.5006225585937
 31
0.0
  0
LINE
  5
61
  8
DIMNSIONS
  6
CONTINUOUS
 62
     7
 10
75.0
 20
180.0
 30
0.0
 11
75.670039795150231
 21
182.5006225585937
 31
0.0
  0
LINE
  5
62
  8
DIMNSIONS
  6
CONTINUOUS
 62
     7
 10
75.0
 20
196.0
 30
0.0
 11
75.670039795150231
 21
193.49937744140621
 31
0.0
  0
LINE
  5
63
  8
DIMNSIONS
  6
CONTINUOUS
 62
     7
 10
75.0
 20
196.0
 30
0.0
 11
74.329960204849741
 21
193.49937744140621
 31
0.0
  0
TEXT
  5
64
  8
DIMNSIONS
 62
     7
 10
74.006111103751593
 20
184.4722222222222
 30
0.0
 40
2.7147352835082641
  1
16.0
 50
90.0
 41
0.7
 11
71.291375820243331
 21
184.4722222222222
 31
0.0
 73
     3
  0
TEXT
  5
65
  8
DATA
 62
     7
 10
149.827590762075
 20
20.88148592366905
 30
0.0
 40
2.4432617187500001
  1
DC4099
 41
0.7
 11
149.827590762075
 21
23.324747642419052
 31
0.0
 73
     3
  0
TEXT
  5
66
  8
DATA
 62
     7
 10
149.85632563506249
 20
28.46709461896247
 30
0.0
 40
2.4432617187500001
  1
DPA
 41
0.7
 11
149.85632563506249
 21
30.910356337712471
 31
0.0
 73
     3
  0
TEXT
  5
67
  8
DATA
 62
     7
 10
148.15481622343211
 20
25.103457061064791
 30
0.0
 40
1.6288437109374989
  1
ドラム用クリップ
 41
0.7
 11
148.15481622343211
 21
26.73230077200229
 31
0.0
 73
     3
  0
TEXT
  5
68
  8
DATA
 62
     7
 10
12.57012263196655
 20
16.626277517656501
 30
0.0
 40
1.900314670138888
  1
※仕様及び外観は予告なく変更されることがあります。
 41
0.7
 11
12.57012263196655
 21
18.526592187795391
 31
0.0
 73
     3
  0
TEXT
  5
69
  8
DATA
 62
     7
 10
12.57012263196655
 20
14.15683307321205
 30
0.0
 40
1.900314670138888
  1
　また、同一商品でも若干の個体差があることがあります。ご了承ください。
 41
0.7
 11
12.57012263196655
 21
16.057147743350939
 31
0.0
 73
     3
  0
ARC
  5
6A
  8
DATA
  6
CONTINUOUS
 62
     7
 10
100.0
 20
166.45186664804399
 30
0.0
 40
2.5000000000002149
 50
121.7404353027663
 51
58.259564697239618
  0
ARC
  5
6B
  8
DATA
  6
CONTINUOUS
 62
     7
 10
100.0
 20
166.45186664804419
 30
0.0
 40
4.4999999999999956
 50
131.8103148957785
 51
222.76532749107889
  0
ARC
  5
6C
  8
DATA
  6
CONTINUOUS
 62
     7
 10
100.0
 20
166.45186664804419
 30
0.0
 40
4.4999999999999956
 50
317.23467250892293
 51
48.189685104221667
  0
ARC
  5
6D
  8
DATA
  6
CONTINUOUS
 62
     7
 10
97.473445255474431
 20
168.5874933425176
 30
0.0
 40
1.4165982932612819
 50
15.20009812430153
 51
85.644206001966197
  0
ARC
  5
6E
  8
DATA
  6
CONTINUOUS
 62
     7
 10
97.57126758040458
 20
169.062266621177
 30
0.0
 40
0.9377842518337498
 50
89.403197288203316
 51
127.5293238008465
  0
ARC
  5
6F
  8
DATA
  6
CONTINUOUS
 62
     7
 10
98.189889032391307
 20
169.0024871741017
 30
0.0
 40
0.6520539180456967
 50
319.37910699896679
 51
356.16824457770412
  0
ARC
  5
70
  8
DATA
  6
CONTINUOUS
 62
     7
 10
102.5265547445255
 20
168.5874933425176
 30
0.0
 40
1.4165982932612771
 50
94.355793998033704
 51
164.7999018756984
  0
ARC
  5
71
  8
DATA
  6
CONTINUOUS
 62
     7
 10
102.42873241959541
 20
169.062266621177
 30
0.0
 40
0.9377842518337548
 50
52.470676199153601
 51
90.596802711796926
  0
ARC
  5
72
  8
DATA
  6
CONTINUOUS
 62
     7
 10
101.81011096760869
 20
169.0024871741017
 30
0.0
 40
0.6520539180456928
 50
183.8317554222958
 51
220.6208930010331
  0
ARC
  5
73
  8
DATA
  6
CONTINUOUS
 62
     7
 10
94.607827925297642
 20
161.70512905007021
 30
0.0
 40
2.6874372523137642
 50
0.5324977344348203
 51
38.999761299567851
  0
TEXT
  5
74
  8
DATA
 62
     7
 10
96.372813528888088
 20
151.29663055697409
 30
0.0
 40
2.7147352835082641
  1
DPA
 41
0.7
 11
96.372813528888088
 21
154.0113658404824
 31
0.0
 73
     3
  0
ARC
  5
75
  8
DATA
  6
CONTINUOUS
 62
     7
 10
95.221099632040762
 20
161.98648881970001
 30
0.0
 40
2.0898358222631161
 50
288.09408700637039
 51
352.95313362034892
  0
ARC
  5
76
  8
DATA
  6
CONTINUOUS
 62
     7
 10
90.80524076163843
 20
158.0
 30
0.0
 40
1.999999999999996
 50
90.0
 51
157.3299264934322
  0
ARC
  5
77
  8
DATA
  6
CONTINUOUS
 62
     7
 10
118.3372597929428
 20
146.5
 30
0.0
 40
31.837259792750871
 50
157.329926493432
 51
180.10235979064649
  0
ARC
  5
78
  8
DATA
  6
CONTINUOUS
 62
     7
 10
96.876257904337038
 20
147.21262665820379
 30
0.0
 40
10.40470137617554
 50
184.23753315358439
 51
216.76913654268699
  0
ARC
  5
79
  8
DATA
  6
CONTINUOUS
 62
     7
 10
109.1947592383615
 20
158.0
 30
0.0
 40
1.999999999999998
 50
22.670073506567839
 51
90.0
  0
ARC
  5
7A
  8
DATA
  6
CONTINUOUS
 62
     7
 10
81.662740207057141
 20
146.5
 30
0.0
 40
31.837259792750871
 50
359.89764020935348
 51
22.67007350656792
  0
ARC
  5
7B
  8
DATA
  6
CONTINUOUS
 62
     7
 10
103.12374209566291
 20
147.21262665820379
 30
0.0
 40
10.40470137617555
 50
355.75868219647612
 51
355.76246684641552
  0
LINE
  5
7C
  8
DATA
  6
CONTINUOUS
 62
     7
 10
101.2155987110566
 20
110.0
 30
0.0
 11
98.831700882644228
 21
110.0
 31
0.0
  0
ARC
  5
7D
  8
DATA
  6
CONTINUOUS
 62
     7
 10
105.3921720747023
 20
161.70512905007021
 30
0.0
 40
2.6874372523137611
 50
141.00023870043219
 51
179.46750226556509
  0
ARC
  5
7E
  8
DATA
  6
CONTINUOUS
 62
     7
 10
104.7789003679592
 20
161.98648881970001
 30
0.0
 40
2.089835822263113
 50
187.04686637965111
 51
251.9059129936299
  0
LINE
  5
7F
  8
DATA
  6
CONTINUOUS
 62
     7
 10
94.777213382237505
 20
148.0
 30
0.0
 11
105.7462455625945
 21
148.0
 31
0.0
  0
ARC
  5
80
  8
DATA
  6
CONTINUOUS
 62
     7
 10
86.939423114324697
 20
139.78726938813989
 30
0.0
 40
2.0000000000000071
 50
341.96546385245279
 51
36.769136542686908
  0
ARC
  5
81
  8
DATA
  6
CONTINUOUS
 62
     7
 10
108.609756097561
 20
132.7317073170731
 30
0.0
 40
20.790004118977549
 50
161.9654638524527
 51
172.44977539878141
  0
ARC
  5
82
  8
DATA
  6
CONTINUOUS
 62
     7
 10
92.822103023685642
 20
126.9005750221545
 30
0.0
 40
18.12153256192541
 50
326.8835029345741
 51
337.61711228800971
  0
ARC
  5
83
  8
DATA
  6
CONTINUOUS
 62
     7
 10
94.777213382237505
 20
145.0
 30
0.0
 40
2.9999999999999978
 50
90.0
 51
178.80515614550811
  0
ARC
  5
84
  8
DATA
  6
CONTINUOUS
 62
     7
 10
118.75
 20
144.5
 30
0.0
 40
26.978000296537932
 50
178.80515614550799
 51
187.45429881274839
  0
ARC
  5
85
  8
DATA
  6
CONTINUOUS
 62
     7
 10
105.7462455625945
 20
145.0
 30
0.0
 40
2.999999999999976
 50
30.811633250400352
 51
90.0
  0
LINE
  5
86
  8
DATA
  6
CONTINUOUS
 62
     7
 10
108.0
 20
117.0
 30
0.0
 11
102.9710022052153
 21
118.6763325982616
 31
0.0
  0
ARC
  5
87
  8
DATA
  6
CONTINUOUS
 62
     7
 10
98.886751345948113
 20
113.0
 30
0.0
 40
3.0550504633038882
 50
160.8933946491309
 51
179.99999999999631
  0
ARC
  5
88
  8
DATA
  6
CONTINUOUS
 62
     7
 10
99.299038105676644
 20
116.71410161513769
 30
0.0
 40
4.2720018726587661
 50
219.44395478041659
 51
279.44395478041662
  0
LINE
  5
89
  8
DATA
  6
CONTINUOUS
 62
     7
 10
100.0
 20
112.5
 30
0.0
 11
101.6989954304765
 21
118.0217351490486
 31
0.0
  0
ARC
  5
8A
  8
DATA
  6
CONTINUOUS
 62
     7
 10
102.65477443919841
 20
117.727649300211
 30
0.0
 40
1.0
 50
71.565051177078061
 51
162.89727103094771
  0
ARC
  5
8B
  8
DATA
  6
CONTINUOUS
 62
     7
 10
98.831700882644228
 20
113.0
 30
0.0
 40
3.0
 50
179.99999999999631
 51
270.0
  0
ARC
  5
8C
  8
DATA
  6
CONTINUOUS
 62
     7
 10
101.2155987110566
 20
120.0
 30
0.0
 40
9.9999999999999964
 50
270.0
 51
319.85160388394701
  0
ARC
  5
8D
  8
DATA
  6
CONTINUOUS
 62
     7
 10
93.354524388320186
 20
126.6309957673563
 30
0.0
 40
20.284288715039239
 50
319.85160388394701
 51
336.81053542706741
  0
ARC
  5
8E
  8
DATA
  6
CONTINUOUS
 62
     7
 10
104.0
 20
143.95854811567261
 30
0.0
 40
5.0332229568471663
 50
337.09999361405852
 51
30.81163325040075
  0
ARC
  5
8F
  8
DATA
  6
CONTINUOUS
 62
     7
 10
114.56217782649109
 20
150.56217782649111
 30
0.0
 40
24.504838564243769
 50
202.96793448182379
 51
232.7655386133826
  0
ARC
  5
90
  8
DATA
  6
CONTINUOUS
 62
     7
 10
103.9280278060766
 20
134.61868520405099
 30
0.0
 40
15.950411831712019
 50
176.96421102695601
 51
224.21424151126811
  0
LINE
  5
91
  8
DATA
  6
CONTINUOUS
 62
     7
 10
92.495772739502513
 20
123.4957727395025
 30
0.0
 11
93.070866141732267
 21
124.0708661417322
 31
0.0
  0
LINE
  5
92
  8
DATA
  6
CONTINUOUS
 62
     7
 10
93.070866141732267
 20
124.0708661417322
 30
0.0
 11
91.888962510897997
 21
125.43306015693111
 31
0.0
  0
LINE
  5
93
  8
DATA
  6
CONTINUOUS
 62
     7
 10
91.888962510897997
 20
125.43306015693111
 30
0.0
 11
93.368338412614278
 21
130.57565257718301
 31
0.0
  0
LINE
  5
94
  8
DATA
  6
CONTINUOUS
 62
     7
 10
96.440495867768576
 20
131.21801277235161
 30
0.0
 11
99.214814814814801
 21
130.27222222222221
 31
0.0
  0
LINE
  5
95
  8
DATA
  6
CONTINUOUS
 62
     7
 10
99.734836910539784
 20
131.05225536580971
 30
0.0
 11
99.214814814814801
 21
130.27222222222221
 31
0.0
  0
LINE
  5
96
  8
DATA
  6
CONTINUOUS
 62
     7
 10
93.368338412614278
 20
130.57565257718289
 30
0.0
 11
96.440495867768576
 21
131.21801277235161
 31
0.0
  0
ARC
  5
97
  8
DATA
  6
CONTINUOUS
 62
     7
 10
97.113248654051887
 20
145.31963701147819
 30
0.0
 40
11.991915323033449
 50
303.89293004254688
 51
343.92932222812158
  0
ARC
  5
98
  8
DATA
  6
CONTINUOUS
 62
     7
 10
92.291140572671935
 20
121.6066919194331
 30
0.0
 40
17.361718488724819
 50
354.69012405107941
 51
48.477571534017223
  0
ARC
  5
99
  8
DATA
  6
CONTINUOUS
 62
     7
 10
98.441236171543295
 20
123.4412361715433
 30
0.0
 40
14.38254009253361
 50
340.51414440066941
 51
53.481655401999603
  0
ARC
  5
9A
  8
DATA
  6
CONTINUOUS
 62
     7
 10
98.741194636996809
 20
147.25880536300321
 30
0.0
 40
14.781277852471559
 50
303.96830393143358
 51
356.83660971954941
  0
LINE
  5
9B
  8
DATA
  6
CONTINUOUS
 62
     7
 10
92.0
 20
160.0
 30
0.0
 11
95.87015735922779
 21
160.0
 31
0.0
  0
LINE
  5
9C
  8
DATA
  6
CONTINUOUS
 62
     7
 10
92.0
 20
159.0
 30
0.0
 11
92.0
 21
160.0
 31
0.0
  0
LINE
  5
9D
  8
DATA
  6
CONTINUOUS
 62
     7
 10
108.0
 20
159.0
 30
0.0
 11
92.0
 21
159.0
 31
0.0
  0
LINE
  5
9E
  8
DATA
  6
CONTINUOUS
 62
     7
 10
108.0
 20
160.0
 30
0.0
 11
108.0
 21
159.0
 31
0.0
  0
LINE
  5
9F
  8
DATA
  6
CONTINUOUS
 62
     7
 10
104.1298426407722
 20
160.0
 30
0.0
 11
108.0
 21
160.0
 31
0.0
  0
LINE
  5
A0
  8
DATA
  6
CONTINUOUS
 62
     7
 10
90.80524076163843
 20
160.0
 30
0.0
 11
92.0
 21
160.0
 31
0.0
  0
LINE
  5
A1
  8
DATA
  6
CONTINUOUS
 62
     7
 10
109.1947592383615
 20
160.0
 30
0.0
 11
108.0
 21
160.0
 31
0.0
  0
LINE
  5
A2
  8
DATA
  6
CONTINUOUS
 62
     7
 10
92.0
 20
155.0
 30
0.0
 11
108.0
 21
155.0
 31
0.0
  0
LINE
  5
A3
  8
DATA
  6
CONTINUOUS
 62
     7
 10
92.0
 20
155.0
 30
0.0
 11
92.0
 21
158.0
 31
0.0
  0
LINE
  5
A4
  8
DATA
  6
CONTINUOUS
 62
     7
 10
108.0
 20
158.0
 30
0.0
 11
108.0
 21
155.0
 31
0.0
  0
LINE
  5
A5
  8
DATA
  6
CONTINUOUS
 62
     7
 10
108.0
 20
158.0
 30
0.0
 11
92.0
 21
158.0
 31
0.0
  0
LINE
  5
A6
  8
DATA
  6
CONTINUOUS
 62
     7
 10
93.0
 20
158.0
 30
0.0
 11
93.0
 21
159.0
 31
0.0
  0
LINE
  5
A7
  8
DATA
  6
CONTINUOUS
 62
     7
 10
107.0
 20
158.0
 30
0.0
 11
107.0
 21
159.0
 31
0.0
  0
LINE
  5
A8
  8
DATA
  6
CONTINUOUS
 62
     7
 10
103.8004525270924
 20
135.36537473468459
 30
0.0
 11
103.8004525270924
 21
134.60534597350971
 31
0.0
  0
LINE
  5
A9
  8
DATA
  6
CONTINUOUS
 62
     7
 10
130.0
 20
110.0
 30
0.0
 11
130.0
 21
169.999837399424
 31
0.0
  0
LINE
  5
AA
  8
DATA
  6
CONTINUOUS
 62
     7
 10
146.0
 20
110.0
 30
0.0
 11
146.0
 21
169.999837399424
 31
0.0
  0
LINE
  5
AB
  8
DATA
  6
CONTINUOUS
 62
     7
 10
130.0
 20
110.0
 30
0.0
 11
146.0
 21
110.0
 31
0.0
  0
LINE
  5
AC
  8
DATA
  6
CONTINUOUS
 62
     7
 10
130.0
 20
169.999837399424
 30
0.0
 11
146.0
 21
169.999837399424
 31
0.0
  0
LINE
  5
AD
  8
DATA
  6
CONTINUOUS
 62
     7
 10
130.0
 20
135.0
 30
0.0
 11
146.0
 21
135.0
 31
0.0
  0
LINE
  5
AE
  8
DATA
  6
CONTINUOUS
 62
     7
 10
130.0
 20
160.0
 30
0.0
 11
146.0
 21
160.0
 31
0.0
  0
LINE
  5
AF
  8
DATA
  6
CONTINUOUS
 62
     7
 10
86.5
 20
70.0
 30
0.0
 11
113.499999999808
 21
70.0
 31
0.0
  0
LINE
  5
B0
  8
DATA
  6
CONTINUOUS
 62
     7
 10
86.5
 20
86.0
 30
0.0
 11
113.499999999808
 21
86.0
 31
0.0
  0
LINE
  5
B1
  8
DATA
  6
CONTINUOUS
 62
     7
 10
95.926754290382974
 20
86.0
 30
0.0
 11
95.926754290382974
 21
70.0
 31
0.0
  0
LINE
  5
B2
  8
DATA
  6
CONTINUOUS
 62
     7
 10
92.495772739502513
 20
86.0
 30
0.0
 11
92.495772739502513
 21
70.0
 31
0.0
  0
LINE
  5
B3
  8
DATA
  6
CONTINUOUS
 62
     7
 10
88.0
 20
86.0
 30
0.0
 11
88.0
 21
70.0
 31
0.0
  0
LINE
  5
B4
  8
DATA
  6
CONTINUOUS
 62
     7
 10
112.8203865070721
 20
86.0
 30
0.0
 11
112.8203865070721
 21
70.0
 31
0.0
  0
LINE
  5
B5
  8
DATA
  6
CONTINUOUS
 62
     7
 10
86.5
 20
180.0
 30
0.0
 11
113.499999999808
 21
180.0
 31
0.0
  0
LINE
  5
B6
  8
DATA
  6
CONTINUOUS
 62
     7
 10
86.5
 20
196.0
 30
0.0
 11
113.499999999808
 21
196.0
 31
0.0
  0
LINE
  5
B7
  8
DATA
  6
CONTINUOUS
 62
     7
 10
98.840485338425523
 20
180.0
 30
0.0
 11
98.840485338425523
 21
196.0
 31
0.0
  0
LINE
  5
B8
  8
DATA
  6
CONTINUOUS
 62
     7
 10
101.15951466157441
 20
180.0
 30
0.0
 11
101.15951466157441
 21
196.0
 31
0.0
  0
LINE
  5
B9
  8
DATA
  6
CONTINUOUS
 62
     7
 10
95.500586953369165
 20
180.0
 30
0.0
 11
95.500586953369165
 21
196.0
 31
0.0
  0
LINE
  5
BA
  8
DATA
  6
CONTINUOUS
 62
     7
 10
104.5
 20
180.0
 30
0.0
 11
104.5
 21
196.0
 31
0.0
  0
LINE
  5
BB
  8
DATA
  6
CONTINUOUS
 62
     7
 10
92.0
 20
180.0
 30
0.0
 11
92.0
 21
196.0
 31
0.0
  0
LINE
  5
BC
  8
DATA
  6
CONTINUOUS
 62
     7
 10
108.0
 20
180.0
 30
0.0
 11
108.0
 21
196.0
 31
0.0
  0
LINE
  5
BD
  8
DATA
  6
CONTINUOUS
 62
     7
 10
86.822625113442115
 20
187.0
 30
0.0
 11
86.822625113442115
 21
189.0
 31
0.0
  0
ARC
  5
BE
  8
DATA
  6
CONTINUOUS
 62
     7
 10
-12.5250144424058
 20
188.0
 30
0.0
 40
99.347639555847934
 50
355.38123849484839
 51
4.6187615051516682
  0
LINE
  5
BF
  8
DATA
  6
CONTINUOUS
 62
     7
 10
113.1773748863659
 20
187.0
 30
0.0
 11
113.1773748863659
 21
189.0
 31
0.0
  0
ARC
  5
C0
  8
DATA
  6
CONTINUOUS
 62
     7
 10
212.5250144422138
 20
188.0
 30
0.0
 40
99.347639555847906
 50
175.3812384948483
 51
184.61876150515161
  0
ARC
  5
C1
  8
DATA
  6
CONTINUOUS
 62
     7
 10
-12.5250144424058
 20
78.0
 30
0.0
 40
99.347639555847934
 50
355.38123849484839
 51
4.6187615051516682
  0
ARC
  5
C2
  8
DATA
  6
CONTINUOUS
 62
     7
 10
212.5250144422138
 20
78.0
 30
0.0
 40
99.347639555847906
 50
175.3812384948483
 51
184.61876150515161
  0
LINE
  5
C3
  8
DATA
  6
CONTINUOUS
 62
     7
 10
40.0
 20
110.0
 30
0.0
 11
40.0
 21
169.999837399424
 31
0.0
  0
LINE
  5
C4
  8
DATA
  6
CONTINUOUS
 62
     7
 10
56.0
 20
110.0
 30
0.0
 11
56.0
 21
169.999837399424
 31
0.0
  0
LINE
  5
C5
  8
DATA
  6
CONTINUOUS
 62
     7
 10
40.0
 20
110.0
 30
0.0
 11
56.0
 21
110.0
 31
0.0
  0
LINE
  5
C6
  8
DATA
  6
CONTINUOUS
 62
     7
 10
40.0
 20
169.999837399424
 30
0.0
 11
56.0
 21
169.999837399424
 31
0.0
  0
LINE
  5
C7
  8
DATA
  6
CONTINUOUS
 62
     7
 10
56.0
 20
160.0
 30
0.0
 11
40.0
 21
160.0
 31
0.0
  0
LINE
  5
C8
  8
DATA
  6
CONTINUOUS
 62
     7
 10
56.0
 20
114.0
 30
0.0
 11
40.0
 21
114.0
 31
0.0
  0
LINE
  5
C9
  8
DATA
  6
CONTINUOUS
 62
     7
 10
56.0
 20
123.4957727395025
 30
0.0
 11
40.0
 21
123.4957727395025
 31
0.0
  0
LINE
  5
CA
  8
DATA
  6
CONTINUOUS
 62
     7
 10
56.0
 20
140.11279514810221
 30
0.0
 11
40.0
 21
140.11279514810221
 31
0.0
  0
ENDSEC
  0
EOF
