  0
SECTION
  2
HEADER
  9
$ACADVER
  1
AC1009
  9
$INSBASE
 10
0.0
 20
0.0
 30
0.0
  9
$EXTMIN
 10
9.9963383446405487
 20
2.381287252508741
 30
-0.0015258207003583
  9
$EXTMAX
 10
190.00579878222879
 20
270.00824037474621
 30
0.0000000349246037
  9
$LIMMIN
 10
0.0
 20
0.0
  9
$LIMMAX
 10
0.0
 20
0.0
  9
$ORTHOMODE
 70
     0
  9
$REGENMODE
 70
     1
  9
$FILLMODE
 70
     1
  9
$QTEXTMODE
 70
     0
  9
$MIRRTEXT
 70
     1
  9
$DRAGMODE
 70
     2
  9
$LTSCALE
 40
25.399999999999999
  9
$OSMODE
 70
   231
  9
$ATTMODE
 70
     1
  9
$TEXTSIZE
 40
0.0
  9
$TRACEWID
 40
1.0
  9
$TEXTSTYLE
  7
STANDARD
  9
$CLAYER
  8
DATA
  9
$CELTYPE
  6
BYLAYER
  9
$CECOLOR
 62
   256
  9
$DIMSCALE
 40
1.0
  9
$DIMASZ
 40
0.18
  9
$DIMEXO
 40
0.0625
  9
$DIMDLI
 40
0.38
  9
$DIMRND
 40
0.0
  9
$DIMDLE
 40
0.0
  9
$DIMEXE
 40
0.18
  9
$DIMTP
 40
0.0
  9
$DIMTM
 40
0.0
  9
$DIMTXT
 40
0.18
  9
$DIMCEN
 40
0.09
  9
$DIMTSZ
 40
0.0
  9
$DIMTOL
 70
     0
  9
$DIMLIM
 70
     0
  9
$DIMTIH
 70
     1
  9
$DIMTOH
 70
     1
  9
$DIMSE1
 70
     0
  9
$DIMSE2
 70
     0
  9
$DIMTAD
 70
     0
  9
$DIMZIN
 70
     0
  9
$DIMBLK
  1

  9
$DIMASO
 70
     1
  9
$DIMSHO
 70
     1
  9
$DIMPOST
  1

  9
$DIMAPOST
  1

  9
$DIMALT
 70
     0
  9
$DIMALTD
 70
     2
  9
$DIMALTF
 40
25.399999999999999
  9
$DIMLFAC
 40
1.0
  9
$DIMTOFL
 70
     0
  9
$DIMTVP
 40
0.0
  9
$DIMTIX
 70
     0
  9
$DIMSOXD
 70
     0
  9
$DIMSAH
 70
     0
  9
$DIMBLK1
  1

  9
$DIMBLK2
  1

  9
$DIMSTYLE
  2
STANDARD
  9
$DIMCLRD
 70
     0
  9
$DIMCLRE
 70
     0
  9
$DIMCLRT
 70
     0
  9
$DIMTFAC
 40
1.0
  9
$DIMGAP
 40
0.09
  9
$LUNITS
 70
     2
  9
$LUPREC
 70
     4
  9
$SKETCHINC
 40
0.1
  9
$FILLETRAD
 40
0.0
  9
$AUNITS
 70
     0
  9
$AUPREC
 70
     0
  9
$MENU
  1
acad
  9
$ELEVATION
 40
0.0
  9
$PELEVATION
 40
0.0
  9
$THICKNESS
 40
0.0
  9
$LIMCHECK
 70
     0
  9
$BLIPMODE
 70
     0
  9
$CHAMFERA
 40
0.0
  9
$CHAMFERB
 40
0.0
  9
$SKPOLY
 70
     0
  9
$TDCREATE
 40
2456597.4482175931
  9
$TDUPDATE
 40
2456597.4625800462
  9
$TDINDWG
 40
0.0003012384
  9
$TDUSRTIMER
 40
0.0003012037
  9
$USRTIMER
 70
     1
  9
$ANGBASE
 50
0.0
  9
$ANGDIR
 70
     0
  9
$PDMODE
 70
     1
  9
$PDSIZE
 40
-2.0
  9
$PLINEWID
 40
0.0
  9
$COORDS
 70
     2
  9
$SPLFRAME
 70
     0
  9
$SPLINETYPE
 70
     6
  9
$SPLINESEGS
 70
     8
  9
$ATTDIA
 70
     0
  9
$ATTREQ
 70
     1
  9
$HANDLING
 70
     1
  9
$HANDSEED
  5
180
  9
$SURFTAB1
 70
     6
  9
$SURFTAB2
 70
     6
  9
$SURFTYPE
 70
     6
  9
$SURFU
 70
     6
  9
$SURFV
 70
     6
  9
$UCSNAME
  2

  9
$UCSORG
 10
0.0
 20
0.0
 30
0.0
  9
$UCSXDIR
 10
1.0
 20
0.0
 30
0.0
  9
$UCSYDIR
 10
0.0
 20
1.0
 30
0.0
  9
$PUCSNAME
  2

  9
$PUCSORG
 10
0.0
 20
0.0
 30
0.0
  9
$PUCSXDIR
 10
1.0
 20
0.0
 30
0.0
  9
$PUCSYDIR
 10
0.0
 20
1.0
 30
0.0
  9
$USERI1
 70
     0
  9
$USERI2
 70
     0
  9
$USERI3
 70
     0
  9
$USERI4
 70
     0
  9
$USERI5
 70
     0
  9
$USERR1
 40
0.0
  9
$USERR2
 40
0.0
  9
$USERR3
 40
0.0
  9
$USERR4
 40
0.0
  9
$USERR5
 40
0.0
  9
$WORLDVIEW
 70
     1
  9
$SHADEDGE
 70
     3
  9
$SHADEDIF
 70
    70
  9
$TILEMODE
 70
     1
  9
$MAXACTVP
 70
    64
  9
$PLIMCHECK
 70
     0
  9
$PEXTMIN
 10
1.0000000000000000E+020
 20
1.0000000000000000E+020
 30
1.0000000000000000E+020
  9
$PEXTMAX
 10
-1.0000000000000000E+020
 20
-1.0000000000000000E+020
 30
-1.0000000000000000E+020
  9
$PLIMMIN
 10
0.0
 20
0.0
  9
$PLIMMAX
 10
12.0
 20
9.0
  9
$UNITMODE
 70
     0
  9
$VISRETAIN
 70
     0
  9
$PLINEGEN
 70
     1
  9
$PSLTSCALE
 70
     0
  0
ENDSEC
  0
SECTION
  2
TABLES
  0
TABLE
  2
VPORT
 70
     1
  0
VPORT
  2
*ACTIVE
 70
     0
 10
0.0
 20
0.0
 11
1.0
 21
1.0
 12
100.0010685634346
 22
136.19476381362739
 13
0.0
 23
0.0
 14
1.0
 24
1.0
 15
0.0
 25
0.0
 16
0.0
 26
0.0
 36
1.0
 17
0.0
 27
0.0
 37
0.0
 40
269.73425196571958
 41
2.1787122207621552
 42
50.0
 43
0.0
 44
0.0
 50
0.0
 51
0.0
 71
     0
 72
  2000
 73
     1
 74
     1
 75
     0
 76
     0
 77
     0
 78
     0
  0
ENDTAB
  0
TABLE
  2
LTYPE
 70
     2
  0
LTYPE
  2
CONTINUOUS
 70
     0
  3
Solid line
 72
    65
 73
     0
 40
0.0
  0
ENDTAB
  0
TABLE
  2
LAYER
 70
     5
  0
LAYER
  2
0
 70
     0
 62
     7
  6
CONTINUOUS
  0
LAYER
  2
DATA
 70
     0
 62
     7
  6
CONTINUOUS
  0
LAYER
  2
HIBINO-BASE
 70
     0
 62
     7
  6
CONTINUOUS
  0
LAYER
  2
SPEC
 70
     0
 62
     7
  6
CONTINUOUS
  0
LAYER
  2
DIMNSIONS
 70
     0
 62
     7
  6
CONTINUOUS
  0
ENDTAB
  0
TABLE
  2
STYLE
 70
     3
  0
STYLE
  2
STANDARD
 70
     0
 40
0.0
 41
1.0
 50
0.0
 71
     0
 42
0.0
  3
txt
  4
BIGFONT.SHX
  0
ENDTAB
  0
TABLE
  2
VIEW
 70
     0
  0
ENDTAB
  0
TABLE
  2
UCS
 70
     0
  0
ENDTAB
  0
TABLE
  2
APPID
 70
     4
  0
APPID
  2
ACAD
 70
     0
  0
APPID
  2
ACADANNOTATIVE
 70
     0
  0
APPID
  2
ACAD_NAV_VCDISPLAY
 70
     0
  0
APPID
  2
ACAD_MLEADERVER
 70
     0
  0
ENDTAB
  0
TABLE
  2
DIMSTYLE
 70
     2
  0
DIMSTYLE
  2
STANDARD
 70
     0
  3

  4

  5

  6

  7

 40
1.0
 41
0.18
 42
0.0625
 43
0.38
 44
0.18
 45
0.0
 46
0.0
 47
0.0
 48
0.0
140
0.18
141
0.09
142
0.0
143
25.399999999999999
144
1.0
145
0.0
146
1.0
147
0.09
 71
     0
 72
     0
 73
     1
 74
     1
 75
     0
 76
     0
 77
     0
 78
     0
170
     0
171
     2
172
     0
173
     0
174
     0
175
     0
176
     0
177
     0
178
     0
  0
ENDTAB
  0
ENDSEC
  0
SECTION
  2
BLOCKS
  0
BLOCK
  8
0
  2
$MODEL_SPACE
 70
     0
 10
0.0
 20
0.0
 30
0.0
  3
$MODEL_SPACE
  1

  0
ENDBLK
  5
118
  8
0
  0
BLOCK
 67
     1
  8
0
  2
$PAPER_SPACE
 70
     0
 10
0.0
 20
0.0
 30
0.0
  3
$PAPER_SPACE
  1

  0
ENDBLK
  5
114
 67
     1
  8
0
  0
ENDSEC
  0
SECTION
  2
ENTITIES
  0
LINE
  5
23
  8
HIBINO-BASE
  6
CONTINUOUS
 62
     7
 10
10.0
 20
270.0
 30
0.0
 11
190.0
 21
270.0
 31
0.0
  0
LINE
  5
24
  8
HIBINO-BASE
  6
CONTINUOUS
 62
     7
 10
190.0
 20
10.0
 30
0.0
 11
10.0
 21
10.0
 31
0.0
  0
LINE
  5
25
  8
HIBINO-BASE
  6
CONTINUOUS
 62
     7
 10
10.0
 20
10.0
 30
0.0
 11
10.0
 21
270.0
 31
0.0
  0
LINE
  5
26
  8
HIBINO-BASE
  6
CONTINUOUS
 62
     7
 10
190.0
 20
270.0
 30
0.0
 11
190.0
 21
10.0
 31
0.0
  0
LINE
  5
27
  8
HIBINO-BASE
  6
CONTINUOUS
 62
     7
 10
100.0
 20
32.500000000000007
 30
0.0
 11
190.0
 21
32.500000000000007
 31
0.0
  0
LINE
  5
28
  8
HIBINO-BASE
  6
CONTINUOUS
 62
     7
 10
100.0
 20
10.0
 30
0.0
 11
100.0
 21
32.500000000000007
 31
0.0
  0
TEXT
  5
29
  8
HIBINO-BASE
 62
     7
 10
100.90000000000001
 20
29.991306666666681
 30
0.0
 40
1.6288411458333329
  1
NOTE
 41
0.7
 11
100.90000000000001
 21
31.620147812500011
 31
0.0
 73
     3
  0
LINE
  5
2A
  8
HIBINO-BASE
  6
CONTINUOUS
 62
     7
 10
135.0
 20
10.0
 30
0.0
 11
135.0
 21
32.500000000000007
 31
0.0
  0
TEXT
  5
2B
  8
HIBINO-BASE
 62
     7
 10
135.89999999999989
 20
29.991306666666681
 30
0.0
 40
1.6288411458333329
  1
TITLE
 41
0.7
 11
135.89999999999989
 21
31.620147812500011
 31
0.0
 73
     3
  0
LINE
  5
2C
  8
HIBINO-BASE
  6
CONTINUOUS
 62
     7
 10
100.0
 20
20.000000000000011
 30
0.0
 11
190.0
 21
20.000000000000011
 31
0.0
  0
TEXT
  5
2D
  8
HIBINO-BASE
 62
     7
 10
148.39999999999989
 20
17.54762666666667
 30
0.0
 40
1.6288411458333329
  1
DRAWN
 41
0.7
 11
148.39999999999989
 21
19.176467812500011
 31
0.0
 73
     3
  0
TEXT
  5
2E
  8
HIBINO-BASE
 62
     7
 10
123.39999999999991
 20
17.54762666666667
 30
0.0
 40
1.6288411458333329
  1
DATE
 41
0.7
 11
123.39999999999991
 21
19.176467812500011
 31
0.0
 73
     3
  0
TEXT
  5
2F
  8
HIBINO-BASE
 62
     7
 10
113.40000000000001
 20
17.54762666666667
 30
0.0
 40
1.6288411458333329
  1
SCALE
 41
0.7
 11
113.40000000000001
 21
19.176467812500011
 31
0.0
 73
     3
  0
TEXT
  5
30
  8
HIBINO-BASE
 62
     7
 10
135.89999999999989
 20
17.54762666666667
 30
0.0
 40
1.6288411458333329
  1
DESIGN
 41
0.7
 11
135.89999999999989
 21
19.176467812500011
 31
0.0
 73
     3
  0
TEXT
  5
31
  8
HIBINO-BASE
 62
     7
 10
173.39999999999989
 20
17.54762666666667
 30
0.0
 40
1.6288411458333329
  1
DRAWING NO.
 41
0.7
 11
173.39999999999989
 21
19.176467812500011
 31
0.0
 73
     3
  0
TEXT
  5
32
  8
HIBINO-BASE
 62
     7
 10
160.89999999999989
 20
17.54762666666667
 30
0.0
 40
1.6288411458333329
  1
CHECK
 41
0.7
 11
160.89999999999989
 21
19.176467812500011
 31
0.0
 73
     3
  0
LINE
  5
33
  8
HIBINO-BASE
  6
CONTINUOUS
 62
     7
 10
114.375
 20
11.25
 30
0.0
 11
118.125
 21
15.000000000000011
 31
0.0
  0
TEXT
  5
34
  8
HIBINO-BASE
 62
     7
 10
113.75
 20
13.891056666666669
 30
0.0
 40
1.6288411458333329
  1
1
 41
0.7
 11
113.75
 21
15.5198978125
 31
0.0
 73
     3
  0
LINE
  5
35
  8
HIBINO-BASE
  6
CONTINUOUS
 62
     7
 10
112.5
 20
10.0
 30
0.0
 11
112.5
 21
20.000000000000011
 31
0.0
  0
LINE
  5
36
  8
HIBINO-BASE
  6
CONTINUOUS
 62
     7
 10
122.5
 20
10.0
 30
0.0
 11
122.5
 21
20.000000000000011
 31
0.0
  0
LINE
  5
37
  8
HIBINO-BASE
  6
CONTINUOUS
 62
     7
 10
147.49999999999989
 20
20.000000000000011
 30
0.0
 11
147.49999999999989
 21
10.0
 31
0.0
  0
LINE
  5
38
  8
HIBINO-BASE
  6
CONTINUOUS
 62
     7
 10
172.5
 20
20.000000000000011
 30
0.0
 11
172.5
 21
10.0
 31
0.0
  0
LINE
  5
39
  8
HIBINO-BASE
  6
CONTINUOUS
 62
     7
 10
159.99999999999989
 20
10.0
 30
0.0
 11
159.99999999999989
 21
20.000000000000011
 31
0.0
  0
TEXT
  5
3A
  8
HIBINO-BASE
 62
     7
 10
123.35654
 20
12.86364666666667
 30
0.0
 40
1.6288411458333329
  1
'13.10.
 41
0.7
 11
123.35654
 21
14.4924878125
 31
0.0
 73
     3
  0
TEXT
  5
3B
  8
HIBINO-BASE
 62
     7
 10
117.5
 20
12.016056666666669
 30
0.0
 40
1.6288411458333329
  1
1
 41
0.7
 11
117.5
 21
13.6448978125
 31
0.0
 73
     3
  0
TEXT
  5
3C
  8
HIBINO-BASE
 62
     7
 10
149.00581001103461
 20
12.86364666666667
 30
0.0
 40
1.6288411458333329
  1
Ootake
 41
0.7
 11
149.00581001103461
 21
14.4924878125
 31
0.0
 73
     3
  0
TEXT
  5
3D
  8
HIBINO-BASE
 62
     7
 10
103.8833333333333
 20
11.97600000000001
 30
0.0
 40
3.2576822916666659
  1
A4
 41
0.7
 11
103.8833333333333
 21
15.23368229166668
 31
0.0
 73
     3
  0
TEXT
  5
3E
  8
HIBINO-BASE
 62
     7
 10
100.9583333333333
 20
17.380545000000009
 30
0.0
 40
1.6288411458333329
  1
PAPER SIZE
 41
0.7
 11
100.9583333333333
 21
19.009386145833339
 31
0.0
 73
     3
  0
TEXT
  5
3F
  8
HIBINO-BASE
 62
     7
 10
12.75963525689018
 20
3.5747597658237509
 30
0.0
 40
3.5291558159722221
  1
Hibino-Intersound Corporation
 41
0.7
 11
12.75963525689018
 21
7.1039155817959729
 31
0.0
 73
     3
  0
TEXT
  5
40
  8
HIBINO-BASE
 62
     7
 10
120.18060968021391
 20
3.9258480191131699
 30
0.0
 40
3.5291558159722221
  1
ヒビノインターサウンド株式会社
 41
0.7
 11
120.18060968021391
 21
7.4550038350853924
 31
0.0
 73
     3
  0
LINE
  5
41
  8
SPEC
  6
CONTINUOUS
 62
     7
 10
17.5
 20
260.0
 30
0.0
 11
165.0
 21
260.0
 31
0.0
  0
LINE
  5
42
  8
SPEC
  6
CONTINUOUS
 62
     7
 10
17.5
 20
256.25
 30
0.0
 11
165.0
 21
256.25
 31
0.0
  0
LINE
  5
43
  8
SPEC
  6
CONTINUOUS
 62
     7
 10
17.5
 20
252.5
 30
0.0
 11
165.0
 21
252.5
 31
0.0
  0
LINE
  5
44
  8
SPEC
  6
CONTINUOUS
 62
     7
 10
17.5
 20
260.0
 30
0.0
 11
17.5
 21
252.5
 31
0.0
  0
TEXT
  5
45
  8
SPEC
 62
     7
 10
18.75
 20
261.39326999999997
 30
0.0
 40
2.4432617187500001
  1
仕様
 41
0.7
 11
18.75
 21
263.83653171875
 31
0.0
 73
     3
  0
LINE
  5
46
  8
SPEC
  6
CONTINUOUS
 62
     7
 10
50.0
 20
260.0
 30
0.0
 11
50.0
 21
252.5
 31
0.0
  0
LINE
  5
47
  8
SPEC
  6
CONTINUOUS
 62
     7
 10
165.0
 20
260.0
 30
0.0
 11
165.0
 21
252.5
 31
0.0
  0
TEXT
  5
48
  8
SPEC
 62
     7
 10
18.29731518509438
 20
257.17799887051223
 30
0.0
 40
1.900314670138888
  1
寸法(W\U+00D7H\U+00D7D)
 41
0.7
 11
18.29731518509438
 21
259.07831354065098
 31
0.0
 73
     3
  0
TEXT
  5
49
  8
SPEC
 62
     7
 10
50.906201583131143
 20
257.09372546503482
 30
0.0
 40
1.900314670138888
  1
30.0\U+00D744.0\U+00D720.0mm(除突起部)
 41
0.7
 11
50.906201583131143
 21
258.99404013517369
 31
0.0
 73
     3
  0
TEXT
  5
4A
  8
SPEC
 62
     7
 10
50.882823474428648
 20
253.4798161166504
 30
0.0
 40
1.900314670138888
  1
20g
 41
0.7
 11
50.882823474428648
 21
255.38013078678929
 31
0.0
 73
     3
  0
TEXT
  5
4B
  8
SPEC
 62
     7
 10
18.290892160164098
 20
253.5164600667178
 30
0.0
 40
1.900314670138888
  1
質量
 41
0.7
 11
18.290892160164098
 21
255.41677473685669
 31
0.0
 73
     3
  0
TEXT
  5
4C
  8
DIMNSIONS
 62
     7
 10
79.999999999999986
 20
22.269490000000012
 30
0.0
 40
2.4432617187500001
  1
(単位：mm)
 41
0.7
 11
79.999999999999986
 21
24.71275171875001
 31
0.0
 73
     3
  0
LINE
  5
4D
  8
DIMNSIONS
  6
CONTINUOUS
 62
     7
 10
54.999889452220494
 20
112.4422583045795
 30
0.0
 11
54.999889452220494
 21
98.0
 31
0.0
  0
LINE
  5
4E
  8
DIMNSIONS
  6
CONTINUOUS
 62
     7
 10
85.000110548434762
 20
112.4422583045795
 30
0.0
 11
85.000110548434762
 21
98.0
 31
0.0
  0
LINE
  5
4F
  8
DIMNSIONS
  6
CONTINUOUS
 62
     7
 10
54.999889452220494
 20
100.0
 30
0.0
 11
85.000110548434762
 21
100.0
 31
0.0
  0
LINE
  5
50
  8
DIMNSIONS
  6
CONTINUOUS
 62
     7
 10
54.999889452220494
 20
100.0
 30
0.0
 11
57.500512010814241
 21
100.6700397951502
 31
0.0
  0
LINE
  5
51
  8
DIMNSIONS
  6
CONTINUOUS
 62
     7
 10
54.999889452220494
 20
100.0
 30
0.0
 11
57.500512010814241
 21
99.329960204849755
 31
0.0
  0
LINE
  5
52
  8
DIMNSIONS
  6
CONTINUOUS
 62
     7
 10
85.000110548434762
 20
100.0
 30
0.0
 11
82.499487989841015
 21
99.329960204849755
 31
0.0
  0
LINE
  5
53
  8
DIMNSIONS
  6
CONTINUOUS
 62
     7
 10
85.000110548434762
 20
100.0
 30
0.0
 11
82.499487989841015
 21
100.6700397951502
 31
0.0
  0
TEXT
  5
54
  8
DIMNSIONS
 62
     7
 10
66.472222222549846
 20
100.9938888888889
 30
0.0
 40
2.7147352430555549
  1
30.0
 41
0.7
 11
66.472222222549846
 21
103.7086241319444
 31
0.0
 73
     3
  0
LINE
  5
55
  8
DIMNSIONS
  6
CONTINUOUS
 62
     7
 10
56.788445536977648
 20
110.0
 30
0.0
 11
43.425219716956313
 21
110.0
 31
0.0
  0
LINE
  5
56
  8
DIMNSIONS
  6
CONTINUOUS
 62
     7
 10
65.47999999999999
 20
154.0
 30
0.0
 11
43.425219716956313
 21
154.0
 31
0.0
  0
LINE
  5
57
  8
DIMNSIONS
  6
CONTINUOUS
 62
     7
 10
45.425219716956313
 20
110.0
 30
0.0
 11
45.425219716956313
 21
154.0
 31
0.0
  0
LINE
  5
58
  8
DIMNSIONS
  6
CONTINUOUS
 62
     7
 10
45.425219716956313
 20
110.0
 30
0.0
 11
44.755179921806061
 21
112.5006225585938
 31
0.0
  0
LINE
  5
59
  8
DIMNSIONS
  6
CONTINUOUS
 62
     7
 10
45.425219716956313
 20
110.0
 30
0.0
 11
46.095259512106551
 21
112.5006225585938
 31
0.0
  0
LINE
  5
5A
  8
DIMNSIONS
  6
CONTINUOUS
 62
     7
 10
45.425219716956313
 20
154.0
 30
0.0
 11
46.095259512106551
 21
151.49937744140621
 31
0.0
  0
LINE
  5
5B
  8
DIMNSIONS
  6
CONTINUOUS
 62
     7
 10
45.425219716956313
 20
154.0
 30
0.0
 11
44.755179921806061
 21
151.49937744140621
 31
0.0
  0
TEXT
  5
5C
  8
DIMNSIONS
 62
     7
 10
44.431330828067424
 20
128.4722222222222
 30
0.0
 40
2.7147352430555549
  1
44.0
 50
90.0
 41
0.7
 11
41.716595585011859
 21
128.4722222222222
 31
0.0
 73
     3
  0
LINE
  5
5D
  8
DIMNSIONS
  6
CONTINUOUS
 62
     7
 10
63.501153729312527
 20
172.0006748536928
 30
0.0
 11
43.425219716956313
 21
172.00067485369291
 31
0.0
  0
LINE
  5
5E
  8
DIMNSIONS
  6
CONTINUOUS
 62
     7
 10
63.501153729312541
 20
188.0006748536928
 30
0.0
 11
43.425219716956313
 21
188.00067485369291
 31
0.0
  0
LINE
  5
5F
  8
DIMNSIONS
  6
CONTINUOUS
 62
     7
 10
45.425219716956313
 20
172.00067485369291
 30
0.0
 11
45.425219716956313
 21
188.00067485369291
 31
0.0
  0
LINE
  5
60
  8
DIMNSIONS
  6
CONTINUOUS
 62
     7
 10
45.425219716956313
 20
172.00067485369291
 30
0.0
 11
44.798923853351099
 21
174.51261036219299
 31
0.0
  0
LINE
  5
61
  8
DIMNSIONS
  6
CONTINUOUS
 62
     7
 10
45.425219716956313
 20
172.00067485369291
 30
0.0
 11
46.138799343039153
 21
174.48922274852481
 31
0.0
  0
LINE
  5
62
  8
DIMNSIONS
  6
CONTINUOUS
 62
     7
 10
45.425219716956313
 20
188.00067485369291
 30
0.0
 11
46.095259512106551
 21
185.5000522950991
 31
0.0
  0
LINE
  5
63
  8
DIMNSIONS
  6
CONTINUOUS
 62
     7
 10
45.425219716956313
 20
188.00067485369291
 30
0.0
 11
44.755179921806061
 21
185.5000522950991
 31
0.0
  0
TEXT
  5
64
  8
DIMNSIONS
 62
     7
 10
41.897441939178528
 20
178.73067485369279
 30
0.0
 40
2.7147352430555549
  1
16.0
 41
0.7
 11
41.897441939178528
 21
181.44541009674839
 31
0.0
 73
     3
  0
LINE
  5
65
  8
DIMNSIONS
  6
CONTINUOUS
 62
     7
 10
52.999889452220479
 20
170.0006748536928
 30
0.0
 11
33.599999999999987
 21
170.0006748536928
 31
0.0
  0
LINE
  5
66
  8
DIMNSIONS
  6
CONTINUOUS
 62
     7
 10
52.999889452220479
 20
190.0006748536928
 30
0.0
 11
33.599999999999987
 21
190.0006748536928
 31
0.0
  0
LINE
  5
67
  8
DIMNSIONS
  6
CONTINUOUS
 62
     7
 10
35.599999999999987
 20
170.0006748536928
 30
0.0
 11
35.599999999999987
 21
190.0006748536928
 31
0.0
  0
LINE
  5
68
  8
DIMNSIONS
  6
CONTINUOUS
 62
     7
 10
35.599999999999987
 20
170.0006748536928
 30
0.0
 11
34.929960204849749
 21
172.50129741228659
 31
0.0
  0
LINE
  5
69
  8
DIMNSIONS
  6
CONTINUOUS
 62
     7
 10
35.599999999999987
 20
170.0006748536928
 30
0.0
 11
36.27003979515024
 21
172.50129741228659
 31
0.0
  0
LINE
  5
6A
  8
DIMNSIONS
  6
CONTINUOUS
 62
     7
 10
35.599999999999987
 20
190.0006748536928
 30
0.0
 11
36.27003979515024
 21
187.5000522950991
 31
0.0
  0
LINE
  5
6B
  8
DIMNSIONS
  6
CONTINUOUS
 62
     7
 10
35.599999999999987
 20
190.0006748536928
 30
0.0
 11
34.929960204849749
 21
187.5000522950991
 31
0.0
  0
TEXT
  5
6C
  8
DIMNSIONS
 62
     7
 10
34.606111111111112
 20
176.472897075915
 30
0.0
 40
2.7147352430555549
  1
20.0
 50
90.0
 41
0.7
 11
31.891375868055562
 21
176.472897075915
 31
0.0
 73
     3
  0
TEXT
  5
6D
  8
DATA
 62
     7
 10
149.827590762075
 20
20.88148592366905
 30
0.0
 40
2.4432617187500001
  1
PC4099
 41
0.7
 11
149.827590762075
 21
23.324747642419052
 31
0.0
 73
     3
  0
TEXT
  5
6E
  8
DATA
 62
     7
 10
149.85632563506249
 20
28.46709461896247
 30
0.0
 40
2.4432617187500001
  1
DPA
 41
0.7
 11
149.85632563506249
 21
30.910356337712471
 31
0.0
 73
     3
  0
TEXT
  5
6F
  8
DATA
 62
     7
 10
148.15481622343211
 20
25.103457061064791
 30
0.0
 40
1.6288437109374989
  1
ピアノ用クリップ
 41
0.7
 11
148.15481622343211
 21
26.73230077200229
 31
0.0
 73
     3
  0
TEXT
  5
70
  8
DATA
 62
     7
 10
12.57012263196655
 20
16.626277517656501
 30
0.0
 40
1.900314670138888
  1
※仕様及び外観は予告なく変更されることがあります。
 41
0.7
 11
12.57012263196655
 21
18.526592187795391
 31
0.0
 73
     3
  0
TEXT
  5
71
  8
DATA
 62
     7
 10
12.57012263196655
 20
14.15683307321205
 30
0.0
 40
1.900314670138888
  1
　また、同一商品でも若干の個体差があることがあります。ご了承ください。
 41
0.7
 11
12.57012263196655
 21
16.057147743350939
 31
0.0
 73
     3
  0
LINE
  5
72
  8
DATA
  6
CONTINUOUS
 62
     7
 10
58.788445536977648
 20
110.0
 30
0.0
 11
61.500000000327638
 21
110.0
 31
0.0
  0
LINE
  5
73
  8
DATA
  6
CONTINUOUS
 62
     7
 10
78.500000000327631
 20
110.0
 30
0.0
 11
81.211554463677629
 21
110.0
 31
0.0
  0
ARC
  5
74
  8
DATA
  6
CONTINUOUS
 62
     7
 10
70.000000000327688
 20
150.45189322731969
 30
0.0
 40
2.5000000000002229
 50
121.7404353027662
 51
58.259564697239618
  0
ARC
  5
75
  8
DATA
  6
CONTINUOUS
 62
     7
 10
70.000000000327617
 20
150.45189322731991
 30
0.0
 40
4.499999999999992
 50
131.8103148957785
 51
200.8408525874645
  0
ARC
  5
76
  8
DATA
  6
CONTINUOUS
 62
     7
 10
70.000000000327617
 20
150.45189322731991
 30
0.0
 40
4.4999999999999902
 50
339.15914741253511
 51
48.189685104221667
  0
ARC
  5
77
  8
DATA
  6
CONTINUOUS
 62
     7
 10
67.473445255802076
 20
152.5875199217933
 30
0.0
 40
1.4165982932612819
 50
15.20009812430153
 51
85.644206001966197
  0
ARC
  5
78
  8
DATA
  6
CONTINUOUS
 62
     7
 10
67.571267580732226
 20
153.0622932004527
 30
0.0
 40
0.937784251833764
 50
89.403197288203316
 51
127.5293238008462
  0
ARC
  5
79
  8
DATA
  6
CONTINUOUS
 62
     7
 10
68.189889032718895
 20
153.0025137533774
 30
0.0
 40
0.6520539180456919
 50
319.37910699896742
 51
356.16824457770412
  0
ARC
  5
7A
  8
DATA
  6
CONTINUOUS
 62
     7
 10
72.526554744853172
 20
152.5875199217933
 30
0.0
 40
1.4165982932612771
 50
94.355793998033704
 51
164.7999018756984
  0
ARC
  5
7B
  8
DATA
  6
CONTINUOUS
 62
     7
 10
72.428732419923023
 20
153.0622932004527
 30
0.0
 40
0.9377842518337631
 50
52.470676199153992
 51
90.596802711796855
  0
ARC
  5
7C
  8
DATA
  6
CONTINUOUS
 62
     7
 10
71.810110967936339
 20
153.0025137533774
 30
0.0
 40
0.6520539180456928
 50
183.8317554222958
 51
220.62089300103261
  0
ARC
  5
7D
  8
DATA
  6
CONTINUOUS
 62
     7
 10
59.873004292173121
 20
114.52811158798281
 30
0.0
 40
4.8738710518065309
 50
147.21295154680789
 51
234.6352324424922
  0
LINE
  5
7E
  8
DATA
  6
CONTINUOUS
 62
     7
 10
62.000000000327617
 20
120.0
 30
0.0
 11
78.00000000032766
 21
120.0
 31
0.0
  0
ARC
  5
7F
  8
DATA
  6
CONTINUOUS
 62
     7
 10
-43.935245901307567
 20
175.78852459016269
 30
0.0
 40
119.72733940160489
 50
332.22742867009032
 51
342.10526297407421
  0
ARC
  5
80
  8
DATA
  6
CONTINUOUS
 62
     7
 10
183.9352459019639
 20
175.78852459016269
 30
0.0
 40
119.7273394016058
 50
197.89473702592559
 51
207.77257132990951
  0
ARC
  5
81
  8
DATA
  6
CONTINUOUS
 62
     7
 10
21.021027428265789
 20
145.5831611455927
 30
0.0
 40
44.892486264179517
 50
320.73014652037813
 51
4.1742868448854429
  0
ARC
  5
82
  8
DATA
  6
CONTINUOUS
 62
     7
 10
118.97897257238949
 20
145.5831611455927
 30
0.0
 40
44.892486264179539
 50
175.8257131551149
 51
219.2698534796219
  0
ARC
  5
83
  8
DATA
  6
CONTINUOUS
 62
     7
 10
58.788445536977648
 20
112.9999999999999
 30
0.0
 40
2.9999999999999609
 50
234.6352324424918
 51
270.0
  0
ARC
  5
84
  8
DATA
  6
CONTINUOUS
 62
     7
 10
81.211554463677629
 20
112.9999999999999
 30
0.0
 40
2.9999999999998721
 50
270.0
 51
305.36476755750988
  0
ARC
  5
85
  8
DATA
  6
CONTINUOUS
 62
     7
 10
80.126995708482141
 20
114.52811158798281
 30
0.0
 40
4.87387105180653
 50
305.3647675575084
 51
32.78704845319141
  0
TEXT
  5
86
  8
DATA
 62
     7
 10
66.364652604864347
 20
112.8135428770607
 30
0.0
 40
2.7147352430555549
  1
DPA
 41
0.7
 11
66.364652604864347
 21
115.5282781201163
 31
0.0
 73
     3
  0
LINE
  5
87
  8
DATA
  6
CONTINUOUS
 62
     7
 10
110.0
 20
110.0
 30
0.0
 11
110.0
 21
120.0000000000003
 31
0.0
  0
LINE
  5
88
  8
DATA
  6
CONTINUOUS
 62
     7
 10
130.0
 20
110.0
 30
0.0
 11
130.0
 21
120.0000000000003
 31
0.0
  0
LINE
  5
89
  8
DATA
  6
CONTINUOUS
 62
     7
 10
54.999889452220494
 20
60.000000000000021
 30
0.0
 11
85.000110548434762
 21
60.000000000000021
 31
0.0
  0
LINE
  5
8A
  8
DATA
  6
CONTINUOUS
 62
     7
 10
54.999889452220494
 20
80.000000000000014
 30
0.0
 11
85.000110548434762
 21
80.000000000000014
 31
0.0
  0
LINE
  5
8B
  8
DATA
  6
CONTINUOUS
 62
     7
 10
54.999889452220494
 20
80.000000000000014
 30
0.0
 11
54.999889452220494
 21
60.000000000000021
 31
0.0
  0
LINE
  5
8C
  8
DATA
  6
CONTINUOUS
 62
     7
 10
85.000110548434762
 20
80.000000000000014
 30
0.0
 11
85.000110548434762
 21
60.000000000000021
 31
0.0
  0
LINE
  5
8D
  8
DATA
  6
CONTINUOUS
 62
     7
 10
111.9999999999999
 20
154.0
 30
0.0
 11
128.0
 21
154.0
 31
0.0
  0
LINE
  5
8E
  8
DATA
  6
CONTINUOUS
 62
     7
 10
54.999889452220494
 20
190.0006748536928
 30
0.0
 11
85.000110548434762
 21
190.0006748536928
 31
0.0
  0
LINE
  5
8F
  8
DATA
  6
CONTINUOUS
 62
     7
 10
54.999889452220494
 20
170.00067485369291
 30
0.0
 11
85.000110548434762
 21
170.00067485369291
 31
0.0
  0
LINE
  5
90
  8
DATA
  6
CONTINUOUS
 62
     7
 10
54.999889452220494
 20
170.00067485369291
 30
0.0
 11
54.999889452220494
 21
190.0006748536928
 31
0.0
  0
LINE
  5
91
  8
DATA
  6
CONTINUOUS
 62
     7
 10
85.000110548434762
 20
170.00067485369291
 30
0.0
 11
85.000110548434762
 21
190.0006748536928
 31
0.0
  0
LINE
  5
92
  8
DATA
  6
CONTINUOUS
 62
     7
 10
68.84048533875314
 20
172.0006748536928
 30
0.0
 11
68.84048533875314
 21
188.0006748536928
 31
0.0
  0
LINE
  5
93
  8
DATA
  6
CONTINUOUS
 62
     7
 10
71.159514661902122
 20
172.0006748536928
 30
0.0
 11
71.159514661902122
 21
188.0006748536928
 31
0.0
  0
LINE
  5
94
  8
DATA
  6
CONTINUOUS
 62
     7
 10
65.501153729312549
 20
172.0006748536928
 30
0.0
 11
65.501153729312549
 21
188.0006748536928
 31
0.0
  0
LINE
  5
95
  8
DATA
  6
CONTINUOUS
 62
     7
 10
74.498846271342714
 20
172.0006748536928
 30
0.0
 11
74.498846271342714
 21
188.0006748536928
 31
0.0
  0
ARC
  5
96
  8
DATA
  6
CONTINUOUS
 62
     7
 10
-287.50833333332179
 20
160.44166666666581
 30
0.0
 40
399.56026262907199
 50
354.19083495647152
 51
359.07624371666901
  0
ARC
  5
97
  8
DATA
  6
CONTINUOUS
 62
     7
 10
527.50833333332173
 20
160.44166666666581
 30
0.0
 40
399.56026262907199
 50
180.9237562833311
 51
185.80916504352851
  0
LINE
  5
98
  8
DATA
  6
CONTINUOUS
 62
     7
 10
74.498846271342714
 20
172.0006748536928
 30
0.0
 11
65.501153729312549
 21
172.0006748536928
 31
0.0
  0
LINE
  5
99
  8
DATA
  6
CONTINUOUS
 62
     7
 10
65.501153729312549
 20
188.0006748536928
 30
0.0
 11
74.4988462713427
 21
188.0006748536928
 31
0.0
  0
ARC
  5
9A
  8
DATA
  6
CONTINUOUS
 62
     7
 10
70.839775429983305
 20
235.78224766488381
 30
0.0
 40
47.921472220010379
 50
274.37911353716669
 51
287.18694637911187
  0
ARC
  5
9B
  8
DATA
  6
CONTINUOUS
 62
     7
 10
69.160224570671971
 20
235.78224766488381
 30
0.0
 40
47.921472220010379
 50
252.8130536208881
 51
265.62088646283331
  0
ARC
  5
9C
  8
DATA
  6
CONTINUOUS
 62
     7
 10
70.839775429983305
 20
124.2191020425019
 30
0.0
 40
47.921472220010379
 50
72.813053620888084
 51
85.620886462833312
  0
ARC
  5
9D
  8
DATA
  6
CONTINUOUS
 62
     7
 10
69.160224570671971
 20
124.2191020425019
 30
0.0
 40
47.921472220010379
 50
94.379113537166688
 51
107.1869463791119
  0
LINE
  5
9E
  8
DATA
  6
CONTINUOUS
 62
     7
 10
110.0
 20
110.0
 30
0.0
 11
130.0
 21
110.0
 31
0.0
  0
LINE
  5
9F
  8
DATA
  6
CONTINUOUS
 62
     7
 10
57.0
 20
53.0
 30
0.0
 11
84.0
 21
53.0
 31
0.0
  0
LINE
  5
A0
  8
DATA
  6
CONTINUOUS
 62
     7
 10
61.500000000327638
 20
80.000000000000014
 30
0.0
 11
61.500000000327638
 21
60.000000000000021
 31
0.0
  0
LINE
  5
A1
  8
DATA
  6
CONTINUOUS
 62
     7
 10
78.500000000327631
 20
80.000000000000014
 30
0.0
 11
78.500000000327631
 21
60.000000000000021
 31
0.0
  0
LINE
  5
A2
  8
DATA
  6
CONTINUOUS
 62
     7
 10
61.600000001817747
 20
110.09999999999999
 30
0.0
 11
78.399999998837501
 21
110.09999999999999
 31
0.0
  0
ARC
  5
A3
  8
DATA
  6
CONTINUOUS
 62
     7
 10
61.600000001817747
 20
109.99999999850991
 30
0.0
 40
0.1000000014901161
 50
90.0
 51
180.0
  0
ARC
  5
A4
  8
DATA
  6
CONTINUOUS
 62
     7
 10
78.399999998837501
 20
109.99999999850991
 30
0.0
 40
0.1000000014901161
 50
0.0
 51
90.0
  0
TEXT
  5
A5
  8
DATA
 62
     7
 10
58.86140834950946
 20
54.097218240236472
 30
0.0
 40
2.4432617187500001
  1
底面マグネット
 41
0.7
 11
58.86140834950946
 21
56.540479958986467
 31
0.0
 73
     3
  0
ENDSEC
  0
EOF
