  0
SECTION
  2
HEADER
  9
$ACADVER
  1
AC1009
  9
$INSBASE
 10
0.0
 20
0.0
 30
0.0
  9
$EXTMIN
 10
-135.0082391174605
 20
-204.63561431181751
 30
-0.0015258207003583
  9
$EXTMAX
 10
135.00824037474609
 20
196.7790502507647
 30
0.0000000349246037
  9
$LIMMIN
 10
0.0
 20
0.0
  9
$LIMMAX
 10
0.0
 20
0.0
  9
$ORTHOMODE
 70
     0
  9
$REGENMODE
 70
     1
  9
$FILLMODE
 70
     1
  9
$QTEXTMODE
 70
     0
  9
$MIRRTEXT
 70
     1
  9
$DRAGMODE
 70
     2
  9
$LTSCALE
 40
7.6199999999999983
  9
$OSMODE
 70
   231
  9
$ATTMODE
 70
     1
  9
$TEXTSIZE
 40
0.0
  9
$TRACEWID
 40
1.0
  9
$TEXTSTYLE
  7
STANDARD
  9
$CLAYER
  8
DATA
  9
$CELTYPE
  6
BYLAYER
  9
$CECOLOR
 62
   256
  9
$DIMSCALE
 40
1.0
  9
$DIMASZ
 40
0.18
  9
$DIMEXO
 40
0.0625
  9
$DIMDLI
 40
0.38
  9
$DIMRND
 40
0.0
  9
$DIMDLE
 40
0.0
  9
$DIMEXE
 40
0.18
  9
$DIMTP
 40
0.0
  9
$DIMTM
 40
0.0
  9
$DIMTXT
 40
0.18
  9
$DIMCEN
 40
0.09
  9
$DIMTSZ
 40
0.0
  9
$DIMTOL
 70
     0
  9
$DIMLIM
 70
     0
  9
$DIMTIH
 70
     1
  9
$DIMTOH
 70
     1
  9
$DIMSE1
 70
     0
  9
$DIMSE2
 70
     0
  9
$DIMTAD
 70
     0
  9
$DIMZIN
 70
     0
  9
$DIMBLK
  1

  9
$DIMASO
 70
     1
  9
$DIMSHO
 70
     1
  9
$DIMPOST
  1

  9
$DIMAPOST
  1

  9
$DIMALT
 70
     0
  9
$DIMALTD
 70
     2
  9
$DIMALTF
 40
25.399999999999999
  9
$DIMLFAC
 40
1.0
  9
$DIMTOFL
 70
     0
  9
$DIMTVP
 40
0.0
  9
$DIMTIX
 70
     0
  9
$DIMSOXD
 70
     0
  9
$DIMSAH
 70
     0
  9
$DIMBLK1
  1

  9
$DIMBLK2
  1

  9
$DIMSTYLE
  2
STANDARD
  9
$DIMCLRD
 70
     0
  9
$DIMCLRE
 70
     0
  9
$DIMCLRT
 70
     0
  9
$DIMTFAC
 40
1.0
  9
$DIMGAP
 40
0.09
  9
$LUNITS
 70
     2
  9
$LUPREC
 70
     4
  9
$SKETCHINC
 40
0.1
  9
$FILLETRAD
 40
0.0
  9
$AUNITS
 70
     0
  9
$AUPREC
 70
     0
  9
$MENU
  1
acad
  9
$ELEVATION
 40
0.0
  9
$PELEVATION
 40
0.0
  9
$THICKNESS
 40
0.0
  9
$LIMCHECK
 70
     0
  9
$BLIPMODE
 70
     0
  9
$CHAMFERA
 40
0.0
  9
$CHAMFERB
 40
0.0
  9
$SKPOLY
 70
     0
  9
$TDCREATE
 40
2456597.4519328708
  9
$TDUPDATE
 40
2456597.4636868518
  9
$TDINDWG
 40
0.0002624537
  9
$TDUSRTIMER
 40
0.0002623843
  9
$USRTIMER
 70
     1
  9
$ANGBASE
 50
0.0
  9
$ANGDIR
 70
     0
  9
$PDMODE
 70
     1
  9
$PDSIZE
 40
-2.0
  9
$PLINEWID
 40
0.0
  9
$COORDS
 70
     2
  9
$SPLFRAME
 70
     0
  9
$SPLINETYPE
 70
     6
  9
$SPLINESEGS
 70
     8
  9
$ATTDIA
 70
     0
  9
$ATTREQ
 70
     1
  9
$HANDLING
 70
     1
  9
$HANDSEED
  5
F31
  9
$SURFTAB1
 70
     6
  9
$SURFTAB2
 70
     6
  9
$SURFTYPE
 70
     6
  9
$SURFU
 70
     6
  9
$SURFV
 70
     6
  9
$UCSNAME
  2

  9
$UCSORG
 10
0.0
 20
0.0
 30
0.0
  9
$UCSXDIR
 10
1.0
 20
0.0
 30
0.0
  9
$UCSYDIR
 10
0.0
 20
1.0
 30
0.0
  9
$PUCSNAME
  2

  9
$PUCSORG
 10
0.0
 20
0.0
 30
0.0
  9
$PUCSXDIR
 10
1.0
 20
0.0
 30
0.0
  9
$PUCSYDIR
 10
0.0
 20
1.0
 30
0.0
  9
$USERI1
 70
     0
  9
$USERI2
 70
     0
  9
$USERI3
 70
     0
  9
$USERI4
 70
     0
  9
$USERI5
 70
     0
  9
$USERR1
 40
0.0
  9
$USERR2
 40
0.0
  9
$USERR3
 40
0.0
  9
$USERR4
 40
0.0
  9
$USERR5
 40
0.0
  9
$WORLDVIEW
 70
     1
  9
$SHADEDGE
 70
     3
  9
$SHADEDIF
 70
    70
  9
$TILEMODE
 70
     1
  9
$MAXACTVP
 70
    64
  9
$PLIMCHECK
 70
     0
  9
$PEXTMIN
 10
1.0000000000000000E+020
 20
1.0000000000000000E+020
 30
1.0000000000000000E+020
  9
$PEXTMAX
 10
-1.0000000000000000E+020
 20
-1.0000000000000000E+020
 30
-1.0000000000000000E+020
  9
$PLIMMIN
 10
0.0
 20
0.0
  9
$PLIMMAX
 10
12.0
 20
9.0
  9
$UNITMODE
 70
     0
  9
$VISRETAIN
 70
     0
  9
$PLINEGEN
 70
     1
  9
$PSLTSCALE
 70
     0
  0
ENDSEC
  0
SECTION
  2
TABLES
  0
TABLE
  2
VPORT
 70
     1
  0
VPORT
  2
*ACTIVE
 70
     0
 10
0.0
 20
0.0
 11
1.0
 21
1.0
 12
0.0000006286428516
 22
-3.5336469621441888
 13
0.0
 23
0.0
 14
1.0
 24
1.0
 15
0.0
 25
0.0
 16
0.0
 26
0.0
 36
1.0
 17
0.0
 27
0.0
 37
0.0
 40
403.77992509058799
 41
2.1787122207621552
 42
50.0
 43
0.0
 44
0.0
 50
0.0
 51
0.0
 71
     0
 72
  2000
 73
     1
 74
     1
 75
     0
 76
     0
 77
     0
 78
     0
  0
ENDTAB
  0
TABLE
  2
LTYPE
 70
     4
  0
LTYPE
  2
CONTINUOUS
 70
     0
  3
Solid line
 72
    65
 73
     0
 40
0.0
  0
LTYPE
  2
STYLE_02
 70
     0
  3

 72
    65
 73
     2
 40
0.4165600000000001
 49
0.20828
 49
-0.20828
  0
ENDTAB
  0
TABLE
  2
LAYER
 70
     5
  0
LAYER
  2
0
 70
     0
 62
     7
  6
CONTINUOUS
  0
LAYER
  2
DATA
 70
     0
 62
     7
  6
CONTINUOUS
  0
LAYER
  2
HIBINO-BASE
 70
     0
 62
     7
  6
CONTINUOUS
  0
LAYER
  2
SPEC
 70
     0
 62
     7
  6
CONTINUOUS
  0
LAYER
  2
DIMNSIONS
 70
     0
 62
     7
  6
CONTINUOUS
  0
ENDTAB
  0
TABLE
  2
STYLE
 70
     3
  0
STYLE
  2
STANDARD
 70
     0
 40
0.0
 41
1.0
 50
0.0
 71
     0
 42
0.0
  3
txt
  4
BIGFONT.SHX
  0
ENDTAB
  0
TABLE
  2
VIEW
 70
     0
  0
ENDTAB
  0
TABLE
  2
UCS
 70
     0
  0
ENDTAB
  0
TABLE
  2
APPID
 70
     4
  0
APPID
  2
ACAD
 70
     0
  0
APPID
  2
ACADANNOTATIVE
 70
     0
  0
APPID
  2
ACAD_NAV_VCDISPLAY
 70
     0
  0
APPID
  2
ACAD_MLEADERVER
 70
     0
  0
ENDTAB
  0
TABLE
  2
DIMSTYLE
 70
     2
  0
DIMSTYLE
  2
STANDARD
 70
     0
  3

  4

  5

  6

  7

 40
1.0
 41
0.18
 42
0.0625
 43
0.38
 44
0.18
 45
0.0
 46
0.0
 47
0.0
 48
0.0
140
0.18
141
0.09
142
0.0
143
25.399999999999999
144
1.0
145
0.0
146
1.0
147
0.09
 71
     0
 72
     0
 73
     1
 74
     1
 75
     0
 76
     0
 77
     0
 78
     0
170
     0
171
     2
172
     0
173
     0
174
     0
175
     0
176
     0
177
     0
178
     0
  0
ENDTAB
  0
ENDSEC
  0
SECTION
  2
BLOCKS
  0
BLOCK
  8
0
  2
$MODEL_SPACE
 70
     0
 10
0.0
 20
0.0
 30
0.0
  3
$MODEL_SPACE
  1

  0
ENDBLK
  5
8AB
  8
0
  0
BLOCK
 67
     1
  8
0
  2
$PAPER_SPACE
 70
     0
 10
0.0
 20
0.0
 30
0.0
  3
$PAPER_SPACE
  1

  0
ENDBLK
  5
8A7
 67
     1
  8
0
  0
ENDSEC
  0
SECTION
  2
ENTITIES
  0
LINE
  5
25
  8
HIBINO-BASE
  6
CONTINUOUS
 62
     7
 10
-134.99999999999989
 20
196.7668239474329
 30
0.0
 11
134.99999999999989
 21
196.7668239474329
 31
0.0
  0
LINE
  5
26
  8
HIBINO-BASE
  6
CONTINUOUS
 62
     7
 10
134.99999999999989
 20
-193.23317605256699
 30
0.0
 11
-134.99999999999989
 21
-193.23317605256699
 31
0.0
  0
LINE
  5
27
  8
HIBINO-BASE
  6
CONTINUOUS
 62
     7
 10
-134.99999999999989
 20
-193.23317605256699
 30
0.0
 11
-134.99999999999989
 21
196.7668239474329
 31
0.0
  0
LINE
  5
28
  8
HIBINO-BASE
  6
CONTINUOUS
 62
     7
 10
134.99999999999989
 20
196.7668239474329
 30
0.0
 11
134.99999999999989
 21
-193.23317605256699
 31
0.0
  0
LINE
  5
29
  8
HIBINO-BASE
  6
CONTINUOUS
 62
     7
 10
0.0
 20
-159.48317605256699
 30
0.0
 11
134.99999999999989
 21
-159.48317605256699
 31
0.0
  0
LINE
  5
2A
  8
HIBINO-BASE
  6
CONTINUOUS
 62
     7
 10
0.0
 20
-193.23317605256699
 30
0.0
 11
0.0
 21
-159.48317605256699
 31
0.0
  0
TEXT
  5
2B
  8
HIBINO-BASE
 62
     7
 10
1.349999999999999
 20
-163.24621605256701
 30
0.0
 40
2.4432617187500001
  1
NOTE
 41
0.7
 11
1.3500000000000001
 21
-160.80295433381701
 31
0.0
 73
     3
  0
LINE
  5
2C
  8
HIBINO-BASE
  6
CONTINUOUS
 62
     7
 10
52.5
 20
-193.23317605256699
 30
0.0
 11
52.5
 21
-159.48317605256699
 31
0.0
  0
TEXT
  5
2D
  8
HIBINO-BASE
 62
     7
 10
53.850000000000001
 20
-163.24621605256701
 30
0.0
 40
2.4432617187500001
  1
TITLE
 41
0.7
 11
53.850000000000001
 21
-160.80295433381701
 31
0.0
 73
     3
  0
LINE
  5
2E
  8
HIBINO-BASE
  6
CONTINUOUS
 62
     7
 10
0.0
 20
-178.23317605256699
 30
0.0
 11
134.99999999999989
 21
-178.23317605256699
 31
0.0
  0
TEXT
  5
2F
  8
HIBINO-BASE
 62
     7
 10
72.59999999999998
 20
-181.91173605256699
 30
0.0
 40
2.4432617187500001
  1
DRAWN
 41
0.7
 11
72.59999999999998
 21
-179.468474333817
 31
0.0
 73
     3
  0
TEXT
  5
30
  8
HIBINO-BASE
 62
     7
 10
35.100000000000001
 20
-181.91173605256699
 30
0.0
 40
2.4432617187500001
  1
DATE
 41
0.7
 11
35.100000000000001
 21
-179.468474333817
 31
0.0
 73
     3
  0
TEXT
  5
31
  8
HIBINO-BASE
 62
     7
 10
20.100000000000001
 20
-181.91173605256699
 30
0.0
 40
2.4432617187500001
  1
SCALE
 41
0.7
 11
20.100000000000001
 21
-179.468474333817
 31
0.0
 73
     3
  0
TEXT
  5
32
  8
HIBINO-BASE
 62
     7
 10
53.850000000000001
 20
-181.91173605256699
 30
0.0
 40
2.4432617187500001
  1
DESIGN
 41
0.7
 11
53.850000000000001
 21
-179.468474333817
 31
0.0
 73
     3
  0
TEXT
  5
33
  8
HIBINO-BASE
 62
     7
 10
110.09999999999999
 20
-181.91173605256699
 30
0.0
 40
2.4432617187500001
  1
DRAWING NO.
 41
0.7
 11
110.09999999999999
 21
-179.468474333817
 31
0.0
 73
     3
  0
TEXT
  5
34
  8
HIBINO-BASE
 62
     7
 10
91.349999999999994
 20
-181.91173605256699
 30
0.0
 40
2.4432617187500001
  1
CHECK
 41
0.7
 11
91.349999999999994
 21
-179.468474333817
 31
0.0
 73
     3
  0
LINE
  5
35
  8
HIBINO-BASE
  6
CONTINUOUS
 62
     7
 10
21.5625
 20
-191.35817605256699
 30
0.0
 11
27.1875
 21
-185.73317605256699
 31
0.0
  0
TEXT
  5
36
  8
HIBINO-BASE
 62
     7
 10
20.625
 20
-187.396591052567
 30
0.0
 40
2.4432617187500001
  1
1
 41
0.7
 11
20.625
 21
-184.95332933381701
 31
0.0
 73
     3
  0
LINE
  5
37
  8
HIBINO-BASE
  6
CONTINUOUS
 62
     7
 10
18.75
 20
-193.23317605256699
 30
0.0
 11
18.75
 21
-178.23317605256699
 31
0.0
  0
LINE
  5
38
  8
HIBINO-BASE
  6
CONTINUOUS
 62
     7
 10
33.75
 20
-193.23317605256699
 30
0.0
 11
33.75
 21
-178.23317605256699
 31
0.0
  0
LINE
  5
39
  8
HIBINO-BASE
  6
CONTINUOUS
 62
     7
 10
71.249999999999986
 20
-178.23317605256699
 30
0.0
 11
71.249999999999986
 21
-193.23317605256699
 31
0.0
  0
LINE
  5
3A
  8
HIBINO-BASE
  6
CONTINUOUS
 62
     7
 10
108.75
 20
-178.23317605256699
 30
0.0
 11
108.75
 21
-193.23317605256699
 31
0.0
  0
LINE
  5
3B
  8
HIBINO-BASE
  6
CONTINUOUS
 62
     7
 10
89.999999999999986
 20
-193.23317605256699
 30
0.0
 11
89.999999999999986
 21
-178.23317605256699
 31
0.0
  0
TEXT
  5
3C
  8
HIBINO-BASE
 62
     7
 10
35.03481
 20
-188.93770605256699
 30
0.0
 40
2.4432617187500001
  1
'13.10.
 41
0.7
 11
35.03481
 21
-186.494444333817
 31
0.0
 73
     3
  0
TEXT
  5
3D
  8
HIBINO-BASE
 62
     7
 10
26.25
 20
-190.209091052567
 30
0.0
 40
2.4432617187500001
  1
1.5
 41
0.7
 11
26.25
 21
-187.76582933381701
 31
0.0
 73
     3
  0
TEXT
  5
3E
  8
HIBINO-BASE
 62
     7
 10
73.508715016551932
 20
-188.93770605256699
 30
0.0
 40
2.4432617187500001
  1
Ootake
 41
0.7
 11
73.508715016551932
 21
-186.494444333817
 31
0.0
 73
     3
  0
TEXT
  5
3F
  8
HIBINO-BASE
 62
     7
 10
5.8250000000000233
 20
-190.26917605256699
 30
0.0
 40
4.8865234374999993
  1
A4
 41
0.7
 11
5.8250000000000233
 21
-185.382652615067
 31
0.0
 73
     3
  0
TEXT
  5
40
  8
HIBINO-BASE
 62
     7
 10
1.437499999999998
 20
-182.16235855256701
 30
0.0
 40
2.4432617187500001
  1
PAPER SIZE
 41
0.7
 11
1.437499999999998
 21
-179.71909683381699
 31
0.0
 73
     3
  0
TEXT
  5
41
  8
HIBINO-BASE
 62
     7
 10
-130.86054711466471
 20
-202.8710364038314
 30
0.0
 40
5.293733723958332
  1
Hibino-Intersound Corporation
 41
0.7
 11
-130.86054711466471
 21
-197.57730267987299
 31
0.0
 73
     3
  0
TEXT
  5
42
  8
HIBINO-BASE
 62
     7
 10
30.270914520320851
 20
-202.34440402389731
 30
0.0
 40
5.293733723958332
  1
ヒビノインターサウンド株式会社
 41
0.7
 11
30.270914520320851
 21
-197.0506702999389
 31
0.0
 73
     3
  0
LINE
  5
43
  8
SPEC
  6
CONTINUOUS
 62
     7
 10
-123.7499999999999
 20
181.7668239474329
 30
0.0
 11
97.5
 21
181.7668239474329
 31
0.0
  0
LINE
  5
44
  8
SPEC
  6
CONTINUOUS
 62
     7
 10
-123.7499999999999
 20
176.1418239474329
 30
0.0
 11
97.5
 21
176.1418239474329
 31
0.0
  0
LINE
  5
45
  8
SPEC
  6
CONTINUOUS
 62
     7
 10
-123.7499999999999
 20
170.5168239474329
 30
0.0
 11
97.5
 21
170.5168239474329
 31
0.0
  0
LINE
  5
46
  8
SPEC
  6
CONTINUOUS
 62
     7
 10
-123.7499999999999
 20
181.7668239474329
 30
0.0
 11
-123.7499999999999
 21
170.5168239474329
 31
0.0
  0
TEXT
  5
47
  8
SPEC
 62
     7
 10
-121.8749999999999
 20
183.85672894743291
 30
0.0
 40
3.664892578124999
  1
仕様
 41
0.7
 11
-121.8749999999999
 21
187.521621525558
 31
0.0
 73
     3
  0
LINE
  5
48
  8
SPEC
  6
CONTINUOUS
 62
     7
 10
-74.999999999999986
 20
181.7668239474329
 30
0.0
 11
-74.999999999999986
 21
170.5168239474329
 31
0.0
  0
LINE
  5
49
  8
SPEC
  6
CONTINUOUS
 62
     7
 10
97.5
 20
181.7668239474329
 30
0.0
 11
97.5
 21
170.5168239474329
 31
0.0
  0
TEXT
  5
4A
  8
SPEC
 62
     7
 10
-122.5516278103229
 20
177.63195856139049
 30
0.0
 40
2.8504720052083332
  1
寸法(W\U+00D7H\U+00D7D)
 41
0.7
 11
-122.5516278103229
 21
180.48243056659879
 31
0.0
 73
     3
  0
TEXT
  5
4B
  8
SPEC
 62
     7
 10
-73.642911409707423
 20
177.44226641639489
 30
0.0
 40
2.8504720052083332
  1
39.0\U+00D768.0\U+00D733.2mm(除突起部)
 41
0.7
 11
-73.642911409707423
 21
180.29273842160319
 31
0.0
 73
     3
  0
TEXT
  5
4C
  8
SPEC
 62
     7
 10
-73.839884366505814
 20
172.10019808295581
 30
0.0
 40
2.8504720052083332
  1
10g
 41
0.7
 11
-73.839884366505814
 21
174.95067008816409
 31
0.0
 73
     3
  0
TEXT
  5
4D
  8
SPEC
 62
     7
 10
-122.52979112319321
 20
172.00817347435401
 30
0.0
 40
2.8504720052083332
  1
質量
 41
0.7
 11
-122.52979112319321
 21
174.85864547956231
 31
0.0
 73
     3
  0
TEXT
  5
4E
  8
DIMNSIONS
 62
     7
 10
-30.0
 20
-174.82894105256699
 30
0.0
 40
3.664892578124999
  1
(単位：mm)
 41
0.7
 11
-30.0
 21
-171.16404847444201
 31
0.0
 73
     3
  0
LINE
  5
4F
  8
DIMNSIONS
  6
CONTINUOUS
 62
     7
 10
-52.999999999999993
 20
-40.0
 30
0.0
 11
-82.999999999999986
 21
-40.0
 31
0.0
  0
LINE
  5
50
  8
DIMNSIONS
  6
CONTINUOUS
 62
     7
 10
-56.499999999999993
 20
28.0
 30
0.0
 11
-82.999999999999986
 21
28.0
 31
0.0
  0
LINE
  5
51
  8
DIMNSIONS
  6
CONTINUOUS
 62
     7
 10
-79.999999999999986
 20
-40.0
 30
0.0
 11
-79.999999999999986
 21
28.0
 31
0.0
  0
LINE
  5
52
  8
DIMNSIONS
  6
CONTINUOUS
 62
     7
 10
-79.999999999999986
 20
-40.0
 30
0.0
 11
-81.005059692725339
 21
-36.249066162109372
 31
0.0
  0
LINE
  5
53
  8
DIMNSIONS
  6
CONTINUOUS
 62
     7
 10
-79.999999999999986
 20
-40.0
 30
0.0
 11
-78.994940307274632
 21
-36.249066162109372
 31
0.0
  0
LINE
  5
54
  8
DIMNSIONS
  6
CONTINUOUS
 62
     7
 10
-79.999999999999986
 20
28.0
 30
0.0
 11
-78.994940307274632
 21
24.249066162109379
 31
0.0
  0
LINE
  5
55
  8
DIMNSIONS
  6
CONTINUOUS
 62
     7
 10
-79.999999999999986
 20
28.0
 30
0.0
 11
-81.005059692725339
 21
24.249066162109379
 31
0.0
  0
TEXT
  5
56
  8
DIMNSIONS
 62
     7
 10
-81.490833344372618
 20
-11.291666666666661
 30
0.0
 40
4.0721029252623966
  1
68.0
 50
90.0
 41
0.7
 11
-85.562936269635017
 21
-11.291666666666661
 31
0.0
 73
     3
  0
LINE
  5
57
  8
DIMNSIONS
  6
CONTINUOUS
 62
     7
 10
-69.499999999999986
 20
2.5
 30
0.0
 11
-69.499999999999986
 21
-53.0
 31
0.0
  0
LINE
  5
58
  8
DIMNSIONS
  6
CONTINUOUS
 62
     7
 10
-30.499999999999989
 20
2.5
 30
0.0
 11
-30.499999999999989
 21
-53.0
 31
0.0
  0
LINE
  5
59
  8
DIMNSIONS
  6
CONTINUOUS
 62
     7
 10
-69.499999999999986
 20
-50.0
 30
0.0
 11
-30.499999999999989
 21
-50.0
 31
0.0
  0
LINE
  5
5A
  8
DIMNSIONS
  6
CONTINUOUS
 62
     7
 10
-69.499999999999986
 20
-50.0
 30
0.0
 11
-65.749066162109344
 21
-48.994940307274632
 31
0.0
  0
LINE
  5
5B
  8
DIMNSIONS
  6
CONTINUOUS
 62
     7
 10
-69.499999999999986
 20
-50.0
 30
0.0
 11
-65.749066162109344
 21
-51.005059692725361
 31
0.0
  0
LINE
  5
5C
  8
DIMNSIONS
  6
CONTINUOUS
 62
     7
 10
-30.499999999999989
 20
-50.0
 30
0.0
 11
-34.250933837890607
 21
-51.005059692725361
 31
0.0
  0
LINE
  5
5D
  8
DIMNSIONS
  6
CONTINUOUS
 62
     7
 10
-30.499999999999989
 20
-50.0
 30
0.0
 11
-34.250933837890607
 21
-48.994940307274632
 31
0.0
  0
TEXT
  5
5E
  8
DIMNSIONS
 62
     7
 10
-55.29166666666665
 20
-48.509166655627382
 30
0.0
 40
4.0721029252623966
  1
39.0
 41
0.7
 11
-55.29166666666665
 21
-44.43706373036499
 31
0.0
 73
     3
  0
LINE
  5
5F
  8
DIMNSIONS
  6
CONTINUOUS
 62
     7
 10
-53.670000000001068
 20
60.000000000000362
 30
0.0
 11
-82.999999999999986
 21
60.000000000000362
 31
0.0
  0
LINE
  5
60
  8
DIMNSIONS
  6
CONTINUOUS
 62
     7
 10
-70.784784150520665
 20
93.195272914922185
 30
0.0
 11
-82.999999999999986
 21
93.195272914922185
 31
0.0
  0
LINE
  5
61
  8
DIMNSIONS
  6
CONTINUOUS
 62
     7
 10
-79.999999999999986
 20
60.000000000000362
 30
0.0
 11
-79.999999999999986
 21
93.195272914922185
 31
0.0
  0
LINE
  5
62
  8
DIMNSIONS
  6
CONTINUOUS
 62
     7
 10
-79.999999999999986
 20
60.000000000000362
 30
0.0
 11
-81.005059692725339
 21
63.750933837890969
 31
0.0
  0
LINE
  5
63
  8
DIMNSIONS
  6
CONTINUOUS
 62
     7
 10
-79.999999999999986
 20
60.000000000000362
 30
0.0
 11
-78.994940307274632
 21
63.750933837890969
 31
0.0
  0
LINE
  5
64
  8
DIMNSIONS
  6
CONTINUOUS
 62
     7
 10
-79.999999999999986
 20
93.195272914922185
 30
0.0
 11
-78.994940307274632
 21
89.444339077031572
 31
0.0
  0
LINE
  5
65
  8
DIMNSIONS
  6
CONTINUOUS
 62
     7
 10
-79.999999999999986
 20
93.195272914922185
 30
0.0
 11
-81.005059692725339
 21
89.444339077031572
 31
0.0
  0
TEXT
  5
66
  8
DIMNSIONS
 62
     7
 10
-81.490833355411866
 20
71.30596979079462
 30
0.0
 40
4.0721029859414672
  1
33.2
 50
90.0
 41
0.7
 11
-85.562936341353335
 21
71.30596979079462
 31
0.0
 73
     3
  0
LINE
  5
67
  8
DIMNSIONS
  6
CONTINUOUS
 62
     7
 10
-55.999999999999993
 20
-40.0
 30
0.0
 11
-92.734413091722658
 21
-40.0
 31
0.0
  0
LINE
  5
68
  8
DIMNSIONS
  6
CONTINUOUS
 62
     7
 10
-70.347784488704477
 20
39.386628603017961
 30
0.0
 11
-92.734413091722658
 21
39.386628603017961
 31
0.0
  0
LINE
  5
69
  8
DIMNSIONS
  6
CONTINUOUS
 62
     7
 10
-89.734413091722644
 20
-40.0
 30
0.0
 11
-89.734413091722644
 21
39.386628603017961
 31
0.0
  0
LINE
  5
6A
  8
DIMNSIONS
  6
CONTINUOUS
 62
     7
 10
-89.734413091722644
 20
-40.0
 30
0.0
 11
-90.739472784448012
 21
-36.249066162109372
 31
0.0
  0
LINE
  5
6B
  8
DIMNSIONS
  6
CONTINUOUS
 62
     7
 10
-89.734413091722644
 20
-40.0
 30
0.0
 11
-88.72935339899729
 21
-36.249066162109372
 31
0.0
  0
LINE
  5
6C
  8
DIMNSIONS
  6
CONTINUOUS
 62
     7
 10
-89.734413091722644
 20
39.386628603017961
 30
0.0
 11
-88.72935339899729
 21
35.635694765127347
 31
0.0
  0
LINE
  5
6D
  8
DIMNSIONS
  6
CONTINUOUS
 62
     7
 10
-89.734413091722644
 20
39.386628603017961
 30
0.0
 11
-90.739472784448012
 21
35.635694765127347
 31
0.0
  0
TEXT
  5
6E
  8
DIMNSIONS
 62
     7
 10
-91.225246447134566
 20
-5.5983523651576856
 30
0.0
 40
4.0721029859414672
  1
79.4
 50
90.0
 41
0.7
 11
-95.297349433076022
 21
-5.5983523651576848
 31
0.0
 73
     3
  0
TEXT
  5
6F
  8
DATA
 62
     7
 10
74.741386143112621
 20
-176.91094716706351
 30
0.0
 40
3.664892578124999
  1
VC4099
 41
0.7
 11
74.741386143112621
 21
-173.24605458893851
 31
0.0
 73
     3
  0
TEXT
  5
70
  8
DATA
 62
     7
 10
74.784488452593862
 20
-165.53253412412329
 30
0.0
 40
3.664892578124999
  1
DPA
 41
0.7
 11
74.784488452593862
 21
-161.86764154599831
 31
0.0
 73
     3
  0
TEXT
  5
71
  8
DATA
 62
     7
 10
72.232224335148189
 20
-170.5779904609698
 30
0.0
 40
2.4432655664062488
  1
バイオリン用クリップ
 41
0.7
 11
72.232224335148189
 21
-168.13472489456359
 31
0.0
 73
     3
  0
TEXT
  5
72
  8
DATA
 62
     7
 10
-131.14481605205009
 20
-183.29375977608231
 30
0.0
 40
2.8504720052083332
  1
※仕様及び外観は予告なく変更されることがあります。
 41
0.7
 11
-131.14481605205009
 21
-180.44328777087389
 31
0.0
 73
     3
  0
TEXT
  5
73
  8
DATA
 62
     7
 10
-131.14481605205009
 20
-186.99792644274899
 30
0.0
 40
2.8504720052083332
  1
　また、同一商品でも若干の個体差があることがあります。ご了承ください。
 41
0.7
 11
-131.14481605205009
 21
-184.1474544375406
 31
0.0
 73
     3
  0
LINE
  5
74
  8
DATA
  6
CONTINUOUS
 62
     7
 10
-53.499999999999993
 20
-39.0
 30
0.0
 11
-53.499999999999993
 21
-14.90850274577954
 31
0.0
  0
LINE
  5
75
  8
DATA
  6
CONTINUOUS
 62
     7
 10
-46.499999999999993
 20
-14.90850274577954
 30
0.0
 11
-46.499999999999993
 21
-39.0
 31
0.0
  0
LINE
  5
76
  8
DATA
  6
CONTINUOUS
 62
     7
 10
-53.499999999999993
 20
28.0
 30
0.0
 11
-46.499999999999993
 21
28.0
 31
0.0
  0
ARC
  5
77
  8
DATA
  6
CONTINUOUS
 62
     7
 10
-50.0
 20
-33.374999999999993
 30
0.0
 40
6.6250000000000089
 50
238.10920819815431
 51
301.89079180184581
  0
ARC
  5
78
  8
DATA
  6
CONTINUOUS
 62
     7
 10
-50.0
 20
-48.221875903402307
 30
0.0
 40
9.8637211628143717
 50
69.216627354495216
 51
86.512603824256217
  0
ARC
  5
79
  8
DATA
  6
CONTINUOUS
 62
     7
 10
-50.0
 20
-48.221875903402307
 30
0.0
 40
9.8637211628143717
 50
93.487396175744124
 51
110.7833726455048
  0
LINE
  5
7A
  8
DATA
  6
CONTINUOUS
 62
     7
 10
-50.59999999999998
 20
-38.376420343716298
 30
0.0
 11
-50.742643326128643
 21
-20.901262209269149
 31
0.0
  0
LINE
  5
7B
  8
DATA
  6
CONTINUOUS
 62
     7
 10
-49.257356673871222
 20
-20.901262209269149
 30
0.0
 11
-49.399999999999977
 21
-38.376420343716298
 31
0.0
  0
LINE
  5
7C
  8
DATA
  6
CONTINUOUS
 62
     7
 10
-51.149999999999977
 20
-10.0
 30
0.0
 11
-48.850000000000001
 21
-10.0
 31
0.0
  0
LINE
  5
7D
  8
DATA
  6
CONTINUOUS
 62
     7
 10
-55.999999999999993
 20
-7.4999999999999929
 30
0.0
 11
-55.999999999999993
 21
0.5
 31
0.0
  0
LINE
  5
7E
  8
DATA
  6
CONTINUOUS
 62
     7
 10
-43.999999999999993
 20
0.4999999999999948
 30
0.0
 11
-43.999999999999993
 21
-7.4999999999999929
 31
0.0
  0
LINE
  5
7F
  8
DATA
  6
CONTINUOUS
 62
     7
 10
-52.449999999999989
 20
-10.0
 30
0.0
 11
-52.449999999999989
 21
28.0
 31
0.0
  0
LINE
  5
80
  8
DATA
  6
CONTINUOUS
 62
     7
 10
-47.54999999999999
 20
28.0
 30
0.0
 11
-47.54999999999999
 21
-10.0
 31
0.0
  0
ARC
  5
81
  8
DATA
  6
CONTINUOUS
 62
     7
 10
-49.411669435216027
 20
-5.0849294019932261
 30
0.0
 40
8.6369865147582008
 50
110.59630770918859
 51
139.7120475551063
  0
ARC
  5
82
  8
DATA
  6
CONTINUOUS
 62
     7
 10
-50.588330564783952
 20
-5.0849294019932261
 30
0.0
 40
8.6369865147582008
 50
40.287952444893669
 51
69.403692290811421
  0
ARC
  5
83
  8
DATA
  6
CONTINUOUS
 62
     7
 10
-49.411669435216027
 20
-1.915070598006773
 30
0.0
 40
8.6369865147582008
 50
220.28795244489359
 51
249.40369229081139
  0
ARC
  5
84
  8
DATA
  6
CONTINUOUS
 62
     7
 10
-50.588330564783952
 20
-1.915070598006773
 30
0.0
 40
8.6369865147582008
 50
290.59630770918858
 51
319.71204755510632
  0
LINE
  5
85
  8
DATA
  6
CONTINUOUS
 62
     7
 10
-53.499999999999993
 20
25.0
 30
0.0
 11
-46.499999999999993
 21
25.0
 31
0.0
  0
LINE
  5
86
  8
DATA
  6
CONTINUOUS
 62
     7
 10
-53.499999999999993
 20
28.0
 30
0.0
 11
-53.499999999999993
 21
25.0
 31
0.0
  0
LINE
  5
87
  8
DATA
  6
CONTINUOUS
 62
     7
 10
-46.499999999999993
 20
28.0
 30
0.0
 11
-46.499999999999993
 21
25.0
 31
0.0
  0
LINE
  5
88
  8
DATA
  6
CONTINUOUS
 62
     7
 10
-52.449999999999989
 20
25.0
 30
0.0
 11
-47.54999999999999
 21
25.0
 31
0.0
  0
LINE
  5
89
  8
DATA
  6
CONTINUOUS
 62
     7
 10
-52.449999999999989
 20
23.5
 30
0.0
 11
-47.54999999999999
 21
23.5
 31
0.0
  0
LINE
  5
8A
  8
DATA
  6
CONTINUOUS
 62
     7
 10
-52.449999999999989
 20
22.0
 30
0.0
 11
-47.54999999999999
 21
22.0
 31
0.0
  0
LINE
  5
8B
  8
DATA
  6
CONTINUOUS
 62
     7
 10
-52.449999999999989
 20
20.5
 30
0.0
 11
-47.54999999999999
 21
20.5
 31
0.0
  0
LINE
  5
8C
  8
DATA
  6
CONTINUOUS
 62
     7
 10
-52.449999999999989
 20
19.0
 30
0.0
 11
-47.54999999999999
 21
19.0
 31
0.0
  0
LINE
  5
8D
  8
DATA
  6
CONTINUOUS
 62
     7
 10
-52.449999999999989
 20
17.5
 30
0.0
 11
-47.54999999999999
 21
17.5
 31
0.0
  0
LINE
  5
8E
  8
DATA
  6
CONTINUOUS
 62
     7
 10
-52.449999999999989
 20
16.0
 30
0.0
 11
-47.54999999999999
 21
16.0
 31
0.0
  0
LINE
  5
8F
  8
DATA
  6
CONTINUOUS
 62
     7
 10
-52.449999999999989
 20
14.5
 30
0.0
 11
-47.54999999999999
 21
14.5
 31
0.0
  0
LINE
  5
90
  8
DATA
  6
CONTINUOUS
 62
     7
 10
-52.449999999999989
 20
13.0
 30
0.0
 11
-47.54999999999999
 21
13.0
 31
0.0
  0
LINE
  5
91
  8
DATA
  6
CONTINUOUS
 62
     7
 10
-52.449999999999989
 20
11.5
 30
0.0
 11
-47.54999999999999
 21
11.5
 31
0.0
  0
LINE
  5
92
  8
DATA
  6
CONTINUOUS
 62
     7
 10
-52.449999999999989
 20
10.0
 30
0.0
 11
-47.54999999999999
 21
10.0
 31
0.0
  0
LINE
  5
93
  8
DATA
  6
CONTINUOUS
 62
     7
 10
-52.449999999999989
 20
8.5
 30
0.0
 11
-47.54999999999999
 21
8.5
 31
0.0
  0
LINE
  5
94
  8
DATA
  6
CONTINUOUS
 62
     7
 10
-52.449999999999989
 20
7.0
 30
0.0
 11
-47.54999999999999
 21
7.0
 31
0.0
  0
LINE
  5
95
  8
DATA
  6
CONTINUOUS
 62
     7
 10
-52.449999999999989
 20
5.5
 30
0.0
 11
-47.54999999999999
 21
5.5
 31
0.0
  0
LINE
  5
96
  8
DATA
  6
CONTINUOUS
 62
     7
 10
-52.449999999999989
 20
4.0
 30
0.0
 11
-47.54999999999999
 21
4.0
 31
0.0
  0
LINE
  5
97
  8
DATA
  6
CONTINUOUS
 62
     7
 10
-54.475000000000001
 20
6.0
 30
0.0
 11
-53.204385329558242
 21
6.0
 31
0.0
  0
LINE
  5
98
  8
DATA
  6
CONTINUOUS
 62
     7
 10
-54.47499999999998
 20
6.0
 30
0.0
 11
-54.47499999999998
 21
1.9122285673425681
 31
0.0
  0
LINE
  5
99
  8
DATA
  6
CONTINUOUS
 62
     7
 10
-45.524999999999977
 20
6.0
 30
0.0
 11
-45.524999999999977
 21
1.9122285673425641
 31
0.0
  0
LINE
  5
9A
  8
DATA
  6
CONTINUOUS
 62
     7
 10
-45.524999999999977
 20
6.0
 30
0.0
 11
-46.795614670441743
 21
6.0
 31
0.0
  0
LINE
  5
9B
  8
DATA
  6
CONTINUOUS
 62
     7
 10
-51.149999999999977
 20
-10.0
 30
0.0
 11
-51.149999999999977
 21
1.0
 31
0.0
  0
LINE
  5
9C
  8
DATA
  6
CONTINUOUS
 62
     7
 10
-48.84999999999998
 20
1.0
 30
0.0
 11
-48.84999999999998
 21
-10.0
 31
0.0
  0
LINE
  5
9D
  8
DATA
  6
CONTINUOUS
 62
     7
 10
-52.449999999999989
 20
2.5
 30
0.0
 11
-47.54999999999999
 21
2.5
 31
0.0
  0
LINE
  5
9E
  8
DATA
  6
CONTINUOUS
 62
     7
 10
-51.149999999999977
 20
1.0
 30
0.0
 11
-48.84999999999998
 21
1.0
 31
0.0
  0
LINE
  5
9F
  8
DATA
  6
CONTINUOUS
 62
     7
 10
-52.449999999999989
 20
-3.3999999999999999
 30
0.0
 11
-51.149999999999977
 21
-3.3999999999999999
 31
0.0
  0
LINE
  5
A0
  8
DATA
  6
CONTINUOUS
 62
     7
 10
-48.84999999999998
 20
-3.3999999999999999
 30
0.0
 11
-47.54999999999999
 21
-3.3999999999999999
 31
0.0
  0
LINE
  5
A1
  8
DATA
  6
CONTINUOUS
 62
     7
 10
-47.54999999999999
 20
-5.6000000000000014
 30
0.0
 11
-48.850000000000001
 21
-5.6000000000000014
 31
0.0
  0
LINE
  5
A2
  8
DATA
  6
CONTINUOUS
 62
     7
 10
-51.149999999999977
 20
-5.6000000000000014
 30
0.0
 11
-52.449999999999989
 21
-5.6000000000000014
 31
0.0
  0
LINE
  5
A3
  8
DATA
  6
CONTINUOUS
 62
     7
 10
-52.449999999999989
 20
-10.0
 30
0.0
 11
-52.449999999999989
 21
-15.89999999999999
 31
0.0
  0
LINE
  5
A4
  8
DATA
  6
CONTINUOUS
 62
     7
 10
-47.549999999999983
 20
-10.0
 30
0.0
 11
-47.549999999999983
 21
-15.89999999999999
 31
0.0
  0
ARC
  5
A5
  8
DATA
  6
CONTINUOUS
 62
     7
 10
-58.026690561344061
 20
-11.33421436539642
 30
0.0
 40
5.5817813688234521
 50
327.10795290412608
 51
357.55275432602781
  0
ARC
  5
A6
  8
DATA
  6
CONTINUOUS
 62
     7
 10
-41.973309438655903
 20
-11.33421436539642
 30
0.0
 40
5.5817813688234521
 50
182.44724567397219
 51
212.89204709587389
  0
ARC
  5
A7
  8
DATA
  6
CONTINUOUS
 62
     7
 10
-50.0
 20
-15.05999999999999
 30
0.0
 40
2.590000000000003
 50
198.92464441605119
 51
341.07535558394881
  0
ARC
  5
A8
  8
DATA
  6
CONTINUOUS
 62
     7
 10
-50.910714285714249
 20
-17.330357142857139
 30
0.0
 40
2.6744760358482522
 50
194.5001667665525
 51
256.91487354845731
  0
ARC
  5
A9
  8
DATA
  6
CONTINUOUS
 62
     7
 10
-51.742610017777942
 20
-20.909424571739191
 30
0.0
 40
1.0000000042845669
 50
0.4676741115497066
 51
76.914873309805145
  0
ARC
  5
AA
  8
DATA
  6
CONTINUOUS
 62
     7
 10
-49.089285714285708
 20
-17.330357142857139
 30
0.0
 40
2.6744760358482522
 50
283.08512645154269
 51
345.4998332334473
  0
ARC
  5
AB
  8
DATA
  6
CONTINUOUS
 62
     7
 10
-48.257389982222037
 20
-20.909424571739191
 30
0.0
 40
1.000000004284562
 50
103.0851266901948
 51
179.53232588845029
  0
ARC
  5
AC
  8
DATA
  6
CONTINUOUS
 62
     7
 10
-52.5
 20
-14.90850274577954
 30
0.0
 40
0.9999999999999921
 50
147.10795290412591
 51
180.0
  0
ARC
  5
AD
  8
DATA
  6
CONTINUOUS
 62
     7
 10
-47.499999999999979
 20
-14.90850274577954
 30
0.0
 40
0.9999999999999927
 50
0.0
 51
32.892047095874091
  0
LINE
  5
AE
  8
DATA
  6
CONTINUOUS
 62
     7
 10
-52.449999999999989
 20
1.2102195880097191
 30
0.0
 11
-47.54999999999999
 21
1.2102195880097191
 31
0.0
  0
ARC
  5
AF
  8
DATA
  6
CONTINUOUS
 62
     7
 10
-50.0
 20
126.4123230666268
 30
0.0
 40
120.5373230666267
 50
260.69002548191912
 51
260.6943389781232
  0
ARC
  5
B0
  8
DATA
  6
CONTINUOUS
 62
     7
 10
-50.0
 20
126.4123230666268
 30
0.0
 40
120.5373230666268
 50
272.12761941520739
 51
275.492506942722
  0
ARC
  5
B1
  8
DATA
  6
CONTINUOUS
 62
     7
 10
-50.0
 20
126.4123230666268
 30
0.0
 40
120.5373230666268
 50
279.30566102187669
 51
279.30997451808082
  0
ARC
  5
B2
  8
DATA
  6
CONTINUOUS
 62
     7
 10
-49.699999999999967
 20
123.9004294448561
 30
0.0
 40
120.5373230666267
 50
264.07225037488757
 51
267.72967453414242
  0
ARC
  5
B3
  8
DATA
  6
CONTINUOUS
 62
     7
 10
-50.0
 20
123.9123230666268
 30
0.0
 40
120.5373230666268
 50
272.12761941520739
 51
275.79014999196937
  0
LINE
  5
B4
  8
DATA
  6
CONTINUOUS
 62
     7
 10
-65.899501080016933
 20
20.063802597091659
 30
0.0
 11
-64.865424034625931
 21
8.2753242796342175
 31
0.0
  0
LINE
  5
B5
  8
DATA
  6
CONTINUOUS
 62
     7
 10
-68.800433203157723
 20
20.02231342231407
 30
0.0
 11
-68.140581148568771
 21
12.500000000000011
 31
0.0
  0
ARC
  5
B6
  8
DATA
  6
CONTINUOUS
 62
     7
 10
-56.745038580456352
 20
6.745461507559658
 30
0.0
 40
12.76609195026573
 50
153.20706770550811
 51
190.1064303566009
  0
ARC
  5
B7
  8
DATA
  6
CONTINUOUS
 62
     7
 10
-67.344078381103657
 20
4.8562576578203043
 30
0.0
 40
1.999999999999996
 50
190.10643035660081
 51
222.97248152509769
  0
ARC
  5
B8
  8
DATA
  6
CONTINUOUS
 62
     7
 10
-65.683003702789023
 20
6.4037439785418471
 30
0.0
 40
4.270216509445377
 50
222.97248152509781
 51
325.86654132881392
  0
ARC
  5
B9
  8
DATA
  6
CONTINUOUS
 62
     7
 10
-61.1544369164423
 20
10.41005496547089
 30
0.0
 40
4.0000000000000018
 50
240.0597232811148
 51
264.50749305727788
  0
ARC
  5
BA
  8
DATA
  6
CONTINUOUS
 62
     7
 10
-50.0
 20
126.4123230666268
 30
0.0
 40
120.5373230666268
 50
264.50749305727788
 51
267.8723871878201
  0
ARC
  5
BB
  8
DATA
  6
CONTINUOUS
 62
     7
 10
-68.728211929509214
 20
18.444533728400572
 30
0.0
 40
0.5773502691896204
 50
88.456239199149564
 51
281.56998831092028
  0
ARC
  5
BC
  8
DATA
  6
CONTINUOUS
 62
     7
 10
-68.5569224512614
 20
16.444533728400561
 30
0.0
 40
0.5773502691896199
 50
88.043183728669206
 51
281.9830437814033
  0
ARC
  5
BD
  8
DATA
  6
CONTINUOUS
 62
     7
 10
-68.354489431513983
 20
14.444533728400581
 30
0.0
 40
0.5773502691896189
 50
90.725016985562277
 51
279.3012105245063
  0
ARC
  5
BE
  8
DATA
  6
CONTINUOUS
 62
     7
 10
-68.183199953266168
 20
12.47567726990019
 30
0.0
 40
0.5773502691896184
 50
90.584503989155692
 51
247.37739843451891
  0
ARC
  5
BF
  8
DATA
  6
CONTINUOUS
 62
     7
 10
-68.50158078593671
 20
20.048528546631701
 30
0.0
 40
0.3000000000363868
 50
105.4964801300345
 51
185.01311375503599
  0
ARC
  5
C0
  8
DATA
  6
CONTINUOUS
 62
     7
 10
-66.198353501629327
 20
20.037587472388822
 30
0.0
 40
0.3000000044446302
 50
5.0131137550356062
 51
73.95917723442588
  0
ARC
  5
C1
  8
DATA
  6
CONTINUOUS
 62
     7
 10
-67.369340055363466
 20
15.96482618152791
 30
0.0
 40
4.5377581430553287
 50
73.959177229842268
 51
105.496480123201
  0
ARC
  5
C2
  8
DATA
  6
CONTINUOUS
 62
     7
 10
-61.37452840573939
 20
11.001049255303039
 30
0.0
 40
4.4289873486796152
 50
217.98306139804529
 51
246.3554417570289
  0
ARC
  5
C3
  8
DATA
  6
CONTINUOUS
 62
     7
 10
-50.0
 20
126.4123230666268
 30
0.0
 40
120.5373230666268
 50
279.30566102187669
 51
279.30997451808082
  0
LINE
  5
C4
  8
DATA
  6
CONTINUOUS
 62
     7
 10
-30.68613294686806
 20
18.467425531761808
 30
0.0
 11
-30.69892865275801
 21
18.321554484616382
 31
0.0
  0
LINE
  5
C5
  8
DATA
  6
CONTINUOUS
 62
     7
 10
-34.100498919983039
 20
20.063802597091659
 30
0.0
 11
-35.13457596537404
 21
8.2753242796342175
 31
0.0
  0
LINE
  5
C6
  8
DATA
  6
CONTINUOUS
 62
     7
 10
-31.199566796842252
 20
20.02231342231407
 30
0.0
 11
-31.859418851431201
 21
12.500000000000011
 31
0.0
  0
ARC
  5
C7
  8
DATA
  6
CONTINUOUS
 62
     7
 10
-43.254961419543612
 20
6.745461507559658
 30
0.0
 40
12.76609195026572
 50
349.89356964339908
 51
26.792932294491841
  0
ARC
  5
C8
  8
DATA
  6
CONTINUOUS
 62
     7
 10
-32.655921618896322
 20
4.8562576578203043
 30
0.0
 40
1.999999999999996
 50
317.02751847490219
 51
349.8935696433993
  0
ARC
  5
C9
  8
DATA
  6
CONTINUOUS
 62
     7
 10
-34.316996297210949
 20
6.4037439785418471
 30
0.0
 40
4.2702165094453743
 50
214.42015416479731
 51
317.02751847490219
  0
ARC
  5
CA
  8
DATA
  6
CONTINUOUS
 62
     7
 10
-38.845563083557671
 20
10.41005496547089
 30
0.0
 40
4.0000000000000018
 50
275.492506942722
 51
299.9402767188854
  0
ARC
  5
CB
  8
DATA
  6
CONTINUOUS
 62
     7
 10
-31.263029210222371
 20
18.444533728400572
 30
0.0
 40
0.5773502691896177
 50
257.55761618852563
 51
92.416156301401514
  0
ARC
  5
CC
  8
DATA
  6
CONTINUOUS
 62
     7
 10
-31.434318688470182
 20
16.444533728400561
 30
0.0
 40
0.5773502691896157
 50
257.14376507618641
 51
92.830007413740717
  0
ARC
  5
CD
  8
DATA
  6
CONTINUOUS
 62
     7
 10
-31.636751708217599
 20
14.444533728400581
 30
0.0
 40
0.5773502691896207
 50
259.82993421905758
 51
90.143838270869495
  0
ARC
  5
CE
  8
DATA
  6
CONTINUOUS
 62
     7
 10
-31.80804118646542
 20
12.47567726990019
 30
0.0
 40
0.5773502691896172
 50
291.82823425758562
 51
90.284530061866207
  0
ARC
  5
CF
  8
DATA
  6
CONTINUOUS
 62
     7
 10
-31.498419214063269
 20
20.048528546631701
 30
0.0
 40
0.3000000000363862
 50
354.98688624496401
 51
74.503519869965473
  0
ARC
  5
D0
  8
DATA
  6
CONTINUOUS
 62
     7
 10
-33.801646498370651
 20
20.037587472388822
 30
0.0
 40
0.3000000044446274
 50
106.04082276557411
 51
174.98688624496441
  0
ARC
  5
D1
  8
DATA
  6
CONTINUOUS
 62
     7
 10
-32.630659944636513
 20
15.96482618152791
 30
0.0
 40
4.5377581430553278
 50
74.503519876799004
 51
106.0408227701577
  0
ARC
  5
D2
  8
DATA
  6
CONTINUOUS
 62
     7
 10
-38.625471594260603
 20
11.001049255303039
 30
0.0
 40
4.4289873486796223
 50
293.64455824297141
 51
322.01693860195479
  0
LINE
  5
D3
  8
DATA
  6
CONTINUOUS
 62
     7
 10
-50.59999999999998
 20
-38.376420343716298
 30
0.0
 11
-50.402166576244227
 21
-38.719077885096567
 31
0.0
  0
LINE
  5
D4
  8
DATA
  6
CONTINUOUS
 62
     7
 10
-49.399999999999977
 20
-38.376420343716298
 30
0.0
 11
-49.597547506932237
 21
-38.718582662631519
 31
0.0
  0
POLYLINE
  5
D5
  8
DATA
  6
CONTINUOUS
 62
     7
 66
     1
 10
0.0
 20
0.0
 30
0.0
 70
   128
  0
VERTEX
  5
8D4
  8
DATA
  6
CONTINUOUS
 62
     7
 10
-49.597547535185768
 20
-38.718582646319327
 30
0.0
  0
VERTEX
  5
8D5
  8
DATA
  6
CONTINUOUS
 62
     7
 10
-49.588670226746039
 20
-38.71909286422931
 30
0.0
  0
VERTEX
  5
8D6
  8
DATA
  6
CONTINUOUS
 62
     7
 10
-49.579804618315528
 20
-38.719614663635333
 30
0.0
  0
VERTEX
  5
8D7
  8
DATA
  6
CONTINUOUS
 62
     7
 10
-49.570950709894149
 20
-38.720148044537403
 30
0.0
  0
VERTEX
  5
8D8
  8
DATA
  6
CONTINUOUS
 62
     7
 10
-49.562108501482001
 20
-38.720693006935491
 30
0.0
  0
VERTEX
  5
8D9
  8
DATA
  6
CONTINUOUS
 62
     7
 10
-49.553277993079028
 20
-38.721249550829633
 30
0.0
  0
VERTEX
  5
8DA
  8
DATA
  6
CONTINUOUS
 62
     7
 10
-49.544459184685238
 20
-38.7218176762198
 30
0.0
  0
VERTEX
  5
8DB
  8
DATA
  6
CONTINUOUS
 62
     7
 10
-49.535652076300629
 20
-38.722397383106021
 30
0.0
  0
VERTEX
  5
8DC
  8
DATA
  6
CONTINUOUS
 62
     7
 10
-49.526856667925223
 20
-38.722988671488281
 30
0.0
  0
VERTEX
  5
8DD
  8
DATA
  6
CONTINUOUS
 62
     7
 10
-49.518072959558971
 20
-38.723591541366581
 30
0.0
  0
VERTEX
  5
8DE
  8
DATA
  6
CONTINUOUS
 62
     7
 10
-49.509300951201922
 20
-38.724205992740913
 30
0.0
  0
VERTEX
  5
8DF
  8
DATA
  6
CONTINUOUS
 62
     7
 10
-49.500540642854062
 20
-38.724832025611292
 30
0.0
  0
VERTEX
  5
8E0
  8
DATA
  6
CONTINUOUS
 62
     7
 10
-49.49179203451537
 20
-38.725469639977689
 30
0.0
  0
VERTEX
  5
8E1
  8
DATA
  6
CONTINUOUS
 62
     7
 10
-49.483055126185867
 20
-38.72611883584014
 30
0.0
  0
VERTEX
  5
8E2
  8
DATA
  6
CONTINUOUS
 62
     7
 10
-49.474329917865568
 20
-38.72677961319863
 30
0.0
  0
VERTEX
  5
8E3
  8
DATA
  6
CONTINUOUS
 62
     7
 10
-49.465616409554443
 20
-38.727451972053153
 30
0.0
  0
VERTEX
  5
8E4
  8
DATA
  6
CONTINUOUS
 62
     7
 10
-49.456914601252493
 20
-38.728135912403737
 30
0.0
  0
VERTEX
  5
8E5
  8
DATA
  6
CONTINUOUS
 62
     7
 10
-49.448224492959739
 20
-38.728831434250353
 30
0.0
  0
VERTEX
  5
8E6
  8
DATA
  6
CONTINUOUS
 62
     7
 10
-49.439546084676181
 20
-38.729538537593001
 30
0.0
  0
VERTEX
  5
8E7
  8
DATA
  6
CONTINUOUS
 62
     7
 10
-49.430879376401791
 20
-38.730257222431689
 30
0.0
  0
VERTEX
  5
8E8
  8
DATA
  6
CONTINUOUS
 62
     7
 10
-49.422224368136597
 20
-38.730987488766409
 30
0.0
  0
VERTEX
  5
8E9
  8
DATA
  6
CONTINUOUS
 62
     7
 10
-49.413581059880578
 20
-38.731729336597191
 30
0.0
  0
VERTEX
  5
8EA
  8
DATA
  6
CONTINUOUS
 62
     7
 10
-49.404949451633762
 20
-38.73248276592399
 30
0.0
  0
VERTEX
  5
8EB
  8
DATA
  6
CONTINUOUS
 62
     7
 10
-49.396329543396106
 20
-38.733247776746843
 30
0.0
  0
VERTEX
  5
8EC
  8
DATA
  6
CONTINUOUS
 62
     7
 10
-49.387721335167647
 20
-38.734024369065722
 30
0.0
  0
VERTEX
  5
8ED
  8
DATA
  6
CONTINUOUS
 62
     7
 10
-49.379124826948377
 20
-38.734812542880647
 30
0.0
  0
VERTEX
  5
8EE
  8
DATA
  6
CONTINUOUS
 62
     7
 10
-49.370540018738289
 20
-38.735612298191612
 30
0.0
  0
VERTEX
  5
8EF
  8
DATA
  6
CONTINUOUS
 62
     7
 10
-49.361966910537397
 20
-38.736423634998609
 30
0.0
  0
VERTEX
  5
8F0
  8
DATA
  6
CONTINUOUS
 62
     7
 10
-49.353405502345673
 20
-38.737246553301659
 30
0.0
  0
VERTEX
  5
8F1
  8
DATA
  6
CONTINUOUS
 62
     7
 10
-49.344855794163152
 20
-38.738081053100743
 30
0.0
  0
VERTEX
  5
8F2
  8
DATA
  6
CONTINUOUS
 62
     7
 10
-49.336317785989799
 20
-38.738927134395873
 30
0.0
  0
VERTEX
  5
8F3
  8
DATA
  6
CONTINUOUS
 62
     7
 10
-49.327791477825642
 20
-38.739784797187042
 30
0.0
  0
VERTEX
  5
8F4
  8
DATA
  6
CONTINUOUS
 62
     7
 10
-49.319276869670659
 20
-38.74065404147423
 30
0.0
  0
VERTEX
  5
8F5
  8
DATA
  6
CONTINUOUS
 62
     7
 10
-49.310773961524859
 20
-38.74153486725745
 30
0.0
  0
VERTEX
  5
8F6
  8
DATA
  6
CONTINUOUS
 62
     7
 10
-49.302282753388262
 20
-38.74242727453673
 30
0.0
  0
VERTEX
  5
8F7
  8
DATA
  6
CONTINUOUS
 62
     7
 10
-49.293803245260847
 20
-38.743331263312051
 30
0.0
  0
VERTEX
  5
8F8
  8
DATA
  6
CONTINUOUS
 62
     7
 10
-49.285335437142606
 20
-38.744246833583411
 30
0.0
  0
VERTEX
  5
8F9
  8
DATA
  6
CONTINUOUS
 62
     7
 10
-49.276879329033562
 20
-38.745173985350817
 30
0.0
  0
VERTEX
  5
8FA
  8
DATA
  6
CONTINUOUS
 62
     7
 10
-49.268434920933679
 20
-38.746112718614249
 30
0.0
  0
VERTEX
  5
8FB
  8
DATA
  6
CONTINUOUS
 62
     7
 10
-49.260002212843013
 20
-38.747063033373742
 30
0.0
  0
VERTEX
  5
8FC
  8
DATA
  6
CONTINUOUS
 62
     7
 10
-49.251581204761521
 20
-38.748024929629253
 30
0.0
  0
VERTEX
  5
8FD
  8
DATA
  6
CONTINUOUS
 62
     7
 10
-49.243171896689212
 20
-38.748998407380803
 30
0.0
  0
VERTEX
  5
8FE
  8
DATA
  6
CONTINUOUS
 62
     7
 10
-49.234774288626092
 20
-38.749983466628379
 30
0.0
  0
VERTEX
  5
8FF
  8
DATA
  6
CONTINUOUS
 62
     7
 10
-49.226388380572153
 20
-38.75098010737203
 30
0.0
  0
VERTEX
  5
900
  8
DATA
  6
CONTINUOUS
 62
     7
 10
-49.218014172527411
 20
-38.751988329611699
 30
0.0
  0
VERTEX
  5
901
  8
DATA
  6
CONTINUOUS
 62
     7
 10
-49.209651664491837
 20
-38.753008133347407
 30
0.0
  0
VERTEX
  5
902
  8
DATA
  6
CONTINUOUS
 62
     7
 10
-49.201300856465451
 20
-38.754039518579148
 30
0.0
  0
VERTEX
  5
903
  8
DATA
  6
CONTINUOUS
 62
     7
 10
-49.192961748448248
 20
-38.755082485306957
 30
0.0
  0
VERTEX
  5
904
  8
DATA
  6
CONTINUOUS
 62
     7
 10
-49.18463434044024
 20
-38.756137033530777
 30
0.0
  0
VERTEX
  5
905
  8
DATA
  6
CONTINUOUS
 62
     7
 10
-49.176318632441422
 20
-38.757203163250651
 30
0.0
  0
VERTEX
  5
906
  8
DATA
  6
CONTINUOUS
 62
     7
 10
-49.168014624451772
 20
-38.758280874466557
 30
0.0
  0
VERTEX
  5
907
  8
DATA
  6
CONTINUOUS
 62
     7
 10
-49.15972231647131
 20
-38.75937016717851
 30
0.0
  0
VERTEX
  5
908
  8
DATA
  6
CONTINUOUS
 62
     7
 10
-49.151441708500052
 20
-38.760471041386488
 30
0.0
  0
VERTEX
  5
909
  8
DATA
  6
CONTINUOUS
 62
     7
 10
-49.14317280053794
 20
-38.761583497090527
 30
0.0
  0
VERTEX
  5
90A
  8
DATA
  6
CONTINUOUS
 62
     7
 10
-49.13491559258506
 20
-38.762707534290577
 30
0.0
  0
VERTEX
  5
90B
  8
DATA
  6
CONTINUOUS
 62
     7
 10
-49.126670084641347
 20
-38.763843152986702
 30
0.0
  0
VERTEX
  5
90C
  8
DATA
  6
CONTINUOUS
 62
     7
 10
-49.118436276706802
 20
-38.764990353178838
 30
0.0
  0
VERTEX
  5
90D
  8
DATA
  6
CONTINUOUS
 62
     7
 10
-49.110214168781461
 20
-38.766149134867021
 30
0.0
  0
VERTEX
  5
90E
  8
DATA
  6
CONTINUOUS
 62
     7
 10
-49.102003760865287
 20
-38.767319498051251
 30
0.0
  0
VERTEX
  5
90F
  8
DATA
  6
CONTINUOUS
 62
     7
 10
-49.093805052958317
 20
-38.768501442731512
 30
0.0
  0
VERTEX
  5
910
  8
DATA
  6
CONTINUOUS
 62
     7
 10
-49.085618045060542
 20
-38.769694968907821
 30
0.0
  0
VERTEX
  5
911
  8
DATA
  6
CONTINUOUS
 62
     7
 10
-49.077442737171928
 20
-38.770900076580148
 30
0.0
  0
VERTEX
  5
912
  8
DATA
  6
CONTINUOUS
 62
     7
 10
-49.069279129292497
 20
-38.772116765748528
 30
0.0
  0
VERTEX
  5
913
  8
DATA
  6
CONTINUOUS
 62
     7
 10
-49.061127221422282
 20
-38.773345036412962
 30
0.0
  0
VERTEX
  5
914
  8
DATA
  6
CONTINUOUS
 62
     7
 10
-49.052987013561221
 20
-38.774584888573422
 30
0.0
  0
VERTEX
  5
915
  8
DATA
  6
CONTINUOUS
 62
     7
 10
-49.052987013561221
 20
-38.774584888573422
 30
0.0
  0
VERTEX
  5
916
  8
DATA
  6
CONTINUOUS
 62
     7
 10
-49.039362035691383
 20
-38.776690213833049
 30
0.0
  0
VERTEX
  5
917
  8
DATA
  6
CONTINUOUS
 62
     7
 10
-49.025827333928042
 20
-38.77881948348022
 30
0.0
  0
VERTEX
  5
918
  8
DATA
  6
CONTINUOUS
 62
     7
 10
-49.012382908271171
 20
-38.78097269751494
 30
0.0
  0
VERTEX
  5
919
  8
DATA
  6
CONTINUOUS
 62
     7
 10
-48.99902875872079
 20
-38.783149855937182
 30
0.0
  0
VERTEX
  5
91A
  8
DATA
  6
CONTINUOUS
 62
     7
 10
-48.985764885276893
 20
-38.785350958746967
 30
0.0
  0
VERTEX
  5
91B
  8
DATA
  6
CONTINUOUS
 62
     7
 10
-48.972591287939473
 20
-38.787576005944288
 30
0.0
  0
VERTEX
  5
91C
  8
DATA
  6
CONTINUOUS
 62
     7
 10
-48.959507966708557
 20
-38.789824997529159
 30
0.0
  0
VERTEX
  5
91D
  8
DATA
  6
CONTINUOUS
 62
     7
 10
-48.946514921584111
 20
-38.792097933501559
 30
0.0
  0
VERTEX
  5
91E
  8
DATA
  6
CONTINUOUS
 62
     7
 10
-48.933612152566141
 20
-38.794394813861501
 30
0.0
  0
VERTEX
  5
91F
  8
DATA
  6
CONTINUOUS
 62
     7
 10
-48.920799659654683
 20
-38.796715638608973
 30
0.0
  0
VERTEX
  5
920
  8
DATA
  6
CONTINUOUS
 62
     7
 10
-48.908077442849681
 20
-38.79906040774398
 30
0.0
  0
VERTEX
  5
921
  8
DATA
  6
CONTINUOUS
 62
     7
 10
-48.895445502151183
 20
-38.801429121266523
 30
0.0
  0
VERTEX
  5
922
  8
DATA
  6
CONTINUOUS
 62
     7
 10
-48.882903837559176
 20
-38.803821779176609
 30
0.0
  0
VERTEX
  5
923
  8
DATA
  6
CONTINUOUS
 62
     7
 10
-48.870452449073639
 20
-38.80623838147423
 30
0.0
  0
VERTEX
  5
924
  8
DATA
  6
CONTINUOUS
 62
     7
 10
-48.858091336694571
 20
-38.808678928159402
 30
0.0
  0
VERTEX
  5
925
  8
DATA
  6
CONTINUOUS
 62
     7
 10
-48.845820500422022
 20
-38.811143419232089
 30
0.0
  0
VERTEX
  5
926
  8
DATA
  6
CONTINUOUS
 62
     7
 10
-48.833639940255928
 20
-38.813631854692332
 30
0.0
  0
VERTEX
  5
927
  8
DATA
  6
CONTINUOUS
 62
     7
 10
-48.821549656196339
 20
-38.816144234540097
 30
0.0
  0
VERTEX
  5
928
  8
DATA
  6
CONTINUOUS
 62
     7
 10
-48.809549648243248
 20
-38.818680558775412
 30
0.0
  0
VERTEX
  5
929
  8
DATA
  6
CONTINUOUS
 62
     7
 10
-48.797639916396619
 20
-38.82124082739827
 30
0.0
  0
VERTEX
  5
92A
  8
DATA
  6
CONTINUOUS
 62
     7
 10
-48.785820460656481
 20
-38.823825040408657
 30
0.0
  0
VERTEX
  5
92B
  8
DATA
  6
CONTINUOUS
 62
     7
 10
-48.774091281022812
 20
-38.82643319780658
 30
0.0
  0
VERTEX
  5
92C
  8
DATA
  6
CONTINUOUS
 62
     7
 10
-48.762452377495642
 20
-38.829065299592038
 30
0.0
  0
VERTEX
  5
92D
  8
DATA
  6
CONTINUOUS
 62
     7
 10
-48.750903750074968
 20
-38.831721345765033
 30
0.0
  0
VERTEX
  5
92E
  8
DATA
  6
CONTINUOUS
 62
     7
 10
-48.739445398760772
 20
-38.834401336325563
 30
0.0
  0
VERTEX
  5
92F
  8
DATA
  6
CONTINUOUS
 62
     7
 10
-48.728077323553052
 20
-38.837105271273643
 30
0.0
  0
VERTEX
  5
930
  8
DATA
  6
CONTINUOUS
 62
     7
 10
-48.716799524451829
 20
-38.839833150609252
 30
0.0
  0
VERTEX
  5
931
  8
DATA
  6
CONTINUOUS
 62
     7
 10
-48.705612001457091
 20
-38.842584974332397
 30
0.0
  0
VERTEX
  5
932
  8
DATA
  6
CONTINUOUS
 62
     7
 10
-48.694514754568822
 20
-38.845360742443091
 30
0.0
  0
VERTEX
  5
933
  8
DATA
  6
CONTINUOUS
 62
     7
 10
-48.68350778378705
 20
-38.848160454941308
 30
0.0
  0
VERTEX
  5
934
  8
DATA
  6
CONTINUOUS
 62
     7
 10
-48.672591089111748
 20
-38.85098411182706
 30
0.0
  0
VERTEX
  5
935
  8
DATA
  6
CONTINUOUS
 62
     7
 10
-48.661764670542958
 20
-38.853831713100348
 30
0.0
  0
VERTEX
  5
936
  8
DATA
  6
CONTINUOUS
 62
     7
 10
-48.651028528080637
 20
-38.8567032587612
 30
0.0
  0
VERTEX
  5
937
  8
DATA
  6
CONTINUOUS
 62
     7
 10
-48.640382661724793
 20
-38.859598748809582
 30
0.0
  0
VERTEX
  5
938
  8
DATA
  6
CONTINUOUS
 62
     7
 10
-48.629827071475461
 20
-38.862518183245477
 30
0.0
  0
VERTEX
  5
939
  8
DATA
  6
CONTINUOUS
 62
     7
 10
-48.619361757332591
 20
-38.86546156206893
 30
0.0
  0
VERTEX
  5
93A
  8
DATA
  6
CONTINUOUS
 62
     7
 10
-48.608986719296198
 20
-38.868428885279911
 30
0.0
  0
VERTEX
  5
93B
  8
DATA
  6
CONTINUOUS
 62
     7
 10
-48.59870195736633
 20
-38.871420152878422
 30
0.0
  0
VERTEX
  5
93C
  8
DATA
  6
CONTINUOUS
 62
     7
 10
-48.588507471542897
 20
-38.874435364864489
 30
0.0
  0
VERTEX
  5
93D
  8
DATA
  6
CONTINUOUS
 62
     7
 10
-48.578403261825983
 20
-38.877474521238092
 30
0.0
  0
VERTEX
  5
93E
  8
DATA
  6
CONTINUOUS
 62
     7
 10
-48.568389328215538
 20
-38.880537621999217
 30
0.0
  0
VERTEX
  5
93F
  8
DATA
  6
CONTINUOUS
 62
     7
 10
-48.55846567071157
 20
-38.883624667147892
 30
0.0
  0
VERTEX
  5
940
  8
DATA
  6
CONTINUOUS
 62
     7
 10
-48.548632289314099
 20
-38.886735656684102
 30
0.0
  0
VERTEX
  5
941
  8
DATA
  6
CONTINUOUS
 62
     7
 10
-48.538889184023141
 20
-38.889870590607842
 30
0.0
  0
VERTEX
  5
942
  8
DATA
  6
CONTINUOUS
 62
     7
 10
-48.529236354838631
 20
-38.893029468919131
 30
0.0
  0
VERTEX
  5
943
  8
DATA
  6
CONTINUOUS
 62
     7
 10
-48.519673801760618
 20
-38.896212291617971
 30
0.0
  0
VERTEX
  5
944
  8
DATA
  6
CONTINUOUS
 62
     7
 10
-48.510201524789068
 20
-38.899419058704311
 30
0.0
  0
VERTEX
  5
945
  8
DATA
  6
CONTINUOUS
 62
     7
 10
-48.500819523924037
 20
-38.902649770178208
 30
0.0
  0
VERTEX
  5
946
  8
DATA
  6
CONTINUOUS
 62
     7
 10
-48.491527799165468
 20
-38.90590442603964
 30
0.0
  0
VERTEX
  5
947
  8
DATA
  6
CONTINUOUS
 62
     7
 10
-48.482326350513397
 20
-38.909183026288609
 30
0.0
  0
VERTEX
  5
948
  8
DATA
  6
CONTINUOUS
 62
     7
 10
-48.473215177967788
 20
-38.912485570925121
 30
0.0
  0
VERTEX
  5
949
  8
DATA
  6
CONTINUOUS
 62
     7
 10
-48.464194281528712
 20
-38.915812059949161
 30
0.0
  0
VERTEX
  5
94A
  8
DATA
  6
CONTINUOUS
 62
     7
 10
-48.455263661196071
 20
-38.919162493360737
 30
0.0
  0
VERTEX
  5
94B
  8
DATA
  6
CONTINUOUS
 62
     7
 10
-48.446423316969941
 20
-38.922536871159849
 30
0.0
  0
VERTEX
  5
94C
  8
DATA
  6
CONTINUOUS
 62
     7
 10
-48.437673248850288
 20
-38.925935193346533
 30
0.0
  0
VERTEX
  5
94D
  8
DATA
  6
CONTINUOUS
 62
     7
 10
-48.429013456837133
 20
-38.92935745992073
 30
0.0
  0
VERTEX
  5
94E
  8
DATA
  6
CONTINUOUS
 62
     7
 10
-48.420443940930447
 20
-38.932803670882457
 30
0.0
  0
VERTEX
  5
94F
  8
DATA
  6
CONTINUOUS
 62
     7
 10
-48.411964701130252
 20
-38.936273826231727
 30
0.0
  0
VERTEX
  5
950
  8
DATA
  6
CONTINUOUS
 62
     7
 10
-48.40357573743654
 20
-38.939767925968532
 30
0.0
  0
VERTEX
  5
951
  8
DATA
  6
CONTINUOUS
 62
     7
 10
-48.395277049849327
 20
-38.943285970092901
 30
0.0
  0
VERTEX
  5
952
  8
DATA
  6
CONTINUOUS
 62
     7
 10
-48.387068638368582
 20
-38.946827958604771
 30
0.0
  0
VERTEX
  5
953
  8
DATA
  6
CONTINUOUS
 62
     7
 10
-48.378950502994321
 20
-38.95039389150417
 30
0.0
  0
VERTEX
  5
954
  8
DATA
  6
CONTINUOUS
 62
     7
 10
-48.370922643726551
 20
-38.953983768791147
 30
0.0
  0
VERTEX
  5
955
  8
DATA
  6
CONTINUOUS
 62
     7
 10
-48.362985060565272
 20
-38.957597590465639
 30
0.0
  0
VERTEX
  5
956
  8
DATA
  6
CONTINUOUS
 62
     7
 10
-48.362985060565272
 20
-38.957597590465639
 30
0.0
  0
VERTEX
  5
957
  8
DATA
  6
CONTINUOUS
 62
     7
 10
-48.355154275184631
 20
-38.961227766460972
 30
0.0
  0
VERTEX
  5
958
  8
DATA
  6
CONTINUOUS
 62
     7
 10
-48.347446809258813
 20
-38.964866706710403
 30
0.0
  0
VERTEX
  5
959
  8
DATA
  6
CONTINUOUS
 62
     7
 10
-48.339862662787802
 20
-38.96851441121396
 30
0.0
  0
VERTEX
  5
95A
  8
DATA
  6
CONTINUOUS
 62
     7
 10
-48.332401835771591
 20
-38.972170879971621
 30
0.0
  0
VERTEX
  5
95B
  8
DATA
  6
CONTINUOUS
 62
     7
 10
-48.32506432821021
 20
-38.975836112983423
 30
0.0
  0
VERTEX
  5
95C
  8
DATA
  6
CONTINUOUS
 62
     7
 10
-48.317850140103637
 20
-38.979510110249322
 30
0.0
  0
VERTEX
  5
95D
  8
DATA
  6
CONTINUOUS
 62
     7
 10
-48.310759271451893
 20
-38.983192871769347
 30
0.0
  0
VERTEX
  5
95E
  8
DATA
  6
CONTINUOUS
 62
     7
 10
-48.303791722254942
 20
-38.986884397543491
 30
0.0
  0
VERTEX
  5
95F
  8
DATA
  6
CONTINUOUS
 62
     7
 10
-48.2969474925128
 20
-38.99058468757174
 30
0.0
  0
VERTEX
  5
960
  8
DATA
  6
CONTINUOUS
 62
     7
 10
-48.290226582225493
 20
-38.994293741854122
 30
0.0
  0
VERTEX
  5
961
  8
DATA
  6
CONTINUOUS
 62
     7
 10
-48.283628991392973
 20
-38.998011560390609
 30
0.0
  0
VERTEX
  5
962
  8
DATA
  6
CONTINUOUS
 62
     7
 10
-48.277154720015282
 20
-39.001738143181221
 30
0.0
  0
VERTEX
  5
963
  8
DATA
  6
CONTINUOUS
 62
     7
 10
-48.270803768092421
 20
-39.005473490225938
 30
0.0
  0
VERTEX
  5
964
  8
DATA
  6
CONTINUOUS
 62
     7
 10
-48.264576135624353
 20
-39.009217601524782
 30
0.0
  0
VERTEX
  5
965
  8
DATA
  6
CONTINUOUS
 62
     7
 10
-48.258471822611099
 20
-39.012970477077729
 30
0.0
  0
VERTEX
  5
966
  8
DATA
  6
CONTINUOUS
 62
     7
 10
-48.252490829052661
 20
-39.01673211688481
 30
0.0
  0
VERTEX
  5
967
  8
DATA
  6
CONTINUOUS
 62
     7
 10
-48.246633154949023
 20
-39.020502520946003
 30
0.0
  0
VERTEX
  5
968
  8
DATA
  6
CONTINUOUS
 62
     7
 10
-48.240898800300222
 20
-39.024281689261322
 30
0.0
  0
VERTEX
  5
969
  8
DATA
  6
CONTINUOUS
 62
     7
 10
-48.2352877651062
 20
-39.028069621830738
 30
0.0
  0
VERTEX
  5
96A
  8
DATA
  6
CONTINUOUS
 62
     7
 10
-48.229800049367022
 20
-39.031866318654266
 30
0.0
  0
VERTEX
  5
96B
  8
DATA
  6
CONTINUOUS
 62
     7
 10
-48.224435653082651
 20
-39.035671779731942
 30
0.0
  0
VERTEX
  5
96C
  8
DATA
  6
CONTINUOUS
 62
     7
 10
-48.219194576253102
 20
-39.039486005063701
 30
0.0
  0
VERTEX
  5
96D
  8
DATA
  6
CONTINUOUS
 62
     7
 10
-48.214076818878347
 20
-39.043308994649593
 30
0.0
  0
VERTEX
  5
96E
  8
DATA
  6
CONTINUOUS
 62
     7
 10
-48.209082380958421
 20
-39.047140748489603
 30
0.0
  0
VERTEX
  5
96F
  8
DATA
  6
CONTINUOUS
 62
     7
 10
-48.204211262493281
 20
-39.050981266583719
 30
0.0
  0
VERTEX
  5
970
  8
DATA
  6
CONTINUOUS
 62
     7
 10
-48.199463463482978
 20
-39.05483054893196
 30
0.0
  0
VERTEX
  5
971
  8
DATA
  6
CONTINUOUS
 62
     7
 10
-48.19483898392749
 20
-39.058688595534321
 30
0.0
  0
VERTEX
  5
972
  8
DATA
  6
CONTINUOUS
 62
     7
 10
-48.190337823826809
 20
-39.062555406390793
 30
0.0
  0
VERTEX
  5
973
  8
DATA
  6
CONTINUOUS
 62
     7
 10
-48.185959983180943
 20
-39.066430981501391
 30
0.0
  0
VERTEX
  5
974
  8
DATA
  6
CONTINUOUS
 62
     7
 10
-48.181705461989893
 20
-39.070315320866086
 30
0.0
  0
VERTEX
  5
975
  8
DATA
  6
CONTINUOUS
 62
     7
 10
-48.17757426025365
 20
-39.074208424484922
 30
0.0
  0
VERTEX
  5
976
  8
DATA
  6
CONTINUOUS
 62
     7
 10
-48.173566377972222
 20
-39.078110292357849
 30
0.0
  0
VERTEX
  5
977
  8
DATA
  6
CONTINUOUS
 62
     7
 10
-48.169681815145601
 20
-39.082020924484922
 30
0.0
  0
VERTEX
  5
978
  8
DATA
  6
CONTINUOUS
 62
     7
 10
-48.165920571773803
 20
-39.085940320866101
 30
0.0
  0
VERTEX
  5
979
  8
DATA
  6
CONTINUOUS
 62
     7
 10
-48.16228264785682
 20
-39.089868481501391
 30
0.0
  0
VERTEX
  5
97A
  8
DATA
  6
CONTINUOUS
 62
     7
 10
-48.158768043394637
 20
-39.093805406390793
 30
0.0
  0
VERTEX
  5
97B
  8
DATA
  6
CONTINUOUS
 62
     7
 10
-48.155376758387277
 20
-39.097751095534321
 30
0.0
  0
VERTEX
  5
97C
  8
DATA
  6
CONTINUOUS
 62
     7
 10
-48.152108792834717
 20
-39.10170554893196
 30
0.0
  0
VERTEX
  5
97D
  8
DATA
  6
CONTINUOUS
 62
     7
 10
-48.148964146736972
 20
-39.105668766583719
 30
0.0
  0
VERTEX
  5
97E
  8
DATA
  6
CONTINUOUS
 62
     7
 10
-48.145942820094056
 20
-39.109640748489603
 30
0.0
  0
VERTEX
  5
97F
  8
DATA
  6
CONTINUOUS
 62
     7
 10
-48.143044812905963
 20
-39.113621494649593
 30
0.0
  0
VERTEX
  5
980
  8
DATA
  6
CONTINUOUS
 62
     7
 10
-48.140270125172648
 20
-39.117611005063701
 30
0.0
  0
VERTEX
  5
981
  8
DATA
  6
CONTINUOUS
 62
     7
 10
-48.137618756894177
 20
-39.121609279731928
 30
0.0
  0
VERTEX
  5
982
  8
DATA
  6
CONTINUOUS
 62
     7
 10
-48.1350907080705
 20
-39.125616318654281
 30
0.0
  0
VERTEX
  5
983
  8
DATA
  6
CONTINUOUS
 62
     7
 10
-48.132685978701652
 20
-39.129632121830738
 30
0.0
  0
VERTEX
  5
984
  8
DATA
  6
CONTINUOUS
 62
     7
 10
-48.130404568787611
 20
-39.133656689261322
 30
0.0
  0
VERTEX
  5
985
  8
DATA
  6
CONTINUOUS
 62
     7
 10
-48.128246478328379
 20
-39.137690020946003
 30
0.0
  0
VERTEX
  5
986
  8
DATA
  6
CONTINUOUS
 62
     7
 10
-48.126211707323961
 20
-39.14173211688481
 30
0.0
  0
VERTEX
  5
987
  8
DATA
  6
CONTINUOUS
 62
     7
 10
-48.124300255774358
 20
-39.145782977077729
 30
0.0
  0
VERTEX
  5
988
  8
DATA
  6
CONTINUOUS
 62
     7
 10
-48.12251212367957
 20
-39.149842601524782
 30
0.0
  0
VERTEX
  5
989
  8
DATA
  6
CONTINUOUS
 62
     7
 10
-48.12084731103959
 20
-39.153910990225938
 30
0.0
  0
VERTEX
  5
98A
  8
DATA
  6
CONTINUOUS
 62
     7
 10
-48.119305817854432
 20
-39.157988143181221
 30
0.0
  0
VERTEX
  5
98B
  8
DATA
  6
CONTINUOUS
 62
     7
 10
-48.117887644124082
 20
-39.162074060390609
 30
0.0
  0
VERTEX
  5
98C
  8
DATA
  6
CONTINUOUS
 62
     7
 10
-48.116592789848539
 20
-39.166168741854122
 30
0.0
  0
VERTEX
  5
98D
  8
DATA
  6
CONTINUOUS
 62
     7
 10
-48.115421255027812
 20
-39.17027218757174
 30
0.0
  0
VERTEX
  5
98E
  8
DATA
  6
CONTINUOUS
 62
     7
 10
-48.114373039661892
 20
-39.174384397543491
 30
0.0
  0
VERTEX
  5
98F
  8
DATA
  6
CONTINUOUS
 62
     7
 10
-48.113448143750801
 20
-39.178505371769347
 30
0.0
  0
VERTEX
  5
990
  8
DATA
  6
CONTINUOUS
 62
     7
 10
-48.112646567294519
 20
-39.182635110249322
 30
0.0
  0
VERTEX
  5
991
  8
DATA
  6
CONTINUOUS
 62
     7
 10
-48.11196831029303
 20
-39.186773612983423
 30
0.0
  0
VERTEX
  5
992
  8
DATA
  6
CONTINUOUS
 62
     7
 10
-48.111413372746377
 20
-39.190920879971621
 30
0.0
  0
VERTEX
  5
993
  8
DATA
  6
CONTINUOUS
 62
     7
 10
-48.110981754654532
 20
-39.19507691121396
 30
0.0
  0
VERTEX
  5
994
  8
DATA
  6
CONTINUOUS
 62
     7
 10
-48.110673456017487
 20
-39.199241706710403
 30
0.0
  0
VERTEX
  5
995
  8
DATA
  6
CONTINUOUS
 62
     7
 10
-48.110488476835272
 20
-39.203415266460972
 30
0.0
  0
VERTEX
  5
996
  8
DATA
  6
CONTINUOUS
 62
     7
 10
-48.110426817107871
 20
-39.207597590465639
 30
0.0
  0
VERTEX
  5
997
  8
DATA
  6
CONTINUOUS
 62
     7
 10
-48.110426817107871
 20
-39.207597590465639
 30
0.0
  0
VERTEX
  5
998
  8
DATA
  6
CONTINUOUS
 62
     7
 10
-48.110488476835272
 20
-39.211779914470313
 30
0.0
  0
VERTEX
  5
999
  8
DATA
  6
CONTINUOUS
 62
     7
 10
-48.110673456017487
 20
-39.215953474220882
 30
0.0
  0
VERTEX
  5
99A
  8
DATA
  6
CONTINUOUS
 62
     7
 10
-48.110981754654532
 20
-39.220118269717318
 30
0.0
  0
VERTEX
  5
99B
  8
DATA
  6
CONTINUOUS
 62
     7
 10
-48.111413372746377
 20
-39.22427430095965
 30
0.0
  0
VERTEX
  5
99C
  8
DATA
  6
CONTINUOUS
 62
     7
 10
-48.11196831029303
 20
-39.228421567947848
 30
0.0
  0
VERTEX
  5
99D
  8
DATA
  6
CONTINUOUS
 62
     7
 10
-48.112646567294519
 20
-39.232560070681963
 30
0.0
  0
VERTEX
  5
99E
  8
DATA
  6
CONTINUOUS
 62
     7
 10
-48.113448143750801
 20
-39.23668980916193
 30
0.0
  0
VERTEX
  5
99F
  8
DATA
  6
CONTINUOUS
 62
     7
 10
-48.114373039661892
 20
-39.240810783387793
 30
0.0
  0
VERTEX
  5
9A0
  8
DATA
  6
CONTINUOUS
 62
     7
 10
-48.115421255027812
 20
-39.24492299335953
 30
0.0
  0
VERTEX
  5
9A1
  8
DATA
  6
CONTINUOUS
 62
     7
 10
-48.116592789848539
 20
-39.249026439077163
 30
0.0
  0
VERTEX
  5
9A2
  8
DATA
  6
CONTINUOUS
 62
     7
 10
-48.117887644124082
 20
-39.253121120540662
 30
0.0
  0
VERTEX
  5
9A3
  8
DATA
  6
CONTINUOUS
 62
     7
 10
-48.119305817854432
 20
-39.257207037750057
 30
0.0
  0
VERTEX
  5
9A4
  8
DATA
  6
CONTINUOUS
 62
     7
 10
-48.12084731103959
 20
-39.261284190705339
 30
0.0
  0
VERTEX
  5
9A5
  8
DATA
  6
CONTINUOUS
 62
     7
 10
-48.12251212367957
 20
-39.265352579406489
 30
0.0
  0
VERTEX
  5
9A6
  8
DATA
  6
CONTINUOUS
 62
     7
 10
-48.124300255774358
 20
-39.269412203853541
 30
0.0
  0
VERTEX
  5
9A7
  8
DATA
  6
CONTINUOUS
 62
     7
 10
-48.126211707323961
 20
-39.273463064046467
 30
0.0
  0
VERTEX
  5
9A8
  8
DATA
  6
CONTINUOUS
 62
     7
 10
-48.128246478328379
 20
-39.277505159985282
 30
0.0
  0
VERTEX
  5
9A9
  8
DATA
  6
CONTINUOUS
 62
     7
 10
-48.130404568787611
 20
-39.281538491669963
 30
0.0
  0
VERTEX
  5
9AA
  8
DATA
  6
CONTINUOUS
 62
     7
 10
-48.132685978701652
 20
-39.285563059100532
 30
0.0
  0
VERTEX
  5
9AB
  8
DATA
  6
CONTINUOUS
 62
     7
 10
-48.1350907080705
 20
-39.289578862277011
 30
0.0
  0
VERTEX
  5
9AC
  8
DATA
  6
CONTINUOUS
 62
     7
 10
-48.137618756894177
 20
-39.29358590119935
 30
0.0
  0
VERTEX
  5
9AD
  8
DATA
  6
CONTINUOUS
 62
     7
 10
-48.140270125172648
 20
-39.297584175867577
 30
0.0
  0
VERTEX
  5
9AE
  8
DATA
  6
CONTINUOUS
 62
     7
 10
-48.143044812905963
 20
-39.301573686281692
 30
0.0
  0
VERTEX
  5
9AF
  8
DATA
  6
CONTINUOUS
 62
     7
 10
-48.145942820094056
 20
-39.305554432441681
 30
0.0
  0
VERTEX
  5
9B0
  8
DATA
  6
CONTINUOUS
 62
     7
 10
-48.148964146736972
 20
-39.309526414347573
 30
0.0
  0
VERTEX
  5
9B1
  8
DATA
  6
CONTINUOUS
 62
     7
 10
-48.152108792834717
 20
-39.313489631999317
 30
0.0
  0
VERTEX
  5
9B2
  8
DATA
  6
CONTINUOUS
 62
     7
 10
-48.155376758387277
 20
-39.317444085396957
 30
0.0
  0
VERTEX
  5
9B3
  8
DATA
  6
CONTINUOUS
 62
     7
 10
-48.158768043394637
 20
-39.321389774540478
 30
0.0
  0
VERTEX
  5
9B4
  8
DATA
  6
CONTINUOUS
 62
     7
 10
-48.16228264785682
 20
-39.325326699429887
 30
0.0
  0
VERTEX
  5
9B5
  8
DATA
  6
CONTINUOUS
 62
     7
 10
-48.165920571773803
 20
-39.329254860065177
 30
0.0
  0
VERTEX
  5
9B6
  8
DATA
  6
CONTINUOUS
 62
     7
 10
-48.169681815145601
 20
-39.333174256446362
 30
0.0
  0
VERTEX
  5
9B7
  8
DATA
  6
CONTINUOUS
 62
     7
 10
-48.173566377972222
 20
-39.337084888573408
 30
0.0
  0
VERTEX
  5
9B8
  8
DATA
  6
CONTINUOUS
 62
     7
 10
-48.17757426025365
 20
-39.340986756446362
 30
0.0
  0
VERTEX
  5
9B9
  8
DATA
  6
CONTINUOUS
 62
     7
 10
-48.181705461989893
 20
-39.344879860065177
 30
0.0
  0
VERTEX
  5
9BA
  8
DATA
  6
CONTINUOUS
 62
     7
 10
-48.185959983180943
 20
-39.348764199429887
 30
0.0
  0
VERTEX
  5
9BB
  8
DATA
  6
CONTINUOUS
 62
     7
 10
-48.190337823826809
 20
-39.352639774540478
 30
0.0
  0
VERTEX
  5
9BC
  8
DATA
  6
CONTINUOUS
 62
     7
 10
-48.19483898392749
 20
-39.356506585396957
 30
0.0
  0
VERTEX
  5
9BD
  8
DATA
  6
CONTINUOUS
 62
     7
 10
-48.199463463482978
 20
-39.360364631999317
 30
0.0
  0
VERTEX
  5
9BE
  8
DATA
  6
CONTINUOUS
 62
     7
 10
-48.204211262493281
 20
-39.364213914347573
 30
0.0
  0
VERTEX
  5
9BF
  8
DATA
  6
CONTINUOUS
 62
     7
 10
-48.209082380958421
 20
-39.368054432441681
 30
0.0
  0
VERTEX
  5
9C0
  8
DATA
  6
CONTINUOUS
 62
     7
 10
-48.214076818878347
 20
-39.371886186281692
 30
0.0
  0
VERTEX
  5
9C1
  8
DATA
  6
CONTINUOUS
 62
     7
 10
-48.219194576253102
 20
-39.375709175867577
 30
0.0
  0
VERTEX
  5
9C2
  8
DATA
  6
CONTINUOUS
 62
     7
 10
-48.224435653082651
 20
-39.37952340119935
 30
0.0
  0
VERTEX
  5
9C3
  8
DATA
  6
CONTINUOUS
 62
     7
 10
-48.229800049367022
 20
-39.383328862276997
 30
0.0
  0
VERTEX
  5
9C4
  8
DATA
  6
CONTINUOUS
 62
     7
 10
-48.2352877651062
 20
-39.387125559100532
 30
0.0
  0
VERTEX
  5
9C5
  8
DATA
  6
CONTINUOUS
 62
     7
 10
-48.240898800300222
 20
-39.390913491669963
 30
0.0
  0
VERTEX
  5
9C6
  8
DATA
  6
CONTINUOUS
 62
     7
 10
-48.246633154949023
 20
-39.394692659985282
 30
0.0
  0
VERTEX
  5
9C7
  8
DATA
  6
CONTINUOUS
 62
     7
 10
-48.252490829052661
 20
-39.398463064046467
 30
0.0
  0
VERTEX
  5
9C8
  8
DATA
  6
CONTINUOUS
 62
     7
 10
-48.258471822611099
 20
-39.402224703853541
 30
0.0
  0
VERTEX
  5
9C9
  8
DATA
  6
CONTINUOUS
 62
     7
 10
-48.264576135624353
 20
-39.405977579406489
 30
0.0
  0
VERTEX
  5
9CA
  8
DATA
  6
CONTINUOUS
 62
     7
 10
-48.270803768092421
 20
-39.409721690705339
 30
0.0
  0
VERTEX
  5
9CB
  8
DATA
  6
CONTINUOUS
 62
     7
 10
-48.277154720015282
 20
-39.413457037750057
 30
0.0
  0
VERTEX
  5
9CC
  8
DATA
  6
CONTINUOUS
 62
     7
 10
-48.283628991392973
 20
-39.417183620540662
 30
0.0
  0
VERTEX
  5
9CD
  8
DATA
  6
CONTINUOUS
 62
     7
 10
-48.290226582225493
 20
-39.420901439077163
 30
0.0
  0
VERTEX
  5
9CE
  8
DATA
  6
CONTINUOUS
 62
     7
 10
-48.2969474925128
 20
-39.42461049335953
 30
0.0
  0
VERTEX
  5
9CF
  8
DATA
  6
CONTINUOUS
 62
     7
 10
-48.303791722254942
 20
-39.428310783387793
 30
0.0
  0
VERTEX
  5
9D0
  8
DATA
  6
CONTINUOUS
 62
     7
 10
-48.310759271451893
 20
-39.43200230916193
 30
0.0
  0
VERTEX
  5
9D1
  8
DATA
  6
CONTINUOUS
 62
     7
 10
-48.317850140103637
 20
-39.435685070681963
 30
0.0
  0
VERTEX
  5
9D2
  8
DATA
  6
CONTINUOUS
 62
     7
 10
-48.32506432821021
 20
-39.439359067947848
 30
0.0
  0
VERTEX
  5
9D3
  8
DATA
  6
CONTINUOUS
 62
     7
 10
-48.332401835771591
 20
-39.44302430095965
 30
0.0
  0
VERTEX
  5
9D4
  8
DATA
  6
CONTINUOUS
 62
     7
 10
-48.339862662787802
 20
-39.446680769717318
 30
0.0
  0
VERTEX
  5
9D5
  8
DATA
  6
CONTINUOUS
 62
     7
 10
-48.347446809258813
 20
-39.450328474220882
 30
0.0
  0
VERTEX
  5
9D6
  8
DATA
  6
CONTINUOUS
 62
     7
 10
-48.355154275184631
 20
-39.453967414470313
 30
0.0
  0
VERTEX
  5
9D7
  8
DATA
  6
CONTINUOUS
 62
     7
 10
-48.362985060565272
 20
-39.457597590465639
 30
0.0
  0
VERTEX
  5
9D8
  8
DATA
  6
CONTINUOUS
 62
     7
 10
-48.362985060565272
 20
-39.457597590465639
 30
0.0
  0
VERTEX
  5
9D9
  8
DATA
  6
CONTINUOUS
 62
     7
 10
-48.370922643726551
 20
-39.461211412140131
 30
0.0
  0
VERTEX
  5
9DA
  8
DATA
  6
CONTINUOUS
 62
     7
 10
-48.378950502994321
 20
-39.464801289427101
 30
0.0
  0
VERTEX
  5
9DB
  8
DATA
  6
CONTINUOUS
 62
     7
 10
-48.387068638368582
 20
-39.468367222326513
 30
0.0
  0
VERTEX
  5
9DC
  8
DATA
  6
CONTINUOUS
 62
     7
 10
-48.395277049849327
 20
-39.47190921083839
 30
0.0
  0
VERTEX
  5
9DD
  8
DATA
  6
CONTINUOUS
 62
     7
 10
-48.40357573743654
 20
-39.475427254962732
 30
0.0
  0
VERTEX
  5
9DE
  8
DATA
  6
CONTINUOUS
 62
     7
 10
-48.411964701130252
 20
-39.478921354699551
 30
0.0
  0
VERTEX
  5
9DF
  8
DATA
  6
CONTINUOUS
 62
     7
 10
-48.420443940930447
 20
-39.482391510048821
 30
0.0
  0
VERTEX
  5
9E0
  8
DATA
  6
CONTINUOUS
 62
     7
 10
-48.429013456837133
 20
-39.485837721010562
 30
0.0
  0
VERTEX
  5
9E1
  8
DATA
  6
CONTINUOUS
 62
     7
 10
-48.437673248850288
 20
-39.489259987584752
 30
0.0
  0
VERTEX
  5
9E2
  8
DATA
  6
CONTINUOUS
 62
     7
 10
-48.446423316969941
 20
-39.492658309771407
 30
0.0
  0
VERTEX
  5
9E3
  8
DATA
  6
CONTINUOUS
 62
     7
 10
-48.455263661196071
 20
-39.496032687570533
 30
0.0
  0
VERTEX
  5
9E4
  8
DATA
  6
CONTINUOUS
 62
     7
 10
-48.464194281528712
 20
-39.499383120982117
 30
0.0
  0
VERTEX
  5
9E5
  8
DATA
  6
CONTINUOUS
 62
     7
 10
-48.473215177967788
 20
-39.502709610006157
 30
0.0
  0
VERTEX
  5
9E6
  8
DATA
  6
CONTINUOUS
 62
     7
 10
-48.482326350513397
 20
-39.506012154642661
 30
0.0
  0
VERTEX
  5
9E7
  8
DATA
  6
CONTINUOUS
 62
     7
 10
-48.491527799165468
 20
-39.509290754891637
 30
0.0
  0
VERTEX
  5
9E8
  8
DATA
  6
CONTINUOUS
 62
     7
 10
-48.500819523924037
 20
-39.51254541075307
 30
0.0
  0
VERTEX
  5
9E9
  8
DATA
  6
CONTINUOUS
 62
     7
 10
-48.510201524789068
 20
-39.515776122226967
 30
0.0
  0
VERTEX
  5
9EA
  8
DATA
  6
CONTINUOUS
 62
     7
 10
-48.519673801760618
 20
-39.518982889313321
 30
0.0
  0
VERTEX
  5
9EB
  8
DATA
  6
CONTINUOUS
 62
     7
 10
-48.529236354838631
 20
-39.522165712012153
 30
0.0
  0
VERTEX
  5
9EC
  8
DATA
  6
CONTINUOUS
 62
     7
 10
-48.538889184023141
 20
-39.525324590323443
 30
0.0
  0
VERTEX
  5
9ED
  8
DATA
  6
CONTINUOUS
 62
     7
 10
-48.548632289314099
 20
-39.528459524247189
 30
0.0
  0
VERTEX
  5
9EE
  8
DATA
  6
CONTINUOUS
 62
     7
 10
-48.55846567071157
 20
-39.531570513783393
 30
0.0
  0
VERTEX
  5
9EF
  8
DATA
  6
CONTINUOUS
 62
     7
 10
-48.568389328215538
 20
-39.534657558932061
 30
0.0
  0
VERTEX
  5
9F0
  8
DATA
  6
CONTINUOUS
 62
     7
 10
-48.578403261825983
 20
-39.537720659693193
 30
0.0
  0
VERTEX
  5
9F1
  8
DATA
  6
CONTINUOUS
 62
     7
 10
-48.588507471542897
 20
-39.540759816066789
 30
0.0
  0
VERTEX
  5
9F2
  8
DATA
  6
CONTINUOUS
 62
     7
 10
-48.59870195736633
 20
-39.543775028052849
 30
0.0
  0
VERTEX
  5
9F3
  8
DATA
  6
CONTINUOUS
 62
     7
 10
-48.608986719296198
 20
-39.546766295651373
 30
0.0
  0
VERTEX
  5
9F4
  8
DATA
  6
CONTINUOUS
 62
     7
 10
-48.619361757332591
 20
-39.549733618862341
 30
0.0
  0
VERTEX
  5
9F5
  8
DATA
  6
CONTINUOUS
 62
     7
 10
-48.629827071475461
 20
-39.552676997685801
 30
0.0
  0
VERTEX
  5
9F6
  8
DATA
  6
CONTINUOUS
 62
     7
 10
-48.640382661724793
 20
-39.55559643212171
 30
0.0
  0
VERTEX
  5
9F7
  8
DATA
  6
CONTINUOUS
 62
     7
 10
-48.651028528080637
 20
-39.558491922170077
 30
0.0
  0
VERTEX
  5
9F8
  8
DATA
  6
CONTINUOUS
 62
     7
 10
-48.661764670542958
 20
-39.561363467830923
 30
0.0
  0
VERTEX
  5
9F9
  8
DATA
  6
CONTINUOUS
 62
     7
 10
-48.672591089111748
 20
-39.564211069104211
 30
0.0
  0
VERTEX
  5
9FA
  8
DATA
  6
CONTINUOUS
 62
     7
 10
-48.68350778378705
 20
-39.567034725989963
 30
0.0
  0
VERTEX
  5
9FB
  8
DATA
  6
CONTINUOUS
 62
     7
 10
-48.694514754568822
 20
-39.569834438488193
 30
0.0
  0
VERTEX
  5
9FC
  8
DATA
  6
CONTINUOUS
 62
     7
 10
-48.705612001457091
 20
-39.572610206598881
 30
0.0
  0
VERTEX
  5
9FD
  8
DATA
  6
CONTINUOUS
 62
     7
 10
-48.716799524451829
 20
-39.575362030322033
 30
0.0
  0
VERTEX
  5
9FE
  8
DATA
  6
CONTINUOUS
 62
     7
 10
-48.728077323553052
 20
-39.578089909657642
 30
0.0
  0
VERTEX
  5
9FF
  8
DATA
  6
CONTINUOUS
 62
     7
 10
-48.739445398760772
 20
-39.580793844605708
 30
0.0
  0
VERTEX
  5
A00
  8
DATA
  6
CONTINUOUS
 62
     7
 10
-48.750903750074968
 20
-39.583473835166252
 30
0.0
  0
VERTEX
  5
A01
  8
DATA
  6
CONTINUOUS
 62
     7
 10
-48.762452377495642
 20
-39.586129881339239
 30
0.0
  0
VERTEX
  5
A02
  8
DATA
  6
CONTINUOUS
 62
     7
 10
-48.774091281022812
 20
-39.588761983124698
 30
0.0
  0
VERTEX
  5
A03
  8
DATA
  6
CONTINUOUS
 62
     7
 10
-48.785820460656481
 20
-39.591370140522621
 30
0.0
  0
VERTEX
  5
A04
  8
DATA
  6
CONTINUOUS
 62
     7
 10
-48.797639916396619
 20
-39.593954353533007
 30
0.0
  0
VERTEX
  5
A05
  8
DATA
  6
CONTINUOUS
 62
     7
 10
-48.809549648243248
 20
-39.596514622155851
 30
0.0
  0
VERTEX
  5
A06
  8
DATA
  6
CONTINUOUS
 62
     7
 10
-48.821549656196339
 20
-39.599050946391174
 30
0.0
  0
VERTEX
  5
A07
  8
DATA
  6
CONTINUOUS
 62
     7
 10
-48.833639940255928
 20
-39.601563326238953
 30
0.0
  0
VERTEX
  5
A08
  8
DATA
  6
CONTINUOUS
 62
     7
 10
-48.845820500422022
 20
-39.604051761699182
 30
0.0
  0
VERTEX
  5
A09
  8
DATA
  6
CONTINUOUS
 62
     7
 10
-48.858091336694571
 20
-39.606516252771883
 30
0.0
  0
VERTEX
  5
A0A
  8
DATA
  6
CONTINUOUS
 62
     7
 10
-48.870452449073639
 20
-39.608956799457047
 30
0.0
  0
VERTEX
  5
A0B
  8
DATA
  6
CONTINUOUS
 62
     7
 10
-48.882903837559176
 20
-39.611373401754662
 30
0.0
  0
VERTEX
  5
A0C
  8
DATA
  6
CONTINUOUS
 62
     7
 10
-48.895445502151183
 20
-39.613766059664762
 30
0.0
  0
VERTEX
  5
A0D
  8
DATA
  6
CONTINUOUS
 62
     7
 10
-48.908077442849681
 20
-39.616134773187298
 30
0.0
  0
VERTEX
  5
A0E
  8
DATA
  6
CONTINUOUS
 62
     7
 10
-48.920799659654683
 20
-39.618479542322312
 30
0.0
  0
VERTEX
  5
A0F
  8
DATA
  6
CONTINUOUS
 62
     7
 10
-48.933612152566141
 20
-39.620800367069783
 30
0.0
  0
VERTEX
  5
A10
  8
DATA
  6
CONTINUOUS
 62
     7
 10
-48.946514921584111
 20
-39.623097247429719
 30
0.0
  0
VERTEX
  5
A11
  8
DATA
  6
CONTINUOUS
 62
     7
 10
-48.959507966708557
 20
-39.625370183402119
 30
0.0
  0
VERTEX
  5
A12
  8
DATA
  6
CONTINUOUS
 62
     7
 10
-48.972591287939473
 20
-39.627619174986982
 30
0.0
  0
VERTEX
  5
A13
  8
DATA
  6
CONTINUOUS
 62
     7
 10
-48.985764885276893
 20
-39.629844222184317
 30
0.0
  0
VERTEX
  5
A14
  8
DATA
  6
CONTINUOUS
 62
     7
 10
-48.99902875872079
 20
-39.632045324994102
 30
0.0
  0
VERTEX
  5
A15
  8
DATA
  6
CONTINUOUS
 62
     7
 10
-49.012382908271171
 20
-39.634222483416352
 30
0.0
  0
VERTEX
  5
A16
  8
DATA
  6
CONTINUOUS
 62
     7
 10
-49.025827333928042
 20
-39.636375697451051
 30
0.0
  0
VERTEX
  5
A17
  8
DATA
  6
CONTINUOUS
 62
     7
 10
-49.039362035691383
 20
-39.638504967098228
 30
0.0
  0
VERTEX
  5
A18
  8
DATA
  6
CONTINUOUS
 62
     7
 10
-49.052987013561221
 20
-39.640610292357849
 30
0.0
  0
VERTEX
  5
A19
  8
DATA
  6
CONTINUOUS
 62
     7
 10
-49.052987013561221
 20
-39.640610292357849
 30
0.0
  0
VERTEX
  5
A1A
  8
DATA
  6
CONTINUOUS
 62
     7
 10
-49.066673651158467
 20
-39.642687291102902
 30
0.0
  0
VERTEX
  5
A1B
  8
DATA
  6
CONTINUOUS
 62
     7
 10
-49.080393332104038
 20
-39.644731581206287
 30
0.0
  0
VERTEX
  5
A1C
  8
DATA
  6
CONTINUOUS
 62
     7
 10
-49.094146056397932
 20
-39.646743162668017
 30
0.0
  0
VERTEX
  5
A1D
  8
DATA
  6
CONTINUOUS
 62
     7
 10
-49.107931824040172
 20
-39.648722035488092
 30
0.0
  0
VERTEX
  5
A1E
  8
DATA
  6
CONTINUOUS
 62
     7
 10
-49.121750635030729
 20
-39.650668199666526
 30
0.0
  0
VERTEX
  5
A1F
  8
DATA
  6
CONTINUOUS
 62
     7
 10
-49.135602489369617
 20
-39.652581655203292
 30
0.0
  0
VERTEX
  5
A20
  8
DATA
  6
CONTINUOUS
 62
     7
 10
-49.14948738705683
 20
-39.65446240209841
 30
0.0
  0
VERTEX
  5
A21
  8
DATA
  6
CONTINUOUS
 62
     7
 10
-49.16340532809236
 20
-39.656310440351866
 30
0.0
  0
VERTEX
  5
A22
  8
DATA
  6
CONTINUOUS
 62
     7
 10
-49.177356312476242
 20
-39.658125769963682
 30
0.0
  0
VERTEX
  5
A23
  8
DATA
  6
CONTINUOUS
 62
     7
 10
-49.19134034020842
 20
-39.65990839093385
 30
0.0
  0
VERTEX
  5
A24
  8
DATA
  6
CONTINUOUS
 62
     7
 10
-49.205357411288958
 20
-39.661658303262342
 30
0.0
  0
VERTEX
  5
A25
  8
DATA
  6
CONTINUOUS
 62
     7
 10
-49.219407525717813
 20
-39.66337550694918
 30
0.0
  0
VERTEX
  5
A26
  8
DATA
  6
CONTINUOUS
 62
     7
 10
-49.233490683494999
 20
-39.66506000199437
 30
0.0
  0
VERTEX
  5
A27
  8
DATA
  6
CONTINUOUS
 62
     7
 10
-49.247606884620502
 20
-39.666711788397912
 30
0.0
  0
VERTEX
  5
A28
  8
DATA
  6
CONTINUOUS
 62
     7
 10
-49.261756129094351
 20
-39.668330866159792
 30
0.0
  0
VERTEX
  5
A29
  8
DATA
  6
CONTINUOUS
 62
     7
 10
-49.275938416916532
 20
-39.669917235280018
 30
0.0
  0
VERTEX
  5
A2A
  8
DATA
  6
CONTINUOUS
 62
     7
 10
-49.290153748087022
 20
-39.671470895758603
 30
0.0
  0
VERTEX
  5
A2B
  8
DATA
  6
CONTINUOUS
 62
     7
 10
-49.30440212260585
 20
-39.672991847595497
 30
0.0
  0
VERTEX
  5
A2C
  8
DATA
  6
CONTINUOUS
 62
     7
 10
-49.318683540472968
 20
-39.67448009079078
 30
0.0
  0
VERTEX
  5
A2D
  8
DATA
  6
CONTINUOUS
 62
     7
 10
-49.332998001688473
 20
-39.675935625344387
 30
0.0
  0
VERTEX
  5
A2E
  8
DATA
  6
CONTINUOUS
 62
     7
 10
-49.347345506252282
 20
-39.677358451256339
 30
0.0
  0
VERTEX
  5
A2F
  8
DATA
  6
CONTINUOUS
 62
     7
 10
-49.361726054164421
 20
-39.67874856852665
 30
0.0
  0
VERTEX
  5
A30
  8
DATA
  6
CONTINUOUS
 62
     7
 10
-49.376139645424892
 20
-39.680105977155293
 30
0.0
  0
VERTEX
  5
A31
  8
DATA
  6
CONTINUOUS
 62
     7
 10
-49.390586280033681
 20
-39.681430677142288
 30
0.0
  0
VERTEX
  5
A32
  8
DATA
  6
CONTINUOUS
 62
     7
 10
-49.405065957990807
 20
-39.682722668487628
 30
0.0
  0
VERTEX
  5
A33
  8
DATA
  6
CONTINUOUS
 62
     7
 10
-49.419578679296258
 20
-39.683981951191321
 30
0.0
  0
VERTEX
  5
A34
  8
DATA
  6
CONTINUOUS
 62
     7
 10
-49.434124443950033
 20
-39.685208525253351
 30
0.0
  0
VERTEX
  5
A35
  8
DATA
  6
CONTINUOUS
 62
     7
 10
-49.448703251952139
 20
-39.68640239067372
 30
0.0
  0
VERTEX
  5
A36
  8
DATA
  6
CONTINUOUS
 62
     7
 10
-49.46331510330257
 20
-39.687563547452442
 30
0.0
  0
VERTEX
  5
A37
  8
DATA
  6
CONTINUOUS
 62
     7
 10
-49.477959998001353
 20
-39.688691995589522
 30
0.0
  0
VERTEX
  5
A38
  8
DATA
  6
CONTINUOUS
 62
     7
 10
-49.492637936048432
 20
-39.689787735084927
 30
0.0
  0
VERTEX
  5
A39
  8
DATA
  6
CONTINUOUS
 62
     7
 10
-49.507348917443849
 20
-39.690850765938691
 30
0.0
  0
VERTEX
  5
A3A
  8
DATA
  6
CONTINUOUS
 62
     7
 10
-49.522092942187612
 20
-39.691881088150801
 30
0.0
  0
VERTEX
  5
A3B
  8
DATA
  6
CONTINUOUS
 62
     7
 10
-49.536870010279678
 20
-39.692878701721249
 30
0.0
  0
VERTEX
  5
A3C
  8
DATA
  6
CONTINUOUS
 62
     7
 10
-49.551680121720068
 20
-39.693843606650049
 30
0.0
  0
VERTEX
  5
A3D
  8
DATA
  6
CONTINUOUS
 62
     7
 10
-49.566523276508789
 20
-39.694775802937187
 30
0.0
  0
VERTEX
  5
A3E
  8
DATA
  6
CONTINUOUS
 62
     7
 10
-49.581399474645863
 20
-39.695675290582678
 30
0.0
  0
VERTEX
  5
A3F
  8
DATA
  6
CONTINUOUS
 62
     7
 10
-49.596308716131247
 20
-39.696542069586513
 30
0.0
  0
VERTEX
  5
A40
  8
DATA
  6
CONTINUOUS
 62
     7
 10
-49.611251000964963
 20
-39.697376139948702
 30
0.0
  0
VERTEX
  5
A41
  8
DATA
  6
CONTINUOUS
 62
     7
 10
-49.626226329147023
 20
-39.698177501669228
 30
0.0
  0
VERTEX
  5
A42
  8
DATA
  6
CONTINUOUS
 62
     7
 10
-49.641234700677401
 20
-39.6989461547481
 30
0.0
  0
VERTEX
  5
A43
  8
DATA
  6
CONTINUOUS
 62
     7
 10
-49.656276115556103
 20
-39.699682099185331
 30
0.0
  0
VERTEX
  5
A44
  8
DATA
  6
CONTINUOUS
 62
     7
 10
-49.671350573783123
 20
-39.700385334980901
 30
0.0
  0
VERTEX
  5
A45
  8
DATA
  6
CONTINUOUS
 62
     7
 10
-49.686458075358473
 20
-39.701055862134801
 30
0.0
  0
VERTEX
  5
A46
  8
DATA
  6
CONTINUOUS
 62
     7
 10
-49.701598620282176
 20
-39.701693680647061
 30
0.0
  0
VERTEX
  5
A47
  8
DATA
  6
CONTINUOUS
 62
     7
 10
-49.716772208554183
 20
-39.702298790517652
 30
0.0
  0
VERTEX
  5
A48
  8
DATA
  6
CONTINUOUS
 62
     7
 10
-49.731978840174527
 20
-39.70287119174661
 30
0.0
  0
VERTEX
  5
A49
  8
DATA
  6
CONTINUOUS
 62
     7
 10
-49.74721851514321
 20
-39.703410884333913
 30
0.0
  0
VERTEX
  5
A4A
  8
DATA
  6
CONTINUOUS
 62
     7
 10
-49.762491233460182
 20
-39.703917868279547
 30
0.0
  0
VERTEX
  5
A4B
  8
DATA
  6
CONTINUOUS
 62
     7
 10
-49.77779699512552
 20
-39.70439214358354
 30
0.0
  0
VERTEX
  5
A4C
  8
DATA
  6
CONTINUOUS
 62
     7
 10
-49.793135800139183
 20
-39.704833710245872
 30
0.0
  0
VERTEX
  5
A4D
  8
DATA
  6
CONTINUOUS
 62
     7
 10
-49.808507648501148
 20
-39.705242568266549
 30
0.0
  0
VERTEX
  5
A4E
  8
DATA
  6
CONTINUOUS
 62
     7
 10
-49.823912540211467
 20
-39.705618717645571
 30
0.0
  0
VERTEX
  5
A4F
  8
DATA
  6
CONTINUOUS
 62
     7
 10
-49.839350475270123
 20
-39.705962158382931
 30
0.0
  0
VERTEX
  5
A50
  8
DATA
  6
CONTINUOUS
 62
     7
 10
-49.854821453677083
 20
-39.706272890478637
 30
0.0
  0
VERTEX
  5
A51
  8
DATA
  6
CONTINUOUS
 62
     7
 10
-49.870325475432388
 20
-39.706550913932702
 30
0.0
  0
VERTEX
  5
A52
  8
DATA
  6
CONTINUOUS
 62
     7
 10
-49.88586254053601
 20
-39.706796228745112
 30
0.0
  0
VERTEX
  5
A53
  8
DATA
  6
CONTINUOUS
 62
     7
 10
-49.901432648987956
 20
-39.707008834915861
 30
0.0
  0
VERTEX
  5
A54
  8
DATA
  6
CONTINUOUS
 62
     7
 10
-49.917035800788241
 20
-39.707188732444962
 30
0.0
  0
VERTEX
  5
A55
  8
DATA
  6
CONTINUOUS
 62
     7
 10
-49.93267199593685
 20
-39.707335921332387
 30
0.0
  0
VERTEX
  5
A56
  8
DATA
  6
CONTINUOUS
 62
     7
 10
-49.948341234433791
 20
-39.707450401578193
 30
0.0
  0
VERTEX
  5
A57
  8
DATA
  6
CONTINUOUS
 62
     7
 10
-49.964043516279048
 20
-39.707532173182329
 30
0.0
  0
VERTEX
  5
A58
  8
DATA
  6
CONTINUOUS
 62
     7
 10
-49.979778841472651
 20
-39.707581236144811
 30
0.0
  0
VERTEX
  5
A59
  8
DATA
  6
CONTINUOUS
 62
     7
 10
-49.995547210014578
 20
-39.707597590465639
 30
0.0
  0
VERTEX
  5
A5A
  8
DATA
  6
CONTINUOUS
 62
     7
 10
-49.995547210014578
 20
-39.707597590465639
 30
0.0
  0
VERTEX
  5
A5B
  8
DATA
  6
CONTINUOUS
 62
     7
 10
-50.011315578556498
 20
-39.707581236144811
 30
0.0
  0
VERTEX
  5
A5C
  8
DATA
  6
CONTINUOUS
 62
     7
 10
-50.027050903750101
 20
-39.707532173182329
 30
0.0
  0
VERTEX
  5
A5D
  8
DATA
  6
CONTINUOUS
 62
     7
 10
-50.042753185595359
 20
-39.707450401578193
 30
0.0
  0
VERTEX
  5
A5E
  8
DATA
  6
CONTINUOUS
 62
     7
 10
-50.058422424092313
 20
-39.707335921332387
 30
0.0
  0
VERTEX
  5
A5F
  8
DATA
  6
CONTINUOUS
 62
     7
 10
-50.074058619240922
 20
-39.707188732444962
 30
0.0
  0
VERTEX
  5
A60
  8
DATA
  6
CONTINUOUS
 62
     7
 10
-50.0896617710412
 20
-39.707008834915861
 30
0.0
  0
VERTEX
  5
A61
  8
DATA
  6
CONTINUOUS
 62
     7
 10
-50.105231879493147
 20
-39.706796228745112
 30
0.0
  0
VERTEX
  5
A62
  8
DATA
  6
CONTINUOUS
 62
     7
 10
-50.120768944596783
 20
-39.706550913932702
 30
0.0
  0
VERTEX
  5
A63
  8
DATA
  6
CONTINUOUS
 62
     7
 10
-50.136272966352081
 20
-39.706272890478637
 30
0.0
  0
VERTEX
  5
A64
  8
DATA
  6
CONTINUOUS
 62
     7
 10
-50.151743944759033
 20
-39.705962158382931
 30
0.0
  0
VERTEX
  5
A65
  8
DATA
  6
CONTINUOUS
 62
     7
 10
-50.167181879817669
 20
-39.705618717645571
 30
0.0
  0
VERTEX
  5
A66
  8
DATA
  6
CONTINUOUS
 62
     7
 10
-50.182586771527987
 20
-39.705242568266549
 30
0.0
  0
VERTEX
  5
A67
  8
DATA
  6
CONTINUOUS
 62
     7
 10
-50.19795861988996
 20
-39.704833710245872
 30
0.0
  0
VERTEX
  5
A68
  8
DATA
  6
CONTINUOUS
 62
     7
 10
-50.213297424903637
 20
-39.70439214358354
 30
0.0
  0
VERTEX
  5
A69
  8
DATA
  6
CONTINUOUS
 62
     7
 10
-50.228603186568961
 20
-39.703917868279547
 30
0.0
  0
VERTEX
  5
A6A
  8
DATA
  6
CONTINUOUS
 62
     7
 10
-50.243875904885961
 20
-39.703410884333913
 30
0.0
  0
VERTEX
  5
A6B
  8
DATA
  6
CONTINUOUS
 62
     7
 10
-50.259115579854623
 20
-39.70287119174661
 30
0.0
  0
VERTEX
  5
A6C
  8
DATA
  6
CONTINUOUS
 62
     7
 10
-50.274322211474981
 20
-39.702298790517652
 30
0.0
  0
VERTEX
  5
A6D
  8
DATA
  6
CONTINUOUS
 62
     7
 10
-50.28949579974698
 20
-39.701693680647061
 30
0.0
  0
VERTEX
  5
A6E
  8
DATA
  6
CONTINUOUS
 62
     7
 10
-50.304636344670683
 20
-39.701055862134801
 30
0.0
  0
VERTEX
  5
A6F
  8
DATA
  6
CONTINUOUS
 62
     7
 10
-50.319743846246041
 20
-39.700385334980901
 30
0.0
  0
VERTEX
  5
A70
  8
DATA
  6
CONTINUOUS
 62
     7
 10
-50.334818304473067
 20
-39.699682099185331
 30
0.0
  0
VERTEX
  5
A71
  8
DATA
  6
CONTINUOUS
 62
     7
 10
-50.349859719351748
 20
-39.6989461547481
 30
0.0
  0
VERTEX
  5
A72
  8
DATA
  6
CONTINUOUS
 62
     7
 10
-50.36486809088214
 20
-39.698177501669228
 30
0.0
  0
VERTEX
  5
A73
  8
DATA
  6
CONTINUOUS
 62
     7
 10
-50.37984341906418
 20
-39.697376139948702
 30
0.0
  0
VERTEX
  5
A74
  8
DATA
  6
CONTINUOUS
 62
     7
 10
-50.394785703897888
 20
-39.696542069586513
 30
0.0
  0
VERTEX
  5
A75
  8
DATA
  6
CONTINUOUS
 62
     7
 10
-50.409694945383293
 20
-39.695675290582678
 30
0.0
  0
VERTEX
  5
A76
  8
DATA
  6
CONTINUOUS
 62
     7
 10
-50.42457114352036
 20
-39.694775802937187
 30
0.0
  0
VERTEX
  5
A77
  8
DATA
  6
CONTINUOUS
 62
     7
 10
-50.439414298309082
 20
-39.693843606650049
 30
0.0
  0
VERTEX
  5
A78
  8
DATA
  6
CONTINUOUS
 62
     7
 10
-50.454224409749493
 20
-39.692878701721249
 30
0.0
  0
VERTEX
  5
A79
  8
DATA
  6
CONTINUOUS
 62
     7
 10
-50.469001477841573
 20
-39.691881088150801
 30
0.0
  0
VERTEX
  5
A7A
  8
DATA
  6
CONTINUOUS
 62
     7
 10
-50.483745502585307
 20
-39.690850765938691
 30
0.0
  0
VERTEX
  5
A7B
  8
DATA
  6
CONTINUOUS
 62
     7
 10
-50.498456483980718
 20
-39.689787735084927
 30
0.0
  0
VERTEX
  5
A7C
  8
DATA
  6
CONTINUOUS
 62
     7
 10
-50.513134422027832
 20
-39.688691995589522
 30
0.0
  0
VERTEX
  5
A7D
  8
DATA
  6
CONTINUOUS
 62
     7
 10
-50.527779316726573
 20
-39.687563547452442
 30
0.0
  0
VERTEX
  5
A7E
  8
DATA
  6
CONTINUOUS
 62
     7
 10
-50.542391168077032
 20
-39.68640239067372
 30
0.0
  0
VERTEX
  5
A7F
  8
DATA
  6
CONTINUOUS
 62
     7
 10
-50.556969976079131
 20
-39.685208525253351
 30
0.0
  0
VERTEX
  5
A80
  8
DATA
  6
CONTINUOUS
 62
     7
 10
-50.571515740732913
 20
-39.683981951191321
 30
0.0
  0
VERTEX
  5
A81
  8
DATA
  6
CONTINUOUS
 62
     7
 10
-50.586028462038357
 20
-39.682722668487628
 30
0.0
  0
VERTEX
  5
A82
  8
DATA
  6
CONTINUOUS
 62
     7
 10
-50.600508139995483
 20
-39.681430677142288
 30
0.0
  0
VERTEX
  5
A83
  8
DATA
  6
CONTINUOUS
 62
     7
 10
-50.614954774604271
 20
-39.680105977155293
 30
0.0
  0
VERTEX
  5
A84
  8
DATA
  6
CONTINUOUS
 62
     7
 10
-50.629368365864742
 20
-39.67874856852665
 30
0.0
  0
VERTEX
  5
A85
  8
DATA
  6
CONTINUOUS
 62
     7
 10
-50.643748913776882
 20
-39.677358451256339
 30
0.0
  0
VERTEX
  5
A86
  8
DATA
  6
CONTINUOUS
 62
     7
 10
-50.658096418340683
 20
-39.675935625344387
 30
0.0
  0
VERTEX
  5
A87
  8
DATA
  6
CONTINUOUS
 62
     7
 10
-50.672410879556168
 20
-39.67448009079078
 30
0.0
  0
VERTEX
  5
A88
  8
DATA
  6
CONTINUOUS
 62
     7
 10
-50.686692297423328
 20
-39.672991847595497
 30
0.0
  0
VERTEX
  5
A89
  8
DATA
  6
CONTINUOUS
 62
     7
 10
-50.700940671942142
 20
-39.671470895758603
 30
0.0
  0
VERTEX
  5
A8A
  8
DATA
  6
CONTINUOUS
 62
     7
 10
-50.715156003112639
 20
-39.669917235280018
 30
0.0
  0
VERTEX
  5
A8B
  8
DATA
  6
CONTINUOUS
 62
     7
 10
-50.729338290934813
 20
-39.668330866159792
 30
0.0
  0
VERTEX
  5
A8C
  8
DATA
  6
CONTINUOUS
 62
     7
 10
-50.74348753540864
 20
-39.666711788397912
 30
0.0
  0
VERTEX
  5
A8D
  8
DATA
  6
CONTINUOUS
 62
     7
 10
-50.757603736534158
 20
-39.66506000199437
 30
0.0
  0
VERTEX
  5
A8E
  8
DATA
  6
CONTINUOUS
 62
     7
 10
-50.771686894311337
 20
-39.66337550694918
 30
0.0
  0
VERTEX
  5
A8F
  8
DATA
  6
CONTINUOUS
 62
     7
 10
-50.785737008740199
 20
-39.661658303262342
 30
0.0
  0
VERTEX
  5
A90
  8
DATA
  6
CONTINUOUS
 62
     7
 10
-50.799754079820723
 20
-39.65990839093385
 30
0.0
  0
VERTEX
  5
A91
  8
DATA
  6
CONTINUOUS
 62
     7
 10
-50.813738107552922
 20
-39.658125769963682
 30
0.0
  0
VERTEX
  5
A92
  8
DATA
  6
CONTINUOUS
 62
     7
 10
-50.82768909193679
 20
-39.656310440351866
 30
0.0
  0
VERTEX
  5
A93
  8
DATA
  6
CONTINUOUS
 62
     7
 10
-50.841607032972348
 20
-39.65446240209841
 30
0.0
  0
VERTEX
  5
A94
  8
DATA
  6
CONTINUOUS
 62
     7
 10
-50.855491930659539
 20
-39.652581655203292
 30
0.0
  0
VERTEX
  5
A95
  8
DATA
  6
CONTINUOUS
 62
     7
 10
-50.869343784998442
 20
-39.650668199666526
 30
0.0
  0
VERTEX
  5
A96
  8
DATA
  6
CONTINUOUS
 62
     7
 10
-50.883162595988992
 20
-39.648722035488092
 30
0.0
  0
VERTEX
  5
A97
  8
DATA
  6
CONTINUOUS
 62
     7
 10
-50.896948363631218
 20
-39.646743162668017
 30
0.0
  0
VERTEX
  5
A98
  8
DATA
  6
CONTINUOUS
 62
     7
 10
-50.910701087925119
 20
-39.644731581206287
 30
0.0
  0
VERTEX
  5
A99
  8
DATA
  6
CONTINUOUS
 62
     7
 10
-50.924420768870689
 20
-39.642687291102902
 30
0.0
  0
VERTEX
  5
A9A
  8
DATA
  6
CONTINUOUS
 62
     7
 10
-50.938107406467942
 20
-39.640610292357849
 30
0.0
  0
VERTEX
  5
A9B
  8
DATA
  6
CONTINUOUS
 62
     7
 10
-50.938107406467942
 20
-39.640610292357849
 30
0.0
  0
VERTEX
  5
A9C
  8
DATA
  6
CONTINUOUS
 62
     7
 10
-50.951732384337781
 20
-39.638504967098228
 30
0.0
  0
VERTEX
  5
A9D
  8
DATA
  6
CONTINUOUS
 62
     7
 10
-50.965267086101122
 20
-39.636375697451051
 30
0.0
  0
VERTEX
  5
A9E
  8
DATA
  6
CONTINUOUS
 62
     7
 10
-50.978711511757993
 20
-39.634222483416352
 30
0.0
  0
VERTEX
  5
A9F
  8
DATA
  6
CONTINUOUS
 62
     7
 10
-50.992065661308366
 20
-39.632045324994102
 30
0.0
  0
VERTEX
  5
AA0
  8
DATA
  6
CONTINUOUS
 62
     7
 10
-51.005329534752278
 20
-39.629844222184317
 30
0.0
  0
VERTEX
  5
AA1
  8
DATA
  6
CONTINUOUS
 62
     7
 10
-51.018503132089691
 20
-39.627619174986982
 30
0.0
  0
VERTEX
  5
AA2
  8
DATA
  6
CONTINUOUS
 62
     7
 10
-51.031586453320607
 20
-39.625370183402119
 30
0.0
  0
VERTEX
  5
AA3
  8
DATA
  6
CONTINUOUS
 62
     7
 10
-51.04457949844506
 20
-39.623097247429719
 30
0.0
  0
VERTEX
  5
AA4
  8
DATA
  6
CONTINUOUS
 62
     7
 10
-51.057482267463023
 20
-39.620800367069783
 30
0.0
  0
VERTEX
  5
AA5
  8
DATA
  6
CONTINUOUS
 62
     7
 10
-51.070294760374502
 20
-39.618479542322312
 30
0.0
  0
VERTEX
  5
AA6
  8
DATA
  6
CONTINUOUS
 62
     7
 10
-51.083016977179483
 20
-39.616134773187298
 30
0.0
  0
VERTEX
  5
AA7
  8
DATA
  6
CONTINUOUS
 62
     7
 10
-51.09564891787798
 20
-39.613766059664762
 30
0.0
  0
VERTEX
  5
AA8
  8
DATA
  6
CONTINUOUS
 62
     7
 10
-51.108190582469987
 20
-39.611373401754662
 30
0.0
  0
VERTEX
  5
AA9
  8
DATA
  6
CONTINUOUS
 62
     7
 10
-51.120641970955532
 20
-39.608956799457047
 30
0.0
  0
VERTEX
  5
AAA
  8
DATA
  6
CONTINUOUS
 62
     7
 10
-51.133003083334579
 20
-39.606516252771883
 30
0.0
  0
VERTEX
  5
AAB
  8
DATA
  6
CONTINUOUS
 62
     7
 10
-51.145273919607142
 20
-39.604051761699182
 30
0.0
  0
VERTEX
  5
AAC
  8
DATA
  6
CONTINUOUS
 62
     7
 10
-51.15745447977325
 20
-39.601563326238953
 30
0.0
  0
VERTEX
  5
AAD
  8
DATA
  6
CONTINUOUS
 62
     7
 10
-51.16954476383281
 20
-39.599050946391174
 30
0.0
  0
VERTEX
  5
AAE
  8
DATA
  6
CONTINUOUS
 62
     7
 10
-51.18154477178593
 20
-39.596514622155851
 30
0.0
  0
VERTEX
  5
AAF
  8
DATA
  6
CONTINUOUS
 62
     7
 10
-51.193454503632552
 20
-39.593954353533007
 30
0.0
  0
VERTEX
  5
AB0
  8
DATA
  6
CONTINUOUS
 62
     7
 10
-51.20527395937269
 20
-39.591370140522621
 30
0.0
  0
VERTEX
  5
AB1
  8
DATA
  6
CONTINUOUS
 62
     7
 10
-51.217003139006337
 20
-39.588761983124698
 30
0.0
  0
VERTEX
  5
AB2
  8
DATA
  6
CONTINUOUS
 62
     7
 10
-51.228642042533522
 20
-39.586129881339239
 30
0.0
  0
VERTEX
  5
AB3
  8
DATA
  6
CONTINUOUS
 62
     7
 10
-51.240190669954202
 20
-39.583473835166252
 30
0.0
  0
VERTEX
  5
AB4
  8
DATA
  6
CONTINUOUS
 62
     7
 10
-51.251649021268378
 20
-39.580793844605708
 30
0.0
  0
VERTEX
  5
AB5
  8
DATA
  6
CONTINUOUS
 62
     7
 10
-51.263017096476091
 20
-39.578089909657642
 30
0.0
  0
VERTEX
  5
AB6
  8
DATA
  6
CONTINUOUS
 62
     7
 10
-51.274294895577327
 20
-39.575362030322033
 30
0.0
  0
VERTEX
  5
AB7
  8
DATA
  6
CONTINUOUS
 62
     7
 10
-51.285482418572073
 20
-39.572610206598881
 30
0.0
  0
VERTEX
  5
AB8
  8
DATA
  6
CONTINUOUS
 62
     7
 10
-51.296579665460349
 20
-39.569834438488193
 30
0.0
  0
VERTEX
  5
AB9
  8
DATA
  6
CONTINUOUS
 62
     7
 10
-51.307586636242107
 20
-39.567034725989963
 30
0.0
  0
VERTEX
  5
ABA
  8
DATA
  6
CONTINUOUS
 62
     7
 10
-51.318503330917402
 20
-39.564211069104211
 30
0.0
  0
VERTEX
  5
ABB
  8
DATA
  6
CONTINUOUS
 62
     7
 10
-51.329329749486199
 20
-39.561363467830923
 30
0.0
  0
VERTEX
  5
ABC
  8
DATA
  6
CONTINUOUS
 62
     7
 10
-51.340065891948527
 20
-39.558491922170077
 30
0.0
  0
VERTEX
  5
ABD
  8
DATA
  6
CONTINUOUS
 62
     7
 10
-51.350711758304357
 20
-39.55559643212171
 30
0.0
  0
VERTEX
  5
ABE
  8
DATA
  6
CONTINUOUS
 62
     7
 10
-51.361267348553717
 20
-39.552676997685801
 30
0.0
  0
VERTEX
  5
ABF
  8
DATA
  6
CONTINUOUS
 62
     7
 10
-51.371732662696573
 20
-39.549733618862341
 30
0.0
  0
VERTEX
  5
AC0
  8
DATA
  6
CONTINUOUS
 62
     7
 10
-51.382107700732959
 20
-39.546766295651373
 30
0.0
  0
VERTEX
  5
AC1
  8
DATA
  6
CONTINUOUS
 62
     7
 10
-51.392392462662848
 20
-39.543775028052849
 30
0.0
  0
VERTEX
  5
AC2
  8
DATA
  6
CONTINUOUS
 62
     7
 10
-51.402586948486253
 20
-39.540759816066789
 30
0.0
  0
VERTEX
  5
AC3
  8
DATA
  6
CONTINUOUS
 62
     7
 10
-51.412691158203181
 20
-39.537720659693193
 30
0.0
  0
VERTEX
  5
AC4
  8
DATA
  6
CONTINUOUS
 62
     7
 10
-51.422705091813611
 20
-39.534657558932061
 30
0.0
  0
VERTEX
  5
AC5
  8
DATA
  6
CONTINUOUS
 62
     7
 10
-51.432628749317573
 20
-39.531570513783393
 30
0.0
  0
VERTEX
  5
AC6
  8
DATA
  6
CONTINUOUS
 62
     7
 10
-51.442462130715043
 20
-39.528459524247189
 30
0.0
  0
VERTEX
  5
AC7
  8
DATA
  6
CONTINUOUS
 62
     7
 10
-51.45220523600603
 20
-39.525324590323443
 30
0.0
  0
VERTEX
  5
AC8
  8
DATA
  6
CONTINUOUS
 62
     7
 10
-51.461858065190533
 20
-39.522165712012153
 30
0.0
  0
VERTEX
  5
AC9
  8
DATA
  6
CONTINUOUS
 62
     7
 10
-51.471420618268539
 20
-39.518982889313321
 30
0.0
  0
VERTEX
  5
ACA
  8
DATA
  6
CONTINUOUS
 62
     7
 10
-51.480892895240082
 20
-39.515776122226967
 30
0.0
  0
VERTEX
  5
ACB
  8
DATA
  6
CONTINUOUS
 62
     7
 10
-51.49027489610512
 20
-39.51254541075307
 30
0.0
  0
VERTEX
  5
ACC
  8
DATA
  6
CONTINUOUS
 62
     7
 10
-51.499566620863668
 20
-39.509290754891637
 30
0.0
  0
VERTEX
  5
ACD
  8
DATA
  6
CONTINUOUS
 62
     7
 10
-51.50876806951576
 20
-39.506012154642661
 30
0.0
  0
VERTEX
  5
ACE
  8
DATA
  6
CONTINUOUS
 62
     7
 10
-51.517879242061362
 20
-39.502709610006157
 30
0.0
  0
VERTEX
  5
ACF
  8
DATA
  6
CONTINUOUS
 62
     7
 10
-51.526900138500451
 20
-39.499383120982117
 30
0.0
  0
VERTEX
  5
AD0
  8
DATA
  6
CONTINUOUS
 62
     7
 10
-51.535830758833072
 20
-39.496032687570533
 30
0.0
  0
VERTEX
  5
AD1
  8
DATA
  6
CONTINUOUS
 62
     7
 10
-51.544671103059223
 20
-39.492658309771407
 30
0.0
  0
VERTEX
  5
AD2
  8
DATA
  6
CONTINUOUS
 62
     7
 10
-51.553421171178861
 20
-39.489259987584752
 30
0.0
  0
VERTEX
  5
AD3
  8
DATA
  6
CONTINUOUS
 62
     7
 10
-51.562080963192017
 20
-39.485837721010562
 30
0.0
  0
VERTEX
  5
AD4
  8
DATA
  6
CONTINUOUS
 62
     7
 10
-51.570650479098703
 20
-39.482391510048821
 30
0.0
  0
VERTEX
  5
AD5
  8
DATA
  6
CONTINUOUS
 62
     7
 10
-51.579129718898891
 20
-39.478921354699551
 30
0.0
  0
VERTEX
  5
AD6
  8
DATA
  6
CONTINUOUS
 62
     7
 10
-51.587518682592609
 20
-39.475427254962732
 30
0.0
  0
VERTEX
  5
AD7
  8
DATA
  6
CONTINUOUS
 62
     7
 10
-51.595817370179823
 20
-39.47190921083839
 30
0.0
  0
VERTEX
  5
AD8
  8
DATA
  6
CONTINUOUS
 62
     7
 10
-51.604025781660567
 20
-39.468367222326513
 30
0.0
  0
VERTEX
  5
AD9
  8
DATA
  6
CONTINUOUS
 62
     7
 10
-51.612143917034842
 20
-39.464801289427101
 30
0.0
  0
VERTEX
  5
ADA
  8
DATA
  6
CONTINUOUS
 62
     7
 10
-51.620171776302612
 20
-39.461211412140131
 30
0.0
  0
VERTEX
  5
ADB
  8
DATA
  6
CONTINUOUS
 62
     7
 10
-51.628109359463892
 20
-39.457597590465639
 30
0.0
  0
VERTEX
  5
ADC
  8
DATA
  6
CONTINUOUS
 62
     7
 10
-51.628109359463892
 20
-39.457597590465639
 30
0.0
  0
VERTEX
  5
ADD
  8
DATA
  6
CONTINUOUS
 62
     7
 10
-51.635940144844533
 20
-39.453967414470313
 30
0.0
  0
VERTEX
  5
ADE
  8
DATA
  6
CONTINUOUS
 62
     7
 10
-51.643647610770351
 20
-39.450328474220882
 30
0.0
  0
VERTEX
  5
ADF
  8
DATA
  6
CONTINUOUS
 62
     7
 10
-51.651231757241362
 20
-39.446680769717318
 30
0.0
  0
VERTEX
  5
AE0
  8
DATA
  6
CONTINUOUS
 62
     7
 10
-51.658692584257572
 20
-39.44302430095965
 30
0.0
  0
VERTEX
  5
AE1
  8
DATA
  6
CONTINUOUS
 62
     7
 10
-51.666030091818953
 20
-39.439359067947848
 30
0.0
  0
VERTEX
  5
AE2
  8
DATA
  6
CONTINUOUS
 62
     7
 10
-51.673244279925498
 20
-39.435685070681963
 30
0.0
  0
VERTEX
  5
AE3
  8
DATA
  6
CONTINUOUS
 62
     7
 10
-51.680335148577271
 20
-39.43200230916193
 30
0.0
  0
VERTEX
  5
AE4
  8
DATA
  6
CONTINUOUS
 62
     7
 10
-51.687302697774221
 20
-39.428310783387793
 30
0.0
  0
VERTEX
  5
AE5
  8
DATA
  6
CONTINUOUS
 62
     7
 10
-51.694146927516357
 20
-39.42461049335953
 30
0.0
  0
VERTEX
  5
AE6
  8
DATA
  6
CONTINUOUS
 62
     7
 10
-51.700867837803671
 20
-39.420901439077163
 30
0.0
  0
VERTEX
  5
AE7
  8
DATA
  6
CONTINUOUS
 62
     7
 10
-51.707465428636183
 20
-39.417183620540662
 30
0.0
  0
VERTEX
  5
AE8
  8
DATA
  6
CONTINUOUS
 62
     7
 10
-51.71393970001386
 20
-39.413457037750057
 30
0.0
  0
VERTEX
  5
AE9
  8
DATA
  6
CONTINUOUS
 62
     7
 10
-51.72029065193675
 20
-39.409721690705339
 30
0.0
  0
VERTEX
  5
AEA
  8
DATA
  6
CONTINUOUS
 62
     7
 10
-51.726518284404818
 20
-39.405977579406489
 30
0.0
  0
VERTEX
  5
AEB
  8
DATA
  6
CONTINUOUS
 62
     7
 10
-51.732622597418072
 20
-39.402224703853541
 30
0.0
  0
VERTEX
  5
AEC
  8
DATA
  6
CONTINUOUS
 62
     7
 10
-51.738603590976503
 20
-39.398463064046467
 30
0.0
  0
VERTEX
  5
AED
  8
DATA
  6
CONTINUOUS
 62
     7
 10
-51.74446126508014
 20
-39.394692659985282
 30
0.0
  0
VERTEX
  5
AEE
  8
DATA
  6
CONTINUOUS
 62
     7
 10
-51.750195619728949
 20
-39.390913491669963
 30
0.0
  0
VERTEX
  5
AEF
  8
DATA
  6
CONTINUOUS
 62
     7
 10
-51.755806654922949
 20
-39.387125559100532
 30
0.0
  0
VERTEX
  5
AF0
  8
DATA
  6
CONTINUOUS
 62
     7
 10
-51.761294370662128
 20
-39.383328862276997
 30
0.0
  0
VERTEX
  5
AF1
  8
DATA
  6
CONTINUOUS
 62
     7
 10
-51.766658766946499
 20
-39.37952340119935
 30
0.0
  0
VERTEX
  5
AF2
  8
DATA
  6
CONTINUOUS
 62
     7
 10
-51.771899843776083
 20
-39.375709175867577
 30
0.0
  0
VERTEX
  5
AF3
  8
DATA
  6
CONTINUOUS
 62
     7
 10
-51.77701760115081
 20
-39.371886186281692
 30
0.0
  0
VERTEX
  5
AF4
  8
DATA
  6
CONTINUOUS
 62
     7
 10
-51.78201203907075
 20
-39.368054432441681
 30
0.0
  0
VERTEX
  5
AF5
  8
DATA
  6
CONTINUOUS
 62
     7
 10
-51.786883157535861
 20
-39.364213914347573
 30
0.0
  0
VERTEX
  5
AF6
  8
DATA
  6
CONTINUOUS
 62
     7
 10
-51.791630956546172
 20
-39.360364631999317
 30
0.0
  0
VERTEX
  5
AF7
  8
DATA
  6
CONTINUOUS
 62
     7
 10
-51.796255436101681
 20
-39.356506585396957
 30
0.0
  0
VERTEX
  5
AF8
  8
DATA
  6
CONTINUOUS
 62
     7
 10
-51.800756596202348
 20
-39.352639774540478
 30
0.0
  0
VERTEX
  5
AF9
  8
DATA
  6
CONTINUOUS
 62
     7
 10
-51.805134436848213
 20
-39.348764199429887
 30
0.0
  0
VERTEX
  5
AFA
  8
DATA
  6
CONTINUOUS
 62
     7
 10
-51.809388958039257
 20
-39.344879860065177
 30
0.0
  0
VERTEX
  5
AFB
  8
DATA
  6
CONTINUOUS
 62
     7
 10
-51.813520159775507
 20
-39.340986756446362
 30
0.0
  0
VERTEX
  5
AFC
  8
DATA
  6
CONTINUOUS
 62
     7
 10
-51.817528042056942
 20
-39.337084888573408
 30
0.0
  0
VERTEX
  5
AFD
  8
DATA
  6
CONTINUOUS
 62
     7
 10
-51.821412604883562
 20
-39.333174256446362
 30
0.0
  0
VERTEX
  5
AFE
  8
DATA
  6
CONTINUOUS
 62
     7
 10
-51.825173848255361
 20
-39.329254860065177
 30
0.0
  0
VERTEX
  5
AFF
  8
DATA
  6
CONTINUOUS
 62
     7
 10
-51.828811772172358
 20
-39.325326699429887
 30
0.0
  0
VERTEX
  5
B00
  8
DATA
  6
CONTINUOUS
 62
     7
 10
-51.832326376634533
 20
-39.321389774540478
 30
0.0
  0
VERTEX
  5
B01
  8
DATA
  6
CONTINUOUS
 62
     7
 10
-51.835717661641887
 20
-39.317444085396957
 30
0.0
  0
VERTEX
  5
B02
  8
DATA
  6
CONTINUOUS
 62
     7
 10
-51.838985627194432
 20
-39.313489631999317
 30
0.0
  0
VERTEX
  5
B03
  8
DATA
  6
CONTINUOUS
 62
     7
 10
-51.84213027329217
 20
-39.309526414347573
 30
0.0
  0
VERTEX
  5
B04
  8
DATA
  6
CONTINUOUS
 62
     7
 10
-51.845151599935093
 20
-39.305554432441681
 30
0.0
  0
VERTEX
  5
B05
  8
DATA
  6
CONTINUOUS
 62
     7
 10
-51.848049607123201
 20
-39.301573686281692
 30
0.0
  0
VERTEX
  5
B06
  8
DATA
  6
CONTINUOUS
 62
     7
 10
-51.850824294856501
 20
-39.297584175867577
 30
0.0
  0
VERTEX
  5
B07
  8
DATA
  6
CONTINUOUS
 62
     7
 10
-51.853475663134972
 20
-39.29358590119935
 30
0.0
  0
VERTEX
  5
B08
  8
DATA
  6
CONTINUOUS
 62
     7
 10
-51.85600371195865
 20
-39.289578862277011
 30
0.0
  0
VERTEX
  5
B09
  8
DATA
  6
CONTINUOUS
 62
     7
 10
-51.858408441327512
 20
-39.285563059100532
 30
0.0
  0
VERTEX
  5
B0A
  8
DATA
  6
CONTINUOUS
 62
     7
 10
-51.860689851241538
 20
-39.281538491669963
 30
0.0
  0
VERTEX
  5
B0B
  8
DATA
  6
CONTINUOUS
 62
     7
 10
-51.862847941700778
 20
-39.277505159985282
 30
0.0
  0
VERTEX
  5
B0C
  8
DATA
  6
CONTINUOUS
 62
     7
 10
-51.864882712705203
 20
-39.273463064046467
 30
0.0
  0
VERTEX
  5
B0D
  8
DATA
  6
CONTINUOUS
 62
     7
 10
-51.866794164254799
 20
-39.269412203853541
 30
0.0
  0
VERTEX
  5
B0E
  8
DATA
  6
CONTINUOUS
 62
     7
 10
-51.868582296349601
 20
-39.265352579406489
 30
0.0
  0
VERTEX
  5
B0F
  8
DATA
  6
CONTINUOUS
 62
     7
 10
-51.870247108989581
 20
-39.261284190705339
 30
0.0
  0
VERTEX
  5
B10
  8
DATA
  6
CONTINUOUS
 62
     7
 10
-51.871788602174739
 20
-39.257207037750057
 30
0.0
  0
VERTEX
  5
B11
  8
DATA
  6
CONTINUOUS
 62
     7
 10
-51.873206775905103
 20
-39.253121120540662
 30
0.0
  0
VERTEX
  5
B12
  8
DATA
  6
CONTINUOUS
 62
     7
 10
-51.874501630180639
 20
-39.249026439077163
 30
0.0
  0
VERTEX
  5
B13
  8
DATA
  6
CONTINUOUS
 62
     7
 10
-51.875673165001359
 20
-39.24492299335953
 30
0.0
  0
VERTEX
  5
B14
  8
DATA
  6
CONTINUOUS
 62
     7
 10
-51.876721380367272
 20
-39.240810783387793
 30
0.0
  0
VERTEX
  5
B15
  8
DATA
  6
CONTINUOUS
 62
     7
 10
-51.877646276278369
 20
-39.23668980916193
 30
0.0
  0
VERTEX
  5
B16
  8
DATA
  6
CONTINUOUS
 62
     7
 10
-51.878447852734652
 20
-39.232560070681963
 30
0.0
  0
VERTEX
  5
B17
  8
DATA
  6
CONTINUOUS
 62
     7
 10
-51.879126109736127
 20
-39.228421567947848
 30
0.0
  0
VERTEX
  5
B18
  8
DATA
  6
CONTINUOUS
 62
     7
 10
-51.879681047282787
 20
-39.22427430095965
 30
0.0
  0
VERTEX
  5
B19
  8
DATA
  6
CONTINUOUS
 62
     7
 10
-51.880112665374632
 20
-39.220118269717318
 30
0.0
  0
VERTEX
  5
B1A
  8
DATA
  6
CONTINUOUS
 62
     7
 10
-51.880420964011662
 20
-39.215953474220882
 30
0.0
  0
VERTEX
  5
B1B
  8
DATA
  6
CONTINUOUS
 62
     7
 10
-51.880605943193892
 20
-39.211779914470313
 30
0.0
  0
VERTEX
  5
B1C
  8
DATA
  6
CONTINUOUS
 62
     7
 10
-51.880667602921278
 20
-39.207597590465639
 30
0.0
  0
VERTEX
  5
B1D
  8
DATA
  6
CONTINUOUS
 62
     7
 10
-51.880667602921278
 20
-39.207597590465639
 30
0.0
  0
VERTEX
  5
B1E
  8
DATA
  6
CONTINUOUS
 62
     7
 10
-51.880605943193892
 20
-39.203415266460972
 30
0.0
  0
VERTEX
  5
B1F
  8
DATA
  6
CONTINUOUS
 62
     7
 10
-51.880420964011662
 20
-39.199241706710403
 30
0.0
  0
VERTEX
  5
B20
  8
DATA
  6
CONTINUOUS
 62
     7
 10
-51.880112665374632
 20
-39.19507691121396
 30
0.0
  0
VERTEX
  5
B21
  8
DATA
  6
CONTINUOUS
 62
     7
 10
-51.879681047282787
 20
-39.190920879971621
 30
0.0
  0
VERTEX
  5
B22
  8
DATA
  6
CONTINUOUS
 62
     7
 10
-51.879126109736127
 20
-39.186773612983423
 30
0.0
  0
VERTEX
  5
B23
  8
DATA
  6
CONTINUOUS
 62
     7
 10
-51.878447852734652
 20
-39.182635110249322
 30
0.0
  0
VERTEX
  5
B24
  8
DATA
  6
CONTINUOUS
 62
     7
 10
-51.877646276278369
 20
-39.178505371769347
 30
0.0
  0
VERTEX
  5
B25
  8
DATA
  6
CONTINUOUS
 62
     7
 10
-51.876721380367272
 20
-39.174384397543491
 30
0.0
  0
VERTEX
  5
B26
  8
DATA
  6
CONTINUOUS
 62
     7
 10
-51.875673165001359
 20
-39.17027218757174
 30
0.0
  0
VERTEX
  5
B27
  8
DATA
  6
CONTINUOUS
 62
     7
 10
-51.874501630180639
 20
-39.166168741854122
 30
0.0
  0
VERTEX
  5
B28
  8
DATA
  6
CONTINUOUS
 62
     7
 10
-51.873206775905103
 20
-39.162074060390609
 30
0.0
  0
VERTEX
  5
B29
  8
DATA
  6
CONTINUOUS
 62
     7
 10
-51.871788602174739
 20
-39.157988143181221
 30
0.0
  0
VERTEX
  5
B2A
  8
DATA
  6
CONTINUOUS
 62
     7
 10
-51.870247108989581
 20
-39.153910990225938
 30
0.0
  0
VERTEX
  5
B2B
  8
DATA
  6
CONTINUOUS
 62
     7
 10
-51.868582296349601
 20
-39.149842601524782
 30
0.0
  0
VERTEX
  5
B2C
  8
DATA
  6
CONTINUOUS
 62
     7
 10
-51.866794164254799
 20
-39.145782977077729
 30
0.0
  0
VERTEX
  5
B2D
  8
DATA
  6
CONTINUOUS
 62
     7
 10
-51.864882712705203
 20
-39.14173211688481
 30
0.0
  0
VERTEX
  5
B2E
  8
DATA
  6
CONTINUOUS
 62
     7
 10
-51.862847941700778
 20
-39.137690020946003
 30
0.0
  0
VERTEX
  5
B2F
  8
DATA
  6
CONTINUOUS
 62
     7
 10
-51.860689851241538
 20
-39.133656689261322
 30
0.0
  0
VERTEX
  5
B30
  8
DATA
  6
CONTINUOUS
 62
     7
 10
-51.858408441327512
 20
-39.129632121830738
 30
0.0
  0
VERTEX
  5
B31
  8
DATA
  6
CONTINUOUS
 62
     7
 10
-51.85600371195865
 20
-39.125616318654281
 30
0.0
  0
VERTEX
  5
B32
  8
DATA
  6
CONTINUOUS
 62
     7
 10
-51.853475663134972
 20
-39.121609279731928
 30
0.0
  0
VERTEX
  5
B33
  8
DATA
  6
CONTINUOUS
 62
     7
 10
-51.850824294856501
 20
-39.117611005063701
 30
0.0
  0
VERTEX
  5
B34
  8
DATA
  6
CONTINUOUS
 62
     7
 10
-51.848049607123201
 20
-39.113621494649593
 30
0.0
  0
VERTEX
  5
B35
  8
DATA
  6
CONTINUOUS
 62
     7
 10
-51.845151599935093
 20
-39.109640748489603
 30
0.0
  0
VERTEX
  5
B36
  8
DATA
  6
CONTINUOUS
 62
     7
 10
-51.84213027329217
 20
-39.105668766583719
 30
0.0
  0
VERTEX
  5
B37
  8
DATA
  6
CONTINUOUS
 62
     7
 10
-51.838985627194432
 20
-39.10170554893196
 30
0.0
  0
VERTEX
  5
B38
  8
DATA
  6
CONTINUOUS
 62
     7
 10
-51.835717661641887
 20
-39.097751095534321
 30
0.0
  0
VERTEX
  5
B39
  8
DATA
  6
CONTINUOUS
 62
     7
 10
-51.832326376634533
 20
-39.093805406390793
 30
0.0
  0
VERTEX
  5
B3A
  8
DATA
  6
CONTINUOUS
 62
     7
 10
-51.828811772172358
 20
-39.089868481501391
 30
0.0
  0
VERTEX
  5
B3B
  8
DATA
  6
CONTINUOUS
 62
     7
 10
-51.825173848255361
 20
-39.085940320866101
 30
0.0
  0
VERTEX
  5
B3C
  8
DATA
  6
CONTINUOUS
 62
     7
 10
-51.821412604883562
 20
-39.082020924484922
 30
0.0
  0
VERTEX
  5
B3D
  8
DATA
  6
CONTINUOUS
 62
     7
 10
-51.817528042056942
 20
-39.078110292357849
 30
0.0
  0
VERTEX
  5
B3E
  8
DATA
  6
CONTINUOUS
 62
     7
 10
-51.813520159775507
 20
-39.074208424484922
 30
0.0
  0
VERTEX
  5
B3F
  8
DATA
  6
CONTINUOUS
 62
     7
 10
-51.809388958039257
 20
-39.070315320866086
 30
0.0
  0
VERTEX
  5
B40
  8
DATA
  6
CONTINUOUS
 62
     7
 10
-51.805134436848213
 20
-39.066430981501391
 30
0.0
  0
VERTEX
  5
B41
  8
DATA
  6
CONTINUOUS
 62
     7
 10
-51.800756596202348
 20
-39.062555406390793
 30
0.0
  0
VERTEX
  5
B42
  8
DATA
  6
CONTINUOUS
 62
     7
 10
-51.796255436101681
 20
-39.058688595534321
 30
0.0
  0
VERTEX
  5
B43
  8
DATA
  6
CONTINUOUS
 62
     7
 10
-51.791630956546172
 20
-39.05483054893196
 30
0.0
  0
VERTEX
  5
B44
  8
DATA
  6
CONTINUOUS
 62
     7
 10
-51.786883157535861
 20
-39.050981266583719
 30
0.0
  0
VERTEX
  5
B45
  8
DATA
  6
CONTINUOUS
 62
     7
 10
-51.78201203907075
 20
-39.047140748489603
 30
0.0
  0
VERTEX
  5
B46
  8
DATA
  6
CONTINUOUS
 62
     7
 10
-51.77701760115081
 20
-39.043308994649593
 30
0.0
  0
VERTEX
  5
B47
  8
DATA
  6
CONTINUOUS
 62
     7
 10
-51.771899843776083
 20
-39.039486005063701
 30
0.0
  0
VERTEX
  5
B48
  8
DATA
  6
CONTINUOUS
 62
     7
 10
-51.766658766946499
 20
-39.035671779731942
 30
0.0
  0
VERTEX
  5
B49
  8
DATA
  6
CONTINUOUS
 62
     7
 10
-51.761294370662128
 20
-39.031866318654266
 30
0.0
  0
VERTEX
  5
B4A
  8
DATA
  6
CONTINUOUS
 62
     7
 10
-51.755806654922949
 20
-39.028069621830738
 30
0.0
  0
VERTEX
  5
B4B
  8
DATA
  6
CONTINUOUS
 62
     7
 10
-51.750195619728949
 20
-39.024281689261322
 30
0.0
  0
VERTEX
  5
B4C
  8
DATA
  6
CONTINUOUS
 62
     7
 10
-51.74446126508014
 20
-39.020502520946003
 30
0.0
  0
VERTEX
  5
B4D
  8
DATA
  6
CONTINUOUS
 62
     7
 10
-51.738603590976503
 20
-39.01673211688481
 30
0.0
  0
VERTEX
  5
B4E
  8
DATA
  6
CONTINUOUS
 62
     7
 10
-51.732622597418072
 20
-39.012970477077729
 30
0.0
  0
VERTEX
  5
B4F
  8
DATA
  6
CONTINUOUS
 62
     7
 10
-51.726518284404818
 20
-39.009217601524782
 30
0.0
  0
VERTEX
  5
B50
  8
DATA
  6
CONTINUOUS
 62
     7
 10
-51.72029065193675
 20
-39.005473490225938
 30
0.0
  0
VERTEX
  5
B51
  8
DATA
  6
CONTINUOUS
 62
     7
 10
-51.71393970001386
 20
-39.001738143181221
 30
0.0
  0
VERTEX
  5
B52
  8
DATA
  6
CONTINUOUS
 62
     7
 10
-51.707465428636183
 20
-38.998011560390609
 30
0.0
  0
VERTEX
  5
B53
  8
DATA
  6
CONTINUOUS
 62
     7
 10
-51.700867837803671
 20
-38.994293741854122
 30
0.0
  0
VERTEX
  5
B54
  8
DATA
  6
CONTINUOUS
 62
     7
 10
-51.694146927516357
 20
-38.99058468757174
 30
0.0
  0
VERTEX
  5
B55
  8
DATA
  6
CONTINUOUS
 62
     7
 10
-51.687302697774221
 20
-38.986884397543491
 30
0.0
  0
VERTEX
  5
B56
  8
DATA
  6
CONTINUOUS
 62
     7
 10
-51.680335148577271
 20
-38.983192871769347
 30
0.0
  0
VERTEX
  5
B57
  8
DATA
  6
CONTINUOUS
 62
     7
 10
-51.673244279925498
 20
-38.979510110249322
 30
0.0
  0
VERTEX
  5
B58
  8
DATA
  6
CONTINUOUS
 62
     7
 10
-51.666030091818953
 20
-38.975836112983423
 30
0.0
  0
VERTEX
  5
B59
  8
DATA
  6
CONTINUOUS
 62
     7
 10
-51.658692584257572
 20
-38.972170879971621
 30
0.0
  0
VERTEX
  5
B5A
  8
DATA
  6
CONTINUOUS
 62
     7
 10
-51.651231757241362
 20
-38.96851441121396
 30
0.0
  0
VERTEX
  5
B5B
  8
DATA
  6
CONTINUOUS
 62
     7
 10
-51.643647610770351
 20
-38.964866706710403
 30
0.0
  0
VERTEX
  5
B5C
  8
DATA
  6
CONTINUOUS
 62
     7
 10
-51.635940144844533
 20
-38.961227766460972
 30
0.0
  0
VERTEX
  5
B5D
  8
DATA
  6
CONTINUOUS
 62
     7
 10
-51.628109359463892
 20
-38.957597590465639
 30
0.0
  0
VERTEX
  5
B5E
  8
DATA
  6
CONTINUOUS
 62
     7
 10
-51.628109359463892
 20
-38.957597590465639
 30
0.0
  0
VERTEX
  5
B5F
  8
DATA
  6
CONTINUOUS
 62
     7
 10
-51.620171776302612
 20
-38.953983768791147
 30
0.0
  0
VERTEX
  5
B60
  8
DATA
  6
CONTINUOUS
 62
     7
 10
-51.612143917034842
 20
-38.95039389150417
 30
0.0
  0
VERTEX
  5
B61
  8
DATA
  6
CONTINUOUS
 62
     7
 10
-51.604025781660567
 20
-38.946827958604771
 30
0.0
  0
VERTEX
  5
B62
  8
DATA
  6
CONTINUOUS
 62
     7
 10
-51.595817370179823
 20
-38.943285970092901
 30
0.0
  0
VERTEX
  5
B63
  8
DATA
  6
CONTINUOUS
 62
     7
 10
-51.587518682592609
 20
-38.939767925968532
 30
0.0
  0
VERTEX
  5
B64
  8
DATA
  6
CONTINUOUS
 62
     7
 10
-51.579129718898891
 20
-38.936273826231727
 30
0.0
  0
VERTEX
  5
B65
  8
DATA
  6
CONTINUOUS
 62
     7
 10
-51.570650479098703
 20
-38.932803670882457
 30
0.0
  0
VERTEX
  5
B66
  8
DATA
  6
CONTINUOUS
 62
     7
 10
-51.562080963192017
 20
-38.92935745992073
 30
0.0
  0
VERTEX
  5
B67
  8
DATA
  6
CONTINUOUS
 62
     7
 10
-51.553421171178861
 20
-38.925935193346533
 30
0.0
  0
VERTEX
  5
B68
  8
DATA
  6
CONTINUOUS
 62
     7
 10
-51.544671103059223
 20
-38.922536871159849
 30
0.0
  0
VERTEX
  5
B69
  8
DATA
  6
CONTINUOUS
 62
     7
 10
-51.535830758833072
 20
-38.919162493360737
 30
0.0
  0
VERTEX
  5
B6A
  8
DATA
  6
CONTINUOUS
 62
     7
 10
-51.526900138500451
 20
-38.915812059949161
 30
0.0
  0
VERTEX
  5
B6B
  8
DATA
  6
CONTINUOUS
 62
     7
 10
-51.517879242061362
 20
-38.912485570925121
 30
0.0
  0
VERTEX
  5
B6C
  8
DATA
  6
CONTINUOUS
 62
     7
 10
-51.50876806951576
 20
-38.909183026288609
 30
0.0
  0
VERTEX
  5
B6D
  8
DATA
  6
CONTINUOUS
 62
     7
 10
-51.499566620863668
 20
-38.90590442603964
 30
0.0
  0
VERTEX
  5
B6E
  8
DATA
  6
CONTINUOUS
 62
     7
 10
-51.49027489610512
 20
-38.902649770178208
 30
0.0
  0
VERTEX
  5
B6F
  8
DATA
  6
CONTINUOUS
 62
     7
 10
-51.480892895240082
 20
-38.899419058704311
 30
0.0
  0
VERTEX
  5
B70
  8
DATA
  6
CONTINUOUS
 62
     7
 10
-51.471420618268539
 20
-38.896212291617971
 30
0.0
  0
VERTEX
  5
B71
  8
DATA
  6
CONTINUOUS
 62
     7
 10
-51.461858065190533
 20
-38.893029468919131
 30
0.0
  0
VERTEX
  5
B72
  8
DATA
  6
CONTINUOUS
 62
     7
 10
-51.45220523600603
 20
-38.889870590607842
 30
0.0
  0
VERTEX
  5
B73
  8
DATA
  6
CONTINUOUS
 62
     7
 10
-51.442462130715043
 20
-38.886735656684102
 30
0.0
  0
VERTEX
  5
B74
  8
DATA
  6
CONTINUOUS
 62
     7
 10
-51.432628749317573
 20
-38.883624667147892
 30
0.0
  0
VERTEX
  5
B75
  8
DATA
  6
CONTINUOUS
 62
     7
 10
-51.422705091813611
 20
-38.880537621999217
 30
0.0
  0
VERTEX
  5
B76
  8
DATA
  6
CONTINUOUS
 62
     7
 10
-51.412691158203181
 20
-38.877474521238092
 30
0.0
  0
VERTEX
  5
B77
  8
DATA
  6
CONTINUOUS
 62
     7
 10
-51.402586948486253
 20
-38.874435364864489
 30
0.0
  0
VERTEX
  5
B78
  8
DATA
  6
CONTINUOUS
 62
     7
 10
-51.392392462662848
 20
-38.871420152878422
 30
0.0
  0
VERTEX
  5
B79
  8
DATA
  6
CONTINUOUS
 62
     7
 10
-51.382107700732959
 20
-38.868428885279911
 30
0.0
  0
VERTEX
  5
B7A
  8
DATA
  6
CONTINUOUS
 62
     7
 10
-51.371732662696573
 20
-38.86546156206893
 30
0.0
  0
VERTEX
  5
B7B
  8
DATA
  6
CONTINUOUS
 62
     7
 10
-51.361267348553717
 20
-38.862518183245477
 30
0.0
  0
VERTEX
  5
B7C
  8
DATA
  6
CONTINUOUS
 62
     7
 10
-51.350711758304357
 20
-38.859598748809582
 30
0.0
  0
VERTEX
  5
B7D
  8
DATA
  6
CONTINUOUS
 62
     7
 10
-51.340065891948527
 20
-38.8567032587612
 30
0.0
  0
VERTEX
  5
B7E
  8
DATA
  6
CONTINUOUS
 62
     7
 10
-51.329329749486199
 20
-38.853831713100348
 30
0.0
  0
VERTEX
  5
B7F
  8
DATA
  6
CONTINUOUS
 62
     7
 10
-51.318503330917402
 20
-38.85098411182706
 30
0.0
  0
VERTEX
  5
B80
  8
DATA
  6
CONTINUOUS
 62
     7
 10
-51.307586636242107
 20
-38.848160454941308
 30
0.0
  0
VERTEX
  5
B81
  8
DATA
  6
CONTINUOUS
 62
     7
 10
-51.296579665460349
 20
-38.845360742443091
 30
0.0
  0
VERTEX
  5
B82
  8
DATA
  6
CONTINUOUS
 62
     7
 10
-51.285482418572073
 20
-38.842584974332397
 30
0.0
  0
VERTEX
  5
B83
  8
DATA
  6
CONTINUOUS
 62
     7
 10
-51.274294895577327
 20
-38.839833150609252
 30
0.0
  0
VERTEX
  5
B84
  8
DATA
  6
CONTINUOUS
 62
     7
 10
-51.263017096476091
 20
-38.837105271273643
 30
0.0
  0
VERTEX
  5
B85
  8
DATA
  6
CONTINUOUS
 62
     7
 10
-51.251649021268378
 20
-38.834401336325563
 30
0.0
  0
VERTEX
  5
B86
  8
DATA
  6
CONTINUOUS
 62
     7
 10
-51.240190669954202
 20
-38.831721345765033
 30
0.0
  0
VERTEX
  5
B87
  8
DATA
  6
CONTINUOUS
 62
     7
 10
-51.228642042533522
 20
-38.829065299592038
 30
0.0
  0
VERTEX
  5
B88
  8
DATA
  6
CONTINUOUS
 62
     7
 10
-51.217003139006337
 20
-38.82643319780658
 30
0.0
  0
VERTEX
  5
B89
  8
DATA
  6
CONTINUOUS
 62
     7
 10
-51.20527395937269
 20
-38.823825040408657
 30
0.0
  0
VERTEX
  5
B8A
  8
DATA
  6
CONTINUOUS
 62
     7
 10
-51.193454503632552
 20
-38.82124082739827
 30
0.0
  0
VERTEX
  5
B8B
  8
DATA
  6
CONTINUOUS
 62
     7
 10
-51.18154477178593
 20
-38.818680558775412
 30
0.0
  0
VERTEX
  5
B8C
  8
DATA
  6
CONTINUOUS
 62
     7
 10
-51.16954476383281
 20
-38.816144234540097
 30
0.0
  0
VERTEX
  5
B8D
  8
DATA
  6
CONTINUOUS
 62
     7
 10
-51.15745447977325
 20
-38.813631854692332
 30
0.0
  0
VERTEX
  5
B8E
  8
DATA
  6
CONTINUOUS
 62
     7
 10
-51.145273919607142
 20
-38.811143419232089
 30
0.0
  0
VERTEX
  5
B8F
  8
DATA
  6
CONTINUOUS
 62
     7
 10
-51.133003083334579
 20
-38.808678928159402
 30
0.0
  0
VERTEX
  5
B90
  8
DATA
  6
CONTINUOUS
 62
     7
 10
-51.120641970955532
 20
-38.80623838147423
 30
0.0
  0
VERTEX
  5
B91
  8
DATA
  6
CONTINUOUS
 62
     7
 10
-51.108190582469987
 20
-38.803821779176609
 30
0.0
  0
VERTEX
  5
B92
  8
DATA
  6
CONTINUOUS
 62
     7
 10
-51.09564891787798
 20
-38.801429121266523
 30
0.0
  0
VERTEX
  5
B93
  8
DATA
  6
CONTINUOUS
 62
     7
 10
-51.083016977179483
 20
-38.79906040774398
 30
0.0
  0
VERTEX
  5
B94
  8
DATA
  6
CONTINUOUS
 62
     7
 10
-51.070294760374502
 20
-38.796715638608973
 30
0.0
  0
VERTEX
  5
B95
  8
DATA
  6
CONTINUOUS
 62
     7
 10
-51.057482267463023
 20
-38.794394813861501
 30
0.0
  0
VERTEX
  5
B96
  8
DATA
  6
CONTINUOUS
 62
     7
 10
-51.04457949844506
 20
-38.792097933501559
 30
0.0
  0
VERTEX
  5
B97
  8
DATA
  6
CONTINUOUS
 62
     7
 10
-51.031586453320607
 20
-38.789824997529159
 30
0.0
  0
VERTEX
  5
B98
  8
DATA
  6
CONTINUOUS
 62
     7
 10
-51.018503132089691
 20
-38.787576005944288
 30
0.0
  0
VERTEX
  5
B99
  8
DATA
  6
CONTINUOUS
 62
     7
 10
-51.005329534752278
 20
-38.785350958746967
 30
0.0
  0
VERTEX
  5
B9A
  8
DATA
  6
CONTINUOUS
 62
     7
 10
-50.992065661308366
 20
-38.783149855937182
 30
0.0
  0
VERTEX
  5
B9B
  8
DATA
  6
CONTINUOUS
 62
     7
 10
-50.978711511757993
 20
-38.78097269751494
 30
0.0
  0
VERTEX
  5
B9C
  8
DATA
  6
CONTINUOUS
 62
     7
 10
-50.965267086101122
 20
-38.77881948348022
 30
0.0
  0
VERTEX
  5
B9D
  8
DATA
  6
CONTINUOUS
 62
     7
 10
-50.951732384337781
 20
-38.776690213833049
 30
0.0
  0
VERTEX
  5
B9E
  8
DATA
  6
CONTINUOUS
 62
     7
 10
-50.938107406467942
 20
-38.774584888573422
 30
0.0
  0
VERTEX
  5
B9F
  8
DATA
  6
CONTINUOUS
 62
     7
 10
-50.938107406467942
 20
-38.774584888573422
 30
0.0
  0
VERTEX
  5
BA0
  8
DATA
  6
CONTINUOUS
 62
     7
 10
-50.930090783356647
 20
-38.773363760032701
 30
0.0
  0
VERTEX
  5
BA1
  8
DATA
  6
CONTINUOUS
 62
     7
 10
-50.922062812551403
 20
-38.77215386424156
 30
0.0
  0
VERTEX
  5
BA2
  8
DATA
  6
CONTINUOUS
 62
     7
 10
-50.914023494052131
 20
-38.770955201199982
 30
0.0
  0
VERTEX
  5
BA3
  8
DATA
  6
CONTINUOUS
 62
     7
 10
-50.905972827858861
 20
-38.769767770907983
 30
0.0
  0
VERTEX
  5
BA4
  8
DATA
  6
CONTINUOUS
 62
     7
 10
-50.897910813971599
 20
-38.768591573365541
 30
0.0
  0
VERTEX
  5
BA5
  8
DATA
  6
CONTINUOUS
 62
     7
 10
-50.889837452390317
 20
-38.767426608572663
 30
0.0
  0
VERTEX
  5
BA6
  8
DATA
  6
CONTINUOUS
 62
     7
 10
-50.881752743115058
 20
-38.766272876529349
 30
0.0
  0
VERTEX
  5
BA7
  8
DATA
  6
CONTINUOUS
 62
     7
 10
-50.873656686145793
 20
-38.765130377235607
 30
0.0
  0
VERTEX
  5
BA8
  8
DATA
  6
CONTINUOUS
 62
     7
 10
-50.865549281482529
 20
-38.763999110691437
 30
0.0
  0
VERTEX
  5
BA9
  8
DATA
  6
CONTINUOUS
 62
     7
 10
-50.857430529125267
 20
-38.76287907689683
 30
0.0
  0
VERTEX
  5
BAA
  8
DATA
  6
CONTINUOUS
 62
     7
 10
-50.849300429073999
 20
-38.761770275851781
 30
0.0
  0
VERTEX
  5
BAB
  8
DATA
  6
CONTINUOUS
 62
     7
 10
-50.841158981328718
 20
-38.760672707556317
 30
0.0
  0
VERTEX
  5
BAC
  8
DATA
  6
CONTINUOUS
 62
     7
 10
-50.83300618588946
 20
-38.759586372010411
 30
0.0
  0
VERTEX
  5
BAD
  8
DATA
  6
CONTINUOUS
 62
     7
 10
-50.824842042756202
 20
-38.758511269214097
 30
0.0
  0
VERTEX
  5
BAE
  8
DATA
  6
CONTINUOUS
 62
     7
 10
-50.816666551928932
 20
-38.757447399167333
 30
0.0
  0
VERTEX
  5
BAF
  8
DATA
  6
CONTINUOUS
 62
     7
 10
-50.808479713407657
 20
-38.756394761870133
 30
0.0
  0
VERTEX
  5
BB0
  8
DATA
  6
CONTINUOUS
 62
     7
 10
-50.800281527192404
 20
-38.755353357322491
 30
0.0
  0
VERTEX
  5
BB1
  8
DATA
  6
CONTINUOUS
 62
     7
 10
-50.79207199328313
 20
-38.754323185524427
 30
0.0
  0
VERTEX
  5
BB2
  8
DATA
  6
CONTINUOUS
 62
     7
 10
-50.783851111679851
 20
-38.753304246475942
 30
0.0
  0
VERTEX
  5
BB3
  8
DATA
  6
CONTINUOUS
 62
     7
 10
-50.775618882382602
 20
-38.752296540177007
 30
0.0
  0
VERTEX
  5
BB4
  8
DATA
  6
CONTINUOUS
 62
     7
 10
-50.76737530539134
 20
-38.751300066627643
 30
0.0
  0
VERTEX
  5
BB5
  8
DATA
  6
CONTINUOUS
 62
     7
 10
-50.759120380706072
 20
-38.750314825827843
 30
0.0
  0
VERTEX
  5
BB6
  8
DATA
  6
CONTINUOUS
 62
     7
 10
-50.75085410832682
 20
-38.749340817777622
 30
0.0
  0
VERTEX
  5
BB7
  8
DATA
  6
CONTINUOUS
 62
     7
 10
-50.742576488253533
 20
-38.748378042476958
 30
0.0
  0
VERTEX
  5
BB8
  8
DATA
  6
CONTINUOUS
 62
     7
 10
-50.734287520486269
 20
-38.747426499925872
 30
0.0
  0
VERTEX
  5
BB9
  8
DATA
  6
CONTINUOUS
 62
     7
 10
-50.725987205025007
 20
-38.746486190124337
 30
0.0
  0
VERTEX
  5
BBA
  8
DATA
  6
CONTINUOUS
 62
     7
 10
-50.717675541869738
 20
-38.745557113072401
 30
0.0
  0
VERTEX
  5
BBB
  8
DATA
  6
CONTINUOUS
 62
     7
 10
-50.709352531020492
 20
-38.744639268770001
 30
0.0
  0
VERTEX
  5
BBC
  8
DATA
  6
CONTINUOUS
 62
     7
 10
-50.70101817247722
 20
-38.74373265721718
 30
0.0
  0
VERTEX
  5
BBD
  8
DATA
  6
CONTINUOUS
 62
     7
 10
-50.692672466239948
 20
-38.742837278413923
 30
0.0
  0
VERTEX
  5
BBE
  8
DATA
  6
CONTINUOUS
 62
     7
 10
-50.684315412308678
 20
-38.741953132360237
 30
0.0
  0
VERTEX
  5
BBF
  8
DATA
  6
CONTINUOUS
 62
     7
 10
-50.67594701068343
 20
-38.741080219056123
 30
0.0
  0
VERTEX
  5
BC0
  8
DATA
  6
CONTINUOUS
 62
     7
 10
-50.667567261364177
 20
-38.740218538501573
 30
0.0
  0
VERTEX
  5
BC1
  8
DATA
  6
CONTINUOUS
 62
     7
 10
-50.65917616435091
 20
-38.73936809069658
 30
0.0
  0
VERTEX
  5
BC2
  8
DATA
  6
CONTINUOUS
 62
     7
 10
-50.650773719643652
 20
-38.738528875641173
 30
0.0
  0
VERTEX
  5
BC3
  8
DATA
  6
CONTINUOUS
 62
     7
 10
-50.642359927242381
 20
-38.737700893335322
 30
0.0
  0
VERTEX
  5
BC4
  8
DATA
  6
CONTINUOUS
 62
     7
 10
-50.633934787147112
 20
-38.736884143779029
 30
0.0
  0
VERTEX
  5
BC5
  8
DATA
  6
CONTINUOUS
 62
     7
 10
-50.625498299357858
 20
-38.736078626972322
 30
0.0
  0
VERTEX
  5
BC6
  8
DATA
  6
CONTINUOUS
 62
     7
 10
-50.617050463874591
 20
-38.735284342915172
 30
0.0
  0
VERTEX
  5
BC7
  8
DATA
  6
CONTINUOUS
 62
     7
 10
-50.608591280697333
 20
-38.7345012916076
 30
0.0
  0
VERTEX
  5
BC8
  8
DATA
  6
CONTINUOUS
 62
     7
 10
-50.600120749826061
 20
-38.733729473049578
 30
0.0
  0
VERTEX
  5
BC9
  8
DATA
  6
CONTINUOUS
 62
     7
 10
-50.591638871260798
 20
-38.732968887241142
 30
0.0
  0
VERTEX
  5
BCA
  8
DATA
  6
CONTINUOUS
 62
     7
 10
-50.583145645001537
 20
-38.732219534182249
 30
0.0
  0
VERTEX
  5
BCB
  8
DATA
  6
CONTINUOUS
 62
     7
 10
-50.574641071048269
 20
-38.731481413872963
 30
0.0
  0
VERTEX
  5
BCC
  8
DATA
  6
CONTINUOUS
 62
     7
 10
-50.566125149401017
 20
-38.730754526313213
 30
0.0
  0
VERTEX
  5
BCD
  8
DATA
  6
CONTINUOUS
 62
     7
 10
-50.55759788005976
 20
-38.730038871503041
 30
0.0
  0
VERTEX
  5
BCE
  8
DATA
  6
CONTINUOUS
 62
     7
 10
-50.549059263024503
 20
-38.729334449442412
 30
0.0
  0
VERTEX
  5
BCF
  8
DATA
  6
CONTINUOUS
 62
     7
 10
-50.540509298295241
 20
-38.728641260131369
 30
0.0
  0
VERTEX
  5
BD0
  8
DATA
  6
CONTINUOUS
 62
     7
 10
-50.531947985871973
 20
-38.727959303569911
 30
0.0
  0
VERTEX
  5
BD1
  8
DATA
  6
CONTINUOUS
 62
     7
 10
-50.523375325754721
 20
-38.72728857975801
 30
0.0
  0
VERTEX
  5
BD2
  8
DATA
  6
CONTINUOUS
 62
     7
 10
-50.514791317943448
 20
-38.726629088695681
 30
0.0
  0
VERTEX
  5
BD3
  8
DATA
  6
CONTINUOUS
 62
     7
 10
-50.506195962438213
 20
-38.725980830382902
 30
0.0
  0
VERTEX
  5
BD4
  8
DATA
  6
CONTINUOUS
 62
     7
 10
-50.49758925923895
 20
-38.725343804819687
 30
0.0
  0
VERTEX
  5
BD5
  8
DATA
  6
CONTINUOUS
 62
     7
 10
-50.488971208345689
 20
-38.724718012006051
 30
0.0
  0
VERTEX
  5
BD6
  8
DATA
  6
CONTINUOUS
 62
     7
 10
-50.480341809758421
 20
-38.724103451941993
 30
0.0
  0
VERTEX
  5
BD7
  8
DATA
  6
CONTINUOUS
 62
     7
 10
-50.471701063477148
 20
-38.723500124627492
 30
0.0
  0
VERTEX
  5
BD8
  8
DATA
  6
CONTINUOUS
 62
     7
 10
-50.463048969501891
 20
-38.722908030062548
 30
0.0
  0
VERTEX
  5
BD9
  8
DATA
  6
CONTINUOUS
 62
     7
 10
-50.454385527832642
 20
-38.72232716824719
 30
0.0
  0
VERTEX
  5
BDA
  8
DATA
  6
CONTINUOUS
 62
     7
 10
-50.44571073846938
 20
-38.72175753918139
 30
0.0
  0
VERTEX
  5
BDB
  8
DATA
  6
CONTINUOUS
 62
     7
 10
-50.437024601412134
 20
-38.72119914286516
 30
0.0
  0
VERTEX
  5
BDC
  8
DATA
  6
CONTINUOUS
 62
     7
 10
-50.428327116660867
 20
-38.720651979298488
 30
0.0
  0
VERTEX
  5
BDD
  8
DATA
  6
CONTINUOUS
 62
     7
 10
-50.419618284215609
 20
-38.720116048481401
 30
0.0
  0
VERTEX
  5
BDE
  8
DATA
  6
CONTINUOUS
 62
     7
 10
-50.410898104076338
 20
-38.719591350413857
 30
0.0
  0
VERTEX
  5
BDF
  8
DATA
  6
CONTINUOUS
 62
     7
 10
-50.402166576243097
 20
-38.719077885095913
 30
0.0
  0
VERTEX
  5
BE0
  8
DATA
  6
CONTINUOUS
 62
     7
 10
-50.402166576243097
 20
-38.719077885095913
 30
0.0
  0
SEQEND
  5
BE1
  8
DATA
  6
CONTINUOUS
 62
     7
  0
POLYLINE
  5
3E4
  8
DATA
  6
CONTINUOUS
 62
     7
 66
     1
 10
0.0
 20
0.0
 30
0.0
 70
   128
  0
VERTEX
  5
BE2
  8
DATA
  6
CONTINUOUS
 62
     7
 10
-49.597547535185768
 20
-19.595281477600398
 30
0.0
  0
VERTEX
  5
BE3
  8
DATA
  6
CONTINUOUS
 62
     7
 10
-49.588670226746039
 20
-19.594771259690422
 30
0.0
  0
VERTEX
  5
BE4
  8
DATA
  6
CONTINUOUS
 62
     7
 10
-49.579804618315528
 20
-19.594249460284399
 30
0.0
  0
VERTEX
  5
BE5
  8
DATA
  6
CONTINUOUS
 62
     7
 10
-49.570950709894149
 20
-19.59371607938234
 30
0.0
  0
VERTEX
  5
BE6
  8
DATA
  6
CONTINUOUS
 62
     7
 10
-49.562108501482001
 20
-19.593171116984241
 30
0.0
  0
VERTEX
  5
BE7
  8
DATA
  6
CONTINUOUS
 62
     7
 10
-49.553277993079028
 20
-19.59261457309011
 30
0.0
  0
VERTEX
  5
BE8
  8
DATA
  6
CONTINUOUS
 62
     7
 10
-49.544459184685238
 20
-19.592046447699921
 30
0.0
  0
VERTEX
  5
BE9
  8
DATA
  6
CONTINUOUS
 62
     7
 10
-49.535652076300629
 20
-19.591466740813711
 30
0.0
  0
VERTEX
  5
BEA
  8
DATA
  6
CONTINUOUS
 62
     7
 10
-49.526856667925223
 20
-19.590875452431462
 30
0.0
  0
VERTEX
  5
BEB
  8
DATA
  6
CONTINUOUS
 62
     7
 10
-49.518072959558971
 20
-19.590272582553158
 30
0.0
  0
VERTEX
  5
BEC
  8
DATA
  6
CONTINUOUS
 62
     7
 10
-49.509300951201922
 20
-19.589658131178819
 30
0.0
  0
VERTEX
  5
BED
  8
DATA
  6
CONTINUOUS
 62
     7
 10
-49.500540642854062
 20
-19.589032098308451
 30
0.0
  0
VERTEX
  5
BEE
  8
DATA
  6
CONTINUOUS
 62
     7
 10
-49.49179203451537
 20
-19.588394483942039
 30
0.0
  0
VERTEX
  5
BEF
  8
DATA
  6
CONTINUOUS
 62
     7
 10
-49.483055126185867
 20
-19.587745288079581
 30
0.0
  0
VERTEX
  5
BF0
  8
DATA
  6
CONTINUOUS
 62
     7
 10
-49.474329917865568
 20
-19.587084510721091
 30
0.0
  0
VERTEX
  5
BF1
  8
DATA
  6
CONTINUOUS
 62
     7
 10
-49.465616409554443
 20
-19.586412151866568
 30
0.0
  0
VERTEX
  5
BF2
  8
DATA
  6
CONTINUOUS
 62
     7
 10
-49.456914601252493
 20
-19.585728211515999
 30
0.0
  0
VERTEX
  5
BF3
  8
DATA
  6
CONTINUOUS
 62
     7
 10
-49.448224492959739
 20
-19.58503268966939
 30
0.0
  0
VERTEX
  5
BF4
  8
DATA
  6
CONTINUOUS
 62
     7
 10
-49.439546084676181
 20
-19.584325586326749
 30
0.0
  0
VERTEX
  5
BF5
  8
DATA
  6
CONTINUOUS
 62
     7
 10
-49.430879376401791
 20
-19.58360690148805
 30
0.0
  0
VERTEX
  5
BF6
  8
DATA
  6
CONTINUOUS
 62
     7
 10
-49.422224368136597
 20
-19.582876635153319
 30
0.0
  0
VERTEX
  5
BF7
  8
DATA
  6
CONTINUOUS
 62
     7
 10
-49.413581059880578
 20
-19.582134787322559
 30
0.0
  0
VERTEX
  5
BF8
  8
DATA
  6
CONTINUOUS
 62
     7
 10
-49.404949451633762
 20
-19.581381357995749
 30
0.0
  0
VERTEX
  5
BF9
  8
DATA
  6
CONTINUOUS
 62
     7
 10
-49.396329543396106
 20
-19.580616347172899
 30
0.0
  0
VERTEX
  5
BFA
  8
DATA
  6
CONTINUOUS
 62
     7
 10
-49.387721335167647
 20
-19.579839754854021
 30
0.0
  0
VERTEX
  5
BFB
  8
DATA
  6
CONTINUOUS
 62
     7
 10
-49.379124826948377
 20
-19.579051581039089
 30
0.0
  0
VERTEX
  5
BFC
  8
DATA
  6
CONTINUOUS
 62
     7
 10
-49.370540018738289
 20
-19.578251825728131
 30
0.0
  0
VERTEX
  5
BFD
  8
DATA
  6
CONTINUOUS
 62
     7
 10
-49.361966910537397
 20
-19.57744048892113
 30
0.0
  0
VERTEX
  5
BFE
  8
DATA
  6
CONTINUOUS
 62
     7
 10
-49.353405502345673
 20
-19.57661757061808
 30
0.0
  0
VERTEX
  5
BFF
  8
DATA
  6
CONTINUOUS
 62
     7
 10
-49.344855794163152
 20
-19.575783070819
 30
0.0
  0
VERTEX
  5
C00
  8
DATA
  6
CONTINUOUS
 62
     7
 10
-49.336317785989799
 20
-19.574936989523881
 30
0.0
  0
VERTEX
  5
C01
  8
DATA
  6
CONTINUOUS
 62
     7
 10
-49.327791477825642
 20
-19.574079326732711
 30
0.0
  0
VERTEX
  5
C02
  8
DATA
  6
CONTINUOUS
 62
     7
 10
-49.319276869670659
 20
-19.57321008244552
 30
0.0
  0
VERTEX
  5
C03
  8
DATA
  6
CONTINUOUS
 62
     7
 10
-49.310773961524859
 20
-19.572329256662279
 30
0.0
  0
VERTEX
  5
C04
  8
DATA
  6
CONTINUOUS
 62
     7
 10
-49.302282753388262
 20
-19.571436849383002
 30
0.0
  0
VERTEX
  5
C05
  8
DATA
  6
CONTINUOUS
 62
     7
 10
-49.293803245260847
 20
-19.570532860607681
 30
0.0
  0
VERTEX
  5
C06
  8
DATA
  6
CONTINUOUS
 62
     7
 10
-49.285335437142606
 20
-19.569617290336321
 30
0.0
  0
VERTEX
  5
C07
  8
DATA
  6
CONTINUOUS
 62
     7
 10
-49.276879329033562
 20
-19.568690138568918
 30
0.0
  0
VERTEX
  5
C08
  8
DATA
  6
CONTINUOUS
 62
     7
 10
-49.268434920933679
 20
-19.567751405305479
 30
0.0
  0
VERTEX
  5
C09
  8
DATA
  6
CONTINUOUS
 62
     7
 10
-49.260002212843013
 20
-19.566801090546011
 30
0.0
  0
VERTEX
  5
C0A
  8
DATA
  6
CONTINUOUS
 62
     7
 10
-49.251581204761521
 20
-19.56583919429049
 30
0.0
  0
VERTEX
  5
C0B
  8
DATA
  6
CONTINUOUS
 62
     7
 10
-49.243171896689212
 20
-19.564865716538939
 30
0.0
  0
VERTEX
  5
C0C
  8
DATA
  6
CONTINUOUS
 62
     7
 10
-49.234774288626092
 20
-19.56388065729135
 30
0.0
  0
VERTEX
  5
C0D
  8
DATA
  6
CONTINUOUS
 62
     7
 10
-49.226388380572153
 20
-19.56288401654772
 30
0.0
  0
VERTEX
  5
C0E
  8
DATA
  6
CONTINUOUS
 62
     7
 10
-49.218014172527411
 20
-19.561875794308051
 30
0.0
  0
VERTEX
  5
C0F
  8
DATA
  6
CONTINUOUS
 62
     7
 10
-49.209651664491837
 20
-19.560855990572328
 30
0.0
  0
VERTEX
  5
C10
  8
DATA
  6
CONTINUOUS
 62
     7
 10
-49.201300856465451
 20
-19.55982460534058
 30
0.0
  0
VERTEX
  5
C11
  8
DATA
  6
CONTINUOUS
 62
     7
 10
-49.192961748448248
 20
-19.558781638612789
 30
0.0
  0
VERTEX
  5
C12
  8
DATA
  6
CONTINUOUS
 62
     7
 10
-49.18463434044024
 20
-19.557727090388958
 30
0.0
  0
VERTEX
  5
C13
  8
DATA
  6
CONTINUOUS
 62
     7
 10
-49.176318632441422
 20
-19.556660960669081
 30
0.0
  0
VERTEX
  5
C14
  8
DATA
  6
CONTINUOUS
 62
     7
 10
-49.168014624451772
 20
-19.555583249453171
 30
0.0
  0
VERTEX
  5
C15
  8
DATA
  6
CONTINUOUS
 62
     7
 10
-49.15972231647131
 20
-19.554493956741229
 30
0.0
  0
VERTEX
  5
C16
  8
DATA
  6
CONTINUOUS
 62
     7
 10
-49.151441708500052
 20
-19.55339308253324
 30
0.0
  0
VERTEX
  5
C17
  8
DATA
  6
CONTINUOUS
 62
     7
 10
-49.14317280053794
 20
-19.552280626829209
 30
0.0
  0
VERTEX
  5
C18
  8
DATA
  6
CONTINUOUS
 62
     7
 10
-49.13491559258506
 20
-19.551156589629151
 30
0.0
  0
VERTEX
  5
C19
  8
DATA
  6
CONTINUOUS
 62
     7
 10
-49.126670084641347
 20
-19.550020970933051
 30
0.0
  0
VERTEX
  5
C1A
  8
DATA
  6
CONTINUOUS
 62
     7
 10
-49.118436276706802
 20
-19.548873770740911
 30
0.0
  0
VERTEX
  5
C1B
  8
DATA
  6
CONTINUOUS
 62
     7
 10
-49.110214168781461
 20
-19.547714989052711
 30
0.0
  0
VERTEX
  5
C1C
  8
DATA
  6
CONTINUOUS
 62
     7
 10
-49.102003760865287
 20
-19.546544625868489
 30
0.0
  0
VERTEX
  5
C1D
  8
DATA
  6
CONTINUOUS
 62
     7
 10
-49.093805052958317
 20
-19.54536268118823
 30
0.0
  0
VERTEX
  5
C1E
  8
DATA
  6
CONTINUOUS
 62
     7
 10
-49.085618045060542
 20
-19.544169155011922
 30
0.0
  0
VERTEX
  5
C1F
  8
DATA
  6
CONTINUOUS
 62
     7
 10
-49.077442737171928
 20
-19.542964047339581
 30
0.0
  0
VERTEX
  5
C20
  8
DATA
  6
CONTINUOUS
 62
     7
 10
-49.069279129292497
 20
-19.541747358171211
 30
0.0
  0
VERTEX
  5
C21
  8
DATA
  6
CONTINUOUS
 62
     7
 10
-49.061127221422282
 20
-19.540519087506791
 30
0.0
  0
VERTEX
  5
C22
  8
DATA
  6
CONTINUOUS
 62
     7
 10
-49.052987013561221
 20
-19.539279235346321
 30
0.0
  0
VERTEX
  5
C23
  8
DATA
  6
CONTINUOUS
 62
     7
 10
-49.052987013561221
 20
-19.539279235346321
 30
0.0
  0
VERTEX
  5
C24
  8
DATA
  6
CONTINUOUS
 62
     7
 10
-49.039362035691383
 20
-19.537173910086679
 30
0.0
  0
VERTEX
  5
C25
  8
DATA
  6
CONTINUOUS
 62
     7
 10
-49.025827333928042
 20
-19.535044640439509
 30
0.0
  0
VERTEX
  5
C26
  8
DATA
  6
CONTINUOUS
 62
     7
 10
-49.012382908271171
 20
-19.532891426404799
 30
0.0
  0
VERTEX
  5
C27
  8
DATA
  6
CONTINUOUS
 62
     7
 10
-48.99902875872079
 20
-19.53071426798255
 30
0.0
  0
VERTEX
  5
C28
  8
DATA
  6
CONTINUOUS
 62
     7
 10
-48.985764885276893
 20
-19.528513165172761
 30
0.0
  0
VERTEX
  5
C29
  8
DATA
  6
CONTINUOUS
 62
     7
 10
-48.972591287939473
 20
-19.52628811797544
 30
0.0
  0
VERTEX
  5
C2A
  8
DATA
  6
CONTINUOUS
 62
     7
 10
-48.959507966708557
 20
-19.524039126390591
 30
0.0
  0
VERTEX
  5
C2B
  8
DATA
  6
CONTINUOUS
 62
     7
 10
-48.946514921584111
 20
-19.52176619041818
 30
0.0
  0
VERTEX
  5
C2C
  8
DATA
  6
CONTINUOUS
 62
     7
 10
-48.933612152566141
 20
-19.519469310058241
 30
0.0
  0
VERTEX
  5
C2D
  8
DATA
  6
CONTINUOUS
 62
     7
 10
-48.920799659654683
 20
-19.51714848531077
 30
0.0
  0
VERTEX
  5
C2E
  8
DATA
  6
CONTINUOUS
 62
     7
 10
-48.908077442849681
 20
-19.514803716175759
 30
0.0
  0
VERTEX
  5
C2F
  8
DATA
  6
CONTINUOUS
 62
     7
 10
-48.895445502151183
 20
-19.512435002653209
 30
0.0
  0
VERTEX
  5
C30
  8
DATA
  6
CONTINUOUS
 62
     7
 10
-48.882903837559176
 20
-19.51004234474313
 30
0.0
  0
VERTEX
  5
C31
  8
DATA
  6
CONTINUOUS
 62
     7
 10
-48.870452449073639
 20
-19.507625742445502
 30
0.0
  0
VERTEX
  5
C32
  8
DATA
  6
CONTINUOUS
 62
     7
 10
-48.858091336694571
 20
-19.50518519576034
 30
0.0
  0
VERTEX
  5
C33
  8
DATA
  6
CONTINUOUS
 62
     7
 10
-48.845820500422022
 20
-19.502720704687651
 30
0.0
  0
VERTEX
  5
C34
  8
DATA
  6
CONTINUOUS
 62
     7
 10
-48.833639940255928
 20
-19.500232269227411
 30
0.0
  0
VERTEX
  5
C35
  8
DATA
  6
CONTINUOUS
 62
     7
 10
-48.821549656196339
 20
-19.497719889379638
 30
0.0
  0
VERTEX
  5
C36
  8
DATA
  6
CONTINUOUS
 62
     7
 10
-48.809549648243248
 20
-19.49518356514432
 30
0.0
  0
VERTEX
  5
C37
  8
DATA
  6
CONTINUOUS
 62
     7
 10
-48.797639916396619
 20
-19.492623296521479
 30
0.0
  0
VERTEX
  5
C38
  8
DATA
  6
CONTINUOUS
 62
     7
 10
-48.785820460656481
 20
-19.490039083511089
 30
0.0
  0
VERTEX
  5
C39
  8
DATA
  6
CONTINUOUS
 62
     7
 10
-48.774091281022812
 20
-19.487430926113159
 30
0.0
  0
VERTEX
  5
C3A
  8
DATA
  6
CONTINUOUS
 62
     7
 10
-48.762452377495642
 20
-19.484798824327701
 30
0.0
  0
VERTEX
  5
C3B
  8
DATA
  6
CONTINUOUS
 62
     7
 10
-48.750903750074968
 20
-19.48214277815471
 30
0.0
  0
VERTEX
  5
C3C
  8
DATA
  6
CONTINUOUS
 62
     7
 10
-48.739445398760772
 20
-19.479462787594169
 30
0.0
  0
VERTEX
  5
C3D
  8
DATA
  6
CONTINUOUS
 62
     7
 10
-48.728077323553052
 20
-19.4767588526461
 30
0.0
  0
VERTEX
  5
C3E
  8
DATA
  6
CONTINUOUS
 62
     7
 10
-48.716799524451829
 20
-19.474030973310491
 30
0.0
  0
VERTEX
  5
C3F
  8
DATA
  6
CONTINUOUS
 62
     7
 10
-48.705612001457091
 20
-19.471279149587328
 30
0.0
  0
VERTEX
  5
C40
  8
DATA
  6
CONTINUOUS
 62
     7
 10
-48.694514754568822
 20
-19.468503381476651
 30
0.0
  0
VERTEX
  5
C41
  8
DATA
  6
CONTINUOUS
 62
     7
 10
-48.68350778378705
 20
-19.465703668978431
 30
0.0
  0
VERTEX
  5
C42
  8
DATA
  6
CONTINUOUS
 62
     7
 10
-48.672591089111748
 20
-19.462880012092668
 30
0.0
  0
VERTEX
  5
C43
  8
DATA
  6
CONTINUOUS
 62
     7
 10
-48.661764670542958
 20
-19.46003241081937
 30
0.0
  0
VERTEX
  5
C44
  8
DATA
  6
CONTINUOUS
 62
     7
 10
-48.651028528080637
 20
-19.457160865158539
 30
0.0
  0
VERTEX
  5
C45
  8
DATA
  6
CONTINUOUS
 62
     7
 10
-48.640382661724793
 20
-19.454265375110172
 30
0.0
  0
VERTEX
  5
C46
  8
DATA
  6
CONTINUOUS
 62
     7
 10
-48.629827071475461
 20
-19.451345940674258
 30
0.0
  0
VERTEX
  5
C47
  8
DATA
  6
CONTINUOUS
 62
     7
 10
-48.619361757332591
 20
-19.448402561850809
 30
0.0
  0
VERTEX
  5
C48
  8
DATA
  6
CONTINUOUS
 62
     7
 10
-48.608986719296198
 20
-19.445435238639831
 30
0.0
  0
VERTEX
  5
C49
  8
DATA
  6
CONTINUOUS
 62
     7
 10
-48.59870195736633
 20
-19.44244397104131
 30
0.0
  0
VERTEX
  5
C4A
  8
DATA
  6
CONTINUOUS
 62
     7
 10
-48.588507471542897
 20
-19.43942875905525
 30
0.0
  0
VERTEX
  5
C4B
  8
DATA
  6
CONTINUOUS
 62
     7
 10
-48.578403261825983
 20
-19.436389602681651
 30
0.0
  0
VERTEX
  5
C4C
  8
DATA
  6
CONTINUOUS
 62
     7
 10
-48.568389328215538
 20
-19.433326501920519
 30
0.0
  0
VERTEX
  5
C4D
  8
DATA
  6
CONTINUOUS
 62
     7
 10
-48.55846567071157
 20
-19.43023945677184
 30
0.0
  0
VERTEX
  5
C4E
  8
DATA
  6
CONTINUOUS
 62
     7
 10
-48.548632289314099
 20
-19.42712846723564
 30
0.0
  0
VERTEX
  5
C4F
  8
DATA
  6
CONTINUOUS
 62
     7
 10
-48.538889184023141
 20
-19.42399353331189
 30
0.0
  0
VERTEX
  5
C50
  8
DATA
  6
CONTINUOUS
 62
     7
 10
-48.529236354838631
 20
-19.420834655000601
 30
0.0
  0
VERTEX
  5
C51
  8
DATA
  6
CONTINUOUS
 62
     7
 10
-48.519673801760618
 20
-19.417651832301779
 30
0.0
  0
VERTEX
  5
C52
  8
DATA
  6
CONTINUOUS
 62
     7
 10
-48.510201524789068
 20
-19.414445065215421
 30
0.0
  0
VERTEX
  5
C53
  8
DATA
  6
CONTINUOUS
 62
     7
 10
-48.500819523924037
 20
-19.411214353741531
 30
0.0
  0
VERTEX
  5
C54
  8
DATA
  6
CONTINUOUS
 62
     7
 10
-48.491527799165468
 20
-19.407959697880091
 30
0.0
  0
VERTEX
  5
C55
  8
DATA
  6
CONTINUOUS
 62
     7
 10
-48.482326350513397
 20
-19.404681097631119
 30
0.0
  0
VERTEX
  5
C56
  8
DATA
  6
CONTINUOUS
 62
     7
 10
-48.473215177967788
 20
-19.401378552994611
 30
0.0
  0
VERTEX
  5
C57
  8
DATA
  6
CONTINUOUS
 62
     7
 10
-48.464194281528712
 20
-19.398052063970571
 30
0.0
  0
VERTEX
  5
C58
  8
DATA
  6
CONTINUOUS
 62
     7
 10
-48.455263661196071
 20
-19.394701630558981
 30
0.0
  0
VERTEX
  5
C59
  8
DATA
  6
CONTINUOUS
 62
     7
 10
-48.446423316969941
 20
-19.391327252759861
 30
0.0
  0
VERTEX
  5
C5A
  8
DATA
  6
CONTINUOUS
 62
     7
 10
-48.437673248850288
 20
-19.38792893057321
 30
0.0
  0
VERTEX
  5
C5B
  8
DATA
  6
CONTINUOUS
 62
     7
 10
-48.429013456837133
 20
-19.384506663999002
 30
0.0
  0
VERTEX
  5
C5C
  8
DATA
  6
CONTINUOUS
 62
     7
 10
-48.420443940930447
 20
-19.381060453037279
 30
0.0
  0
VERTEX
  5
C5D
  8
DATA
  6
CONTINUOUS
 62
     7
 10
-48.411964701130252
 20
-19.377590297688009
 30
0.0
  0
VERTEX
  5
C5E
  8
DATA
  6
CONTINUOUS
 62
     7
 10
-48.40357573743654
 20
-19.3740961979512
 30
0.0
  0
VERTEX
  5
C5F
  8
DATA
  6
CONTINUOUS
 62
     7
 10
-48.395277049849327
 20
-19.370578153826852
 30
0.0
  0
VERTEX
  5
C60
  8
DATA
  6
CONTINUOUS
 62
     7
 10
-48.387068638368582
 20
-19.367036165314971
 30
0.0
  0
VERTEX
  5
C61
  8
DATA
  6
CONTINUOUS
 62
     7
 10
-48.378950502994321
 20
-19.363470232415551
 30
0.0
  0
VERTEX
  5
C62
  8
DATA
  6
CONTINUOUS
 62
     7
 10
-48.370922643726551
 20
-19.359880355128588
 30
0.0
  0
VERTEX
  5
C63
  8
DATA
  6
CONTINUOUS
 62
     7
 10
-48.362985060565272
 20
-19.3562665334541
 30
0.0
  0
VERTEX
  5
C64
  8
DATA
  6
CONTINUOUS
 62
     7
 10
-48.362985060565272
 20
-19.3562665334541
 30
0.0
  0
VERTEX
  5
C65
  8
DATA
  6
CONTINUOUS
 62
     7
 10
-48.355154275184631
 20
-19.352636357458771
 30
0.0
  0
VERTEX
  5
C66
  8
DATA
  6
CONTINUOUS
 62
     7
 10
-48.347446809258813
 20
-19.34899741720934
 30
0.0
  0
VERTEX
  5
C67
  8
DATA
  6
CONTINUOUS
 62
     7
 10
-48.339862662787802
 20
-19.34534971270579
 30
0.0
  0
VERTEX
  5
C68
  8
DATA
  6
CONTINUOUS
 62
     7
 10
-48.332401835771591
 20
-19.341693243948111
 30
0.0
  0
VERTEX
  5
C69
  8
DATA
  6
CONTINUOUS
 62
     7
 10
-48.32506432821021
 20
-19.33802801093632
 30
0.0
  0
VERTEX
  5
C6A
  8
DATA
  6
CONTINUOUS
 62
     7
 10
-48.317850140103637
 20
-19.33435401367041
 30
0.0
  0
VERTEX
  5
C6B
  8
DATA
  6
CONTINUOUS
 62
     7
 10
-48.310759271451893
 20
-19.330671252150388
 30
0.0
  0
VERTEX
  5
C6C
  8
DATA
  6
CONTINUOUS
 62
     7
 10
-48.303791722254942
 20
-19.326979726376251
 30
0.0
  0
VERTEX
  5
C6D
  8
DATA
  6
CONTINUOUS
 62
     7
 10
-48.2969474925128
 20
-19.323279436347999
 30
0.0
  0
VERTEX
  5
C6E
  8
DATA
  6
CONTINUOUS
 62
     7
 10
-48.290226582225493
 20
-19.319570382065621
 30
0.0
  0
VERTEX
  5
C6F
  8
DATA
  6
CONTINUOUS
 62
     7
 10
-48.283628991392973
 20
-19.31585256352913
 30
0.0
  0
VERTEX
  5
C70
  8
DATA
  6
CONTINUOUS
 62
     7
 10
-48.277154720015282
 20
-19.312125980738529
 30
0.0
  0
VERTEX
  5
C71
  8
DATA
  6
CONTINUOUS
 62
     7
 10
-48.270803768092421
 20
-19.308390633693801
 30
0.0
  0
VERTEX
  5
C72
  8
DATA
  6
CONTINUOUS
 62
     7
 10
-48.264576135624353
 20
-19.304646522394961
 30
0.0
  0
VERTEX
  5
C73
  8
DATA
  6
CONTINUOUS
 62
     7
 10
-48.258471822611099
 20
-19.30089364684201
 30
0.0
  0
VERTEX
  5
C74
  8
DATA
  6
CONTINUOUS
 62
     7
 10
-48.252490829052661
 20
-19.297132007034929
 30
0.0
  0
VERTEX
  5
C75
  8
DATA
  6
CONTINUOUS
 62
     7
 10
-48.246633154949023
 20
-19.293361602973739
 30
0.0
  0
VERTEX
  5
C76
  8
DATA
  6
CONTINUOUS
 62
     7
 10
-48.240898800300222
 20
-19.289582434658438
 30
0.0
  0
VERTEX
  5
C77
  8
DATA
  6
CONTINUOUS
 62
     7
 10
-48.2352877651062
 20
-19.285794502089011
 30
0.0
  0
VERTEX
  5
C78
  8
DATA
  6
CONTINUOUS
 62
     7
 10
-48.229800049367022
 20
-19.281997805265469
 30
0.0
  0
VERTEX
  5
C79
  8
DATA
  6
CONTINUOUS
 62
     7
 10
-48.224435653082651
 20
-19.278192344187811
 30
0.0
  0
VERTEX
  5
C7A
  8
DATA
  6
CONTINUOUS
 62
     7
 10
-48.219194576253102
 20
-19.274378118856038
 30
0.0
  0
VERTEX
  5
C7B
  8
DATA
  6
CONTINUOUS
 62
     7
 10
-48.214076818878347
 20
-19.27055512927015
 30
0.0
  0
VERTEX
  5
C7C
  8
DATA
  6
CONTINUOUS
 62
     7
 10
-48.209082380958421
 20
-19.266723375430139
 30
0.0
  0
VERTEX
  5
C7D
  8
DATA
  6
CONTINUOUS
 62
     7
 10
-48.204211262493281
 20
-19.26288285733601
 30
0.0
  0
VERTEX
  5
C7E
  8
DATA
  6
CONTINUOUS
 62
     7
 10
-48.199463463482978
 20
-19.259033574987772
 30
0.0
  0
VERTEX
  5
C7F
  8
DATA
  6
CONTINUOUS
 62
     7
 10
-48.19483898392749
 20
-19.255175528385418
 30
0.0
  0
VERTEX
  5
C80
  8
DATA
  6
CONTINUOUS
 62
     7
 10
-48.190337823826809
 20
-19.251308717528939
 30
0.0
  0
VERTEX
  5
C81
  8
DATA
  6
CONTINUOUS
 62
     7
 10
-48.185959983180943
 20
-19.247433142418348
 30
0.0
  0
VERTEX
  5
C82
  8
DATA
  6
CONTINUOUS
 62
     7
 10
-48.181705461989893
 20
-19.243548803053638
 30
0.0
  0
VERTEX
  5
C83
  8
DATA
  6
CONTINUOUS
 62
     7
 10
-48.17757426025365
 20
-19.23965569943482
 30
0.0
  0
VERTEX
  5
C84
  8
DATA
  6
CONTINUOUS
 62
     7
 10
-48.173566377972222
 20
-19.235753831561869
 30
0.0
  0
VERTEX
  5
C85
  8
DATA
  6
CONTINUOUS
 62
     7
 10
-48.169681815145601
 20
-19.23184319943482
 30
0.0
  0
VERTEX
  5
C86
  8
DATA
  6
CONTINUOUS
 62
     7
 10
-48.165920571773803
 20
-19.227923803053638
 30
0.0
  0
VERTEX
  5
C87
  8
DATA
  6
CONTINUOUS
 62
     7
 10
-48.16228264785682
 20
-19.223995642418348
 30
0.0
  0
VERTEX
  5
C88
  8
DATA
  6
CONTINUOUS
 62
     7
 10
-48.158768043394637
 20
-19.220058717528939
 30
0.0
  0
VERTEX
  5
C89
  8
DATA
  6
CONTINUOUS
 62
     7
 10
-48.155376758387277
 20
-19.216113028385418
 30
0.0
  0
VERTEX
  5
C8A
  8
DATA
  6
CONTINUOUS
 62
     7
 10
-48.152108792834717
 20
-19.212158574987772
 30
0.0
  0
VERTEX
  5
C8B
  8
DATA
  6
CONTINUOUS
 62
     7
 10
-48.148964146736972
 20
-19.20819535733602
 30
0.0
  0
VERTEX
  5
C8C
  8
DATA
  6
CONTINUOUS
 62
     7
 10
-48.145942820094056
 20
-19.204223375430139
 30
0.0
  0
VERTEX
  5
C8D
  8
DATA
  6
CONTINUOUS
 62
     7
 10
-48.143044812905963
 20
-19.20024262927015
 30
0.0
  0
VERTEX
  5
C8E
  8
DATA
  6
CONTINUOUS
 62
     7
 10
-48.140270125172648
 20
-19.196253118856038
 30
0.0
  0
VERTEX
  5
C8F
  8
DATA
  6
CONTINUOUS
 62
     7
 10
-48.137618756894177
 20
-19.192254844187811
 30
0.0
  0
VERTEX
  5
C90
  8
DATA
  6
CONTINUOUS
 62
     7
 10
-48.1350907080705
 20
-19.188247805265469
 30
0.0
  0
VERTEX
  5
C91
  8
DATA
  6
CONTINUOUS
 62
     7
 10
-48.132685978701652
 20
-19.184232002089001
 30
0.0
  0
VERTEX
  5
C92
  8
DATA
  6
CONTINUOUS
 62
     7
 10
-48.130404568787611
 20
-19.180207434658438
 30
0.0
  0
VERTEX
  5
C93
  8
DATA
  6
CONTINUOUS
 62
     7
 10
-48.128246478328379
 20
-19.176174102973739
 30
0.0
  0
VERTEX
  5
C94
  8
DATA
  6
CONTINUOUS
 62
     7
 10
-48.126211707323961
 20
-19.172132007034929
 30
0.0
  0
VERTEX
  5
C95
  8
DATA
  6
CONTINUOUS
 62
     7
 10
-48.124300255774358
 20
-19.16808114684201
 30
0.0
  0
VERTEX
  5
C96
  8
DATA
  6
CONTINUOUS
 62
     7
 10
-48.12251212367957
 20
-19.164021522394961
 30
0.0
  0
VERTEX
  5
C97
  8
DATA
  6
CONTINUOUS
 62
     7
 10
-48.12084731103959
 20
-19.159953133693801
 30
0.0
  0
VERTEX
  5
C98
  8
DATA
  6
CONTINUOUS
 62
     7
 10
-48.119305817854432
 20
-19.155875980738529
 30
0.0
  0
VERTEX
  5
C99
  8
DATA
  6
CONTINUOUS
 62
     7
 10
-48.117887644124082
 20
-19.15179006352913
 30
0.0
  0
VERTEX
  5
C9A
  8
DATA
  6
CONTINUOUS
 62
     7
 10
-48.116592789848539
 20
-19.147695382065621
 30
0.0
  0
VERTEX
  5
C9B
  8
DATA
  6
CONTINUOUS
 62
     7
 10
-48.115421255027812
 20
-19.143591936347999
 30
0.0
  0
VERTEX
  5
C9C
  8
DATA
  6
CONTINUOUS
 62
     7
 10
-48.114373039661892
 20
-19.139479726376251
 30
0.0
  0
VERTEX
  5
C9D
  8
DATA
  6
CONTINUOUS
 62
     7
 10
-48.113448143750801
 20
-19.135358752150388
 30
0.0
  0
VERTEX
  5
C9E
  8
DATA
  6
CONTINUOUS
 62
     7
 10
-48.112646567294519
 20
-19.13122901367041
 30
0.0
  0
VERTEX
  5
C9F
  8
DATA
  6
CONTINUOUS
 62
     7
 10
-48.11196831029303
 20
-19.12709051093632
 30
0.0
  0
VERTEX
  5
CA0
  8
DATA
  6
CONTINUOUS
 62
     7
 10
-48.111413372746377
 20
-19.122943243948111
 30
0.0
  0
VERTEX
  5
CA1
  8
DATA
  6
CONTINUOUS
 62
     7
 10
-48.110981754654532
 20
-19.11878721270579
 30
0.0
  0
VERTEX
  5
CA2
  8
DATA
  6
CONTINUOUS
 62
     7
 10
-48.110673456017487
 20
-19.11462241720934
 30
0.0
  0
VERTEX
  5
CA3
  8
DATA
  6
CONTINUOUS
 62
     7
 10
-48.110488476835272
 20
-19.110448857458771
 30
0.0
  0
VERTEX
  5
CA4
  8
DATA
  6
CONTINUOUS
 62
     7
 10
-48.110426817107871
 20
-19.1062665334541
 30
0.0
  0
VERTEX
  5
CA5
  8
DATA
  6
CONTINUOUS
 62
     7
 10
-48.110426817107871
 20
-19.1062665334541
 30
0.0
  0
VERTEX
  5
CA6
  8
DATA
  6
CONTINUOUS
 62
     7
 10
-48.110488476835272
 20
-19.102084209449419
 30
0.0
  0
VERTEX
  5
CA7
  8
DATA
  6
CONTINUOUS
 62
     7
 10
-48.110673456017487
 20
-19.09791064969885
 30
0.0
  0
VERTEX
  5
CA8
  8
DATA
  6
CONTINUOUS
 62
     7
 10
-48.110981754654532
 20
-19.09374585420241
 30
0.0
  0
VERTEX
  5
CA9
  8
DATA
  6
CONTINUOUS
 62
     7
 10
-48.111413372746377
 20
-19.08958982296009
 30
0.0
  0
VERTEX
  5
CAA
  8
DATA
  6
CONTINUOUS
 62
     7
 10
-48.11196831029303
 20
-19.085442555971881
 30
0.0
  0
VERTEX
  5
CAB
  8
DATA
  6
CONTINUOUS
 62
     7
 10
-48.112646567294519
 20
-19.08130405323779
 30
0.0
  0
VERTEX
  5
CAC
  8
DATA
  6
CONTINUOUS
 62
     7
 10
-48.113448143750801
 20
-19.077174314757801
 30
0.0
  0
VERTEX
  5
CAD
  8
DATA
  6
CONTINUOUS
 62
     7
 10
-48.114373039661892
 20
-19.073053340531938
 30
0.0
  0
VERTEX
  5
CAE
  8
DATA
  6
CONTINUOUS
 62
     7
 10
-48.115421255027812
 20
-19.068941130560201
 30
0.0
  0
VERTEX
  5
CAF
  8
DATA
  6
CONTINUOUS
 62
     7
 10
-48.116592789848539
 20
-19.064837684842569
 30
0.0
  0
VERTEX
  5
CB0
  8
DATA
  6
CONTINUOUS
 62
     7
 10
-48.117887644124082
 20
-19.060743003379059
 30
0.0
  0
VERTEX
  5
CB1
  8
DATA
  6
CONTINUOUS
 62
     7
 10
-48.119305817854432
 20
-19.056657086169668
 30
0.0
  0
VERTEX
  5
CB2
  8
DATA
  6
CONTINUOUS
 62
     7
 10
-48.12084731103959
 20
-19.052579933214389
 30
0.0
  0
VERTEX
  5
CB3
  8
DATA
  6
CONTINUOUS
 62
     7
 10
-48.12251212367957
 20
-19.048511544513229
 30
0.0
  0
VERTEX
  5
CB4
  8
DATA
  6
CONTINUOUS
 62
     7
 10
-48.124300255774358
 20
-19.044451920066191
 30
0.0
  0
VERTEX
  5
CB5
  8
DATA
  6
CONTINUOUS
 62
     7
 10
-48.126211707323961
 20
-19.040401059873261
 30
0.0
  0
VERTEX
  5
CB6
  8
DATA
  6
CONTINUOUS
 62
     7
 10
-48.128246478328379
 20
-19.03635896393445
 30
0.0
  0
VERTEX
  5
CB7
  8
DATA
  6
CONTINUOUS
 62
     7
 10
-48.130404568787611
 20
-19.032325632249758
 30
0.0
  0
VERTEX
  5
CB8
  8
DATA
  6
CONTINUOUS
 62
     7
 10
-48.132685978701652
 20
-19.028301064819189
 30
0.0
  0
VERTEX
  5
CB9
  8
DATA
  6
CONTINUOUS
 62
     7
 10
-48.1350907080705
 20
-19.024285261642721
 30
0.0
  0
VERTEX
  5
CBA
  8
DATA
  6
CONTINUOUS
 62
     7
 10
-48.137618756894177
 20
-19.020278222720378
 30
0.0
  0
VERTEX
  5
CBB
  8
DATA
  6
CONTINUOUS
 62
     7
 10
-48.140270125172648
 20
-19.016279948052158
 30
0.0
  0
VERTEX
  5
CBC
  8
DATA
  6
CONTINUOUS
 62
     7
 10
-48.143044812905963
 20
-19.01229043763805
 30
0.0
  0
VERTEX
  5
CBD
  8
DATA
  6
CONTINUOUS
 62
     7
 10
-48.145942820094056
 20
-19.00830969147805
 30
0.0
  0
VERTEX
  5
CBE
  8
DATA
  6
CONTINUOUS
 62
     7
 10
-48.148964146736972
 20
-19.00433770957218
 30
0.0
  0
VERTEX
  5
CBF
  8
DATA
  6
CONTINUOUS
 62
     7
 10
-48.152108792834717
 20
-19.000374491920422
 30
0.0
  0
VERTEX
  5
CC0
  8
DATA
  6
CONTINUOUS
 62
     7
 10
-48.155376758387277
 20
-18.996420038522771
 30
0.0
  0
VERTEX
  5
CC1
  8
DATA
  6
CONTINUOUS
 62
     7
 10
-48.158768043394637
 20
-18.99247434937925
 30
0.0
  0
VERTEX
  5
CC2
  8
DATA
  6
CONTINUOUS
 62
     7
 10
-48.16228264785682
 20
-18.988537424489841
 30
0.0
  0
VERTEX
  5
CC3
  8
DATA
  6
CONTINUOUS
 62
     7
 10
-48.165920571773803
 20
-18.984609263854551
 30
0.0
  0
VERTEX
  5
CC4
  8
DATA
  6
CONTINUOUS
 62
     7
 10
-48.169681815145601
 20
-18.98068986747338
 30
0.0
  0
VERTEX
  5
CC5
  8
DATA
  6
CONTINUOUS
 62
     7
 10
-48.173566377972222
 20
-18.976779235346321
 30
0.0
  0
VERTEX
  5
CC6
  8
DATA
  6
CONTINUOUS
 62
     7
 10
-48.17757426025365
 20
-18.97287736747338
 30
0.0
  0
VERTEX
  5
CC7
  8
DATA
  6
CONTINUOUS
 62
     7
 10
-48.181705461989893
 20
-18.968984263854551
 30
0.0
  0
VERTEX
  5
CC8
  8
DATA
  6
CONTINUOUS
 62
     7
 10
-48.185959983180943
 20
-18.965099924489841
 30
0.0
  0
VERTEX
  5
CC9
  8
DATA
  6
CONTINUOUS
 62
     7
 10
-48.190337823826809
 20
-18.96122434937925
 30
0.0
  0
VERTEX
  5
CCA
  8
DATA
  6
CONTINUOUS
 62
     7
 10
-48.19483898392749
 20
-18.957357538522771
 30
0.0
  0
VERTEX
  5
CCB
  8
DATA
  6
CONTINUOUS
 62
     7
 10
-48.199463463482978
 20
-18.953499491920422
 30
0.0
  0
VERTEX
  5
CCC
  8
DATA
  6
CONTINUOUS
 62
     7
 10
-48.204211262493281
 20
-18.94965020957218
 30
0.0
  0
VERTEX
  5
CCD
  8
DATA
  6
CONTINUOUS
 62
     7
 10
-48.209082380958421
 20
-18.94580969147805
 30
0.0
  0
VERTEX
  5
CCE
  8
DATA
  6
CONTINUOUS
 62
     7
 10
-48.214076818878347
 20
-18.94197793763805
 30
0.0
  0
VERTEX
  5
CCF
  8
DATA
  6
CONTINUOUS
 62
     7
 10
-48.219194576253102
 20
-18.938154948052158
 30
0.0
  0
VERTEX
  5
CD0
  8
DATA
  6
CONTINUOUS
 62
     7
 10
-48.224435653082651
 20
-18.934340722720378
 30
0.0
  0
VERTEX
  5
CD1
  8
DATA
  6
CONTINUOUS
 62
     7
 10
-48.229800049367022
 20
-18.930535261642721
 30
0.0
  0
VERTEX
  5
CD2
  8
DATA
  6
CONTINUOUS
 62
     7
 10
-48.2352877651062
 20
-18.926738564819189
 30
0.0
  0
VERTEX
  5
CD3
  8
DATA
  6
CONTINUOUS
 62
     7
 10
-48.240898800300222
 20
-18.922950632249758
 30
0.0
  0
VERTEX
  5
CD4
  8
DATA
  6
CONTINUOUS
 62
     7
 10
-48.246633154949023
 20
-18.91917146393445
 30
0.0
  0
VERTEX
  5
CD5
  8
DATA
  6
CONTINUOUS
 62
     7
 10
-48.252490829052661
 20
-18.915401059873261
 30
0.0
  0
VERTEX
  5
CD6
  8
DATA
  6
CONTINUOUS
 62
     7
 10
-48.258471822611099
 20
-18.911639420066191
 30
0.0
  0
VERTEX
  5
CD7
  8
DATA
  6
CONTINUOUS
 62
     7
 10
-48.264576135624353
 20
-18.907886544513229
 30
0.0
  0
VERTEX
  5
CD8
  8
DATA
  6
CONTINUOUS
 62
     7
 10
-48.270803768092421
 20
-18.904142433214389
 30
0.0
  0
VERTEX
  5
CD9
  8
DATA
  6
CONTINUOUS
 62
     7
 10
-48.277154720015282
 20
-18.900407086169668
 30
0.0
  0
VERTEX
  5
CDA
  8
DATA
  6
CONTINUOUS
 62
     7
 10
-48.283628991392973
 20
-18.896680503379059
 30
0.0
  0
VERTEX
  5
CDB
  8
DATA
  6
CONTINUOUS
 62
     7
 10
-48.290226582225493
 20
-18.892962684842569
 30
0.0
  0
VERTEX
  5
CDC
  8
DATA
  6
CONTINUOUS
 62
     7
 10
-48.2969474925128
 20
-18.889253630560201
 30
0.0
  0
VERTEX
  5
CDD
  8
DATA
  6
CONTINUOUS
 62
     7
 10
-48.303791722254942
 20
-18.885553340531938
 30
0.0
  0
VERTEX
  5
CDE
  8
DATA
  6
CONTINUOUS
 62
     7
 10
-48.310759271451893
 20
-18.881861814757801
 30
0.0
  0
VERTEX
  5
CDF
  8
DATA
  6
CONTINUOUS
 62
     7
 10
-48.317850140103637
 20
-18.87817905323778
 30
0.0
  0
VERTEX
  5
CE0
  8
DATA
  6
CONTINUOUS
 62
     7
 10
-48.32506432821021
 20
-18.874505055971881
 30
0.0
  0
VERTEX
  5
CE1
  8
DATA
  6
CONTINUOUS
 62
     7
 10
-48.332401835771591
 20
-18.87083982296009
 30
0.0
  0
VERTEX
  5
CE2
  8
DATA
  6
CONTINUOUS
 62
     7
 10
-48.339862662787802
 20
-18.86718335420241
 30
0.0
  0
VERTEX
  5
CE3
  8
DATA
  6
CONTINUOUS
 62
     7
 10
-48.347446809258813
 20
-18.86353564969885
 30
0.0
  0
VERTEX
  5
CE4
  8
DATA
  6
CONTINUOUS
 62
     7
 10
-48.355154275184631
 20
-18.859896709449419
 30
0.0
  0
VERTEX
  5
CE5
  8
DATA
  6
CONTINUOUS
 62
     7
 10
-48.362985060565272
 20
-18.8562665334541
 30
0.0
  0
VERTEX
  5
CE6
  8
DATA
  6
CONTINUOUS
 62
     7
 10
-48.362985060565272
 20
-18.8562665334541
 30
0.0
  0
VERTEX
  5
CE7
  8
DATA
  6
CONTINUOUS
 62
     7
 10
-48.370922643726551
 20
-18.852652711779601
 30
0.0
  0
VERTEX
  5
CE8
  8
DATA
  6
CONTINUOUS
 62
     7
 10
-48.378950502994321
 20
-18.849062834492649
 30
0.0
  0
VERTEX
  5
CE9
  8
DATA
  6
CONTINUOUS
 62
     7
 10
-48.387068638368582
 20
-18.845496901593219
 30
0.0
  0
VERTEX
  5
CEA
  8
DATA
  6
CONTINUOUS
 62
     7
 10
-48.395277049849327
 20
-18.841954913081342
 30
0.0
  0
VERTEX
  5
CEB
  8
DATA
  6
CONTINUOUS
 62
     7
 10
-48.40357573743654
 20
-18.838436868957
 30
0.0
  0
VERTEX
  5
CEC
  8
DATA
  6
CONTINUOUS
 62
     7
 10
-48.411964701130252
 20
-18.834942769220191
 30
0.0
  0
VERTEX
  5
CED
  8
DATA
  6
CONTINUOUS
 62
     7
 10
-48.420443940930447
 20
-18.831472613870918
 30
0.0
  0
VERTEX
  5
CEE
  8
DATA
  6
CONTINUOUS
 62
     7
 10
-48.429013456837133
 20
-18.828026402909181
 30
0.0
  0
VERTEX
  5
CEF
  8
DATA
  6
CONTINUOUS
 62
     7
 10
-48.437673248850288
 20
-18.82460413633499
 30
0.0
  0
VERTEX
  5
CF0
  8
DATA
  6
CONTINUOUS
 62
     7
 10
-48.446423316969941
 20
-18.821205814148328
 30
0.0
  0
VERTEX
  5
CF1
  8
DATA
  6
CONTINUOUS
 62
     7
 10
-48.455263661196071
 20
-18.817831436349209
 30
0.0
  0
VERTEX
  5
CF2
  8
DATA
  6
CONTINUOUS
 62
     7
 10
-48.464194281528712
 20
-18.81448100293764
 30
0.0
  0
VERTEX
  5
CF3
  8
DATA
  6
CONTINUOUS
 62
     7
 10
-48.473215177967788
 20
-18.811154513913579
 30
0.0
  0
VERTEX
  5
CF4
  8
DATA
  6
CONTINUOUS
 62
     7
 10
-48.482326350513397
 20
-18.807851969277081
 30
0.0
  0
VERTEX
  5
CF5
  8
DATA
  6
CONTINUOUS
 62
     7
 10
-48.491527799165468
 20
-18.804573369028098
 30
0.0
  0
VERTEX
  5
CF6
  8
DATA
  6
CONTINUOUS
 62
     7
 10
-48.500819523924037
 20
-18.801318713166669
 30
0.0
  0
VERTEX
  5
CF7
  8
DATA
  6
CONTINUOUS
 62
     7
 10
-48.510201524789068
 20
-18.798088001692769
 30
0.0
  0
VERTEX
  5
CF8
  8
DATA
  6
CONTINUOUS
 62
     7
 10
-48.519673801760618
 20
-18.794881234606411
 30
0.0
  0
VERTEX
  5
CF9
  8
DATA
  6
CONTINUOUS
 62
     7
 10
-48.529236354838631
 20
-18.7916984119076
 30
0.0
  0
VERTEX
  5
CFA
  8
DATA
  6
CONTINUOUS
 62
     7
 10
-48.538889184023141
 20
-18.78853953359631
 30
0.0
  0
VERTEX
  5
CFB
  8
DATA
  6
CONTINUOUS
 62
     7
 10
-48.548632289314099
 20
-18.78540459967256
 30
0.0
  0
VERTEX
  5
CFC
  8
DATA
  6
CONTINUOUS
 62
     7
 10
-48.55846567071157
 20
-18.78229361013636
 30
0.0
  0
VERTEX
  5
CFD
  8
DATA
  6
CONTINUOUS
 62
     7
 10
-48.568389328215538
 20
-18.779206564987678
 30
0.0
  0
VERTEX
  5
CFE
  8
DATA
  6
CONTINUOUS
 62
     7
 10
-48.578403261825983
 20
-18.77614346422655
 30
0.0
  0
VERTEX
  5
CFF
  8
DATA
  6
CONTINUOUS
 62
     7
 10
-48.588507471542897
 20
-18.77310430785295
 30
0.0
  0
VERTEX
  5
D00
  8
DATA
  6
CONTINUOUS
 62
     7
 10
-48.59870195736633
 20
-18.77008909586689
 30
0.0
  0
VERTEX
  5
D01
  8
DATA
  6
CONTINUOUS
 62
     7
 10
-48.608986719296198
 20
-18.767097828268369
 30
0.0
  0
VERTEX
  5
D02
  8
DATA
  6
CONTINUOUS
 62
     7
 10
-48.619361757332591
 20
-18.764130505057391
 30
0.0
  0
VERTEX
  5
D03
  8
DATA
  6
CONTINUOUS
 62
     7
 10
-48.629827071475461
 20
-18.761187126233931
 30
0.0
  0
VERTEX
  5
D04
  8
DATA
  6
CONTINUOUS
 62
     7
 10
-48.640382661724793
 20
-18.758267691798029
 30
0.0
  0
VERTEX
  5
D05
  8
DATA
  6
CONTINUOUS
 62
     7
 10
-48.651028528080637
 20
-18.755372201749651
 30
0.0
  0
VERTEX
  5
D06
  8
DATA
  6
CONTINUOUS
 62
     7
 10
-48.661764670542958
 20
-18.75250065608882
 30
0.0
  0
VERTEX
  5
D07
  8
DATA
  6
CONTINUOUS
 62
     7
 10
-48.672591089111748
 20
-18.749653054815521
 30
0.0
  0
VERTEX
  5
D08
  8
DATA
  6
CONTINUOUS
 62
     7
 10
-48.68350778378705
 20
-18.746829397929758
 30
0.0
  0
VERTEX
  5
D09
  8
DATA
  6
CONTINUOUS
 62
     7
 10
-48.694514754568822
 20
-18.744029685431538
 30
0.0
  0
VERTEX
  5
D0A
  8
DATA
  6
CONTINUOUS
 62
     7
 10
-48.705612001457091
 20
-18.741253917320861
 30
0.0
  0
VERTEX
  5
D0B
  8
DATA
  6
CONTINUOUS
 62
     7
 10
-48.716799524451829
 20
-18.73850209359771
 30
0.0
  0
VERTEX
  5
D0C
  8
DATA
  6
CONTINUOUS
 62
     7
 10
-48.728077323553052
 20
-18.735774214262101
 30
0.0
  0
VERTEX
  5
D0D
  8
DATA
  6
CONTINUOUS
 62
     7
 10
-48.739445398760772
 20
-18.733070279314031
 30
0.0
  0
VERTEX
  5
D0E
  8
DATA
  6
CONTINUOUS
 62
     7
 10
-48.750903750074968
 20
-18.73039028875349
 30
0.0
  0
VERTEX
  5
D0F
  8
DATA
  6
CONTINUOUS
 62
     7
 10
-48.762452377495642
 20
-18.727734242580489
 30
0.0
  0
VERTEX
  5
D10
  8
DATA
  6
CONTINUOUS
 62
     7
 10
-48.774091281022812
 20
-18.72510214079503
 30
0.0
  0
VERTEX
  5
D11
  8
DATA
  6
CONTINUOUS
 62
     7
 10
-48.785820460656481
 20
-18.722493983397111
 30
0.0
  0
VERTEX
  5
D12
  8
DATA
  6
CONTINUOUS
 62
     7
 10
-48.797639916396619
 20
-18.719909770386732
 30
0.0
  0
VERTEX
  5
D13
  8
DATA
  6
CONTINUOUS
 62
     7
 10
-48.809549648243248
 20
-18.717349501763881
 30
0.0
  0
VERTEX
  5
D14
  8
DATA
  6
CONTINUOUS
 62
     7
 10
-48.821549656196339
 20
-18.714813177528558
 30
0.0
  0
VERTEX
  5
D15
  8
DATA
  6
CONTINUOUS
 62
     7
 10
-48.833639940255928
 20
-18.7123007976808
 30
0.0
  0
VERTEX
  5
D16
  8
DATA
  6
CONTINUOUS
 62
     7
 10
-48.845820500422022
 20
-18.709812362220561
 30
0.0
  0
VERTEX
  5
D17
  8
DATA
  6
CONTINUOUS
 62
     7
 10
-48.858091336694571
 20
-18.70734787114786
 30
0.0
  0
VERTEX
  5
D18
  8
DATA
  6
CONTINUOUS
 62
     7
 10
-48.870452449073639
 20
-18.704907324462692
 30
0.0
  0
VERTEX
  5
D19
  8
DATA
  6
CONTINUOUS
 62
     7
 10
-48.882903837559176
 20
-18.70249072216507
 30
0.0
  0
VERTEX
  5
D1A
  8
DATA
  6
CONTINUOUS
 62
     7
 10
-48.895445502151183
 20
-18.700098064254991
 30
0.0
  0
VERTEX
  5
D1B
  8
DATA
  6
CONTINUOUS
 62
     7
 10
-48.908077442849681
 20
-18.697729350732441
 30
0.0
  0
VERTEX
  5
D1C
  8
DATA
  6
CONTINUOUS
 62
     7
 10
-48.920799659654683
 20
-18.69538458159743
 30
0.0
  0
VERTEX
  5
D1D
  8
DATA
  6
CONTINUOUS
 62
     7
 10
-48.933612152566141
 20
-18.693063756849948
 30
0.0
  0
VERTEX
  5
D1E
  8
DATA
  6
CONTINUOUS
 62
     7
 10
-48.946514921584111
 20
-18.69076687649002
 30
0.0
  0
VERTEX
  5
D1F
  8
DATA
  6
CONTINUOUS
 62
     7
 10
-48.959507966708557
 20
-18.68849394051761
 30
0.0
  0
VERTEX
  5
D20
  8
DATA
  6
CONTINUOUS
 62
     7
 10
-48.972591287939473
 20
-18.68624494893276
 30
0.0
  0
VERTEX
  5
D21
  8
DATA
  6
CONTINUOUS
 62
     7
 10
-48.985764885276893
 20
-18.684019901735429
 30
0.0
  0
VERTEX
  5
D22
  8
DATA
  6
CONTINUOUS
 62
     7
 10
-48.99902875872079
 20
-18.681818798925651
 30
0.0
  0
VERTEX
  5
D23
  8
DATA
  6
CONTINUOUS
 62
     7
 10
-49.012382908271171
 20
-18.679641640503402
 30
0.0
  0
VERTEX
  5
D24
  8
DATA
  6
CONTINUOUS
 62
     7
 10
-49.025827333928042
 20
-18.677488426468688
 30
0.0
  0
VERTEX
  5
D25
  8
DATA
  6
CONTINUOUS
 62
     7
 10
-49.039362035691383
 20
-18.675359156821511
 30
0.0
  0
VERTEX
  5
D26
  8
DATA
  6
CONTINUOUS
 62
     7
 10
-49.052987013561221
 20
-18.673253831561869
 30
0.0
  0
VERTEX
  5
D27
  8
DATA
  6
CONTINUOUS
 62
     7
 10
-49.052987013561221
 20
-18.673253831561869
 30
0.0
  0
VERTEX
  5
D28
  8
DATA
  6
CONTINUOUS
 62
     7
 10
-49.066673651158467
 20
-18.67117683281684
 30
0.0
  0
VERTEX
  5
D29
  8
DATA
  6
CONTINUOUS
 62
     7
 10
-49.080393332104038
 20
-18.669132542713449
 30
0.0
  0
VERTEX
  5
D2A
  8
DATA
  6
CONTINUOUS
 62
     7
 10
-49.094146056397932
 20
-18.667120961251712
 30
0.0
  0
VERTEX
  5
D2B
  8
DATA
  6
CONTINUOUS
 62
     7
 10
-49.107931824040172
 20
-18.66514208843164
 30
0.0
  0
VERTEX
  5
D2C
  8
DATA
  6
CONTINUOUS
 62
     7
 10
-49.121750635030729
 20
-18.663195924253209
 30
0.0
  0
VERTEX
  5
D2D
  8
DATA
  6
CONTINUOUS
 62
     7
 10
-49.135602489369617
 20
-18.66128246871645
 30
0.0
  0
VERTEX
  5
D2E
  8
DATA
  6
CONTINUOUS
 62
     7
 10
-49.14948738705683
 20
-18.659401721821329
 30
0.0
  0
VERTEX
  5
D2F
  8
DATA
  6
CONTINUOUS
 62
     7
 10
-49.16340532809236
 20
-18.657553683567869
 30
0.0
  0
VERTEX
  5
D30
  8
DATA
  6
CONTINUOUS
 62
     7
 10
-49.177356312476242
 20
-18.65573835395606
 30
0.0
  0
VERTEX
  5
D31
  8
DATA
  6
CONTINUOUS
 62
     7
 10
-49.19134034020842
 20
-18.65395573298591
 30
0.0
  0
VERTEX
  5
D32
  8
DATA
  6
CONTINUOUS
 62
     7
 10
-49.205357411288958
 20
-18.652205820657411
 30
0.0
  0
VERTEX
  5
D33
  8
DATA
  6
CONTINUOUS
 62
     7
 10
-49.219407525717813
 20
-18.650488616970559
 30
0.0
  0
VERTEX
  5
D34
  8
DATA
  6
CONTINUOUS
 62
     7
 10
-49.233490683494999
 20
-18.64880412192537
 30
0.0
  0
VERTEX
  5
D35
  8
DATA
  6
CONTINUOUS
 62
     7
 10
-49.247606884620502
 20
-18.647152335521842
 30
0.0
  0
VERTEX
  5
D36
  8
DATA
  6
CONTINUOUS
 62
     7
 10
-49.261756129094351
 20
-18.645533257759951
 30
0.0
  0
VERTEX
  5
D37
  8
DATA
  6
CONTINUOUS
 62
     7
 10
-49.275938416916532
 20
-18.643946888639721
 30
0.0
  0
VERTEX
  5
D38
  8
DATA
  6
CONTINUOUS
 62
     7
 10
-49.290153748087022
 20
-18.642393228161151
 30
0.0
  0
VERTEX
  5
D39
  8
DATA
  6
CONTINUOUS
 62
     7
 10
-49.30440212260585
 20
-18.640872276324231
 30
0.0
  0
VERTEX
  5
D3A
  8
DATA
  6
CONTINUOUS
 62
     7
 10
-49.318683540472968
 20
-18.63938403312897
 30
0.0
  0
VERTEX
  5
D3B
  8
DATA
  6
CONTINUOUS
 62
     7
 10
-49.332998001688473
 20
-18.637928498575359
 30
0.0
  0
VERTEX
  5
D3C
  8
DATA
  6
CONTINUOUS
 62
     7
 10
-49.347345506252282
 20
-18.6365056726634
 30
0.0
  0
VERTEX
  5
D3D
  8
DATA
  6
CONTINUOUS
 62
     7
 10
-49.361726054164421
 20
-18.635115555393082
 30
0.0
  0
VERTEX
  5
D3E
  8
DATA
  6
CONTINUOUS
 62
     7
 10
-49.376139645424892
 20
-18.63375814676445
 30
0.0
  0
VERTEX
  5
D3F
  8
DATA
  6
CONTINUOUS
 62
     7
 10
-49.390586280033681
 20
-18.632433446777441
 30
0.0
  0
VERTEX
  5
D40
  8
DATA
  6
CONTINUOUS
 62
     7
 10
-49.405065957990807
 20
-18.631141455432111
 30
0.0
  0
VERTEX
  5
D41
  8
DATA
  6
CONTINUOUS
 62
     7
 10
-49.419578679296258
 20
-18.629882172728419
 30
0.0
  0
VERTEX
  5
D42
  8
DATA
  6
CONTINUOUS
 62
     7
 10
-49.434124443950033
 20
-18.628655598666391
 30
0.0
  0
VERTEX
  5
D43
  8
DATA
  6
CONTINUOUS
 62
     7
 10
-49.448703251952139
 20
-18.627461733246012
 30
0.0
  0
VERTEX
  5
D44
  8
DATA
  6
CONTINUOUS
 62
     7
 10
-49.46331510330257
 20
-18.62630057646729
 30
0.0
  0
VERTEX
  5
D45
  8
DATA
  6
CONTINUOUS
 62
     7
 10
-49.477959998001353
 20
-18.62517212833022
 30
0.0
  0
VERTEX
  5
D46
  8
DATA
  6
CONTINUOUS
 62
     7
 10
-49.492637936048432
 20
-18.624076388834801
 30
0.0
  0
VERTEX
  5
D47
  8
DATA
  6
CONTINUOUS
 62
     7
 10
-49.507348917443849
 20
-18.623013357981051
 30
0.0
  0
VERTEX
  5
D48
  8
DATA
  6
CONTINUOUS
 62
     7
 10
-49.522092942187612
 20
-18.621983035768931
 30
0.0
  0
VERTEX
  5
D49
  8
DATA
  6
CONTINUOUS
 62
     7
 10
-49.536870010279678
 20
-18.620985422198491
 30
0.0
  0
VERTEX
  5
D4A
  8
DATA
  6
CONTINUOUS
 62
     7
 10
-49.551680121720068
 20
-18.62002051726969
 30
0.0
  0
VERTEX
  5
D4B
  8
DATA
  6
CONTINUOUS
 62
     7
 10
-49.566523276508789
 20
-18.619088320982542
 30
0.0
  0
VERTEX
  5
D4C
  8
DATA
  6
CONTINUOUS
 62
     7
 10
-49.581399474645863
 20
-18.618188833337051
 30
0.0
  0
VERTEX
  5
D4D
  8
DATA
  6
CONTINUOUS
 62
     7
 10
-49.596308716131247
 20
-18.617322054333211
 30
0.0
  0
VERTEX
  5
D4E
  8
DATA
  6
CONTINUOUS
 62
     7
 10
-49.611251000964963
 20
-18.61648798397103
 30
0.0
  0
VERTEX
  5
D4F
  8
DATA
  6
CONTINUOUS
 62
     7
 10
-49.626226329147023
 20
-18.615686622250511
 30
0.0
  0
VERTEX
  5
D50
  8
DATA
  6
CONTINUOUS
 62
     7
 10
-49.641234700677401
 20
-18.614917969171639
 30
0.0
  0
VERTEX
  5
D51
  8
DATA
  6
CONTINUOUS
 62
     7
 10
-49.656276115556103
 20
-18.614182024734411
 30
0.0
  0
VERTEX
  5
D52
  8
DATA
  6
CONTINUOUS
 62
     7
 10
-49.671350573783123
 20
-18.613478788938838
 30
0.0
  0
VERTEX
  5
D53
  8
DATA
  6
CONTINUOUS
 62
     7
 10
-49.686458075358473
 20
-18.612808261784931
 30
0.0
  0
VERTEX
  5
D54
  8
DATA
  6
CONTINUOUS
 62
     7
 10
-49.701598620282176
 20
-18.612170443272682
 30
0.0
  0
VERTEX
  5
D55
  8
DATA
  6
CONTINUOUS
 62
     7
 10
-49.716772208554183
 20
-18.61156533340208
 30
0.0
  0
VERTEX
  5
D56
  8
DATA
  6
CONTINUOUS
 62
     7
 10
-49.731978840174527
 20
-18.610992932173129
 30
0.0
  0
VERTEX
  5
D57
  8
DATA
  6
CONTINUOUS
 62
     7
 10
-49.74721851514321
 20
-18.610453239585841
 30
0.0
  0
VERTEX
  5
D58
  8
DATA
  6
CONTINUOUS
 62
     7
 10
-49.762491233460182
 20
-18.6099462556402
 30
0.0
  0
VERTEX
  5
D59
  8
DATA
  6
CONTINUOUS
 62
     7
 10
-49.77779699512552
 20
-18.60947198033621
 30
0.0
  0
VERTEX
  5
D5A
  8
DATA
  6
CONTINUOUS
 62
     7
 10
-49.793135800139183
 20
-18.609030413673882
 30
0.0
  0
VERTEX
  5
D5B
  8
DATA
  6
CONTINUOUS
 62
     7
 10
-49.808507648501148
 20
-18.608621555653201
 30
0.0
  0
VERTEX
  5
D5C
  8
DATA
  6
CONTINUOUS
 62
     7
 10
-49.823912540211467
 20
-18.608245406274168
 30
0.0
  0
VERTEX
  5
D5D
  8
DATA
  6
CONTINUOUS
 62
     7
 10
-49.839350475270123
 20
-18.607901965536811
 30
0.0
  0
VERTEX
  5
D5E
  8
DATA
  6
CONTINUOUS
 62
     7
 10
-49.854821453677083
 20
-18.607591233441092
 30
0.0
  0
VERTEX
  5
D5F
  8
DATA
  6
CONTINUOUS
 62
     7
 10
-49.870325475432388
 20
-18.60731320998703
 30
0.0
  0
VERTEX
  5
D60
  8
DATA
  6
CONTINUOUS
 62
     7
 10
-49.88586254053601
 20
-18.60706789517463
 30
0.0
  0
VERTEX
  5
D61
  8
DATA
  6
CONTINUOUS
 62
     7
 10
-49.901432648987956
 20
-18.606855289003871
 30
0.0
  0
VERTEX
  5
D62
  8
DATA
  6
CONTINUOUS
 62
     7
 10
-49.917035800788241
 20
-18.60667539147477
 30
0.0
  0
VERTEX
  5
D63
  8
DATA
  6
CONTINUOUS
 62
     7
 10
-49.93267199593685
 20
-18.606528202587331
 30
0.0
  0
VERTEX
  5
D64
  8
DATA
  6
CONTINUOUS
 62
     7
 10
-49.948341234433791
 20
-18.606413722341539
 30
0.0
  0
VERTEX
  5
D65
  8
DATA
  6
CONTINUOUS
 62
     7
 10
-49.964043516279048
 20
-18.606331950737399
 30
0.0
  0
VERTEX
  5
D66
  8
DATA
  6
CONTINUOUS
 62
     7
 10
-49.979778841472651
 20
-18.60628288777492
 30
0.0
  0
VERTEX
  5
D67
  8
DATA
  6
CONTINUOUS
 62
     7
 10
-49.995547210014578
 20
-18.6062665334541
 30
0.0
  0
VERTEX
  5
D68
  8
DATA
  6
CONTINUOUS
 62
     7
 10
-49.995547210014578
 20
-18.6062665334541
 30
0.0
  0
VERTEX
  5
D69
  8
DATA
  6
CONTINUOUS
 62
     7
 10
-50.011315578556498
 20
-18.60628288777492
 30
0.0
  0
VERTEX
  5
D6A
  8
DATA
  6
CONTINUOUS
 62
     7
 10
-50.027050903750101
 20
-18.606331950737399
 30
0.0
  0
VERTEX
  5
D6B
  8
DATA
  6
CONTINUOUS
 62
     7
 10
-50.042753185595359
 20
-18.606413722341539
 30
0.0
  0
VERTEX
  5
D6C
  8
DATA
  6
CONTINUOUS
 62
     7
 10
-50.058422424092313
 20
-18.606528202587331
 30
0.0
  0
VERTEX
  5
D6D
  8
DATA
  6
CONTINUOUS
 62
     7
 10
-50.074058619240922
 20
-18.60667539147477
 30
0.0
  0
VERTEX
  5
D6E
  8
DATA
  6
CONTINUOUS
 62
     7
 10
-50.0896617710412
 20
-18.606855289003871
 30
0.0
  0
VERTEX
  5
D6F
  8
DATA
  6
CONTINUOUS
 62
     7
 10
-50.105231879493147
 20
-18.60706789517463
 30
0.0
  0
VERTEX
  5
D70
  8
DATA
  6
CONTINUOUS
 62
     7
 10
-50.120768944596783
 20
-18.60731320998703
 30
0.0
  0
VERTEX
  5
D71
  8
DATA
  6
CONTINUOUS
 62
     7
 10
-50.136272966352081
 20
-18.607591233441092
 30
0.0
  0
VERTEX
  5
D72
  8
DATA
  6
CONTINUOUS
 62
     7
 10
-50.151743944759033
 20
-18.607901965536811
 30
0.0
  0
VERTEX
  5
D73
  8
DATA
  6
CONTINUOUS
 62
     7
 10
-50.167181879817669
 20
-18.608245406274168
 30
0.0
  0
VERTEX
  5
D74
  8
DATA
  6
CONTINUOUS
 62
     7
 10
-50.182586771527987
 20
-18.608621555653201
 30
0.0
  0
VERTEX
  5
D75
  8
DATA
  6
CONTINUOUS
 62
     7
 10
-50.19795861988996
 20
-18.609030413673882
 30
0.0
  0
VERTEX
  5
D76
  8
DATA
  6
CONTINUOUS
 62
     7
 10
-50.213297424903637
 20
-18.60947198033621
 30
0.0
  0
VERTEX
  5
D77
  8
DATA
  6
CONTINUOUS
 62
     7
 10
-50.228603186568961
 20
-18.6099462556402
 30
0.0
  0
VERTEX
  5
D78
  8
DATA
  6
CONTINUOUS
 62
     7
 10
-50.243875904885961
 20
-18.610453239585841
 30
0.0
  0
VERTEX
  5
D79
  8
DATA
  6
CONTINUOUS
 62
     7
 10
-50.259115579854623
 20
-18.610992932173129
 30
0.0
  0
VERTEX
  5
D7A
  8
DATA
  6
CONTINUOUS
 62
     7
 10
-50.274322211474981
 20
-18.61156533340208
 30
0.0
  0
VERTEX
  5
D7B
  8
DATA
  6
CONTINUOUS
 62
     7
 10
-50.28949579974698
 20
-18.612170443272682
 30
0.0
  0
VERTEX
  5
D7C
  8
DATA
  6
CONTINUOUS
 62
     7
 10
-50.304636344670683
 20
-18.612808261784931
 30
0.0
  0
VERTEX
  5
D7D
  8
DATA
  6
CONTINUOUS
 62
     7
 10
-50.319743846246041
 20
-18.613478788938838
 30
0.0
  0
VERTEX
  5
D7E
  8
DATA
  6
CONTINUOUS
 62
     7
 10
-50.334818304473067
 20
-18.614182024734411
 30
0.0
  0
VERTEX
  5
D7F
  8
DATA
  6
CONTINUOUS
 62
     7
 10
-50.349859719351748
 20
-18.614917969171639
 30
0.0
  0
VERTEX
  5
D80
  8
DATA
  6
CONTINUOUS
 62
     7
 10
-50.36486809088214
 20
-18.615686622250511
 30
0.0
  0
VERTEX
  5
D81
  8
DATA
  6
CONTINUOUS
 62
     7
 10
-50.37984341906418
 20
-18.61648798397103
 30
0.0
  0
VERTEX
  5
D82
  8
DATA
  6
CONTINUOUS
 62
     7
 10
-50.394785703897888
 20
-18.617322054333211
 30
0.0
  0
VERTEX
  5
D83
  8
DATA
  6
CONTINUOUS
 62
     7
 10
-50.409694945383293
 20
-18.618188833337051
 30
0.0
  0
VERTEX
  5
D84
  8
DATA
  6
CONTINUOUS
 62
     7
 10
-50.42457114352036
 20
-18.619088320982542
 30
0.0
  0
VERTEX
  5
D85
  8
DATA
  6
CONTINUOUS
 62
     7
 10
-50.439414298309082
 20
-18.62002051726969
 30
0.0
  0
VERTEX
  5
D86
  8
DATA
  6
CONTINUOUS
 62
     7
 10
-50.454224409749493
 20
-18.620985422198491
 30
0.0
  0
VERTEX
  5
D87
  8
DATA
  6
CONTINUOUS
 62
     7
 10
-50.469001477841573
 20
-18.621983035768931
 30
0.0
  0
VERTEX
  5
D88
  8
DATA
  6
CONTINUOUS
 62
     7
 10
-50.483745502585307
 20
-18.623013357981051
 30
0.0
  0
VERTEX
  5
D89
  8
DATA
  6
CONTINUOUS
 62
     7
 10
-50.498456483980718
 20
-18.624076388834801
 30
0.0
  0
VERTEX
  5
D8A
  8
DATA
  6
CONTINUOUS
 62
     7
 10
-50.513134422027832
 20
-18.62517212833022
 30
0.0
  0
VERTEX
  5
D8B
  8
DATA
  6
CONTINUOUS
 62
     7
 10
-50.527779316726573
 20
-18.62630057646729
 30
0.0
  0
VERTEX
  5
D8C
  8
DATA
  6
CONTINUOUS
 62
     7
 10
-50.542391168077032
 20
-18.627461733246012
 30
0.0
  0
VERTEX
  5
D8D
  8
DATA
  6
CONTINUOUS
 62
     7
 10
-50.556969976079131
 20
-18.628655598666391
 30
0.0
  0
VERTEX
  5
D8E
  8
DATA
  6
CONTINUOUS
 62
     7
 10
-50.571515740732913
 20
-18.629882172728419
 30
0.0
  0
VERTEX
  5
D8F
  8
DATA
  6
CONTINUOUS
 62
     7
 10
-50.586028462038357
 20
-18.631141455432111
 30
0.0
  0
VERTEX
  5
D90
  8
DATA
  6
CONTINUOUS
 62
     7
 10
-50.600508139995483
 20
-18.632433446777441
 30
0.0
  0
VERTEX
  5
D91
  8
DATA
  6
CONTINUOUS
 62
     7
 10
-50.614954774604271
 20
-18.63375814676445
 30
0.0
  0
VERTEX
  5
D92
  8
DATA
  6
CONTINUOUS
 62
     7
 10
-50.629368365864742
 20
-18.635115555393082
 30
0.0
  0
VERTEX
  5
D93
  8
DATA
  6
CONTINUOUS
 62
     7
 10
-50.643748913776882
 20
-18.6365056726634
 30
0.0
  0
VERTEX
  5
D94
  8
DATA
  6
CONTINUOUS
 62
     7
 10
-50.658096418340683
 20
-18.637928498575359
 30
0.0
  0
VERTEX
  5
D95
  8
DATA
  6
CONTINUOUS
 62
     7
 10
-50.672410879556168
 20
-18.63938403312897
 30
0.0
  0
VERTEX
  5
D96
  8
DATA
  6
CONTINUOUS
 62
     7
 10
-50.686692297423328
 20
-18.640872276324231
 30
0.0
  0
VERTEX
  5
D97
  8
DATA
  6
CONTINUOUS
 62
     7
 10
-50.700940671942142
 20
-18.642393228161151
 30
0.0
  0
VERTEX
  5
D98
  8
DATA
  6
CONTINUOUS
 62
     7
 10
-50.715156003112639
 20
-18.643946888639721
 30
0.0
  0
VERTEX
  5
D99
  8
DATA
  6
CONTINUOUS
 62
     7
 10
-50.729338290934813
 20
-18.645533257759951
 30
0.0
  0
VERTEX
  5
D9A
  8
DATA
  6
CONTINUOUS
 62
     7
 10
-50.74348753540864
 20
-18.647152335521842
 30
0.0
  0
VERTEX
  5
D9B
  8
DATA
  6
CONTINUOUS
 62
     7
 10
-50.757603736534158
 20
-18.64880412192537
 30
0.0
  0
VERTEX
  5
D9C
  8
DATA
  6
CONTINUOUS
 62
     7
 10
-50.771686894311337
 20
-18.650488616970559
 30
0.0
  0
VERTEX
  5
D9D
  8
DATA
  6
CONTINUOUS
 62
     7
 10
-50.785737008740199
 20
-18.652205820657411
 30
0.0
  0
VERTEX
  5
D9E
  8
DATA
  6
CONTINUOUS
 62
     7
 10
-50.799754079820723
 20
-18.65395573298591
 30
0.0
  0
VERTEX
  5
D9F
  8
DATA
  6
CONTINUOUS
 62
     7
 10
-50.813738107552922
 20
-18.65573835395606
 30
0.0
  0
VERTEX
  5
DA0
  8
DATA
  6
CONTINUOUS
 62
     7
 10
-50.82768909193679
 20
-18.657553683567869
 30
0.0
  0
VERTEX
  5
DA1
  8
DATA
  6
CONTINUOUS
 62
     7
 10
-50.841607032972348
 20
-18.659401721821329
 30
0.0
  0
VERTEX
  5
DA2
  8
DATA
  6
CONTINUOUS
 62
     7
 10
-50.855491930659539
 20
-18.66128246871645
 30
0.0
  0
VERTEX
  5
DA3
  8
DATA
  6
CONTINUOUS
 62
     7
 10
-50.869343784998442
 20
-18.663195924253209
 30
0.0
  0
VERTEX
  5
DA4
  8
DATA
  6
CONTINUOUS
 62
     7
 10
-50.883162595988992
 20
-18.66514208843164
 30
0.0
  0
VERTEX
  5
DA5
  8
DATA
  6
CONTINUOUS
 62
     7
 10
-50.896948363631218
 20
-18.667120961251712
 30
0.0
  0
VERTEX
  5
DA6
  8
DATA
  6
CONTINUOUS
 62
     7
 10
-50.910701087925119
 20
-18.669132542713449
 30
0.0
  0
VERTEX
  5
DA7
  8
DATA
  6
CONTINUOUS
 62
     7
 10
-50.924420768870689
 20
-18.67117683281684
 30
0.0
  0
VERTEX
  5
DA8
  8
DATA
  6
CONTINUOUS
 62
     7
 10
-50.938107406467942
 20
-18.673253831561869
 30
0.0
  0
VERTEX
  5
DA9
  8
DATA
  6
CONTINUOUS
 62
     7
 10
-50.938107406467942
 20
-18.673253831561869
 30
0.0
  0
VERTEX
  5
DAA
  8
DATA
  6
CONTINUOUS
 62
     7
 10
-50.951732384337781
 20
-18.675359156821511
 30
0.0
  0
VERTEX
  5
DAB
  8
DATA
  6
CONTINUOUS
 62
     7
 10
-50.965267086101122
 20
-18.677488426468688
 30
0.0
  0
VERTEX
  5
DAC
  8
DATA
  6
CONTINUOUS
 62
     7
 10
-50.978711511757993
 20
-18.679641640503402
 30
0.0
  0
VERTEX
  5
DAD
  8
DATA
  6
CONTINUOUS
 62
     7
 10
-50.992065661308366
 20
-18.681818798925651
 30
0.0
  0
VERTEX
  5
DAE
  8
DATA
  6
CONTINUOUS
 62
     7
 10
-51.005329534752278
 20
-18.684019901735429
 30
0.0
  0
VERTEX
  5
DAF
  8
DATA
  6
CONTINUOUS
 62
     7
 10
-51.018503132089691
 20
-18.68624494893276
 30
0.0
  0
VERTEX
  5
DB0
  8
DATA
  6
CONTINUOUS
 62
     7
 10
-51.031586453320607
 20
-18.68849394051761
 30
0.0
  0
VERTEX
  5
DB1
  8
DATA
  6
CONTINUOUS
 62
     7
 10
-51.04457949844506
 20
-18.69076687649002
 30
0.0
  0
VERTEX
  5
DB2
  8
DATA
  6
CONTINUOUS
 62
     7
 10
-51.057482267463023
 20
-18.693063756849948
 30
0.0
  0
VERTEX
  5
DB3
  8
DATA
  6
CONTINUOUS
 62
     7
 10
-51.070294760374502
 20
-18.69538458159743
 30
0.0
  0
VERTEX
  5
DB4
  8
DATA
  6
CONTINUOUS
 62
     7
 10
-51.083016977179483
 20
-18.697729350732441
 30
0.0
  0
VERTEX
  5
DB5
  8
DATA
  6
CONTINUOUS
 62
     7
 10
-51.09564891787798
 20
-18.700098064254991
 30
0.0
  0
VERTEX
  5
DB6
  8
DATA
  6
CONTINUOUS
 62
     7
 10
-51.108190582469987
 20
-18.70249072216507
 30
0.0
  0
VERTEX
  5
DB7
  8
DATA
  6
CONTINUOUS
 62
     7
 10
-51.120641970955532
 20
-18.704907324462692
 30
0.0
  0
VERTEX
  5
DB8
  8
DATA
  6
CONTINUOUS
 62
     7
 10
-51.133003083334579
 20
-18.70734787114786
 30
0.0
  0
VERTEX
  5
DB9
  8
DATA
  6
CONTINUOUS
 62
     7
 10
-51.145273919607142
 20
-18.709812362220561
 30
0.0
  0
VERTEX
  5
DBA
  8
DATA
  6
CONTINUOUS
 62
     7
 10
-51.15745447977325
 20
-18.7123007976808
 30
0.0
  0
VERTEX
  5
DBB
  8
DATA
  6
CONTINUOUS
 62
     7
 10
-51.16954476383281
 20
-18.714813177528558
 30
0.0
  0
VERTEX
  5
DBC
  8
DATA
  6
CONTINUOUS
 62
     7
 10
-51.18154477178593
 20
-18.717349501763881
 30
0.0
  0
VERTEX
  5
DBD
  8
DATA
  6
CONTINUOUS
 62
     7
 10
-51.193454503632552
 20
-18.719909770386732
 30
0.0
  0
VERTEX
  5
DBE
  8
DATA
  6
CONTINUOUS
 62
     7
 10
-51.20527395937269
 20
-18.722493983397111
 30
0.0
  0
VERTEX
  5
DBF
  8
DATA
  6
CONTINUOUS
 62
     7
 10
-51.217003139006337
 20
-18.72510214079503
 30
0.0
  0
VERTEX
  5
DC0
  8
DATA
  6
CONTINUOUS
 62
     7
 10
-51.228642042533522
 20
-18.727734242580489
 30
0.0
  0
VERTEX
  5
DC1
  8
DATA
  6
CONTINUOUS
 62
     7
 10
-51.240190669954202
 20
-18.73039028875349
 30
0.0
  0
VERTEX
  5
DC2
  8
DATA
  6
CONTINUOUS
 62
     7
 10
-51.251649021268378
 20
-18.733070279314031
 30
0.0
  0
VERTEX
  5
DC3
  8
DATA
  6
CONTINUOUS
 62
     7
 10
-51.263017096476091
 20
-18.735774214262101
 30
0.0
  0
VERTEX
  5
DC4
  8
DATA
  6
CONTINUOUS
 62
     7
 10
-51.274294895577327
 20
-18.73850209359771
 30
0.0
  0
VERTEX
  5
DC5
  8
DATA
  6
CONTINUOUS
 62
     7
 10
-51.285482418572073
 20
-18.741253917320861
 30
0.0
  0
VERTEX
  5
DC6
  8
DATA
  6
CONTINUOUS
 62
     7
 10
-51.296579665460349
 20
-18.744029685431538
 30
0.0
  0
VERTEX
  5
DC7
  8
DATA
  6
CONTINUOUS
 62
     7
 10
-51.307586636242107
 20
-18.746829397929758
 30
0.0
  0
VERTEX
  5
DC8
  8
DATA
  6
CONTINUOUS
 62
     7
 10
-51.318503330917402
 20
-18.749653054815521
 30
0.0
  0
VERTEX
  5
DC9
  8
DATA
  6
CONTINUOUS
 62
     7
 10
-51.329329749486199
 20
-18.75250065608882
 30
0.0
  0
VERTEX
  5
DCA
  8
DATA
  6
CONTINUOUS
 62
     7
 10
-51.340065891948527
 20
-18.755372201749651
 30
0.0
  0
VERTEX
  5
DCB
  8
DATA
  6
CONTINUOUS
 62
     7
 10
-51.350711758304357
 20
-18.758267691798029
 30
0.0
  0
VERTEX
  5
DCC
  8
DATA
  6
CONTINUOUS
 62
     7
 10
-51.361267348553717
 20
-18.761187126233931
 30
0.0
  0
VERTEX
  5
DCD
  8
DATA
  6
CONTINUOUS
 62
     7
 10
-51.371732662696573
 20
-18.764130505057391
 30
0.0
  0
VERTEX
  5
DCE
  8
DATA
  6
CONTINUOUS
 62
     7
 10
-51.382107700732959
 20
-18.767097828268369
 30
0.0
  0
VERTEX
  5
DCF
  8
DATA
  6
CONTINUOUS
 62
     7
 10
-51.392392462662848
 20
-18.77008909586689
 30
0.0
  0
VERTEX
  5
DD0
  8
DATA
  6
CONTINUOUS
 62
     7
 10
-51.402586948486253
 20
-18.77310430785295
 30
0.0
  0
VERTEX
  5
DD1
  8
DATA
  6
CONTINUOUS
 62
     7
 10
-51.412691158203181
 20
-18.77614346422655
 30
0.0
  0
VERTEX
  5
DD2
  8
DATA
  6
CONTINUOUS
 62
     7
 10
-51.422705091813611
 20
-18.779206564987678
 30
0.0
  0
VERTEX
  5
DD3
  8
DATA
  6
CONTINUOUS
 62
     7
 10
-51.432628749317573
 20
-18.78229361013636
 30
0.0
  0
VERTEX
  5
DD4
  8
DATA
  6
CONTINUOUS
 62
     7
 10
-51.442462130715043
 20
-18.78540459967256
 30
0.0
  0
VERTEX
  5
DD5
  8
DATA
  6
CONTINUOUS
 62
     7
 10
-51.45220523600603
 20
-18.78853953359631
 30
0.0
  0
VERTEX
  5
DD6
  8
DATA
  6
CONTINUOUS
 62
     7
 10
-51.461858065190533
 20
-18.7916984119076
 30
0.0
  0
VERTEX
  5
DD7
  8
DATA
  6
CONTINUOUS
 62
     7
 10
-51.471420618268539
 20
-18.794881234606411
 30
0.0
  0
VERTEX
  5
DD8
  8
DATA
  6
CONTINUOUS
 62
     7
 10
-51.480892895240082
 20
-18.798088001692769
 30
0.0
  0
VERTEX
  5
DD9
  8
DATA
  6
CONTINUOUS
 62
     7
 10
-51.49027489610512
 20
-18.801318713166669
 30
0.0
  0
VERTEX
  5
DDA
  8
DATA
  6
CONTINUOUS
 62
     7
 10
-51.499566620863668
 20
-18.804573369028098
 30
0.0
  0
VERTEX
  5
DDB
  8
DATA
  6
CONTINUOUS
 62
     7
 10
-51.50876806951576
 20
-18.807851969277081
 30
0.0
  0
VERTEX
  5
DDC
  8
DATA
  6
CONTINUOUS
 62
     7
 10
-51.517879242061362
 20
-18.811154513913579
 30
0.0
  0
VERTEX
  5
DDD
  8
DATA
  6
CONTINUOUS
 62
     7
 10
-51.526900138500451
 20
-18.81448100293764
 30
0.0
  0
VERTEX
  5
DDE
  8
DATA
  6
CONTINUOUS
 62
     7
 10
-51.535830758833072
 20
-18.817831436349209
 30
0.0
  0
VERTEX
  5
DDF
  8
DATA
  6
CONTINUOUS
 62
     7
 10
-51.544671103059223
 20
-18.821205814148328
 30
0.0
  0
VERTEX
  5
DE0
  8
DATA
  6
CONTINUOUS
 62
     7
 10
-51.553421171178861
 20
-18.82460413633499
 30
0.0
  0
VERTEX
  5
DE1
  8
DATA
  6
CONTINUOUS
 62
     7
 10
-51.562080963192017
 20
-18.828026402909181
 30
0.0
  0
VERTEX
  5
DE2
  8
DATA
  6
CONTINUOUS
 62
     7
 10
-51.570650479098703
 20
-18.831472613870918
 30
0.0
  0
VERTEX
  5
DE3
  8
DATA
  6
CONTINUOUS
 62
     7
 10
-51.579129718898891
 20
-18.834942769220191
 30
0.0
  0
VERTEX
  5
DE4
  8
DATA
  6
CONTINUOUS
 62
     7
 10
-51.587518682592609
 20
-18.838436868957
 30
0.0
  0
VERTEX
  5
DE5
  8
DATA
  6
CONTINUOUS
 62
     7
 10
-51.595817370179823
 20
-18.841954913081342
 30
0.0
  0
VERTEX
  5
DE6
  8
DATA
  6
CONTINUOUS
 62
     7
 10
-51.604025781660567
 20
-18.845496901593219
 30
0.0
  0
VERTEX
  5
DE7
  8
DATA
  6
CONTINUOUS
 62
     7
 10
-51.612143917034842
 20
-18.849062834492649
 30
0.0
  0
VERTEX
  5
DE8
  8
DATA
  6
CONTINUOUS
 62
     7
 10
-51.620171776302612
 20
-18.852652711779601
 30
0.0
  0
VERTEX
  5
DE9
  8
DATA
  6
CONTINUOUS
 62
     7
 10
-51.628109359463892
 20
-18.8562665334541
 30
0.0
  0
VERTEX
  5
DEA
  8
DATA
  6
CONTINUOUS
 62
     7
 10
-51.628109359463892
 20
-18.8562665334541
 30
0.0
  0
VERTEX
  5
DEB
  8
DATA
  6
CONTINUOUS
 62
     7
 10
-51.635940144844533
 20
-18.859896709449419
 30
0.0
  0
VERTEX
  5
DEC
  8
DATA
  6
CONTINUOUS
 62
     7
 10
-51.643647610770351
 20
-18.86353564969885
 30
0.0
  0
VERTEX
  5
DED
  8
DATA
  6
CONTINUOUS
 62
     7
 10
-51.651231757241362
 20
-18.86718335420241
 30
0.0
  0
VERTEX
  5
DEE
  8
DATA
  6
CONTINUOUS
 62
     7
 10
-51.658692584257572
 20
-18.87083982296009
 30
0.0
  0
VERTEX
  5
DEF
  8
DATA
  6
CONTINUOUS
 62
     7
 10
-51.666030091818953
 20
-18.874505055971881
 30
0.0
  0
VERTEX
  5
DF0
  8
DATA
  6
CONTINUOUS
 62
     7
 10
-51.673244279925498
 20
-18.87817905323778
 30
0.0
  0
VERTEX
  5
DF1
  8
DATA
  6
CONTINUOUS
 62
     7
 10
-51.680335148577271
 20
-18.881861814757801
 30
0.0
  0
VERTEX
  5
DF2
  8
DATA
  6
CONTINUOUS
 62
     7
 10
-51.687302697774221
 20
-18.885553340531938
 30
0.0
  0
VERTEX
  5
DF3
  8
DATA
  6
CONTINUOUS
 62
     7
 10
-51.694146927516357
 20
-18.889253630560201
 30
0.0
  0
VERTEX
  5
DF4
  8
DATA
  6
CONTINUOUS
 62
     7
 10
-51.700867837803671
 20
-18.892962684842569
 30
0.0
  0
VERTEX
  5
DF5
  8
DATA
  6
CONTINUOUS
 62
     7
 10
-51.707465428636183
 20
-18.896680503379059
 30
0.0
  0
VERTEX
  5
DF6
  8
DATA
  6
CONTINUOUS
 62
     7
 10
-51.71393970001386
 20
-18.900407086169668
 30
0.0
  0
VERTEX
  5
DF7
  8
DATA
  6
CONTINUOUS
 62
     7
 10
-51.72029065193675
 20
-18.904142433214389
 30
0.0
  0
VERTEX
  5
DF8
  8
DATA
  6
CONTINUOUS
 62
     7
 10
-51.726518284404818
 20
-18.907886544513229
 30
0.0
  0
VERTEX
  5
DF9
  8
DATA
  6
CONTINUOUS
 62
     7
 10
-51.732622597418072
 20
-18.911639420066191
 30
0.0
  0
VERTEX
  5
DFA
  8
DATA
  6
CONTINUOUS
 62
     7
 10
-51.738603590976503
 20
-18.915401059873261
 30
0.0
  0
VERTEX
  5
DFB
  8
DATA
  6
CONTINUOUS
 62
     7
 10
-51.74446126508014
 20
-18.91917146393445
 30
0.0
  0
VERTEX
  5
DFC
  8
DATA
  6
CONTINUOUS
 62
     7
 10
-51.750195619728949
 20
-18.922950632249758
 30
0.0
  0
VERTEX
  5
DFD
  8
DATA
  6
CONTINUOUS
 62
     7
 10
-51.755806654922949
 20
-18.926738564819189
 30
0.0
  0
VERTEX
  5
DFE
  8
DATA
  6
CONTINUOUS
 62
     7
 10
-51.761294370662128
 20
-18.930535261642721
 30
0.0
  0
VERTEX
  5
DFF
  8
DATA
  6
CONTINUOUS
 62
     7
 10
-51.766658766946499
 20
-18.934340722720378
 30
0.0
  0
VERTEX
  5
E00
  8
DATA
  6
CONTINUOUS
 62
     7
 10
-51.771899843776083
 20
-18.938154948052158
 30
0.0
  0
VERTEX
  5
E01
  8
DATA
  6
CONTINUOUS
 62
     7
 10
-51.77701760115081
 20
-18.94197793763805
 30
0.0
  0
VERTEX
  5
E02
  8
DATA
  6
CONTINUOUS
 62
     7
 10
-51.78201203907075
 20
-18.94580969147805
 30
0.0
  0
VERTEX
  5
E03
  8
DATA
  6
CONTINUOUS
 62
     7
 10
-51.786883157535861
 20
-18.94965020957218
 30
0.0
  0
VERTEX
  5
E04
  8
DATA
  6
CONTINUOUS
 62
     7
 10
-51.791630956546172
 20
-18.953499491920422
 30
0.0
  0
VERTEX
  5
E05
  8
DATA
  6
CONTINUOUS
 62
     7
 10
-51.796255436101681
 20
-18.957357538522771
 30
0.0
  0
VERTEX
  5
E06
  8
DATA
  6
CONTINUOUS
 62
     7
 10
-51.800756596202348
 20
-18.96122434937925
 30
0.0
  0
VERTEX
  5
E07
  8
DATA
  6
CONTINUOUS
 62
     7
 10
-51.805134436848213
 20
-18.965099924489841
 30
0.0
  0
VERTEX
  5
E08
  8
DATA
  6
CONTINUOUS
 62
     7
 10
-51.809388958039257
 20
-18.968984263854551
 30
0.0
  0
VERTEX
  5
E09
  8
DATA
  6
CONTINUOUS
 62
     7
 10
-51.813520159775507
 20
-18.97287736747338
 30
0.0
  0
VERTEX
  5
E0A
  8
DATA
  6
CONTINUOUS
 62
     7
 10
-51.817528042056942
 20
-18.976779235346321
 30
0.0
  0
VERTEX
  5
E0B
  8
DATA
  6
CONTINUOUS
 62
     7
 10
-51.821412604883562
 20
-18.98068986747338
 30
0.0
  0
VERTEX
  5
E0C
  8
DATA
  6
CONTINUOUS
 62
     7
 10
-51.825173848255361
 20
-18.984609263854551
 30
0.0
  0
VERTEX
  5
E0D
  8
DATA
  6
CONTINUOUS
 62
     7
 10
-51.828811772172358
 20
-18.988537424489841
 30
0.0
  0
VERTEX
  5
E0E
  8
DATA
  6
CONTINUOUS
 62
     7
 10
-51.832326376634533
 20
-18.99247434937925
 30
0.0
  0
VERTEX
  5
E0F
  8
DATA
  6
CONTINUOUS
 62
     7
 10
-51.835717661641887
 20
-18.996420038522771
 30
0.0
  0
VERTEX
  5
E10
  8
DATA
  6
CONTINUOUS
 62
     7
 10
-51.838985627194432
 20
-19.000374491920422
 30
0.0
  0
VERTEX
  5
E11
  8
DATA
  6
CONTINUOUS
 62
     7
 10
-51.84213027329217
 20
-19.00433770957218
 30
0.0
  0
VERTEX
  5
E12
  8
DATA
  6
CONTINUOUS
 62
     7
 10
-51.845151599935093
 20
-19.00830969147805
 30
0.0
  0
VERTEX
  5
E13
  8
DATA
  6
CONTINUOUS
 62
     7
 10
-51.848049607123201
 20
-19.01229043763805
 30
0.0
  0
VERTEX
  5
E14
  8
DATA
  6
CONTINUOUS
 62
     7
 10
-51.850824294856501
 20
-19.016279948052158
 30
0.0
  0
VERTEX
  5
E15
  8
DATA
  6
CONTINUOUS
 62
     7
 10
-51.853475663134972
 20
-19.020278222720378
 30
0.0
  0
VERTEX
  5
E16
  8
DATA
  6
CONTINUOUS
 62
     7
 10
-51.85600371195865
 20
-19.024285261642721
 30
0.0
  0
VERTEX
  5
E17
  8
DATA
  6
CONTINUOUS
 62
     7
 10
-51.858408441327512
 20
-19.028301064819189
 30
0.0
  0
VERTEX
  5
E18
  8
DATA
  6
CONTINUOUS
 62
     7
 10
-51.860689851241538
 20
-19.032325632249758
 30
0.0
  0
VERTEX
  5
E19
  8
DATA
  6
CONTINUOUS
 62
     7
 10
-51.862847941700778
 20
-19.03635896393445
 30
0.0
  0
VERTEX
  5
E1A
  8
DATA
  6
CONTINUOUS
 62
     7
 10
-51.864882712705203
 20
-19.040401059873261
 30
0.0
  0
VERTEX
  5
E1B
  8
DATA
  6
CONTINUOUS
 62
     7
 10
-51.866794164254799
 20
-19.044451920066191
 30
0.0
  0
VERTEX
  5
E1C
  8
DATA
  6
CONTINUOUS
 62
     7
 10
-51.868582296349601
 20
-19.048511544513229
 30
0.0
  0
VERTEX
  5
E1D
  8
DATA
  6
CONTINUOUS
 62
     7
 10
-51.870247108989581
 20
-19.052579933214389
 30
0.0
  0
VERTEX
  5
E1E
  8
DATA
  6
CONTINUOUS
 62
     7
 10
-51.871788602174739
 20
-19.056657086169668
 30
0.0
  0
VERTEX
  5
E1F
  8
DATA
  6
CONTINUOUS
 62
     7
 10
-51.873206775905103
 20
-19.060743003379059
 30
0.0
  0
VERTEX
  5
E20
  8
DATA
  6
CONTINUOUS
 62
     7
 10
-51.874501630180639
 20
-19.064837684842569
 30
0.0
  0
VERTEX
  5
E21
  8
DATA
  6
CONTINUOUS
 62
     7
 10
-51.875673165001359
 20
-19.068941130560201
 30
0.0
  0
VERTEX
  5
E22
  8
DATA
  6
CONTINUOUS
 62
     7
 10
-51.876721380367272
 20
-19.073053340531938
 30
0.0
  0
VERTEX
  5
E23
  8
DATA
  6
CONTINUOUS
 62
     7
 10
-51.877646276278369
 20
-19.077174314757801
 30
0.0
  0
VERTEX
  5
E24
  8
DATA
  6
CONTINUOUS
 62
     7
 10
-51.878447852734652
 20
-19.08130405323779
 30
0.0
  0
VERTEX
  5
E25
  8
DATA
  6
CONTINUOUS
 62
     7
 10
-51.879126109736127
 20
-19.085442555971881
 30
0.0
  0
VERTEX
  5
E26
  8
DATA
  6
CONTINUOUS
 62
     7
 10
-51.879681047282787
 20
-19.08958982296009
 30
0.0
  0
VERTEX
  5
E27
  8
DATA
  6
CONTINUOUS
 62
     7
 10
-51.880112665374632
 20
-19.09374585420241
 30
0.0
  0
VERTEX
  5
E28
  8
DATA
  6
CONTINUOUS
 62
     7
 10
-51.880420964011662
 20
-19.09791064969885
 30
0.0
  0
VERTEX
  5
E29
  8
DATA
  6
CONTINUOUS
 62
     7
 10
-51.880605943193892
 20
-19.102084209449419
 30
0.0
  0
VERTEX
  5
E2A
  8
DATA
  6
CONTINUOUS
 62
     7
 10
-51.880667602921278
 20
-19.1062665334541
 30
0.0
  0
VERTEX
  5
E2B
  8
DATA
  6
CONTINUOUS
 62
     7
 10
-51.880667602921278
 20
-19.1062665334541
 30
0.0
  0
VERTEX
  5
E2C
  8
DATA
  6
CONTINUOUS
 62
     7
 10
-51.880605943193892
 20
-19.110448857458771
 30
0.0
  0
VERTEX
  5
E2D
  8
DATA
  6
CONTINUOUS
 62
     7
 10
-51.880420964011662
 20
-19.11462241720934
 30
0.0
  0
VERTEX
  5
E2E
  8
DATA
  6
CONTINUOUS
 62
     7
 10
-51.880112665374632
 20
-19.11878721270579
 30
0.0
  0
VERTEX
  5
E2F
  8
DATA
  6
CONTINUOUS
 62
     7
 10
-51.879681047282787
 20
-19.122943243948111
 30
0.0
  0
VERTEX
  5
E30
  8
DATA
  6
CONTINUOUS
 62
     7
 10
-51.879126109736127
 20
-19.12709051093632
 30
0.0
  0
VERTEX
  5
E31
  8
DATA
  6
CONTINUOUS
 62
     7
 10
-51.878447852734652
 20
-19.13122901367041
 30
0.0
  0
VERTEX
  5
E32
  8
DATA
  6
CONTINUOUS
 62
     7
 10
-51.877646276278369
 20
-19.135358752150388
 30
0.0
  0
VERTEX
  5
E33
  8
DATA
  6
CONTINUOUS
 62
     7
 10
-51.876721380367272
 20
-19.139479726376251
 30
0.0
  0
VERTEX
  5
E34
  8
DATA
  6
CONTINUOUS
 62
     7
 10
-51.875673165001359
 20
-19.143591936347999
 30
0.0
  0
VERTEX
  5
E35
  8
DATA
  6
CONTINUOUS
 62
     7
 10
-51.874501630180639
 20
-19.147695382065621
 30
0.0
  0
VERTEX
  5
E36
  8
DATA
  6
CONTINUOUS
 62
     7
 10
-51.873206775905103
 20
-19.15179006352913
 30
0.0
  0
VERTEX
  5
E37
  8
DATA
  6
CONTINUOUS
 62
     7
 10
-51.871788602174739
 20
-19.155875980738529
 30
0.0
  0
VERTEX
  5
E38
  8
DATA
  6
CONTINUOUS
 62
     7
 10
-51.870247108989581
 20
-19.159953133693801
 30
0.0
  0
VERTEX
  5
E39
  8
DATA
  6
CONTINUOUS
 62
     7
 10
-51.868582296349601
 20
-19.164021522394961
 30
0.0
  0
VERTEX
  5
E3A
  8
DATA
  6
CONTINUOUS
 62
     7
 10
-51.866794164254799
 20
-19.16808114684201
 30
0.0
  0
VERTEX
  5
E3B
  8
DATA
  6
CONTINUOUS
 62
     7
 10
-51.864882712705203
 20
-19.172132007034929
 30
0.0
  0
VERTEX
  5
E3C
  8
DATA
  6
CONTINUOUS
 62
     7
 10
-51.862847941700778
 20
-19.176174102973739
 30
0.0
  0
VERTEX
  5
E3D
  8
DATA
  6
CONTINUOUS
 62
     7
 10
-51.860689851241538
 20
-19.180207434658438
 30
0.0
  0
VERTEX
  5
E3E
  8
DATA
  6
CONTINUOUS
 62
     7
 10
-51.858408441327512
 20
-19.184232002089001
 30
0.0
  0
VERTEX
  5
E3F
  8
DATA
  6
CONTINUOUS
 62
     7
 10
-51.85600371195865
 20
-19.188247805265469
 30
0.0
  0
VERTEX
  5
E40
  8
DATA
  6
CONTINUOUS
 62
     7
 10
-51.853475663134972
 20
-19.192254844187811
 30
0.0
  0
VERTEX
  5
E41
  8
DATA
  6
CONTINUOUS
 62
     7
 10
-51.850824294856501
 20
-19.196253118856038
 30
0.0
  0
VERTEX
  5
E42
  8
DATA
  6
CONTINUOUS
 62
     7
 10
-51.848049607123201
 20
-19.20024262927015
 30
0.0
  0
VERTEX
  5
E43
  8
DATA
  6
CONTINUOUS
 62
     7
 10
-51.845151599935093
 20
-19.204223375430139
 30
0.0
  0
VERTEX
  5
E44
  8
DATA
  6
CONTINUOUS
 62
     7
 10
-51.84213027329217
 20
-19.20819535733602
 30
0.0
  0
VERTEX
  5
E45
  8
DATA
  6
CONTINUOUS
 62
     7
 10
-51.838985627194432
 20
-19.212158574987772
 30
0.0
  0
VERTEX
  5
E46
  8
DATA
  6
CONTINUOUS
 62
     7
 10
-51.835717661641887
 20
-19.216113028385418
 30
0.0
  0
VERTEX
  5
E47
  8
DATA
  6
CONTINUOUS
 62
     7
 10
-51.832326376634533
 20
-19.220058717528939
 30
0.0
  0
VERTEX
  5
E48
  8
DATA
  6
CONTINUOUS
 62
     7
 10
-51.828811772172358
 20
-19.223995642418348
 30
0.0
  0
VERTEX
  5
E49
  8
DATA
  6
CONTINUOUS
 62
     7
 10
-51.825173848255361
 20
-19.227923803053638
 30
0.0
  0
VERTEX
  5
E4A
  8
DATA
  6
CONTINUOUS
 62
     7
 10
-51.821412604883562
 20
-19.23184319943482
 30
0.0
  0
VERTEX
  5
E4B
  8
DATA
  6
CONTINUOUS
 62
     7
 10
-51.817528042056942
 20
-19.235753831561869
 30
0.0
  0
VERTEX
  5
E4C
  8
DATA
  6
CONTINUOUS
 62
     7
 10
-51.813520159775507
 20
-19.23965569943482
 30
0.0
  0
VERTEX
  5
E4D
  8
DATA
  6
CONTINUOUS
 62
     7
 10
-51.809388958039257
 20
-19.243548803053638
 30
0.0
  0
VERTEX
  5
E4E
  8
DATA
  6
CONTINUOUS
 62
     7
 10
-51.805134436848213
 20
-19.247433142418348
 30
0.0
  0
VERTEX
  5
E4F
  8
DATA
  6
CONTINUOUS
 62
     7
 10
-51.800756596202348
 20
-19.251308717528939
 30
0.0
  0
VERTEX
  5
E50
  8
DATA
  6
CONTINUOUS
 62
     7
 10
-51.796255436101681
 20
-19.255175528385418
 30
0.0
  0
VERTEX
  5
E51
  8
DATA
  6
CONTINUOUS
 62
     7
 10
-51.791630956546172
 20
-19.259033574987772
 30
0.0
  0
VERTEX
  5
E52
  8
DATA
  6
CONTINUOUS
 62
     7
 10
-51.786883157535861
 20
-19.26288285733601
 30
0.0
  0
VERTEX
  5
E53
  8
DATA
  6
CONTINUOUS
 62
     7
 10
-51.78201203907075
 20
-19.266723375430139
 30
0.0
  0
VERTEX
  5
E54
  8
DATA
  6
CONTINUOUS
 62
     7
 10
-51.77701760115081
 20
-19.27055512927015
 30
0.0
  0
VERTEX
  5
E55
  8
DATA
  6
CONTINUOUS
 62
     7
 10
-51.771899843776083
 20
-19.274378118856038
 30
0.0
  0
VERTEX
  5
E56
  8
DATA
  6
CONTINUOUS
 62
     7
 10
-51.766658766946499
 20
-19.278192344187811
 30
0.0
  0
VERTEX
  5
E57
  8
DATA
  6
CONTINUOUS
 62
     7
 10
-51.761294370662128
 20
-19.281997805265469
 30
0.0
  0
VERTEX
  5
E58
  8
DATA
  6
CONTINUOUS
 62
     7
 10
-51.755806654922949
 20
-19.285794502089011
 30
0.0
  0
VERTEX
  5
E59
  8
DATA
  6
CONTINUOUS
 62
     7
 10
-51.750195619728949
 20
-19.289582434658438
 30
0.0
  0
VERTEX
  5
E5A
  8
DATA
  6
CONTINUOUS
 62
     7
 10
-51.74446126508014
 20
-19.293361602973739
 30
0.0
  0
VERTEX
  5
E5B
  8
DATA
  6
CONTINUOUS
 62
     7
 10
-51.738603590976503
 20
-19.297132007034929
 30
0.0
  0
VERTEX
  5
E5C
  8
DATA
  6
CONTINUOUS
 62
     7
 10
-51.732622597418072
 20
-19.30089364684201
 30
0.0
  0
VERTEX
  5
E5D
  8
DATA
  6
CONTINUOUS
 62
     7
 10
-51.726518284404818
 20
-19.304646522394961
 30
0.0
  0
VERTEX
  5
E5E
  8
DATA
  6
CONTINUOUS
 62
     7
 10
-51.72029065193675
 20
-19.308390633693801
 30
0.0
  0
VERTEX
  5
E5F
  8
DATA
  6
CONTINUOUS
 62
     7
 10
-51.71393970001386
 20
-19.312125980738529
 30
0.0
  0
VERTEX
  5
E60
  8
DATA
  6
CONTINUOUS
 62
     7
 10
-51.707465428636183
 20
-19.31585256352913
 30
0.0
  0
VERTEX
  5
E61
  8
DATA
  6
CONTINUOUS
 62
     7
 10
-51.700867837803671
 20
-19.319570382065621
 30
0.0
  0
VERTEX
  5
E62
  8
DATA
  6
CONTINUOUS
 62
     7
 10
-51.694146927516357
 20
-19.323279436347999
 30
0.0
  0
VERTEX
  5
E63
  8
DATA
  6
CONTINUOUS
 62
     7
 10
-51.687302697774221
 20
-19.326979726376251
 30
0.0
  0
VERTEX
  5
E64
  8
DATA
  6
CONTINUOUS
 62
     7
 10
-51.680335148577271
 20
-19.330671252150388
 30
0.0
  0
VERTEX
  5
E65
  8
DATA
  6
CONTINUOUS
 62
     7
 10
-51.673244279925498
 20
-19.33435401367041
 30
0.0
  0
VERTEX
  5
E66
  8
DATA
  6
CONTINUOUS
 62
     7
 10
-51.666030091818953
 20
-19.33802801093632
 30
0.0
  0
VERTEX
  5
E67
  8
DATA
  6
CONTINUOUS
 62
     7
 10
-51.658692584257572
 20
-19.341693243948111
 30
0.0
  0
VERTEX
  5
E68
  8
DATA
  6
CONTINUOUS
 62
     7
 10
-51.651231757241362
 20
-19.34534971270579
 30
0.0
  0
VERTEX
  5
E69
  8
DATA
  6
CONTINUOUS
 62
     7
 10
-51.643647610770351
 20
-19.34899741720934
 30
0.0
  0
VERTEX
  5
E6A
  8
DATA
  6
CONTINUOUS
 62
     7
 10
-51.635940144844533
 20
-19.352636357458771
 30
0.0
  0
VERTEX
  5
E6B
  8
DATA
  6
CONTINUOUS
 62
     7
 10
-51.628109359463892
 20
-19.3562665334541
 30
0.0
  0
VERTEX
  5
E6C
  8
DATA
  6
CONTINUOUS
 62
     7
 10
-51.628109359463892
 20
-19.3562665334541
 30
0.0
  0
VERTEX
  5
E6D
  8
DATA
  6
CONTINUOUS
 62
     7
 10
-51.620171776302612
 20
-19.359880355128588
 30
0.0
  0
VERTEX
  5
E6E
  8
DATA
  6
CONTINUOUS
 62
     7
 10
-51.612143917034842
 20
-19.363470232415551
 30
0.0
  0
VERTEX
  5
E6F
  8
DATA
  6
CONTINUOUS
 62
     7
 10
-51.604025781660567
 20
-19.367036165314971
 30
0.0
  0
VERTEX
  5
E70
  8
DATA
  6
CONTINUOUS
 62
     7
 10
-51.595817370179823
 20
-19.370578153826852
 30
0.0
  0
VERTEX
  5
E71
  8
DATA
  6
CONTINUOUS
 62
     7
 10
-51.587518682592609
 20
-19.3740961979512
 30
0.0
  0
VERTEX
  5
E72
  8
DATA
  6
CONTINUOUS
 62
     7
 10
-51.579129718898891
 20
-19.377590297688009
 30
0.0
  0
VERTEX
  5
E73
  8
DATA
  6
CONTINUOUS
 62
     7
 10
-51.570650479098703
 20
-19.381060453037279
 30
0.0
  0
VERTEX
  5
E74
  8
DATA
  6
CONTINUOUS
 62
     7
 10
-51.562080963192017
 20
-19.384506663999002
 30
0.0
  0
VERTEX
  5
E75
  8
DATA
  6
CONTINUOUS
 62
     7
 10
-51.553421171178861
 20
-19.38792893057321
 30
0.0
  0
VERTEX
  5
E76
  8
DATA
  6
CONTINUOUS
 62
     7
 10
-51.544671103059223
 20
-19.391327252759861
 30
0.0
  0
VERTEX
  5
E77
  8
DATA
  6
CONTINUOUS
 62
     7
 10
-51.535830758833072
 20
-19.394701630558981
 30
0.0
  0
VERTEX
  5
E78
  8
DATA
  6
CONTINUOUS
 62
     7
 10
-51.526900138500451
 20
-19.398052063970571
 30
0.0
  0
VERTEX
  5
E79
  8
DATA
  6
CONTINUOUS
 62
     7
 10
-51.517879242061362
 20
-19.401378552994611
 30
0.0
  0
VERTEX
  5
E7A
  8
DATA
  6
CONTINUOUS
 62
     7
 10
-51.50876806951576
 20
-19.404681097631119
 30
0.0
  0
VERTEX
  5
E7B
  8
DATA
  6
CONTINUOUS
 62
     7
 10
-51.499566620863668
 20
-19.407959697880091
 30
0.0
  0
VERTEX
  5
E7C
  8
DATA
  6
CONTINUOUS
 62
     7
 10
-51.49027489610512
 20
-19.411214353741531
 30
0.0
  0
VERTEX
  5
E7D
  8
DATA
  6
CONTINUOUS
 62
     7
 10
-51.480892895240082
 20
-19.414445065215421
 30
0.0
  0
VERTEX
  5
E7E
  8
DATA
  6
CONTINUOUS
 62
     7
 10
-51.471420618268539
 20
-19.417651832301779
 30
0.0
  0
VERTEX
  5
E7F
  8
DATA
  6
CONTINUOUS
 62
     7
 10
-51.461858065190533
 20
-19.420834655000601
 30
0.0
  0
VERTEX
  5
E80
  8
DATA
  6
CONTINUOUS
 62
     7
 10
-51.45220523600603
 20
-19.42399353331189
 30
0.0
  0
VERTEX
  5
E81
  8
DATA
  6
CONTINUOUS
 62
     7
 10
-51.442462130715043
 20
-19.42712846723564
 30
0.0
  0
VERTEX
  5
E82
  8
DATA
  6
CONTINUOUS
 62
     7
 10
-51.432628749317573
 20
-19.43023945677184
 30
0.0
  0
VERTEX
  5
E83
  8
DATA
  6
CONTINUOUS
 62
     7
 10
-51.422705091813611
 20
-19.433326501920519
 30
0.0
  0
VERTEX
  5
E84
  8
DATA
  6
CONTINUOUS
 62
     7
 10
-51.412691158203181
 20
-19.436389602681651
 30
0.0
  0
VERTEX
  5
E85
  8
DATA
  6
CONTINUOUS
 62
     7
 10
-51.402586948486253
 20
-19.43942875905525
 30
0.0
  0
VERTEX
  5
E86
  8
DATA
  6
CONTINUOUS
 62
     7
 10
-51.392392462662848
 20
-19.44244397104131
 30
0.0
  0
VERTEX
  5
E87
  8
DATA
  6
CONTINUOUS
 62
     7
 10
-51.382107700732959
 20
-19.445435238639831
 30
0.0
  0
VERTEX
  5
E88
  8
DATA
  6
CONTINUOUS
 62
     7
 10
-51.371732662696573
 20
-19.448402561850809
 30
0.0
  0
VERTEX
  5
E89
  8
DATA
  6
CONTINUOUS
 62
     7
 10
-51.361267348553717
 20
-19.451345940674258
 30
0.0
  0
VERTEX
  5
E8A
  8
DATA
  6
CONTINUOUS
 62
     7
 10
-51.350711758304357
 20
-19.454265375110172
 30
0.0
  0
VERTEX
  5
E8B
  8
DATA
  6
CONTINUOUS
 62
     7
 10
-51.340065891948527
 20
-19.457160865158539
 30
0.0
  0
VERTEX
  5
E8C
  8
DATA
  6
CONTINUOUS
 62
     7
 10
-51.329329749486199
 20
-19.46003241081937
 30
0.0
  0
VERTEX
  5
E8D
  8
DATA
  6
CONTINUOUS
 62
     7
 10
-51.318503330917402
 20
-19.462880012092668
 30
0.0
  0
VERTEX
  5
E8E
  8
DATA
  6
CONTINUOUS
 62
     7
 10
-51.307586636242107
 20
-19.465703668978431
 30
0.0
  0
VERTEX
  5
E8F
  8
DATA
  6
CONTINUOUS
 62
     7
 10
-51.296579665460349
 20
-19.468503381476651
 30
0.0
  0
VERTEX
  5
E90
  8
DATA
  6
CONTINUOUS
 62
     7
 10
-51.285482418572073
 20
-19.471279149587328
 30
0.0
  0
VERTEX
  5
E91
  8
DATA
  6
CONTINUOUS
 62
     7
 10
-51.274294895577327
 20
-19.474030973310491
 30
0.0
  0
VERTEX
  5
E92
  8
DATA
  6
CONTINUOUS
 62
     7
 10
-51.263017096476091
 20
-19.4767588526461
 30
0.0
  0
VERTEX
  5
E93
  8
DATA
  6
CONTINUOUS
 62
     7
 10
-51.251649021268378
 20
-19.479462787594169
 30
0.0
  0
VERTEX
  5
E94
  8
DATA
  6
CONTINUOUS
 62
     7
 10
-51.240190669954202
 20
-19.48214277815471
 30
0.0
  0
VERTEX
  5
E95
  8
DATA
  6
CONTINUOUS
 62
     7
 10
-51.228642042533522
 20
-19.484798824327701
 30
0.0
  0
VERTEX
  5
E96
  8
DATA
  6
CONTINUOUS
 62
     7
 10
-51.217003139006337
 20
-19.487430926113159
 30
0.0
  0
VERTEX
  5
E97
  8
DATA
  6
CONTINUOUS
 62
     7
 10
-51.20527395937269
 20
-19.490039083511089
 30
0.0
  0
VERTEX
  5
E98
  8
DATA
  6
CONTINUOUS
 62
     7
 10
-51.193454503632552
 20
-19.492623296521479
 30
0.0
  0
VERTEX
  5
E99
  8
DATA
  6
CONTINUOUS
 62
     7
 10
-51.18154477178593
 20
-19.49518356514432
 30
0.0
  0
VERTEX
  5
E9A
  8
DATA
  6
CONTINUOUS
 62
     7
 10
-51.16954476383281
 20
-19.497719889379638
 30
0.0
  0
VERTEX
  5
E9B
  8
DATA
  6
CONTINUOUS
 62
     7
 10
-51.15745447977325
 20
-19.500232269227411
 30
0.0
  0
VERTEX
  5
E9C
  8
DATA
  6
CONTINUOUS
 62
     7
 10
-51.145273919607142
 20
-19.502720704687651
 30
0.0
  0
VERTEX
  5
E9D
  8
DATA
  6
CONTINUOUS
 62
     7
 10
-51.133003083334579
 20
-19.50518519576034
 30
0.0
  0
VERTEX
  5
E9E
  8
DATA
  6
CONTINUOUS
 62
     7
 10
-51.120641970955532
 20
-19.507625742445502
 30
0.0
  0
VERTEX
  5
E9F
  8
DATA
  6
CONTINUOUS
 62
     7
 10
-51.108190582469987
 20
-19.51004234474313
 30
0.0
  0
VERTEX
  5
EA0
  8
DATA
  6
CONTINUOUS
 62
     7
 10
-51.09564891787798
 20
-19.512435002653209
 30
0.0
  0
VERTEX
  5
EA1
  8
DATA
  6
CONTINUOUS
 62
     7
 10
-51.083016977179483
 20
-19.514803716175759
 30
0.0
  0
VERTEX
  5
EA2
  8
DATA
  6
CONTINUOUS
 62
     7
 10
-51.070294760374502
 20
-19.51714848531077
 30
0.0
  0
VERTEX
  5
EA3
  8
DATA
  6
CONTINUOUS
 62
     7
 10
-51.057482267463023
 20
-19.519469310058241
 30
0.0
  0
VERTEX
  5
EA4
  8
DATA
  6
CONTINUOUS
 62
     7
 10
-51.04457949844506
 20
-19.52176619041818
 30
0.0
  0
VERTEX
  5
EA5
  8
DATA
  6
CONTINUOUS
 62
     7
 10
-51.031586453320607
 20
-19.524039126390591
 30
0.0
  0
VERTEX
  5
EA6
  8
DATA
  6
CONTINUOUS
 62
     7
 10
-51.018503132089691
 20
-19.52628811797544
 30
0.0
  0
VERTEX
  5
EA7
  8
DATA
  6
CONTINUOUS
 62
     7
 10
-51.005329534752278
 20
-19.528513165172761
 30
0.0
  0
VERTEX
  5
EA8
  8
DATA
  6
CONTINUOUS
 62
     7
 10
-50.992065661308366
 20
-19.53071426798255
 30
0.0
  0
VERTEX
  5
EA9
  8
DATA
  6
CONTINUOUS
 62
     7
 10
-50.978711511757993
 20
-19.532891426404799
 30
0.0
  0
VERTEX
  5
EAA
  8
DATA
  6
CONTINUOUS
 62
     7
 10
-50.965267086101122
 20
-19.535044640439509
 30
0.0
  0
VERTEX
  5
EAB
  8
DATA
  6
CONTINUOUS
 62
     7
 10
-50.951732384337781
 20
-19.537173910086679
 30
0.0
  0
VERTEX
  5
EAC
  8
DATA
  6
CONTINUOUS
 62
     7
 10
-50.938107406467942
 20
-19.539279235346321
 30
0.0
  0
VERTEX
  5
EAD
  8
DATA
  6
CONTINUOUS
 62
     7
 10
-50.938107406467942
 20
-19.539279235346321
 30
0.0
  0
VERTEX
  5
EAE
  8
DATA
  6
CONTINUOUS
 62
     7
 10
-50.930090783356647
 20
-19.540500363887041
 30
0.0
  0
VERTEX
  5
EAF
  8
DATA
  6
CONTINUOUS
 62
     7
 10
-50.922062812551403
 20
-19.54171025967818
 30
0.0
  0
VERTEX
  5
EB0
  8
DATA
  6
CONTINUOUS
 62
     7
 10
-50.914023494052131
 20
-19.542908922719761
 30
0.0
  0
VERTEX
  5
EB1
  8
DATA
  6
CONTINUOUS
 62
     7
 10
-50.905972827858861
 20
-19.544096353011771
 30
0.0
  0
VERTEX
  5
EB2
  8
DATA
  6
CONTINUOUS
 62
     7
 10
-50.897910813971599
 20
-19.545272550554198
 30
0.0
  0
VERTEX
  5
EB3
  8
DATA
  6
CONTINUOUS
 62
     7
 10
-50.889837452390317
 20
-19.546437515347069
 30
0.0
  0
VERTEX
  5
EB4
  8
DATA
  6
CONTINUOUS
 62
     7
 10
-50.881752743115058
 20
-19.547591247390379
 30
0.0
  0
VERTEX
  5
EB5
  8
DATA
  6
CONTINUOUS
 62
     7
 10
-50.873656686145793
 20
-19.548733746684121
 30
0.0
  0
VERTEX
  5
EB6
  8
DATA
  6
CONTINUOUS
 62
     7
 10
-50.865549281482529
 20
-19.549865013228288
 30
0.0
  0
VERTEX
  5
EB7
  8
DATA
  6
CONTINUOUS
 62
     7
 10
-50.857430529125267
 20
-19.550985047022891
 30
0.0
  0
VERTEX
  5
EB8
  8
DATA
  6
CONTINUOUS
 62
     7
 10
-50.849300429073999
 20
-19.55209384806793
 30
0.0
  0
VERTEX
  5
EB9
  8
DATA
  6
CONTINUOUS
 62
     7
 10
-50.841158981328718
 20
-19.553191416363411
 30
0.0
  0
VERTEX
  5
EBA
  8
DATA
  6
CONTINUOUS
 62
     7
 10
-50.83300618588946
 20
-19.554277751909311
 30
0.0
  0
VERTEX
  5
EBB
  8
DATA
  6
CONTINUOUS
 62
     7
 10
-50.824842042756202
 20
-19.555352854705639
 30
0.0
  0
VERTEX
  5
EBC
  8
DATA
  6
CONTINUOUS
 62
     7
 10
-50.816666551928932
 20
-19.55641672475241
 30
0.0
  0
VERTEX
  5
EBD
  8
DATA
  6
CONTINUOUS
 62
     7
 10
-50.808479713407657
 20
-19.557469362049609
 30
0.0
  0
VERTEX
  5
EBE
  8
DATA
  6
CONTINUOUS
 62
     7
 10
-50.800281527192404
 20
-19.558510766597241
 30
0.0
  0
VERTEX
  5
EBF
  8
DATA
  6
CONTINUOUS
 62
     7
 10
-50.79207199328313
 20
-19.559540938395301
 30
0.0
  0
VERTEX
  5
EC0
  8
DATA
  6
CONTINUOUS
 62
     7
 10
-50.783851111679851
 20
-19.560559877443801
 30
0.0
  0
VERTEX
  5
EC1
  8
DATA
  6
CONTINUOUS
 62
     7
 10
-50.775618882382602
 20
-19.561567583742718
 30
0.0
  0
VERTEX
  5
EC2
  8
DATA
  6
CONTINUOUS
 62
     7
 10
-50.76737530539134
 20
-19.562564057292079
 30
0.0
  0
VERTEX
  5
EC3
  8
DATA
  6
CONTINUOUS
 62
     7
 10
-50.759120380706072
 20
-19.563549298091878
 30
0.0
  0
VERTEX
  5
EC4
  8
DATA
  6
CONTINUOUS
 62
     7
 10
-50.75085410832682
 20
-19.56452330614211
 30
0.0
  0
VERTEX
  5
EC5
  8
DATA
  6
CONTINUOUS
 62
     7
 10
-50.742576488253533
 20
-19.565486081442771
 30
0.0
  0
VERTEX
  5
EC6
  8
DATA
  6
CONTINUOUS
 62
     7
 10
-50.734287520486269
 20
-19.56643762399387
 30
0.0
  0
VERTEX
  5
EC7
  8
DATA
  6
CONTINUOUS
 62
     7
 10
-50.725987205025007
 20
-19.567377933795392
 30
0.0
  0
VERTEX
  5
EC8
  8
DATA
  6
CONTINUOUS
 62
     7
 10
-50.717675541869738
 20
-19.568307010847342
 30
0.0
  0
VERTEX
  5
EC9
  8
DATA
  6
CONTINUOUS
 62
     7
 10
-50.709352531020492
 20
-19.569224855149731
 30
0.0
  0
VERTEX
  5
ECA
  8
DATA
  6
CONTINUOUS
 62
     7
 10
-50.70101817247722
 20
-19.570131466702559
 30
0.0
  0
VERTEX
  5
ECB
  8
DATA
  6
CONTINUOUS
 62
     7
 10
-50.692672466239948
 20
-19.571026845505809
 30
0.0
  0
VERTEX
  5
ECC
  8
DATA
  6
CONTINUOUS
 62
     7
 10
-50.684315412308678
 20
-19.571910991559498
 30
0.0
  0
VERTEX
  5
ECD
  8
DATA
  6
CONTINUOUS
 62
     7
 10
-50.67594701068343
 20
-19.57278390486362
 30
0.0
  0
VERTEX
  5
ECE
  8
DATA
  6
CONTINUOUS
 62
     7
 10
-50.667567261364177
 20
-19.573645585418181
 30
0.0
  0
VERTEX
  5
ECF
  8
DATA
  6
CONTINUOUS
 62
     7
 10
-50.65917616435091
 20
-19.574496033223159
 30
0.0
  0
VERTEX
  5
ED0
  8
DATA
  6
CONTINUOUS
 62
     7
 10
-50.650773719643652
 20
-19.575335248278581
 30
0.0
  0
VERTEX
  5
ED1
  8
DATA
  6
CONTINUOUS
 62
     7
 10
-50.642359927242381
 20
-19.576163230584431
 30
0.0
  0
VERTEX
  5
ED2
  8
DATA
  6
CONTINUOUS
 62
     7
 10
-50.633934787147112
 20
-19.57697998014071
 30
0.0
  0
VERTEX
  5
ED3
  8
DATA
  6
CONTINUOUS
 62
     7
 10
-50.625498299357858
 20
-19.577785496947431
 30
0.0
  0
VERTEX
  5
ED4
  8
DATA
  6
CONTINUOUS
 62
     7
 10
-50.617050463874591
 20
-19.578579781004571
 30
0.0
  0
VERTEX
  5
ED5
  8
DATA
  6
CONTINUOUS
 62
     7
 10
-50.608591280697333
 20
-19.57936283231216
 30
0.0
  0
VERTEX
  5
ED6
  8
DATA
  6
CONTINUOUS
 62
     7
 10
-50.600120749826061
 20
-19.580134650870161
 30
0.0
  0
VERTEX
  5
ED7
  8
DATA
  6
CONTINUOUS
 62
     7
 10
-50.591638871260798
 20
-19.580895236678611
 30
0.0
  0
VERTEX
  5
ED8
  8
DATA
  6
CONTINUOUS
 62
     7
 10
-50.583145645001537
 20
-19.58164458973749
 30
0.0
  0
VERTEX
  5
ED9
  8
DATA
  6
CONTINUOUS
 62
     7
 10
-50.574641071048269
 20
-19.582382710046801
 30
0.0
  0
VERTEX
  5
EDA
  8
DATA
  6
CONTINUOUS
 62
     7
 10
-50.566125149401017
 20
-19.58310959760653
 30
0.0
  0
VERTEX
  5
EDB
  8
DATA
  6
CONTINUOUS
 62
     7
 10
-50.55759788005976
 20
-19.58382525241672
 30
0.0
  0
VERTEX
  5
EDC
  8
DATA
  6
CONTINUOUS
 62
     7
 10
-50.549059263024503
 20
-19.58452967447732
 30
0.0
  0
VERTEX
  5
EDD
  8
DATA
  6
CONTINUOUS
 62
     7
 10
-50.540509298295241
 20
-19.58522286378836
 30
0.0
  0
VERTEX
  5
EDE
  8
DATA
  6
CONTINUOUS
 62
     7
 10
-50.531947985871973
 20
-19.585904820349828
 30
0.0
  0
VERTEX
  5
EDF
  8
DATA
  6
CONTINUOUS
 62
     7
 10
-50.523375325754721
 20
-19.58657554416174
 30
0.0
  0
VERTEX
  5
EE0
  8
DATA
  6
CONTINUOUS
 62
     7
 10
-50.514791317943448
 20
-19.587235035224079
 30
0.0
  0
VERTEX
  5
EE1
  8
DATA
  6
CONTINUOUS
 62
     7
 10
-50.506195962438213
 20
-19.587883293536851
 30
0.0
  0
VERTEX
  5
EE2
  8
DATA
  6
CONTINUOUS
 62
     7
 10
-50.49758925923895
 20
-19.588520319100041
 30
0.0
  0
VERTEX
  5
EE3
  8
DATA
  6
CONTINUOUS
 62
     7
 10
-50.488971208345689
 20
-19.589146111913681
 30
0.0
  0
VERTEX
  5
EE4
  8
DATA
  6
CONTINUOUS
 62
     7
 10
-50.480341809758421
 20
-19.58976067197775
 30
0.0
  0
VERTEX
  5
EE5
  8
DATA
  6
CONTINUOUS
 62
     7
 10
-50.471701063477148
 20
-19.590363999292251
 30
0.0
  0
VERTEX
  5
EE6
  8
DATA
  6
CONTINUOUS
 62
     7
 10
-50.463048969501891
 20
-19.590956093857191
 30
0.0
  0
VERTEX
  5
EE7
  8
DATA
  6
CONTINUOUS
 62
     7
 10
-50.454385527832642
 20
-19.591536955672549
 30
0.0
  0
VERTEX
  5
EE8
  8
DATA
  6
CONTINUOUS
 62
     7
 10
-50.44571073846938
 20
-19.592106584738339
 30
0.0
  0
VERTEX
  5
EE9
  8
DATA
  6
CONTINUOUS
 62
     7
 10
-50.437024601412134
 20
-19.592664981054568
 30
0.0
  0
VERTEX
  5
EEA
  8
DATA
  6
CONTINUOUS
 62
     7
 10
-50.428327116660867
 20
-19.593212144621241
 30
0.0
  0
VERTEX
  5
EEB
  8
DATA
  6
CONTINUOUS
 62
     7
 10
-50.419618284215609
 20
-19.593748075438331
 30
0.0
  0
VERTEX
  5
EEC
  8
DATA
  6
CONTINUOUS
 62
     7
 10
-50.410898104076338
 20
-19.59427277350586
 30
0.0
  0
VERTEX
  5
EED
  8
DATA
  6
CONTINUOUS
 62
     7
 10
-50.402166576243097
 20
-19.594786238823819
 30
0.0
  0
VERTEX
  5
EEE
  8
DATA
  6
CONTINUOUS
 62
     7
 10
-50.402166576243097
 20
-19.594786238823819
 30
0.0
  0
SEQEND
  5
EEF
  8
DATA
  6
CONTINUOUS
 62
     7
  0
LINE
  5
6F3
  8
DATA
  6
CONTINUOUS
 62
     7
 10
-50.402166576243097
 20
-19.594786238823819
 30
0.0
 11
-51.211555301745094
 21
-20.062087037371452
 31
0.0
  0
LINE
  5
6F4
  8
DATA
  6
CONTINUOUS
 62
     7
 10
-49.597833423756889
 20
-19.594786238823819
 30
0.0
 11
-48.788444698254871
 21
-20.062087037371452
 31
0.0
  0
LINE
  5
6F5
  8
DATA
  6
CONTINUOUS
 62
     7
 10
5.6000000000000094
 20
28.0
 30
0.0
 11
12.500000000000011
 21
28.0
 31
0.0
  0
LINE
  5
6F6
  8
DATA
  6
CONTINUOUS
 62
     7
 10
-8.1966004446093468
 20
-40.0
 30
0.0
 11
12.000000000000011
 21
-40.0
 31
0.0
  0
LINE
  5
6F7
  8
DATA
  6
CONTINUOUS
 62
     7
 10
20.000000000000011
 20
-36.92307692307692
 30
0.0
 11
20.000000000000011
 21
-21.95928909832983
 31
0.0
  0
LINE
  5
6F8
  8
DATA
  6
CONTINUOUS
 62
     7
 10
-9.9999999999999822
 20
-38.376420343716298
 30
0.0
 11
16.22130710633764
 21
-38.376420343716298
 31
0.0
  0
LINE
  5
6F9
  8
DATA
  6
CONTINUOUS
 62
     7
 10
12.000000000000011
 20
-19.935389797092689
 30
0.0
 11
12.000000000000011
 21
-8.7000000000000011
 31
0.0
  0
LINE
  5
6FA
  8
DATA
  6
CONTINUOUS
 62
     7
 10
12.000000000000011
 20
1.700000000000002
 30
0.0
 11
12.000000000000011
 21
25.0
 31
0.0
  0
LINE
  5
6FB
  8
DATA
  6
CONTINUOUS
 62
     7
 10
12.000000000000011
 20
-40.0
 30
0.0
 11
20.000000000000011
 21
-36.92307692307692
 31
0.0
  0
LINE
  5
6FC
  8
DATA
  6
CONTINUOUS
 62
     7
 10
12.000000000000011
 20
-19.935389797092689
 30
0.0
 11
18.619417391554691
 21
-20.46405015869702
 31
0.0
  0
ARC
  5
6FD
  8
DATA
  6
CONTINUOUS
 62
     7
 10
18.500000000000011
 20
-21.95928909832983
 30
0.0
 40
1.5000000000000031
 50
359.99999999999977
 51
85.433759475516567
  0
LINE
  5
6FE
  8
DATA
  6
CONTINUOUS
 62
     7
 10
6.100000000000013
 20
-10.521442555114939
 30
0.0
 11
6.100000000000013
 21
-10.0
 31
0.0
  0
LINE
  5
6FF
  8
DATA
  6
CONTINUOUS
 62
     7
 10
6.100000000000013
 20
2.9999999999999978
 30
0.0
 11
6.100000000000013
 21
25.0
 31
0.0
  0
LINE
  5
700
  8
DATA
  6
CONTINUOUS
 62
     7
 10
5.6000000000000076
 20
25.0
 30
0.0
 11
12.500000000000011
 21
25.0
 31
0.0
  0
LINE
  5
701
  8
DATA
  6
CONTINUOUS
 62
     7
 10
5.6000000000000094
 20
28.0
 30
0.0
 11
5.6000000000000094
 21
25.0
 31
0.0
  0
LINE
  5
702
  8
DATA
  6
CONTINUOUS
 62
     7
 10
12.500000000000011
 20
28.0
 30
0.0
 11
12.500000000000011
 21
25.0
 31
0.0
  0
LINE
  5
703
  8
DATA
  6
CONTINUOUS
 62
     7
 10
-9.999999999999984
 20
-38.376420343716298
 30
0.0
 11
-9.999999999999984
 21
-35.999999999999943
 31
0.0
  0
LINE
  5
704
  8
DATA
  6
CONTINUOUS
 62
     7
 10
2.0000000000000142
 20
-32.829165124598887
 30
0.0
 11
2.0000000000000142
 21
-17.623001889329501
 31
0.0
  0
ARC
  5
705
  8
DATA
  6
CONTINUOUS
 62
     7
 10
-5.2781897265948494
 20
-36.169386909693451
 30
0.0
 40
4.7248475301547881
 50
31.509399357491379
 51
177.94549240377529
  0
ARC
  5
706
  8
DATA
  6
CONTINUOUS
 62
     7
 10
0.2037386440559263
 20
-32.625426480542949
 30
0.0
 40
1.8077788288227741
 50
216.4710451144548
 51
353.52895488554429
  0
LINE
  5
707
  8
DATA
  6
CONTINUOUS
 62
     7
 10
-9.9999999999999822
 20
-38.376420343716298
 30
0.0
 11
-9.495638550286003
 21
-39.25
 31
0.0
  0
ARC
  5
708
  8
DATA
  6
CONTINUOUS
 62
     7
 10
-8.196600444609345
 20
-38.5
 30
0.0
 40
1.5000000000000011
 50
210.0
 51
269.99999999999977
  0
LINE
  5
709
  8
DATA
  6
CONTINUOUS
 62
     7
 10
2.1000000000000121
 20
-10.0
 30
0.0
 11
8.1000000000000139
 21
-10.0
 31
0.0
  0
LINE
  5
70A
  8
DATA
  6
CONTINUOUS
 62
     7
 10
3.5442375459403319
 20
-14.46559301982419
 30
0.0
 11
4.5557624540596944
 21
-13.678851424620239
 31
0.0
  0
ARC
  5
70B
  8
DATA
  6
CONTINUOUS
 62
     7
 10
6.0000000000000142
 20
-17.623001889329501
 30
0.0
 40
4.0000000000000018
 50
127.8749836510982
 51
179.99999999999989
  0
ARC
  5
70C
  8
DATA
  6
CONTINUOUS
 62
     7
 10
2.100000000000013
 20
-10.521442555114939
 30
0.0
 40
3.9999999999999969
 50
307.87498365109809
 51
0.0
  0
LINE
  5
70D
  8
DATA
  6
CONTINUOUS
 62
     7
 10
4.6300000000000141
 20
3.0
 30
0.0
 11
8.1000000000000139
 21
3.0
 31
0.0
  0
LINE
  5
70E
  8
DATA
  6
CONTINUOUS
 62
     7
 10
2.100000000000013
 20
2.9696162352744149
 30
0.0
 11
2.100000000000013
 21
-10.0
 31
0.0
  0
ARC
  5
70F
  8
DATA
  6
CONTINUOUS
 62
     7
 10
8.1000000000000139
 20
-3.5
 30
0.0
 40
6.5000000000000009
 50
270.0
 51
90.0
  0
LINE
  5
710
  8
DATA
  6
CONTINUOUS
 62
     7
 10
14.60000000000001
 20
-3.5000000000000022
 30
0.0
 11
14.60000000000001
 21
-9.9373907757724318
 31
0.0
  0
LINE
  5
711
  8
DATA
  6
CONTINUOUS
 62
     7
 10
13.600000000000019
 20
-6.9641016151377526
 30
0.0
 11
13.600000000000019
 21
-9.9373907757724318
 31
0.0
  0
LINE
  5
712
  8
DATA
  6
CONTINUOUS
 62
     7
 10
13.600000000000019
 20
-9.9373907757724318
 30
0.0
 11
14.60000000000001
 21
-9.9373907757724318
 31
0.0
  0
LINE
  5
713
  8
DATA
  6
CONTINUOUS
 62
     7
 10
-5.3999999999999844
 20
6.0
 30
0.0
 11
4.1299999925494326
 21
6.0
 31
0.0
  0
LINE
  5
714
  8
DATA
  6
CONTINUOUS
 62
     7
 10
-5.3999999999999844
 20
3.469616242724995
 30
0.0
 11
1.599999992549433
 21
3.469616242724995
 31
0.0
  0
LINE
  5
715
  8
DATA
  6
CONTINUOUS
 62
     7
 10
4.6300000000000141
 20
5.4999999925494194
 30
0.0
 11
4.6300000000000141
 21
3.0
 31
0.0
  0
ARC
  5
716
  8
DATA
  6
CONTINUOUS
 62
     7
 10
12.5113318189512
 20
-14.430934953625609
 30
0.0
 40
5.5281537019913021
 50
175.5290988333509
 51
264.69278647085332
  0
LINE
  5
717
  8
DATA
  6
CONTINUOUS
 62
     7
 10
7.0000000000000142
 20
-14.0
 30
0.0
 11
7.0000000000000142
 21
-10.0
 31
0.0
  0
TEXT
  5
718
  8
DATA
 62
     7
 10
6.9876832404125278
 20
-33.901689270365921
 30
0.0
 40
2.443261755157438
  1
DPA
 50
90.0
 41
0.7
 11
4.5444214852550902
 21
-33.901689270365921
 31
0.0
 73
     3
  0
LINE
  5
719
  8
DATA
  6
CONTINUOUS
 62
     7
 10
-11.399999999999981
 20
2.1453097140387101
 30
0.0
 11
-11.399999999999981
 21
11.817407926228251
 31
0.0
  0
LINE
  5
71A
  8
DATA
  6
CONTINUOUS
 62
     7
 10
-5.3999999999999844
 20
2.1453097140387101
 30
0.0
 11
-5.3999999999999844
 21
11.817407926228251
 31
0.0
  0
LINE
  5
71B
  8
DATA
  6
CONTINUOUS
 62
     7
 10
-11.399999999999981
 20
2.1453097140387078
 30
0.0
 11
-5.3999999999999844
 21
2.1453097140387078
 31
0.0
  0
LINE
  5
71C
  8
DATA
  6
CONTINUOUS
 62
     7
 10
-45.525000000000013
 20
3.469616242724995
 30
0.0
 11
-45.524999999999977
 21
6.0
 31
0.0
  0
LINE
  5
71D
  8
DATA
  6
CONTINUOUS
 62
     7
 10
-8.4924899958707591
 20
20.50253312693668
 30
0.0
 11
-8.3075100041292025
 21
20.50253312693668
 31
0.0
  0
ARC
  5
71E
  8
DATA
  6
CONTINUOUS
 62
     7
 10
-8.3999999999999844
 20
15.6423357548966
 30
0.0
 40
4.8610773388747432
 50
308.10810185233208
 51
231.891898147668
  0
ARC
  5
71F
  8
DATA
  6
CONTINUOUS
 62
     7
 10
4.1299999925494326
 20
5.4999999925494194
 30
0.0
 40
0.5000000074505806
 50
0.0
 51
90.0
  0
ARC
  5
720
  8
DATA
  6
CONTINUOUS
 62
     7
 10
1.599999992549433
 20
2.9696162352744149
 30
0.0
 40
0.5000000074505806
 50
0.0
 51
90.0
  0
CIRCLE
  5
721
  8
DATA
  6
CONTINUOUS
 62
     7
 10
-8.3999999999999844
 20
15.6423357548966
 30
0.0
 40
3.3999999999999981
  0
LINE
  5
722
  8
DATA
  6
CONTINUOUS
 62
     7
 10
56.500000000000021
 20
-39.0
 30
0.0
 11
56.500000000000021
 21
-14.90850274577954
 31
0.0
  0
LINE
  5
723
  8
DATA
  6
CONTINUOUS
 62
     7
 10
63.500000000000021
 20
-14.90850274577954
 30
0.0
 11
63.500000000000021
 21
-39.0
 31
0.0
  0
LINE
  5
724
  8
DATA
  6
CONTINUOUS
 62
     7
 10
56.500000000000021
 20
28.0
 30
0.0
 11
63.500000000000021
 21
28.0
 31
0.0
  0
ARC
  5
725
  8
DATA
  6
CONTINUOUS
 62
     7
 10
60.000000000000021
 20
-33.374999999999993
 30
0.0
 40
6.6250000000000142
 50
238.10920819815411
 51
301.89079180184558
  0
LINE
  5
726
  8
DATA
  6
CONTINUOUS
 62
     7
 10
54.000000000000021
 20
-7.4999999999999929
 30
0.0
 11
54.000000000000021
 21
0.5
 31
0.0
  0
LINE
  5
727
  8
DATA
  6
CONTINUOUS
 62
     7
 10
66.000000000000014
 20
0.4999999999999948
 30
0.0
 11
66.000000000000014
 21
-7.4999999999999929
 31
0.0
  0
ARC
  5
728
  8
DATA
  6
CONTINUOUS
 62
     7
 10
60.588330564783959
 20
-5.0849294019932261
 30
0.0
 40
8.636986514758199
 50
118.2520708424053
 51
139.7120475551063
  0
ARC
  5
729
  8
DATA
  6
CONTINUOUS
 62
     7
 10
59.411669435216062
 20
-5.0849294019932261
 30
0.0
 40
8.6369865147581972
 50
40.287952444893698
 51
61.747929157594683
  0
ARC
  5
72A
  8
DATA
  6
CONTINUOUS
 62
     7
 10
60.588330564783959
 20
-1.915070598006773
 30
0.0
 40
8.6369865147581972
 50
220.2879524448937
 51
249.40369229081139
  0
ARC
  5
72B
  8
DATA
  6
CONTINUOUS
 62
     7
 10
59.411669435216062
 20
-1.915070598006773
 30
0.0
 40
8.636986514758199
 50
290.59630770918852
 51
319.71204755510632
  0
LINE
  5
72C
  8
DATA
  6
CONTINUOUS
 62
     7
 10
56.500000000000021
 20
25.0
 30
0.0
 11
63.500000000000021
 21
25.0
 31
0.0
  0
LINE
  5
72D
  8
DATA
  6
CONTINUOUS
 62
     7
 10
56.500000000000021
 20
28.0
 30
0.0
 11
56.500000000000021
 21
25.0
 31
0.0
  0
LINE
  5
72E
  8
DATA
  6
CONTINUOUS
 62
     7
 10
63.500000000000021
 20
28.0
 30
0.0
 11
63.500000000000021
 21
25.0
 31
0.0
  0
LINE
  5
72F
  8
DATA
  6
CONTINUOUS
 62
     7
 10
56.500000000000021
 20
3.4258248518129188
 30
0.0
 11
56.500000000000021
 21
2.5231642652251369
 31
0.0
  0
LINE
  5
730
  8
DATA
  6
CONTINUOUS
 62
     7
 10
63.500000000000021
 20
3.4258248518129188
 30
0.0
 11
63.500000000000021
 21
2.5231642652251369
 31
0.0
  0
LINE
  5
731
  8
DATA
  6
CONTINUOUS
 62
     7
 10
57.550000000000011
 20
25.0
 30
0.0
 11
62.45000000000001
 21
25.0
 31
0.0
  0
LINE
  5
732
  8
DATA
  6
CONTINUOUS
 62
     7
 10
57.550000000000011
 20
-10.0
 30
0.0
 11
57.550000000000011
 21
-11.572553687289791
 31
0.0
  0
LINE
  5
733
  8
DATA
  6
CONTINUOUS
 62
     7
 10
62.45000000000001
 20
-10.0
 30
0.0
 11
62.45000000000001
 21
-11.57255368728962
 31
0.0
  0
ARC
  5
734
  8
DATA
  6
CONTINUOUS
 62
     7
 10
51.973309438655939
 20
-11.33421436539642
 30
0.0
 40
5.5817813688234592
 50
327.10795290412608
 51
357.55275432602781
  0
ARC
  5
735
  8
DATA
  6
CONTINUOUS
 62
     7
 10
68.026690561344083
 20
-11.33421436539642
 30
0.0
 40
5.5817813688234441
 50
182.44724567397219
 51
212.89204709587389
  0
ARC
  5
736
  8
DATA
  6
CONTINUOUS
 62
     7
 10
57.5
 20
-14.90850274577954
 30
0.0
 40
0.9999999999999802
 50
147.10795290412551
 51
180.0
  0
ARC
  5
737
  8
DATA
  6
CONTINUOUS
 62
     7
 10
62.500000000000021
 20
-14.90850274577954
 30
0.0
 40
0.9999999999999857
 50
0.0
 51
32.892047095874553
  0
ARC
  5
738
  8
DATA
  6
CONTINUOUS
 62
     7
 10
60.000000000000021
 20
126.4123230666268
 30
0.0
 40
120.5373230666267
 50
260.69002548191912
 51
260.6943389781232
  0
ARC
  5
739
  8
DATA
  6
CONTINUOUS
 62
     7
 10
60.000000000000021
 20
126.4123230666268
 30
0.0
 40
120.5373230666268
 50
272.27032546585758
 51
275.49250694272212
  0
ARC
  5
73A
  8
DATA
  6
CONTINUOUS
 62
     7
 10
60.000000000000021
 20
126.4123230666268
 30
0.0
 40
120.5373230666268
 50
279.30566102187669
 51
279.30997451808082
  0
ARC
  5
73B
  8
DATA
  6
CONTINUOUS
 62
     7
 10
60.000000000000021
 20
123.9123230666268
 30
0.0
 40
120.5373230666267
 50
264.20985000803091
 51
272.27032546585781
  0
ARC
  5
73C
  8
DATA
  6
CONTINUOUS
 62
     7
 10
60.000000000000021
 20
123.9123230666268
 30
0.0
 40
120.5373230666268
 50
272.27032546585758
 51
275.79014999196937
  0
LINE
  5
73D
  8
DATA
  6
CONTINUOUS
 62
     7
 10
44.10049891998306
 20
20.063802597091659
 30
0.0
 11
45.134575965374061
 21
8.2753242796342175
 31
0.0
  0
LINE
  5
73E
  8
DATA
  6
CONTINUOUS
 62
     7
 10
41.199566796842277
 20
20.02231342231407
 30
0.0
 11
41.859418851431222
 21
12.500000000000011
 31
0.0
  0
ARC
  5
73F
  8
DATA
  6
CONTINUOUS
 62
     7
 10
53.25496141954364
 20
6.745461507559658
 30
0.0
 40
12.76609195026573
 50
153.20706770550811
 51
190.1064303566009
  0
ARC
  5
740
  8
DATA
  6
CONTINUOUS
 62
     7
 10
42.655921618896329
 20
4.8562576578203043
 30
0.0
 40
1.999999999999996
 50
190.10643035660081
 51
222.97248152509769
  0
ARC
  5
741
  8
DATA
  6
CONTINUOUS
 62
     7
 10
44.31699629721097
 20
6.4037439785418471
 30
0.0
 40
4.270216509445377
 50
222.97248152509781
 51
325.57984583520278
  0
ARC
  5
742
  8
DATA
  6
CONTINUOUS
 62
     7
 10
48.845563083557693
 20
10.41005496547089
 30
0.0
 40
4.0000000000000018
 50
240.0597232811148
 51
264.50749305727788
  0
ARC
  5
743
  8
DATA
  6
CONTINUOUS
 62
     7
 10
60.000000000000021
 20
126.4123230666268
 30
0.0
 40
120.5373230666268
 50
264.50749305727788
 51
272.3695686430126
  0
ARC
  5
744
  8
DATA
  6
CONTINUOUS
 62
     7
 10
41.271788070490793
 20
18.444533728400572
 30
0.0
 40
0.5773502691896204
 50
88.456239199149564
 51
281.56998831092028
  0
ARC
  5
745
  8
DATA
  6
CONTINUOUS
 62
     7
 10
41.443077548738593
 20
16.444533728400561
 30
0.0
 40
0.5773502691896199
 50
88.043183728669206
 51
281.9830437814033
  0
ARC
  5
746
  8
DATA
  6
CONTINUOUS
 62
     7
 10
41.645510568486003
 20
14.444533728400581
 30
0.0
 40
0.5773502691896189
 50
90.725016985562277
 51
279.3012105245063
  0
ARC
  5
747
  8
DATA
  6
CONTINUOUS
 62
     7
 10
41.816800046733817
 20
12.47567726990019
 30
0.0
 40
0.5773502691896184
 50
90.584503989155692
 51
247.37739843451891
  0
ARC
  5
748
  8
DATA
  6
CONTINUOUS
 62
     7
 10
41.49841921406329
 20
20.048528546631701
 30
0.0
 40
0.3000000000363868
 50
105.4964801300345
 51
185.01311375503599
  0
ARC
  5
749
  8
DATA
  6
CONTINUOUS
 62
     7
 10
43.801646498370673
 20
20.037587472388822
 30
0.0
 40
0.3000000044446302
 50
5.0131137550356062
 51
73.95917723442588
  0
ARC
  5
74A
  8
DATA
  6
CONTINUOUS
 62
     7
 10
42.630659944636527
 20
15.96482618152791
 30
0.0
 40
4.5377581430553287
 50
73.959177229842268
 51
105.496480123201
  0
ARC
  5
74B
  8
DATA
  6
CONTINUOUS
 62
     7
 10
48.62547159426061
 20
11.001049255303039
 30
0.0
 40
4.4289873486796152
 50
217.98306139804529
 51
246.3554417570289
  0
ARC
  5
74C
  8
DATA
  6
CONTINUOUS
 62
     7
 10
60.000000000000021
 20
126.4123230666268
 30
0.0
 40
120.5373230666268
 50
279.30566102187669
 51
279.30997451808082
  0
LINE
  5
74D
  8
DATA
  6
CONTINUOUS
 62
     7
 10
75.899501080016961
 20
20.063802597091659
 30
0.0
 11
74.865424034625946
 21
8.2753242796342175
 31
0.0
  0
LINE
  5
74E
  8
DATA
  6
CONTINUOUS
 62
     7
 10
78.800433203157723
 20
20.02231342231407
 30
0.0
 11
78.140581148568799
 21
12.500000000000011
 31
0.0
  0
ARC
  5
74F
  8
DATA
  6
CONTINUOUS
 62
     7
 10
66.745038580456395
 20
6.745461507559658
 30
0.0
 40
12.76609195026572
 50
349.89356964339908
 51
26.792932294491841
  0
ARC
  5
750
  8
DATA
  6
CONTINUOUS
 62
     7
 10
77.344078381103685
 20
4.8562576578203043
 30
0.0
 40
1.999999999999996
 50
317.02751847490219
 51
349.8935696433993
  0
ARC
  5
751
  8
DATA
  6
CONTINUOUS
 62
     7
 10
75.683003702789065
 20
6.4037439785418471
 30
0.0
 40
4.2702165094453743
 50
214.42015416479731
 51
317.02751847490219
  0
ARC
  5
752
  8
DATA
  6
CONTINUOUS
 62
     7
 10
71.15443691644235
 20
10.41005496547089
 30
0.0
 40
4.0000000000000018
 50
275.492506942722
 51
299.9402767188854
  0
ARC
  5
753
  8
DATA
  6
CONTINUOUS
 62
     7
 10
78.736970789777615
 20
18.444533728400572
 30
0.0
 40
0.5773502691896184
 50
257.55761618852517
 51
92.416156301401145
  0
ARC
  5
754
  8
DATA
  6
CONTINUOUS
 62
     7
 10
78.565681311529815
 20
16.444533728400561
 30
0.0
 40
0.5773502691896151
 50
257.1437650761867
 51
92.830007413740375
  0
ARC
  5
755
  8
DATA
  6
CONTINUOUS
 62
     7
 10
78.363248291782412
 20
14.444533728400581
 30
0.0
 40
0.5773502691896221
 50
259.8299342190569
 51
90.143838270869864
  0
ARC
  5
756
  8
DATA
  6
CONTINUOUS
 62
     7
 10
78.191958813534569
 20
12.47567726990019
 30
0.0
 40
0.5773502691896156
 50
291.82823425758522
 51
90.284530061865865
  0
ARC
  5
757
  8
DATA
  6
CONTINUOUS
 62
     7
 10
78.501580785936738
 20
20.048528546631701
 30
0.0
 40
0.3000000000363862
 50
354.98688624496401
 51
74.503519869965473
  0
ARC
  5
758
  8
DATA
  6
CONTINUOUS
 62
     7
 10
76.198353501629342
 20
20.037587472388822
 30
0.0
 40
0.3000000044446274
 50
106.04082276557411
 51
174.98688624496441
  0
ARC
  5
759
  8
DATA
  6
CONTINUOUS
 62
     7
 10
77.36934005536348
 20
15.96482618152791
 30
0.0
 40
4.5377581430553278
 50
74.503519876799004
 51
106.0408227701577
  0
ARC
  5
75A
  8
DATA
  6
CONTINUOUS
 62
     7
 10
71.374528405739383
 20
11.001049255303039
 30
0.0
 40
4.4289873486796223
 50
293.64455824297141
 51
322.01693860195479
  0
LINE
  5
75B
  8
DATA
  6
CONTINUOUS
 62
     7
 10
-10.957673036192441
 20
17.882493927868779
 30
0.0
 11
-5.8423269638075288
 21
17.882493927868779
 31
0.0
  0
LINE
  5
75C
  8
DATA
  6
CONTINUOUS
 62
     7
 10
-11.5080558455976
 20
17.020736589431479
 30
0.0
 11
-5.2919441544023664
 21
17.020736589431479
 31
0.0
  0
LINE
  5
75D
  8
DATA
  6
CONTINUOUS
 62
     7
 10
-11.79143877074578
 20
15.883464484587311
 30
0.0
 11
-5.0085612292541919
 21
15.883464484587311
 31
0.0
  0
LINE
  5
75E
  8
DATA
  6
CONTINUOUS
 62
     7
 10
-11.74289497341546
 20
15.021809206944329
 30
0.0
 11
-5.0571050265845123
 21
15.021809206944329
 31
0.0
  0
LINE
  5
75F
  8
DATA
  6
CONTINUOUS
 62
     7
 10
-11.30620594663089
 20
13.87769216601891
 30
0.0
 11
-5.4937940533690792
 21
13.87769216601891
 31
0.0
  0
LINE
  5
760
  8
DATA
  6
CONTINUOUS
 62
     7
 10
-10.60339925516578
 20
13.05292815424065
 30
0.0
 11
-6.1966007448341927
 21
13.05292815424065
 31
0.0
  0
LINE
  5
761
  8
DATA
  6
CONTINUOUS
 62
     7
 10
-53.204385329558242
 20
25.0
 30
0.0
 11
-53.204385329558242
 21
2.6747640327320701
 31
0.0
  0
LINE
  5
762
  8
DATA
  6
CONTINUOUS
 62
     7
 10
-46.795614670441743
 20
25.0
 30
0.0
 11
-46.795614670441743
 21
2.6747640327320701
 31
0.0
  0
LINE
  5
763
  8
DATA
  6
CONTINUOUS
 62
     7
 10
57.175000000000011
 20
25.0
 30
0.0
 11
57.175000000000011
 21
5.9081089201150547
 31
0.0
  0
LINE
  5
764
  8
DATA
  6
CONTINUOUS
 62
     7
 10
62.82500000000001
 20
25.0
 30
0.0
 11
62.82500000000001
 21
5.9081089201150547
 31
0.0
  0
ARC
  5
765
  8
DATA
  6
CONTINUOUS
 62
     7
 10
60.000000000000021
 20
-0.0036676380665597
 30
0.0
 40
10.29218930501367
 50
256.22884073440792
 51
283.77115926559208
  0
ARC
  5
766
  8
DATA
  6
CONTINUOUS
 62
     7
 10
60.000000000000021
 20
-39.107670762076552
 30
0.0
 40
7.6631216643804621
 50
62.823510548591941
 51
117.176489451408
  0
LINE
  5
767
  8
DATA
  6
CONTINUOUS
 62
     7
 10
58.800000000000011
 20
5.8809734016190589
 30
0.0
 11
58.800000000000011
 21
25.0
 31
0.0
  0
LINE
  5
768
  8
DATA
  6
CONTINUOUS
 62
     7
 10
61.200000000000003
 20
25.0
 30
0.0
 11
61.200000000000003
 21
5.8809734016190633
 31
0.0
  0
CIRCLE
  5
769
  8
DATA
  6
CONTINUOUS
 62
     7
 10
60.000000000000021
 20
-3.4999999999999969
 30
0.0
 40
0.5
  0
LINE
  5
76A
  8
DATA
  6
CONTINUOUS
 62
     7
 10
-55.79999999999999
 20
85.3352729149222
 30
0.0
 11
-65.920690612010631
 21
85.3352729149222
 31
0.0
  0
LINE
  5
76B
  8
DATA
  6
CONTINUOUS
 62
     7
 10
-65.920690612010645
 20
91.335272914922186
 30
0.0
 11
-34.079309387989341
 21
91.335272914922186
 31
0.0
  0
LINE
  5
76C
  8
DATA
  6
CONTINUOUS
 62
     7
 10
-34.079309387989341
 20
85.3352729149222
 30
0.0
 11
-44.199999999999989
 21
85.3352729149222
 31
0.0
  0
LINE
  5
76D
  8
DATA
  6
CONTINUOUS
 62
     7
 10
-46.499999999999993
 20
74.835272914922243
 30
0.0
 11
-47.699999999999982
 21
67.935272914922223
 31
0.0
  0
LINE
  5
76E
  8
DATA
  6
CONTINUOUS
 62
     7
 10
-53.499999999999993
 20
74.835272914922243
 30
0.0
 11
-52.29999999999999
 21
67.935272914922223
 31
0.0
  0
LINE
  5
76F
  8
DATA
  6
CONTINUOUS
 62
     7
 10
-47.699999999999982
 20
67.935272914922223
 30
0.0
 11
-52.29999999999999
 21
67.935272914922223
 31
0.0
  0
LINE
  5
770
  8
DATA
  6
CONTINUOUS
 62
     7
 10
-53.499999999999993
 20
74.835272914922243
 30
0.0
 11
-46.499999999999993
 21
74.835272914922243
 31
0.0
  0
LINE
  5
771
  8
DATA
  6
CONTINUOUS
 62
     7
 10
-43.999999999999993
 20
68.535374861847501
 30
0.0
 11
-43.999999999999993
 21
77.835272914922243
 31
0.0
  0
LINE
  5
772
  8
DATA
  6
CONTINUOUS
 62
     7
 10
-55.999999999999993
 20
68.535374861847501
 30
0.0
 11
-55.999999999999993
 21
77.835272914922243
 31
0.0
  0
LINE
  5
773
  8
DATA
  6
CONTINUOUS
 62
     7
 10
-43.999999999999993
 20
77.835272914922243
 30
0.0
 11
-45.200000000000003
 21
77.835272914922243
 31
0.0
  0
LINE
  5
774
  8
DATA
  6
CONTINUOUS
 62
     7
 10
-54.799999999999997
 20
77.835272914922243
 30
0.0
 11
-55.999999999999993
 21
77.835272914922243
 31
0.0
  0
ARC
  5
775
  8
DATA
  6
CONTINUOUS
 62
     7
 10
-50.0
 20
72.560144690514221
 30
0.0
 40
7.2248717755919927
 50
213.8535102751772
 51
243.72984138535469
  0
ARC
  5
776
  8
DATA
  6
CONTINUOUS
 62
     7
 10
-50.0
 20
72.560144690514221
 30
0.0
 40
7.2248717755919927
 50
243.64761081545581
 51
326.14648972482269
  0
LINE
  5
777
  8
DATA
  6
CONTINUOUS
 62
     7
 10
-45.199999999999982
 20
84.3352729149222
 30
0.0
 11
-45.199999999999982
 21
76.805272914922213
 31
0.0
  0
LINE
  5
778
  8
DATA
  6
CONTINUOUS
 62
     7
 10
-54.79999999999999
 20
76.805272922372794
 30
0.0
 11
-54.79999999999999
 21
84.3352729149222
 31
0.0
  0
LINE
  5
779
  8
DATA
  6
CONTINUOUS
 62
     7
 10
-54.299999992549409
 20
76.305272914922213
 30
0.0
 11
-45.699999999999989
 21
76.305272914922213
 31
0.0
  0
ARC
  5
77A
  8
DATA
  6
CONTINUOUS
 62
     7
 10
-50.000000000000227
 20
63.435272914922379
 30
0.0
 40
3.499999999999718
 50
160.45621810381161
 51
258.96383426034407
  0
ARC
  5
77B
  8
DATA
  6
CONTINUOUS
 62
     7
 10
-50.000000000000227
 20
63.435272914922379
 30
0.0
 40
3.4999999999997189
 50
281.03616573962711
 51
19.54378189616029
  0
LINE
  5
77C
  8
DATA
  6
CONTINUOUS
 62
     7
 10
-46.701648505369207
 20
64.606117660337702
 30
0.0
 11
-46.80224131128503
 21
66.081478813769706
 31
0.0
  0
LINE
  5
77D
  8
DATA
  6
CONTINUOUS
 62
     7
 10
-53.298351494630737
 20
64.606117660337702
 30
0.0
 11
-53.197758688714927
 21
66.081478813769706
 31
0.0
  0
ARC
  5
77E
  8
DATA
  6
CONTINUOUS
 62
     7
 10
-50.000000000000242
 20
62.962297998413867
 30
0.0
 40
1.800000000000209
 50
291.85273292033111
 51
248.1472670796114
  0
LINE
  5
77F
  8
DATA
  6
CONTINUOUS
 62
     7
 10
-49.330000000001093
 20
61.291639445626423
 30
0.0
 11
-49.330000000001093
 21
60.000000000000021
 31
0.0
  0
LINE
  5
780
  8
DATA
  6
CONTINUOUS
 62
     7
 10
-50.670000000001068
 20
60.000000000000362
 30
0.0
 11
-50.670000000001068
 21
61.291639445627098
 31
0.0
  0
LINE
  5
781
  8
DATA
  6
CONTINUOUS
 62
     7
 10
-48.999999999999993
 20
67.935272914922251
 30
0.0
 11
-48.999999999999993
 21
65.404812959997045
 31
0.0
  0
LINE
  5
782
  8
DATA
  6
CONTINUOUS
 62
     7
 10
-50.999999999999993
 20
65.404812959997045
 30
0.0
 11
-50.999999999999993
 21
67.935272914922251
 31
0.0
  0
ARC
  5
783
  8
DATA
  6
CONTINUOUS
 62
     7
 10
-44.199999999999989
 20
84.3352729149222
 30
0.0
 40
1.0
 50
90.0
 51
180.0
  0
ARC
  5
784
  8
DATA
  6
CONTINUOUS
 62
     7
 10
-55.79999999999999
 20
84.3352729149222
 30
0.0
 40
1.0
 50
0.0
 51
90.0
  0
ARC
  5
785
  8
DATA
  6
CONTINUOUS
 62
     7
 10
-45.699999999999989
 20
76.805272914922213
 30
0.0
 40
0.5
 50
270.0
 51
0.0
  0
ARC
  5
786
  8
DATA
  6
CONTINUOUS
 62
     7
 10
-54.299999992549409
 20
76.805272922372794
 30
0.0
 40
0.5000000074505806
 50
180.0
 51
270.0
  0
ARC
  5
787
  8
DATA
  6
CONTINUOUS
 62
     7
 10
-31.841970067357639
 20
90.957107640252019
 30
0.0
 40
2.2690738662747698
 50
99.467757857760347
 51
170.4062826930417
  0
ARC
  5
788
  8
DATA
  6
CONTINUOUS
 62
     7
 10
-31.841970067357639
 20
85.713438189592424
 30
0.0
 40
2.2690738662747649
 50
189.59371730695841
 51
260.53224214223962
  0
ARC
  5
789
  8
DATA
  6
CONTINUOUS
 62
     7
 10
-43.415434583460723
 20
88.3352729149222
 30
0.0
 40
12.209197340080459
 50
336.54300906421997
 51
23.45699093577997
  0
LINE
  5
78A
  8
DATA
  6
CONTINUOUS
 62
     7
 10
-31.68920331808701
 20
84.935272914922223
 30
0.0
 11
-30.696646325458769
 21
84.935272914922223
 31
0.0
  0
LINE
  5
78B
  8
DATA
  6
CONTINUOUS
 62
     7
 10
-31.68920331808701
 20
91.735272914922234
 30
0.0
 11
-30.696646325458769
 21
91.735272914922234
 31
0.0
  0
LINE
  5
78C
  8
DATA
  6
CONTINUOUS
 62
     7
 10
-30.696646325458769
 20
91.735272914922206
 30
0.0
 11
-30.696646325458769
 21
84.935272914922223
 31
0.0
  0
ARC
  5
78D
  8
DATA
  6
CONTINUOUS
 62
     7
 10
-52.410033778835121
 20
88.3352729149222
 30
0.0
 40
21.919653161043438
 50
352.13361028960941
 51
7.8663897103907061
  0
ARC
  5
78E
  8
DATA
  6
CONTINUOUS
 62
     7
 10
-68.158029932642336
 20
90.957107640252019
 30
0.0
 40
2.2690738662747649
 50
9.5937173069582862
 51
80.53224214223961
  0
ARC
  5
78F
  8
DATA
  6
CONTINUOUS
 62
     7
 10
-68.158029932642336
 20
85.713438189592424
 30
0.0
 40
2.2690738662747698
 50
279.46775785776049
 51
350.40628269304182
  0
ARC
  5
790
  8
DATA
  6
CONTINUOUS
 62
     7
 10
-56.584565416539249
 20
88.3352729149222
 30
0.0
 40
12.20919734008047
 50
156.54300906422
 51
203.4569909357798
  0
LINE
  5
791
  8
DATA
  6
CONTINUOUS
 62
     7
 10
-68.310796681912962
 20
84.935272914922223
 30
0.0
 11
-69.303353674541185
 21
84.935272914922223
 31
0.0
  0
LINE
  5
792
  8
DATA
  6
CONTINUOUS
 62
     7
 10
-68.310796681912962
 20
91.735272914922234
 30
0.0
 11
-69.303353674541185
 21
91.735272914922234
 31
0.0
  0
LINE
  5
793
  8
DATA
  6
CONTINUOUS
 62
     7
 10
-69.303353674541185
 20
91.735272914922206
 30
0.0
 11
-69.303353674541185
 21
84.935272914922223
 31
0.0
  0
ARC
  5
794
  8
DATA
  6
CONTINUOUS
 62
     7
 10
-47.589966221164843
 20
88.3352729149222
 30
0.0
 40
21.919653161043438
 50
172.13361028960929
 51
187.86638971039059
  0
LINE
  5
795
  8
DATA
  6
CONTINUOUS
 62
     7
 10
-55.799999999999983
 20
-92.139999999644161
 30
0.0
 11
-68.999999999999986
 21
-92.139999999644161
 31
0.0
  0
LINE
  5
796
  8
DATA
  6
CONTINUOUS
 62
     7
 10
-68.999999999999986
 20
-98.139999999644161
 30
0.0
 11
-50.0
 21
-98.139999999644161
 31
0.0
  0
LINE
  5
797
  8
DATA
  6
CONTINUOUS
 62
     7
 10
-43.999999999999993
 20
-75.340101946569447
 30
0.0
 11
-43.999999999999993
 21
-84.639999999644189
 31
0.0
  0
LINE
  5
798
  8
DATA
  6
CONTINUOUS
 62
     7
 10
-55.999999999999993
 20
-75.340101946569447
 30
0.0
 11
-55.999999999999993
 21
-84.639999999644189
 31
0.0
  0
LINE
  5
799
  8
DATA
  6
CONTINUOUS
 62
     7
 10
-43.999999999999993
 20
-84.639999999644189
 30
0.0
 11
-46.80224131128503
 21
-84.639999999644189
 31
0.0
  0
LINE
  5
79A
  8
DATA
  6
CONTINUOUS
 62
     7
 10
-53.197758688714949
 20
-84.639999999644189
 30
0.0
 11
-55.999999999999993
 21
-84.639999999644189
 31
0.0
  0
ARC
  5
79B
  8
DATA
  6
CONTINUOUS
 62
     7
 10
-50.0
 20
-79.364871775236182
 30
0.0
 40
7.2248717755919909
 50
116.2701586146453
 51
146.14648972482269
  0
ARC
  5
79C
  8
DATA
  6
CONTINUOUS
 62
     7
 10
-50.0
 20
-79.364871775236182
 30
0.0
 40
7.2248717755919927
 50
33.853510275177321
 51
63.729841385354433
  0
ARC
  5
79D
  8
DATA
  6
CONTINUOUS
 62
     7
 10
-50.0
 20
-79.364871775236182
 30
0.0
 40
7.2248717755919971
 50
116.2701586146456
 51
116.35238918454419
  0
ARC
  5
79E
  8
DATA
  6
CONTINUOUS
 62
     7
 10
-50.000000000000227
 20
-70.23999999964434
 30
0.0
 40
3.499999999999714
 50
101.0361657396559
 51
199.54378189618839
  0
ARC
  5
79F
  8
DATA
  6
CONTINUOUS
 62
     7
 10
-50.000000000000227
 20
-70.23999999964434
 30
0.0
 40
3.4999999999997189
 50
340.45621810383972
 51
78.963834260372778
  0
LINE
  5
7A0
  8
DATA
  6
CONTINUOUS
 62
     7
 10
-46.701648505369207
 20
-71.410844745059649
 30
0.0
 11
-46.80224131128503
 21
-72.886205898491653
 31
0.0
  0
LINE
  5
7A1
  8
DATA
  6
CONTINUOUS
 62
     7
 10
-53.298351494630737
 20
-71.410844745059649
 30
0.0
 11
-53.197758688714927
 21
-72.886205898491653
 31
0.0
  0
ARC
  5
7A2
  8
DATA
  6
CONTINUOUS
 62
     7
 10
-50.000000000000242
 20
-69.767025083135849
 30
0.0
 40
1.800000000000213
 50
111.8527329203886
 51
68.147267079668893
  0
LINE
  5
7A3
  8
DATA
  6
CONTINUOUS
 62
     7
 10
-49.330000000001093
 20
-68.096366530348391
 30
0.0
 11
-49.330000000001093
 21
-66.804727084721975
 31
0.0
  0
LINE
  5
7A4
  8
DATA
  6
CONTINUOUS
 62
     7
 10
-50.670000000001068
 20
-66.804727084722316
 30
0.0
 11
-50.670000000001068
 21
-68.096366530349073
 31
0.0
  0
LINE
  5
7A5
  8
DATA
  6
CONTINUOUS
 62
     7
 10
-53.197758688714927
 20
-72.886205898491653
 30
0.0
 11
-53.197758688714927
 21
-95.972521681852001
 31
0.0
  0
LINE
  5
7A6
  8
DATA
  6
CONTINUOUS
 62
     7
 10
-46.80224131128503
 20
-72.886205898491653
 30
0.0
 11
-46.80224131128503
 21
-95.972521681851987
 31
0.0
  0
ARC
  5
7A7
  8
DATA
  6
CONTINUOUS
 62
     7
 10
-50.0
 20
-90.244912388638284
 30
0.0
 40
6.5598146960840227
 50
240.825114431283
 51
299.17488556871689
  0
LINE
  5
7A8
  8
DATA
  6
CONTINUOUS
 62
     7
 10
-54.799999999999983
 20
-91.139999999644161
 30
0.0
 11
-54.799999999999983
 21
-84.639999999644189
 31
0.0
  0
LINE
  5
7A9
  8
DATA
  6
CONTINUOUS
 62
     7
 10
-45.199999999999982
 20
-91.139999999644161
 30
0.0
 11
-45.199999999999982
 21
-84.639999999644189
 31
0.0
  0
ARC
  5
7AA
  8
DATA
  6
CONTINUOUS
 62
     7
 10
-55.799999999999983
 20
-91.139999999644161
 30
0.0
 40
1.0
 50
270.0
 51
0.0
  0
ARC
  5
7AB
  8
DATA
  6
CONTINUOUS
 62
     7
 10
-44.199999999999982
 20
-91.139999999644161
 30
0.0
 40
1.0
 50
180.0
 51
270.0
  0
ARC
  5
7AC
  8
DATA
  6
CONTINUOUS
 62
     7
 10
-60.249999999999993
 20
-95.139999999644175
 30
0.0
 40
9.25
 50
161.07535558394881
 51
198.92464441605119
  0
LINE
  5
7AD
  8
DATA
  6
CONTINUOUS
 62
     7
 10
-68.332180609379677
 20
-90.507468011
 30
0.0
 11
-68.332180609379677
 21
-92.139999999644189
 31
0.0
  0
LINE
  5
7AE
  8
DATA
  6
CONTINUOUS
 62
     7
 10
-68.332180609379677
 20
-98.139999999644203
 30
0.0
 11
-68.332180609379677
 21
-99.772531988288364
 31
0.0
  0
LINE
  5
7AF
  8
DATA
  6
CONTINUOUS
 62
     7
 10
-66.332180609379677
 20
-90.507468011
 30
0.0
 11
-66.332180609379677
 21
-92.139999999644189
 31
0.0
  0
LINE
  5
7B0
  8
DATA
  6
CONTINUOUS
 62
     7
 10
-66.332180609379677
 20
-98.139999999644203
 30
0.0
 11
-66.332180609379677
 21
-99.772531988288364
 31
0.0
  0
ARC
  5
7B1
  8
DATA
  6
CONTINUOUS
 62
     7
 10
-67.332180609379677
 20
-92.591845278286357
 30
0.0
 40
2.311845278642167
 50
64.370189971495819
 51
115.6298100285042
  0
ARC
  5
7B2
  8
DATA
  6
CONTINUOUS
 62
     7
 10
-67.332180609379677
 20
-97.688154721001993
 30
0.0
 40
2.311845278642167
 50
244.3701899714959
 51
295.6298100285041
  0
LINE
  5
7B3
  8
DATA
  6
CONTINUOUS
 62
     7
 10
-44.199999999999989
 20
-92.139999999644161
 30
0.0
 11
-30.999999999999989
 21
-92.139999999644161
 31
0.0
  0
LINE
  5
7B4
  8
DATA
  6
CONTINUOUS
 62
     7
 10
-30.999999999999989
 20
-98.139999999644161
 30
0.0
 11
-50.0
 21
-98.139999999644161
 31
0.0
  0
ARC
  5
7B5
  8
DATA
  6
CONTINUOUS
 62
     7
 10
-39.75
 20
-95.139999999644175
 30
0.0
 40
9.25
 50
341.07535558394881
 51
18.924644416051251
  0
LINE
  5
7B6
  8
DATA
  6
CONTINUOUS
 62
     7
 10
-31.667819390620291
 20
-90.507468011
 30
0.0
 11
-31.667819390620291
 21
-92.139999999644189
 31
0.0
  0
LINE
  5
7B7
  8
DATA
  6
CONTINUOUS
 62
     7
 10
-31.667819390620291
 20
-98.139999999644203
 30
0.0
 11
-31.667819390620291
 21
-99.772531988288364
 31
0.0
  0
LINE
  5
7B8
  8
DATA
  6
CONTINUOUS
 62
     7
 10
-33.667819390620288
 20
-90.507468011
 30
0.0
 11
-33.667819390620288
 21
-92.139999999644189
 31
0.0
  0
LINE
  5
7B9
  8
DATA
  6
CONTINUOUS
 62
     7
 10
-33.667819390620288
 20
-98.139999999644203
 30
0.0
 11
-33.667819390620288
 21
-99.772531988288364
 31
0.0
  0
ARC
  5
7BA
  8
DATA
  6
CONTINUOUS
 62
     7
 10
-32.667819390620288
 20
-92.591845278286357
 30
0.0
 40
2.311845278642167
 50
64.370189971495819
 51
115.6298100285042
  0
ARC
  5
7BB
  8
DATA
  6
CONTINUOUS
 62
     7
 10
-32.667819390620288
 20
-97.688154721001993
 30
0.0
 40
2.311845278642167
 50
244.3701899714959
 51
295.6298100285041
  0
LINE
  5
7BC
  8
DATA
  6
STYLE_02
 62
     7
 10
-51.149999999999977
 20
8.8840954760813471
 30
0.0
 11
-48.850000000000001
 21
8.8840954760813471
 31
0.0
  0
LINE
  5
7BD
  8
DATA
  6
STYLE_02
 62
     7
 10
-55.999999999999993
 20
11.384095476081351
 30
0.0
 11
-55.999999999999993
 21
19.384095476081399
 31
0.0
  0
LINE
  5
7BE
  8
DATA
  6
STYLE_02
 62
     7
 10
-43.999999999999993
 20
19.384095476081399
 30
0.0
 11
-43.999999999999993
 21
11.384095476081351
 31
0.0
  0
ARC
  5
7BF
  8
DATA
  6
STYLE_02
 62
     7
 10
-49.411669435216027
 20
13.79916607408812
 30
0.0
 40
8.6369865147582523
 50
110.59630770918839
 51
139.7120475551061
  0
ARC
  5
7C0
  8
DATA
  6
STYLE_02
 62
     7
 10
-50.588330564783952
 20
13.79916607408812
 30
0.0
 40
8.6369865147582381
 50
40.287952444893939
 51
69.403692290811534
  0
ARC
  5
7C1
  8
DATA
  6
STYLE_02
 62
     7
 10
-49.411669435216027
 20
16.969024878074642
 30
0.0
 40
8.6369865147582434
 50
220.28795244489399
 51
249.40369229081159
  0
ARC
  5
7C2
  8
DATA
  6
STYLE_02
 62
     7
 10
-50.588330564783952
 20
16.969024878074642
 30
0.0
 40
8.6369865147582612
 50
290.59630770918852
 51
319.71204755510621
  0
LINE
  5
7C3
  8
DATA
  6
STYLE_02
 62
     7
 10
-54.475000000000001
 20
24.884095476081409
 30
0.0
 11
-53.204385329558242
 21
24.884095476081409
 31
0.0
  0
LINE
  5
7C4
  8
DATA
  6
STYLE_02
 62
     7
 10
-54.47499999999998
 20
24.884095476081409
 30
0.0
 11
-54.47499999999998
 21
20.796324043423969
 31
0.0
  0
LINE
  5
7C5
  8
DATA
  6
STYLE_02
 62
     7
 10
-45.524999999999977
 20
24.884095476081409
 30
0.0
 11
-45.524999999999977
 21
20.796324043423969
 31
0.0
  0
LINE
  5
7C6
  8
DATA
  6
STYLE_02
 62
     7
 10
-45.524999999999977
 20
24.884095476081409
 30
0.0
 11
-46.795614670441743
 21
24.884095476081409
 31
0.0
  0
LINE
  5
7C7
  8
DATA
  6
STYLE_02
 62
     7
 10
-51.149999999999977
 20
8.8840954760813453
 30
0.0
 11
-51.149999999999977
 21
19.884095476081399
 31
0.0
  0
LINE
  5
7C8
  8
DATA
  6
STYLE_02
 62
     7
 10
-48.84999999999998
 20
19.884095476081399
 30
0.0
 11
-48.84999999999998
 21
8.8840954760813471
 31
0.0
  0
LINE
  5
7C9
  8
DATA
  6
STYLE_02
 62
     7
 10
-51.149999999999977
 20
19.884095476081399
 30
0.0
 11
-48.84999999999998
 21
19.884095476081399
 31
0.0
  0
LINE
  5
7CA
  8
DATA
  6
STYLE_02
 62
     7
 10
-52.449999999999989
 20
15.484095476081389
 30
0.0
 11
-51.149999999999977
 21
15.484095476081389
 31
0.0
  0
LINE
  5
7CB
  8
DATA
  6
STYLE_02
 62
     7
 10
-48.84999999999998
 20
15.484095476081389
 30
0.0
 11
-47.54999999999999
 21
15.484095476081389
 31
0.0
  0
LINE
  5
7CC
  8
DATA
  6
STYLE_02
 62
     7
 10
-47.54999999999999
 20
13.28409547608134
 30
0.0
 11
-48.850000000000001
 21
13.28409547608134
 31
0.0
  0
LINE
  5
7CD
  8
DATA
  6
STYLE_02
 62
     7
 10
-51.149999999999977
 20
13.28409547608134
 30
0.0
 11
-52.449999999999989
 21
13.28409547608134
 31
0.0
  0
ARC
  5
7CE
  8
DATA
  6
STYLE_02
 62
     7
 10
-50.0
 20
145.2964185427081
 30
0.0
 40
120.5373230666267
 50
260.69002548191912
 51
260.69433897812308
  0
ARC
  5
7CF
  8
DATA
  6
STYLE_02
 62
     7
 10
-50.0
 20
145.2964185427081
 30
0.0
 40
120.5373230666267
 50
272.12761941520739
 51
275.492506942722
  0
ARC
  5
7D0
  8
DATA
  6
STYLE_02
 62
     7
 10
-50.0
 20
145.2964185427081
 30
0.0
 40
120.5373230666267
 50
279.30566102187669
 51
279.30997451808082
  0
ARC
  5
7D1
  8
DATA
  6
STYLE_02
 62
     7
 10
-49.699999999999967
 20
142.7845249209374
 30
0.0
 40
120.5373230666266
 50
264.07225037488757
 51
267.72967453414242
  0
ARC
  5
7D2
  8
DATA
  6
STYLE_02
 62
     7
 10
-50.0
 20
142.7964185427081
 30
0.0
 40
120.5373230666267
 50
272.12761941520739
 51
275.79014999196937
  0
LINE
  5
7D3
  8
DATA
  6
STYLE_02
 62
     7
 10
-65.899501080016933
 20
38.947898073172951
 30
0.0
 11
-64.865424034625931
 21
27.159419755715628
 31
0.0
  0
LINE
  5
7D4
  8
DATA
  6
STYLE_02
 62
     7
 10
-68.800433203157723
 20
38.906408898395362
 30
0.0
 11
-68.140581148568771
 21
31.384095476081331
 31
0.0
  0
ARC
  5
7D5
  8
DATA
  6
STYLE_02
 62
     7
 10
-56.745038580456352
 20
25.62955698364107
 30
0.0
 40
12.76609195026569
 50
153.20706770550851
 51
190.1064303566009
  0
ARC
  5
7D6
  8
DATA
  6
STYLE_02
 62
     7
 10
-67.344078381103657
 20
23.74035313390171
 30
0.0
 40
1.999999999999996
 50
190.10643035660081
 51
222.97248152509769
  0
ARC
  5
7D7
  8
DATA
  6
STYLE_02
 62
     7
 10
-65.683003702789023
 20
25.28783945462326
 30
0.0
 40
4.270216509445377
 50
222.97248152509781
 51
325.86654132881392
  0
ARC
  5
7D8
  8
DATA
  6
STYLE_02
 62
     7
 10
-61.1544369164423
 20
29.294150441552311
 30
0.0
 40
4.0000000000000009
 50
240.0597232811148
 51
264.50749305727788
  0
ARC
  5
7D9
  8
DATA
  6
STYLE_02
 62
     7
 10
-50.0
 20
145.2964185427081
 30
0.0
 40
120.5373230666267
 50
264.50749305727788
 51
267.8723871878201
  0
ARC
  5
7DA
  8
DATA
  6
STYLE_02
 62
     7
 10
-68.728211929509214
 20
37.32862920448185
 30
0.0
 40
0.5773502691896169
 50
88.456239199149564
 51
281.56998831092039
  0
ARC
  5
7DB
  8
DATA
  6
STYLE_02
 62
     7
 10
-68.5569224512614
 20
35.32862920448185
 30
0.0
 40
0.5773502691896199
 50
88.043183728669206
 51
281.9830437814033
  0
ARC
  5
7DC
  8
DATA
  6
STYLE_02
 62
     7
 10
-68.354489431513983
 20
33.328629204481871
 30
0.0
 40
0.5773502691896172
 50
90.725016985562277
 51
279.3012105245063
  0
ARC
  5
7DD
  8
DATA
  6
STYLE_02
 62
     7
 10
-68.183199953266168
 20
31.35977274598152
 30
0.0
 40
0.5773502691895935
 50
90.584503989155692
 51
247.377398434518
  0
ARC
  5
7DE
  8
DATA
  6
STYLE_02
 62
     7
 10
-68.50158078593671
 20
38.932624022712993
 30
0.0
 40
0.30000000003638
 50
105.4964801300349
 51
185.0131137550367
  0
ARC
  5
7DF
  8
DATA
  6
STYLE_02
 62
     7
 10
-66.198353501629327
 20
38.921682948470099
 30
0.0
 40
0.3000000044446305
 50
5.0131137550362812
 51
73.959177234426093
  0
ARC
  5
7E0
  8
DATA
  6
STYLE_02
 62
     7
 10
-67.369340055363466
 20
34.848921657609203
 30
0.0
 40
4.5377581430553251
 50
73.959177229842268
 51
105.496480123201
  0
ARC
  5
7E1
  8
DATA
  6
STYLE_02
 62
     7
 10
-61.37452840573939
 20
29.88514473138444
 30
0.0
 40
4.428987348679601
 50
217.98306139804501
 51
246.3554417570287
  0
ARC
  5
7E2
  8
DATA
  6
STYLE_02
 62
     7
 10
-50.0
 20
145.2964185427081
 30
0.0
 40
120.5373230666267
 50
279.30566102187669
 51
279.30997451808082
  0
LINE
  5
7E3
  8
DATA
  6
STYLE_02
 62
     7
 10
-30.68613294686806
 20
37.351521007843097
 30
0.0
 11
-30.69892865275801
 21
37.20564996069767
 31
0.0
  0
LINE
  5
7E4
  8
DATA
  6
STYLE_02
 62
     7
 10
-34.100498919983039
 20
38.947898073172951
 30
0.0
 11
-35.13457596537404
 21
27.159419755715628
 31
0.0
  0
LINE
  5
7E5
  8
DATA
  6
STYLE_02
 62
     7
 10
-31.199566796842252
 20
38.906408898395362
 30
0.0
 11
-31.859418851431201
 21
31.384095476081331
 31
0.0
  0
ARC
  5
7E6
  8
DATA
  6
STYLE_02
 62
     7
 10
-43.254961419543612
 20
25.62955698364107
 30
0.0
 40
12.76609195026572
 50
349.89356964339908
 51
26.79293229449144
  0
ARC
  5
7E7
  8
DATA
  6
STYLE_02
 62
     7
 10
-32.655921618896322
 20
23.74035313390171
 30
0.0
 40
1.999999999999994
 50
317.02751847490219
 51
349.8935696433993
  0
ARC
  5
7E8
  8
DATA
  6
STYLE_02
 62
     7
 10
-34.316996297210949
 20
25.28783945462326
 30
0.0
 40
4.2702165094453743
 50
214.42015416479731
 51
317.02751847490219
  0
ARC
  5
7E9
  8
DATA
  6
STYLE_02
 62
     7
 10
-38.845563083557671
 20
29.294150441552311
 30
0.0
 40
4.0000000000000044
 50
275.492506942722
 51
299.9402767188854
  0
ARC
  5
7EA
  8
DATA
  6
STYLE_02
 62
     7
 10
-31.263029210222371
 20
37.32862920448185
 30
0.0
 40
0.5773502691896142
 50
257.5576161885254
 51
92.416156301401514
  0
ARC
  5
7EB
  8
DATA
  6
STYLE_02
 62
     7
 10
-31.434318688470182
 20
35.32862920448185
 30
0.0
 40
0.5773502691896175
 50
257.14376507618653
 51
92.830007413740717
  0
ARC
  5
7EC
  8
DATA
  6
STYLE_02
 62
     7
 10
-31.636751708217599
 20
33.328629204481871
 30
0.0
 40
0.5773502691896243
 50
259.8299342190578
 51
90.143838270869495
  0
ARC
  5
7ED
  8
DATA
  6
STYLE_02
 62
     7
 10
-31.80804118646542
 20
31.35977274598152
 30
0.0
 40
0.5773502691895956
 50
291.82823425758642
 51
90.284530061866207
  0
ARC
  5
7EE
  8
DATA
  6
STYLE_02
 62
     7
 10
-31.498419214063269
 20
38.932624022712993
 30
0.0
 40
0.3000000000363864
 50
354.98688624496322
 51
74.503519869965075
  0
ARC
  5
7EF
  8
DATA
  6
STYLE_02
 62
     7
 10
-33.801646498370651
 20
38.921682948470099
 30
0.0
 40
0.3000000044446308
 50
106.04082276557391
 51
174.9868862449637
  0
ARC
  5
7F0
  8
DATA
  6
STYLE_02
 62
     7
 10
-32.630659944636513
 20
34.848921657609203
 30
0.0
 40
4.5377581430553251
 50
74.50351987679899
 51
106.0408227701577
  0
ARC
  5
7F1
  8
DATA
  6
STYLE_02
 62
     7
 10
-38.625471594260603
 20
29.88514473138444
 30
0.0
 40
4.428987348679601
 50
293.64455824297141
 51
322.01693860195508
  0
LINE
  5
7F2
  8
DATA
  6
STYLE_02
 62
     7
 10
-45.525000000000013
 20
22.353711718806409
 30
0.0
 11
-45.524999999999977
 21
24.884095476081409
 31
0.0
  0
LINE
  5
7F3
  8
DATA
  6
STYLE_02
 62
     7
 10
6.100000000000013
 20
8.119750568056876
 30
0.0
 11
6.100000000000013
 21
8.6411931231718171
 31
0.0
  0
LINE
  5
7F4
  8
DATA
  6
STYLE_02
 62
     7
 10
2.1000000000000121
 20
8.6411931231718189
 30
0.0
 11
8.1000000000000139
 21
8.6411931231718189
 31
0.0
  0
LINE
  5
7F5
  8
DATA
  6
STYLE_02
 62
     7
 10
4.6300000000000141
 20
21.641193123171849
 30
0.0
 11
8.1000000000000139
 21
21.641193123171849
 31
0.0
  0
LINE
  5
7F6
  8
DATA
  6
STYLE_02
 62
     7
 10
2.100000000000013
 20
21.610809358446261
 30
0.0
 11
2.100000000000013
 21
8.6411931231718135
 31
0.0
  0
ARC
  5
7F7
  8
DATA
  6
STYLE_02
 62
     7
 10
8.1000000000000139
 20
15.14119312317183
 30
0.0
 40
6.5000000000000204
 50
270.0
 51
90.0
  0
LINE
  5
7F8
  8
DATA
  6
STYLE_02
 62
     7
 10
14.60000000000001
 20
15.14119312317183
 30
0.0
 11
14.60000000000001
 21
8.7038023473993853
 31
0.0
  0
LINE
  5
7F9
  8
DATA
  6
STYLE_02
 62
     7
 10
13.600000000000019
 20
11.67709150803406
 30
0.0
 11
13.600000000000019
 21
8.7038023473993853
 31
0.0
  0
LINE
  5
7FA
  8
DATA
  6
STYLE_02
 62
     7
 10
13.600000000000019
 20
8.7038023473993853
 30
0.0
 11
14.60000000000001
 21
8.7038023473993853
 31
0.0
  0
LINE
  5
7FB
  8
DATA
  6
STYLE_02
 62
     7
 10
-5.3999999999999844
 20
24.641193123171849
 30
0.0
 11
4.1299999925494326
 21
24.641193123171849
 31
0.0
  0
LINE
  5
7FC
  8
DATA
  6
STYLE_02
 62
     7
 10
-5.3999999999999844
 20
22.110809365896841
 30
0.0
 11
1.599999992549433
 21
22.110809365896841
 31
0.0
  0
LINE
  5
7FD
  8
DATA
  6
STYLE_02
 62
     7
 10
4.6300000000000141
 20
24.141193115721268
 30
0.0
 11
4.6300000000000141
 21
21.641193123171849
 31
0.0
  0
LINE
  5
7FE
  8
DATA
  6
STYLE_02
 62
     7
 10
-11.399999999999981
 20
20.786502837210559
 30
0.0
 11
-11.399999999999981
 21
30.45860104940008
 31
0.0
  0
LINE
  5
7FF
  8
DATA
  6
STYLE_02
 62
     7
 10
-5.3999999999999844
 20
20.786502837210559
 30
0.0
 11
-5.3999999999999844
 21
30.45860104940008
 31
0.0
  0
LINE
  5
800
  8
DATA
  6
STYLE_02
 62
     7
 10
-11.399999999999981
 20
20.786502837210559
 30
0.0
 11
-5.3999999999999844
 21
20.786502837210559
 31
0.0
  0
LINE
  5
801
  8
DATA
  6
STYLE_02
 62
     7
 10
-8.4924899958707591
 20
39.143726250108472
 30
0.0
 11
-8.3075100041292025
 21
39.143726250108472
 31
0.0
  0
ARC
  5
802
  8
DATA
  6
STYLE_02
 62
     7
 10
-8.3999999999999844
 20
34.283528878068388
 30
0.0
 40
4.861077338874713
 50
308.10810185233231
 51
231.8918981476678
  0
ARC
  5
803
  8
DATA
  6
STYLE_02
 62
     7
 10
4.1299999925494326
 20
24.141193115721268
 30
0.0
 40
0.5000000074505806
 50
0.0
 51
90.0
  0
ARC
  5
804
  8
DATA
  6
STYLE_02
 62
     7
 10
1.599999992549433
 20
21.610809358446261
 30
0.0
 40
0.5000000074505806
 50
0.0
 51
90.0
  0
CIRCLE
  5
805
  8
DATA
  6
STYLE_02
 62
     7
 10
-8.3999999999999844
 20
34.283528878068388
 30
0.0
 40
3.3999999999999981
  0
LINE
  5
806
  8
DATA
  6
STYLE_02
 62
     7
 10
-10.957673036192441
 20
36.523687051040568
 30
0.0
 11
-5.8423269638075288
 21
36.523687051040568
 31
0.0
  0
LINE
  5
807
  8
DATA
  6
STYLE_02
 62
     7
 10
-11.5080558455976
 20
35.661929712603282
 30
0.0
 11
-5.2919441544023664
 21
35.661929712603282
 31
0.0
  0
LINE
  5
808
  8
DATA
  6
STYLE_02
 62
     7
 10
-11.79143877074578
 20
34.524657607759103
 30
0.0
 11
-5.0085612292541919
 21
34.524657607759103
 31
0.0
  0
LINE
  5
809
  8
DATA
  6
STYLE_02
 62
     7
 10
-11.74289497341546
 20
33.663002330116122
 30
0.0
 11
-5.0571050265845123
 21
33.663002330116122
 31
0.0
  0
LINE
  5
80A
  8
DATA
  6
STYLE_02
 62
     7
 10
-11.30620594663089
 20
32.518885289190692
 30
0.0
 11
-5.4937940533690792
 21
32.518885289190692
 31
0.0
  0
LINE
  5
80B
  8
DATA
  6
STYLE_02
 62
     7
 10
-10.60339925516578
 20
31.694121277412449
 30
0.0
 11
-6.1966007448341927
 21
31.694121277412449
 31
0.0
  0
LINE
  5
80C
  8
DATA
  6
STYLE_02
 62
     7
 10
54.000000000000021
 20
11.32804467918924
 30
0.0
 11
54.000000000000021
 21
19.32804467918923
 31
0.0
  0
LINE
  5
80D
  8
DATA
  6
STYLE_02
 62
     7
 10
66.000000000000014
 20
19.328044679189219
 30
0.0
 11
66.000000000000014
 21
11.32804467918924
 31
0.0
  0
ARC
  5
80E
  8
DATA
  6
STYLE_02
 62
     7
 10
60.588330564783959
 20
13.743115277196001
 30
0.0
 40
8.6369865147581937
 50
118.2520708424053
 51
139.7120475551063
  0
ARC
  5
80F
  8
DATA
  6
STYLE_02
 62
     7
 10
59.411669435216062
 20
13.743115277196001
 30
0.0
 40
8.6369865147581937
 50
40.287952444893669
 51
61.747929157594683
  0
ARC
  5
810
  8
DATA
  6
STYLE_02
 62
     7
 10
60.588330564783959
 20
16.912974081182451
 30
0.0
 40
8.6369865147581937
 50
220.2879524448937
 51
249.40369229081139
  0
ARC
  5
811
  8
DATA
  6
STYLE_02
 62
     7
 10
59.411669435216062
 20
16.912974081182451
 30
0.0
 40
8.6369865147581955
 50
290.59630770918852
 51
319.71204755510632
  0
LINE
  5
812
  8
DATA
  6
STYLE_02
 62
     7
 10
56.500000000000021
 20
22.253869531002149
 30
0.0
 11
56.500000000000021
 21
21.35120894441437
 31
0.0
  0
LINE
  5
813
  8
DATA
  6
STYLE_02
 62
     7
 10
63.500000000000021
 20
22.253869531002149
 30
0.0
 11
63.500000000000021
 21
21.35120894441437
 31
0.0
  0
ARC
  5
814
  8
DATA
  6
STYLE_02
 62
     7
 10
60.000000000000021
 20
145.24036774581609
 30
0.0
 40
120.5373230666269
 50
260.69002548191912
 51
260.6943389781232
  0
ARC
  5
815
  8
DATA
  6
STYLE_02
 62
     7
 10
60.000000000000021
 20
145.24036774581609
 30
0.0
 40
120.5373230666269
 50
272.27032546585758
 51
275.49250694272212
  0
ARC
  5
816
  8
DATA
  6
STYLE_02
 62
     7
 10
60.000000000000021
 20
145.24036774581609
 30
0.0
 40
120.5373230666269
 50
279.30566102187669
 51
279.30997451808088
  0
ARC
  5
817
  8
DATA
  6
STYLE_02
 62
     7
 10
60.000000000000021
 20
142.74036774581609
 30
0.0
 40
120.5373230666268
 50
264.20985000803091
 51
272.27032546585781
  0
ARC
  5
818
  8
DATA
  6
STYLE_02
 62
     7
 10
60.000000000000021
 20
142.74036774581609
 30
0.0
 40
120.5373230666269
 50
272.27032546585758
 51
275.79014999196937
  0
LINE
  5
819
  8
DATA
  6
STYLE_02
 62
     7
 10
44.10049891998306
 20
38.891847276280842
 30
0.0
 11
45.134575965374061
 21
27.103368958823449
 31
0.0
  0
LINE
  5
81A
  8
DATA
  6
STYLE_02
 62
     7
 10
41.199566796842277
 20
38.850358101503247
 30
0.0
 11
41.859418851431222
 21
31.328044679189212
 31
0.0
  0
ARC
  5
81B
  8
DATA
  6
STYLE_02
 62
     7
 10
53.25496141954364
 20
25.57350618674889
 30
0.0
 40
12.766091950265711
 50
153.20706770550831
 51
190.1064303566009
  0
ARC
  5
81C
  8
DATA
  6
STYLE_02
 62
     7
 10
42.655921618896329
 20
23.68430233700953
 30
0.0
 40
1.999999999999996
 50
190.10643035660081
 51
222.97248152509769
  0
ARC
  5
81D
  8
DATA
  6
STYLE_02
 62
     7
 10
44.31699629721097
 20
25.23178865773108
 30
0.0
 40
4.270216509445377
 50
222.97248152509781
 51
325.57984583520278
  0
ARC
  5
81E
  8
DATA
  6
STYLE_02
 62
     7
 10
48.845563083557693
 20
29.238099644660132
 30
0.0
 40
4.0000000000000009
 50
240.0597232811148
 51
264.50749305727788
  0
ARC
  5
81F
  8
DATA
  6
STYLE_02
 62
     7
 10
60.000000000000021
 20
145.24036774581609
 30
0.0
 40
120.5373230666269
 50
264.50749305727788
 51
272.3695686430126
  0
ARC
  5
820
  8
DATA
  6
STYLE_02
 62
     7
 10
41.271788070490793
 20
37.272578407589741
 30
0.0
 40
0.5773502691896169
 50
88.456239199149564
 51
281.56998831092039
  0
ARC
  5
821
  8
DATA
  6
STYLE_02
 62
     7
 10
41.443077548738593
 20
35.272578407589741
 30
0.0
 40
0.5773502691896199
 50
88.043183728669206
 51
281.9830437814033
  0
ARC
  5
822
  8
DATA
  6
STYLE_02
 62
     7
 10
41.645510568486003
 20
33.272578407589769
 30
0.0
 40
0.5773502691896172
 50
90.725016985562277
 51
279.3012105245063
  0
ARC
  5
823
  8
DATA
  6
STYLE_02
 62
     7
 10
41.816800046733817
 20
31.30372194908939
 30
0.0
 40
0.5773502691896078
 50
90.584503989155692
 51
247.3773984345184
  0
ARC
  5
824
  8
DATA
  6
STYLE_02
 62
     7
 10
41.49841921406329
 20
38.876573225820877
 30
0.0
 40
0.30000000003638
 50
105.4964801300349
 51
185.0131137550367
  0
ARC
  5
825
  8
DATA
  6
STYLE_02
 62
     7
 10
43.801646498370673
 20
38.865632151578012
 30
0.0
 40
0.3000000044446305
 50
5.0131137550362812
 51
73.959177234426093
  0
ARC
  5
826
  8
DATA
  6
STYLE_02
 62
     7
 10
42.630659944636527
 20
34.792870860717102
 30
0.0
 40
4.5377581430553251
 50
73.959177229842268
 51
105.496480123201
  0
ARC
  5
827
  8
DATA
  6
STYLE_02
 62
     7
 10
48.62547159426061
 20
29.829093934492271
 30
0.0
 40
4.428987348679609
 50
217.98306139804509
 51
246.35544175702881
  0
ARC
  5
828
  8
DATA
  6
STYLE_02
 62
     7
 10
60.000000000000021
 20
145.24036774581609
 30
0.0
 40
120.5373230666269
 50
279.30566102187669
 51
279.30997451808082
  0
LINE
  5
829
  8
DATA
  6
STYLE_02
 62
     7
 10
75.899501080016961
 20
38.891847276280842
 30
0.0
 11
74.865424034625946
 21
27.103368958823449
 31
0.0
  0
LINE
  5
82A
  8
DATA
  6
STYLE_02
 62
     7
 10
78.800433203157723
 20
38.850358101503247
 30
0.0
 11
78.140581148568799
 21
31.328044679189212
 31
0.0
  0
ARC
  5
82B
  8
DATA
  6
STYLE_02
 62
     7
 10
66.745038580456395
 20
25.57350618674889
 30
0.0
 40
12.76609195026572
 50
349.89356964339908
 51
26.792932294491671
  0
ARC
  5
82C
  8
DATA
  6
STYLE_02
 62
     7
 10
77.344078381103685
 20
23.68430233700953
 30
0.0
 40
1.999999999999994
 50
317.02751847490219
 51
349.8935696433993
  0
ARC
  5
82D
  8
DATA
  6
STYLE_02
 62
     7
 10
75.683003702789065
 20
25.23178865773108
 30
0.0
 40
4.2702165094453743
 50
214.42015416479731
 51
317.02751847490219
  0
ARC
  5
82E
  8
DATA
  6
STYLE_02
 62
     7
 10
71.15443691644235
 20
29.238099644660132
 30
0.0
 40
4.0000000000000044
 50
275.492506942722
 51
299.9402767188854
  0
ARC
  5
82F
  8
DATA
  6
STYLE_02
 62
     7
 10
78.736970789777615
 20
37.272578407589741
 30
0.0
 40
0.5773502691896151
 50
257.55761618852512
 51
92.416156301401145
  0
ARC
  5
830
  8
DATA
  6
STYLE_02
 62
     7
 10
78.565681311529815
 20
35.272578407589741
 30
0.0
 40
0.5773502691896166
 50
257.14376507618692
 51
92.830007413740375
  0
ARC
  5
831
  8
DATA
  6
STYLE_02
 62
     7
 10
78.363248291782412
 20
33.272578407589769
 30
0.0
 40
0.5773502691896254
 50
259.82993421905701
 51
90.143838270869864
  0
ARC
  5
832
  8
DATA
  6
STYLE_02
 62
     7
 10
78.191958813534569
 20
31.30372194908939
 30
0.0
 40
0.5773502691896075
 50
291.82823425758562
 51
90.284530061865865
  0
ARC
  5
833
  8
DATA
  6
STYLE_02
 62
     7
 10
78.501580785936738
 20
38.876573225820877
 30
0.0
 40
0.3000000000363864
 50
354.98688624496322
 51
74.503519869965075
  0
ARC
  5
834
  8
DATA
  6
STYLE_02
 62
     7
 10
76.198353501629342
 20
38.865632151578012
 30
0.0
 40
0.3000000044446308
 50
106.04082276557391
 51
174.9868862449637
  0
ARC
  5
835
  8
DATA
  6
STYLE_02
 62
     7
 10
77.36934005536348
 20
34.792870860717102
 30
0.0
 40
4.5377581430553251
 50
74.50351987679899
 51
106.0408227701577
  0
ARC
  5
836
  8
DATA
  6
STYLE_02
 62
     7
 10
71.374528405739383
 20
29.829093934492271
 30
0.0
 40
4.4289873486796152
 50
293.64455824297141
 51
322.01693860195491
  0
ARC
  5
837
  8
DATA
  6
STYLE_02
 62
     7
 10
60.000000000000021
 20
18.82437704112267
 30
0.0
 40
10.292189305013659
 50
256.22884073440792
 51
283.77115926559208
  0
CIRCLE
  5
838
  8
DATA
  6
STYLE_02
 62
     7
 10
60.000000000000021
 20
15.32804467918924
 30
0.0
 40
0.5
  0
ENDSEC
  0
EOF
