  0
SECTION
  2
HEADER
  9
$ACADVER
  1
AC1009
  9
$INSBASE
 10
0.0
 20
0.0
 30
0.0
  9
$EXTMIN
 10
-270.01647823492112
 20
-847.66197998768155
 30
-0.0013594581806728
  9
$EXTMAX
 10
270.0164807494923
 20
855.05191596965585
 30
0.0000000311167199
  9
$LIMMIN
 10
0.0
 20
0.0
  9
$LIMMAX
 10
0.0
 20
0.0
  9
$ORTHOMODE
 70
     0
  9
$REGENMODE
 70
     1
  9
$FILLMODE
 70
     1
  9
$QTEXTMODE
 70
     0
  9
$MIRRTEXT
 70
     1
  9
$DRAGMODE
 70
     2
  9
$LTSCALE
 40
15.24
  9
$OSMODE
 70
   231
  9
$ATTMODE
 70
     1
  9
$TEXTSIZE
 40
0.0
  9
$TRACEWID
 40
1.0
  9
$TEXTSTYLE
  7
STANDARD
  9
$CLAYER
  8
DATA
  9
$CELTYPE
  6
BYLAYER
  9
$CECOLOR
 62
   256
  9
$DIMSCALE
 40
1.0
  9
$DIMASZ
 40
0.18
  9
$DIMEXO
 40
0.0625
  9
$DIMDLI
 40
0.38
  9
$DIMRND
 40
0.0
  9
$DIMDLE
 40
0.0
  9
$DIMEXE
 40
0.18
  9
$DIMTP
 40
0.0
  9
$DIMTM
 40
0.0
  9
$DIMTXT
 40
0.18
  9
$DIMCEN
 40
0.09
  9
$DIMTSZ
 40
0.0
  9
$DIMTOL
 70
     0
  9
$DIMLIM
 70
     0
  9
$DIMTIH
 70
     1
  9
$DIMTOH
 70
     1
  9
$DIMSE1
 70
     0
  9
$DIMSE2
 70
     0
  9
$DIMTAD
 70
     0
  9
$DIMZIN
 70
     0
  9
$DIMBLK
  1

  9
$DIMASO
 70
     1
  9
$DIMSHO
 70
     1
  9
$DIMPOST
  1

  9
$DIMAPOST
  1

  9
$DIMALT
 70
     0
  9
$DIMALTD
 70
     2
  9
$DIMALTF
 40
25.399999999999999
  9
$DIMLFAC
 40
1.0
  9
$DIMTOFL
 70
     0
  9
$DIMTVP
 40
0.0
  9
$DIMTIX
 70
     0
  9
$DIMSOXD
 70
     0
  9
$DIMSAH
 70
     0
  9
$DIMBLK1
  1

  9
$DIMBLK2
  1

  9
$DIMSTYLE
  2
STANDARD
  9
$DIMCLRD
 70
     0
  9
$DIMCLRE
 70
     0
  9
$DIMCLRT
 70
     0
  9
$DIMTFAC
 40
1.0
  9
$DIMGAP
 40
0.09
  9
$LUNITS
 70
     2
  9
$LUPREC
 70
     4
  9
$SKETCHINC
 40
0.1
  9
$FILLETRAD
 40
0.0
  9
$AUNITS
 70
     0
  9
$AUPREC
 70
     0
  9
$MENU
  1
acad
  9
$ELEVATION
 40
0.0
  9
$PELEVATION
 40
0.0
  9
$THICKNESS
 40
0.0
  9
$LIMCHECK
 70
     0
  9
$BLIPMODE
 70
     0
  9
$CHAMFERA
 40
0.0
  9
$CHAMFERB
 40
0.0
  9
$SKPOLY
 70
     0
  9
$TDCREATE
 40
2456776.499189815
  9
$TDUPDATE
 40
2456776.5047947108
  9
$TDINDWG
 40
0.0006083681
  9
$TDUSRTIMER
 40
0.0006007755
  9
$USRTIMER
 70
     1
  9
$ANGBASE
 50
0.0
  9
$ANGDIR
 70
     0
  9
$PDMODE
 70
     1
  9
$PDSIZE
 40
-2.0
  9
$PLINEWID
 40
0.0
  9
$COORDS
 70
     2
  9
$SPLFRAME
 70
     0
  9
$SPLINETYPE
 70
     6
  9
$SPLINESEGS
 70
     8
  9
$ATTDIA
 70
     0
  9
$ATTREQ
 70
     1
  9
$HANDLING
 70
     1
  9
$HANDSEED
  5
907
  9
$SURFTAB1
 70
     6
  9
$SURFTAB2
 70
     6
  9
$SURFTYPE
 70
     6
  9
$SURFU
 70
     6
  9
$SURFV
 70
     6
  9
$UCSNAME
  2

  9
$UCSORG
 10
0.0
 20
0.0
 30
0.0
  9
$UCSXDIR
 10
1.0
 20
0.0
 30
0.0
  9
$UCSYDIR
 10
0.0
 20
1.0
 30
0.0
  9
$PUCSNAME
  2

  9
$PUCSORG
 10
0.0
 20
0.0
 30
0.0
  9
$PUCSXDIR
 10
1.0
 20
0.0
 30
0.0
  9
$PUCSYDIR
 10
0.0
 20
1.0
 30
0.0
  9
$USERI1
 70
     0
  9
$USERI2
 70
     0
  9
$USERI3
 70
     0
  9
$USERI4
 70
     0
  9
$USERI5
 70
     0
  9
$USERR1
 40
0.0
  9
$USERR2
 40
0.0
  9
$USERR3
 40
0.0
  9
$USERR4
 40
0.0
  9
$USERR5
 40
0.0
  9
$WORLDVIEW
 70
     1
  9
$SHADEDGE
 70
     3
  9
$SHADEDIF
 70
    70
  9
$TILEMODE
 70
     1
  9
$MAXACTVP
 70
    64
  9
$PLIMCHECK
 70
     0
  9
$PEXTMIN
 10
1.0000000000000000E+020
 20
1.0000000000000000E+020
 30
1.0000000000000000E+020
  9
$PEXTMAX
 10
-1.0000000000000000E+020
 20
-1.0000000000000000E+020
 30
-1.0000000000000000E+020
  9
$PLIMMIN
 10
0.0
 20
0.0
  9
$PLIMMAX
 10
12.0
 20
9.0
  9
$UNITMODE
 70
     0
  9
$VISRETAIN
 70
     0
  9
$PLINEGEN
 70
     1
  9
$PSLTSCALE
 70
     0
  0
ENDSEC
  0
SECTION
  2
TABLES
  0
TABLE
  2
VPORT
 70
     1
  0
VPORT
  2
*ACTIVE
 70
     0
 10
0.0
 20
0.0
 11
1.0
 21
1.0
 12
0.0000012572854757
 22
3.694967990987152
 13
0.0
 23
0.0
 14
1.0
 24
1.0
 15
0.0
 25
0.0
 16
0.0
 26
0.0
 36
1.0
 17
0.0
 27
0.0
 37
0.0
 40
1716.7665553462559
 41
2.2837465564738291
 42
50.0
 43
0.0
 44
0.0
 50
0.0
 51
0.0
 71
     0
 72
  2000
 73
     1
 74
     1
 75
     0
 76
     0
 77
     0
 78
     0
  0
ENDTAB
  0
TABLE
  2
LTYPE
 70
    11
  0
LTYPE
  2
CONTINUOUS
 70
     0
  3
Solid line
 72
    65
 73
     0
 40
0.0
  0
ENDTAB
  0
TABLE
  2
LAYER
 70
     5
  0
LAYER
  2
0
 70
     0
 62
     7
  6
CONTINUOUS
  0
LAYER
  2
DATA
 70
     0
 62
     7
  6
CONTINUOUS
  0
LAYER
  2
HIBINO-BASE
 70
     0
 62
     7
  6
CONTINUOUS
  0
LAYER
  2
SPEC
 70
     0
 62
     7
  6
CONTINUOUS
  0
LAYER
  2
DIMNSIONS
 70
     0
 62
     7
  6
CONTINUOUS
  0
ENDTAB
  0
TABLE
  2
STYLE
 70
     3
  0
STYLE
  2
STANDARD
 70
     0
 40
0.0
 41
1.0
 50
0.0
 71
     0
 42
0.0
  3
txt
  4
BIGFONT.SHX
  0
ENDTAB
  0
TABLE
  2
VIEW
 70
     0
  0
ENDTAB
  0
TABLE
  2
UCS
 70
     0
  0
ENDTAB
  0
TABLE
  2
APPID
 70
     4
  0
APPID
  2
ACAD
 70
     0
  0
APPID
  2
ACADANNOTATIVE
 70
     0
  0
APPID
  2
ACAD_NAV_VCDISPLAY
 70
     0
  0
APPID
  2
ACAD_MLEADERVER
 70
     0
  0
ENDTAB
  0
TABLE
  2
DIMSTYLE
 70
     2
  0
DIMSTYLE
  2
STANDARD
 70
     0
  3

  4

  5

  6

  7

 40
1.0
 41
0.18
 42
0.0625
 43
0.38
 44
0.18
 45
0.0
 46
0.0
 47
0.0
 48
0.0
140
0.18
141
0.09
142
0.0
143
25.399999999999999
144
1.0
145
0.0
146
1.0
147
0.09
 71
     0
 72
     0
 73
     1
 74
     1
 75
     0
 76
     0
 77
     0
 78
     0
170
     0
171
     2
172
     0
173
     0
174
     0
175
     0
176
     0
177
     0
178
     0
  0
ENDTAB
  0
ENDSEC
  0
SECTION
  2
BLOCKS
  0
BLOCK
  8
0
  2
$MODEL_SPACE
 70
     0
 10
0.0
 20
0.0
 30
0.0
  3
$MODEL_SPACE
  1

  0
ENDBLK
  5
6CD
  8
0
  0
BLOCK
 67
     1
  8
0
  2
$PAPER_SPACE
 70
     0
 10
0.0
 20
0.0
 30
0.0
  3
$PAPER_SPACE
  1

  0
ENDBLK
  5
6C9
 67
     1
  8
0
  0
BLOCK
  8
DATA
  2
____
 70
     0
 10
0.0
 20
0.0
 30
0.0
  3
____
  1

  0
ARC
  5
30
  8
0
  6
CONTINUOUS
 62
     7
 10
-178.2550893424683
 20
262.9861479713943
 30
0.0
 40
1.045002469336737
 50
136.31193928245841
 51
179.24049364081969
  0
ARC
  5
31
  8
0
  6
CONTINUOUS
 62
     7
 10
-176.9124143889189
 20
261.710345588537
 30
0.0
 40
2.8971469443589899
 50
110.1557633979123
 51
136.40847600464051
  0
ARC
  5
32
  8
0
  6
CONTINUOUS
 62
     7
 10
-175.59796547331581
 20
258.28289203144089
 30
0.0
 40
6.5678386326609779
 50
89.145348016448835
 51
110.617613505371
  0
ARC
  5
33
  8
0
  6
CONTINUOUS
 62
     7
 10
-178.2550893424683
 20
263.0138520286057
 30
0.0
 40
1.0450024693366979
 50
180.75950635918031
 51
223.68806071754159
  0
ARC
  5
34
  8
0
  6
CONTINUOUS
 62
     7
 10
-176.9124143889189
 20
264.289654411463
 30
0.0
 40
2.897146944359013
 50
223.59152399535949
 51
249.8442366020877
  0
ARC
  5
35
  8
0
  6
CONTINUOUS
 62
     7
 10
-175.59796547331581
 20
267.71710796855899
 30
0.0
 40
6.5678386326609761
 50
249.382386494629
 51
270.85465198355121
  0
ARC
  5
36
  8
0
  6
CONTINUOUS
 62
     7
 10
-172.7449106575317
 20
262.9861479713943
 30
0.0
 40
1.0450024693366979
 50
0.7595063591803034
 51
43.688060717541582
  0
ARC
  5
37
  8
0
  6
CONTINUOUS
 62
     7
 10
-174.08758561108101
 20
261.710345588537
 30
0.0
 40
2.897146944359013
 50
43.591523995359459
 51
69.844236602087705
  0
ARC
  5
38
  8
0
  6
CONTINUOUS
 62
     7
 10
-175.40203452668419
 20
258.28289203144089
 30
0.0
 40
6.5678386326609761
 50
69.382386494628975
 51
90.854651983551122
  0
ARC
  5
39
  8
0
  6
CONTINUOUS
 62
     7
 10
-172.7449106575317
 20
263.0138520286057
 30
0.0
 40
1.045002469336737
 50
316.3119392824583
 51
359.24049364081969
  0
ARC
  5
3A
  8
0
  6
CONTINUOUS
 62
     7
 10
-174.08758561108101
 20
264.289654411463
 30
0.0
 40
2.8971469443589899
 50
290.15576339791232
 51
316.40847600464059
  0
ARC
  5
3B
  8
0
  6
CONTINUOUS
 62
     7
 10
-175.40203452668419
 20
267.71710796855899
 30
0.0
 40
6.5678386326609779
 50
269.14534801644891
 51
290.61761350537108
  0
ENDBLK
  5
3C
  8
DATA
  0
BLOCK
  8
DATA
  2
____-1
 70
     0
 10
0.0
 20
0.0
 30
0.0
  3
____-1
  1

  0
ARC
  5
3E
  8
0
  6
CONTINUOUS
 62
     7
 10
-165.25508934246821
 20
262.9861479713943
 30
0.0
 40
1.045002469336737
 50
136.31193928245841
 51
179.24049364081969
  0
ARC
  5
3F
  8
0
  6
CONTINUOUS
 62
     7
 10
-163.9124143889189
 20
261.710345588537
 30
0.0
 40
2.8971469443589899
 50
110.1557633979123
 51
136.40847600464051
  0
ARC
  5
40
  8
0
  6
CONTINUOUS
 62
     7
 10
-162.5979654733157
 20
258.28289203144089
 30
0.0
 40
6.5678386326609779
 50
89.145348016448835
 51
110.617613505371
  0
ARC
  5
41
  8
0
  6
CONTINUOUS
 62
     7
 10
-165.25508934246821
 20
263.0138520286057
 30
0.0
 40
1.0450024693366979
 50
180.75950635918031
 51
223.68806071754159
  0
ARC
  5
42
  8
0
  6
CONTINUOUS
 62
     7
 10
-163.9124143889189
 20
264.289654411463
 30
0.0
 40
2.897146944359013
 50
223.59152399535949
 51
249.8442366020877
  0
ARC
  5
43
  8
0
  6
CONTINUOUS
 62
     7
 10
-162.5979654733157
 20
267.71710796855899
 30
0.0
 40
6.5678386326609761
 50
249.382386494629
 51
270.85465198355121
  0
ARC
  5
44
  8
0
  6
CONTINUOUS
 62
     7
 10
-159.7449106575317
 20
262.9861479713943
 30
0.0
 40
1.0450024693366979
 50
0.7595063591803034
 51
43.688060717541582
  0
ARC
  5
45
  8
0
  6
CONTINUOUS
 62
     7
 10
-161.08758561108101
 20
261.710345588537
 30
0.0
 40
2.897146944359013
 50
43.591523995359459
 51
69.844236602087705
  0
ARC
  5
46
  8
0
  6
CONTINUOUS
 62
     7
 10
-162.40203452668419
 20
258.28289203144089
 30
0.0
 40
6.5678386326609761
 50
69.382386494628975
 51
90.854651983551122
  0
ARC
  5
47
  8
0
  6
CONTINUOUS
 62
     7
 10
-159.7449106575317
 20
263.0138520286057
 30
0.0
 40
1.045002469336737
 50
316.3119392824583
 51
359.24049364081969
  0
ARC
  5
48
  8
0
  6
CONTINUOUS
 62
     7
 10
-161.08758561108101
 20
264.289654411463
 30
0.0
 40
2.8971469443589899
 50
290.15576339791232
 51
316.40847600464059
  0
ARC
  5
49
  8
0
  6
CONTINUOUS
 62
     7
 10
-162.40203452668419
 20
267.71710796855899
 30
0.0
 40
6.5678386326609779
 50
269.14534801644891
 51
290.61761350537108
  0
ENDBLK
  5
4A
  8
DATA
  0
BLOCK
  8
DATA
  2
____-2
 70
     0
 10
0.0
 20
0.0
 30
0.0
  3
____-2
  1

  0
ARC
  5
4C
  8
0
  6
CONTINUOUS
 62
     7
 10
-152.25508934246821
 20
262.9861479713943
 30
0.0
 40
1.045002469336737
 50
136.31193928245841
 51
179.24049364081969
  0
ARC
  5
4D
  8
0
  6
CONTINUOUS
 62
     7
 10
-150.9124143889189
 20
261.710345588537
 30
0.0
 40
2.8971469443589899
 50
110.1557633979123
 51
136.40847600464051
  0
ARC
  5
4E
  8
0
  6
CONTINUOUS
 62
     7
 10
-149.59796547331581
 20
258.28289203144089
 30
0.0
 40
6.5678386326609779
 50
89.145348016448835
 51
110.617613505371
  0
ARC
  5
4F
  8
0
  6
CONTINUOUS
 62
     7
 10
-152.25508934246821
 20
263.0138520286057
 30
0.0
 40
1.0450024693366979
 50
180.75950635918031
 51
223.68806071754159
  0
ARC
  5
50
  8
0
  6
CONTINUOUS
 62
     7
 10
-150.9124143889189
 20
264.289654411463
 30
0.0
 40
2.897146944359013
 50
223.59152399535949
 51
249.8442366020877
  0
ARC
  5
51
  8
0
  6
CONTINUOUS
 62
     7
 10
-149.59796547331581
 20
267.71710796855899
 30
0.0
 40
6.5678386326609761
 50
249.382386494629
 51
270.85465198355121
  0
ARC
  5
52
  8
0
  6
CONTINUOUS
 62
     7
 10
-146.7449106575317
 20
262.9861479713943
 30
0.0
 40
1.0450024693366979
 50
0.7595063591803034
 51
43.688060717541582
  0
ARC
  5
53
  8
0
  6
CONTINUOUS
 62
     7
 10
-148.08758561108101
 20
261.710345588537
 30
0.0
 40
2.897146944359013
 50
43.591523995359459
 51
69.844236602087705
  0
ARC
  5
54
  8
0
  6
CONTINUOUS
 62
     7
 10
-149.40203452668419
 20
258.28289203144089
 30
0.0
 40
6.5678386326609761
 50
69.382386494628975
 51
90.854651983551122
  0
ARC
  5
55
  8
0
  6
CONTINUOUS
 62
     7
 10
-146.7449106575317
 20
263.0138520286057
 30
0.0
 40
1.045002469336737
 50
316.3119392824583
 51
359.24049364081969
  0
ARC
  5
56
  8
0
  6
CONTINUOUS
 62
     7
 10
-148.08758561108101
 20
264.289654411463
 30
0.0
 40
2.8971469443589899
 50
290.15576339791232
 51
316.40847600464059
  0
ARC
  5
57
  8
0
  6
CONTINUOUS
 62
     7
 10
-149.40203452668419
 20
267.71710796855899
 30
0.0
 40
6.5678386326609779
 50
269.14534801644891
 51
290.61761350537108
  0
ENDBLK
  5
58
  8
DATA
  0
ENDSEC
  0
SECTION
  2
ENTITIES
  0
LINE
  5
59
  8
HIBINO-BASE
  6
CONTINUOUS
 62
     7
 10
-269.99999999999989
 20
855.0
 30
0.0
 11
269.99999999999989
 21
855.0
 31
0.0
  0
LINE
  5
5A
  8
HIBINO-BASE
  6
CONTINUOUS
 62
     7
 10
269.99999999999989
 20
75.0
 30
0.0
 11
-269.99999999999989
 21
75.0
 31
0.0
  0
LINE
  5
5B
  8
HIBINO-BASE
  6
CONTINUOUS
 62
     7
 10
-269.99999999999989
 20
75.0
 30
0.0
 11
-269.99999999999989
 21
855.0
 31
0.0
  0
LINE
  5
5C
  8
HIBINO-BASE
  6
CONTINUOUS
 62
     7
 10
269.99999999999989
 20
855.0
 30
0.0
 11
269.99999999999989
 21
75.0
 31
0.0
  0
LINE
  5
5D
  8
HIBINO-BASE
  6
CONTINUOUS
 62
     7
 10
0.0000000000000213
 20
142.5
 30
0.0
 11
269.99999999999989
 21
142.5
 31
0.0
  0
LINE
  5
5E
  8
HIBINO-BASE
  6
CONTINUOUS
 62
     7
 10
0.0000000000000213
 20
75.0
 30
0.0
 11
0.0000000000000213
 21
142.5
 31
0.0
  0
TEXT
  5
5F
  8
HIBINO-BASE
 62
     7
 10
2.700000000000037
 20
134.97391999999999
 30
0.0
 40
4.8865234374999993
  1
NOTE
 41
0.7
 11
2.7000000000000379
 21
139.86044343750001
 31
0.0
 73
     3
  0
LINE
  5
60
  8
HIBINO-BASE
  6
CONTINUOUS
 62
     7
 10
105.0
 20
75.0
 30
0.0
 11
105.0
 21
142.5
 31
0.0
  0
TEXT
  5
61
  8
HIBINO-BASE
 62
     7
 10
107.7
 20
134.97391999999999
 30
0.0
 40
4.8865234374999993
  1
TITLE
 41
0.7
 11
107.7
 21
139.86044343750001
 31
0.0
 73
     3
  0
LINE
  5
62
  8
HIBINO-BASE
  6
CONTINUOUS
 62
     7
 10
0.0000000000000213
 20
105.0
 30
0.0
 11
269.99999999999989
 21
105.0
 31
0.0
  0
TEXT
  5
63
  8
HIBINO-BASE
 62
     7
 10
145.19999999999999
 20
97.642880000000005
 30
0.0
 40
4.8865234374999993
  1
DRAWN
 41
0.7
 11
145.19999999999999
 21
102.52940343749999
 31
0.0
 73
     3
  0
TEXT
  5
64
  8
HIBINO-BASE
 62
     7
 10
70.199999999999989
 20
97.642880000000005
 30
0.0
 40
4.8865234374999993
  1
DATE
 41
0.7
 11
70.199999999999989
 21
102.52940343749999
 31
0.0
 73
     3
  0
TEXT
  5
65
  8
HIBINO-BASE
 62
     7
 10
40.200000000000003
 20
97.642880000000005
 30
0.0
 40
4.8865234374999993
  1
SCALE
 41
0.7
 11
40.200000000000003
 21
102.52940343749999
 31
0.0
 73
     3
  0
TEXT
  5
66
  8
HIBINO-BASE
 62
     7
 10
107.7
 20
97.642880000000005
 30
0.0
 40
4.8865234374999993
  1
DESIGN
 41
0.7
 11
107.7
 21
102.52940343749999
 31
0.0
 73
     3
  0
TEXT
  5
67
  8
HIBINO-BASE
 62
     7
 10
220.19999999999999
 20
97.642880000000005
 30
0.0
 40
4.8865234374999993
  1
DRAWING NO.
 41
0.7
 11
220.19999999999999
 21
102.52940343749999
 31
0.0
 73
     3
  0
TEXT
  5
68
  8
HIBINO-BASE
 62
     7
 10
182.69999999999999
 20
97.642880000000005
 30
0.0
 40
4.8865234374999993
  1
CHECK
 41
0.7
 11
182.69999999999999
 21
102.52940343749999
 31
0.0
 73
     3
  0
LINE
  5
69
  8
HIBINO-BASE
  6
CONTINUOUS
 62
     7
 10
43.125000000000021
 20
78.75
 30
0.0
 11
54.375000000000071
 21
90.0
 31
0.0
  0
TEXT
  5
6A
  8
HIBINO-BASE
 62
     7
 10
41.250000000000007
 20
86.673169999999928
 30
0.0
 40
4.8865234374999993
  1
1
 41
0.7
 11
41.250000000000007
 21
91.559693437499917
 31
0.0
 73
     3
  0
LINE
  5
6B
  8
HIBINO-BASE
  6
CONTINUOUS
 62
     7
 10
37.500000000000021
 20
75.0
 30
0.0
 11
37.500000000000021
 21
105.0
 31
0.0
  0
LINE
  5
6C
  8
HIBINO-BASE
  6
CONTINUOUS
 62
     7
 10
67.499999999999972
 20
75.0
 30
0.0
 11
67.499999999999972
 21
105.0
 31
0.0
  0
LINE
  5
6D
  8
HIBINO-BASE
  6
CONTINUOUS
 62
     7
 10
142.49999999999989
 20
105.0
 30
0.0
 11
142.49999999999989
 21
75.0
 31
0.0
  0
LINE
  5
6E
  8
HIBINO-BASE
  6
CONTINUOUS
 62
     7
 10
217.50000000000011
 20
105.0
 30
0.0
 11
217.50000000000011
 21
75.0
 31
0.0
  0
LINE
  5
6F
  8
HIBINO-BASE
  6
CONTINUOUS
 62
     7
 10
179.99999999999989
 20
75.0
 30
0.0
 11
179.99999999999989
 21
105.0
 31
0.0
  0
TEXT
  5
70
  8
HIBINO-BASE
 62
     7
 10
70.069620000000043
 20
83.59094000000006
 30
0.0
 40
4.8865234374999993
  1
'14.04.
 41
0.7
 11
70.069620000000043
 21
88.477463437500063
 31
0.0
 73
     3
  0
TEXT
  5
71
  8
HIBINO-BASE
 62
     7
 10
52.500000000000021
 20
81.048169999999956
 30
0.0
 40
4.8865234374999993
  1
3
 41
0.7
 11
52.500000000000021
 21
85.934693437499945
 31
0.0
 73
     3
  0
TEXT
  5
72
  8
HIBINO-BASE
 62
     7
 10
147.01743003310381
 20
83.59094000000006
 30
0.0
 40
4.8865234374999993
  1
N.Sasaki
 41
0.7
 11
147.01743003310381
 21
88.477463437500063
 31
0.0
 73
     3
  0
TEXT
  5
73
  8
HIBINO-BASE
 62
     7
 10
11.65000000000008
 20
80.927999999999997
 30
0.0
 40
9.7730468749999986
  1
A4
 41
0.7
 11
11.65000000000008
 21
90.701046875000003
 31
0.0
 73
     3
  0
TEXT
  5
74
  8
HIBINO-BASE
 62
     7
 10
2.8750000000000062
 20
97.141635000000051
 30
0.0
 40
4.8865234374999993
  1
PAPER SIZE
 41
0.7
 11
2.8750000000000071
 21
102.0281584375
 31
0.0
 73
     3
  0
TEXT
  5
75
  8
HIBINO-BASE
 62
     7
 10
-248.44800000000001
 20
55.87345499999995
 30
0.0
 40
10.58746744791666
  1
Hibino-Intersound Corporation
 41
0.7
 11
-248.44800000000001
 21
66.460922447916616
 31
0.0
 73
     3
  0
TEXT
  5
76
  8
HIBINO-BASE
 62
     7
 10
42.073002501729398
 20
55.87345499999995
 30
0.0
 40
10.58746744791666
  1
ヒビノインターサウンド株式会社
 41
0.7
 11
42.073002501729398
 21
66.460922447916616
 31
0.0
 73
     3
  0
LINE
  5
77
  8
HIBINO-BASE
  6
CONTINUOUS
 62
     7
 10
-269.99999999999989
 20
-45.0
 30
0.0
 11
269.99999999999989
 21
-45.0
 31
0.0
  0
LINE
  5
78
  8
HIBINO-BASE
  6
CONTINUOUS
 62
     7
 10
269.99999999999989
 20
-825.0
 30
0.0
 11
-269.99999999999989
 21
-825.0
 31
0.0
  0
LINE
  5
79
  8
HIBINO-BASE
  6
CONTINUOUS
 62
     7
 10
-269.99999999999989
 20
-825.0
 30
0.0
 11
-269.99999999999989
 21
-45.0
 31
0.0
  0
LINE
  5
7A
  8
HIBINO-BASE
  6
CONTINUOUS
 62
     7
 10
269.99999999999989
 20
-45.0
 30
0.0
 11
269.99999999999989
 21
-825.0
 31
0.0
  0
LINE
  5
7B
  8
HIBINO-BASE
  6
CONTINUOUS
 62
     7
 10
0.0000000000000213
 20
-757.5
 30
0.0
 11
269.99999999999989
 21
-757.5
 31
0.0
  0
LINE
  5
7C
  8
HIBINO-BASE
  6
CONTINUOUS
 62
     7
 10
0.0000000000000213
 20
-825.0
 30
0.0
 11
0.0000000000000213
 21
-757.5
 31
0.0
  0
TEXT
  5
7D
  8
HIBINO-BASE
 62
     7
 10
2.700000000000037
 20
-765.02607999999975
 30
0.0
 40
4.8865234374999993
  1
NOTE
 41
0.7
 11
2.7000000000000379
 21
-760.13955656249982
 31
0.0
 73
     3
  0
LINE
  5
7E
  8
HIBINO-BASE
  6
CONTINUOUS
 62
     7
 10
105.0
 20
-825.0
 30
0.0
 11
105.0
 21
-757.5
 31
0.0
  0
TEXT
  5
7F
  8
HIBINO-BASE
 62
     7
 10
107.7
 20
-765.02607999999975
 30
0.0
 40
4.8865234374999993
  1
TITLE
 41
0.7
 11
107.7
 21
-760.13955656249982
 31
0.0
 73
     3
  0
LINE
  5
80
  8
HIBINO-BASE
  6
CONTINUOUS
 62
     7
 10
0.0000000000000213
 20
-795.0
 30
0.0
 11
269.99999999999989
 21
-795.0
 31
0.0
  0
TEXT
  5
81
  8
HIBINO-BASE
 62
     7
 10
145.19999999999999
 20
-802.3571199999999
 30
0.0
 40
4.8865234374999993
  1
DRAWN
 41
0.7
 11
145.19999999999999
 21
-797.47059656249985
 31
0.0
 73
     3
  0
TEXT
  5
82
  8
HIBINO-BASE
 62
     7
 10
70.199999999999989
 20
-802.3571199999999
 30
0.0
 40
4.8865234374999993
  1
DATE
 41
0.7
 11
70.199999999999989
 21
-797.47059656249985
 31
0.0
 73
     3
  0
TEXT
  5
83
  8
HIBINO-BASE
 62
     7
 10
40.200000000000003
 20
-802.3571199999999
 30
0.0
 40
4.8865234374999993
  1
SCALE
 41
0.7
 11
40.200000000000003
 21
-797.47059656249985
 31
0.0
 73
     3
  0
TEXT
  5
84
  8
HIBINO-BASE
 62
     7
 10
107.7
 20
-802.3571199999999
 30
0.0
 40
4.8865234374999993
  1
DESIGN
 41
0.7
 11
107.7
 21
-797.47059656249985
 31
0.0
 73
     3
  0
TEXT
  5
85
  8
HIBINO-BASE
 62
     7
 10
220.19999999999999
 20
-802.3571199999999
 30
0.0
 40
4.8865234374999993
  1
DRAWING NO.
 41
0.7
 11
220.19999999999999
 21
-797.47059656249985
 31
0.0
 73
     3
  0
TEXT
  5
86
  8
HIBINO-BASE
 62
     7
 10
182.69999999999999
 20
-802.3571199999999
 30
0.0
 40
4.8865234374999993
  1
CHECK
 41
0.7
 11
182.69999999999999
 21
-797.47059656249985
 31
0.0
 73
     3
  0
TEXT
  5
87
  8
HIBINO-BASE
 62
     7
 10
48.954688241264783
 20
-817.54799999999977
 30
0.0
 40
6.5153645833333318
  1
NS
 41
0.7
 11
48.954688241264783
 21
-811.03263541666661
 31
0.0
 73
     3
  0
LINE
  5
88
  8
HIBINO-BASE
  6
CONTINUOUS
 62
     7
 10
37.500000000000021
 20
-825.0
 30
0.0
 11
37.500000000000021
 21
-795.0
 31
0.0
  0
LINE
  5
89
  8
HIBINO-BASE
  6
CONTINUOUS
 62
     7
 10
67.499999999999972
 20
-825.0
 30
0.0
 11
67.499999999999972
 21
-795.0
 31
0.0
  0
LINE
  5
8A
  8
HIBINO-BASE
  6
CONTINUOUS
 62
     7
 10
142.49999999999989
 20
-795.0
 30
0.0
 11
142.49999999999989
 21
-825.0
 31
0.0
  0
LINE
  5
8B
  8
HIBINO-BASE
  6
CONTINUOUS
 62
     7
 10
217.50000000000011
 20
-795.0
 30
0.0
 11
217.50000000000011
 21
-825.0
 31
0.0
  0
LINE
  5
8C
  8
HIBINO-BASE
  6
CONTINUOUS
 62
     7
 10
179.99999999999989
 20
-825.0
 30
0.0
 11
179.99999999999989
 21
-795.0
 31
0.0
  0
TEXT
  5
8D
  8
HIBINO-BASE
 62
     7
 10
70.069620000000043
 20
-816.40905999999973
 30
0.0
 40
4.8865234374999993
  1
'14.04.
 41
0.7
 11
70.069620000000043
 21
-811.52253656249968
 31
0.0
 73
     3
  0
TEXT
  5
8E
  8
HIBINO-BASE
 62
     7
 10
147.01743003310381
 20
-816.40905999999973
 30
0.0
 40
4.8865234374999993
  1
N.Sasaki
 41
0.7
 11
147.01743003310381
 21
-811.52253656249968
 31
0.0
 73
     3
  0
TEXT
  5
8F
  8
HIBINO-BASE
 62
     7
 10
11.65000000000008
 20
-819.072
 30
0.0
 40
9.7730468749999986
  1
A4
 41
0.7
 11
11.65000000000008
 21
-809.29895312499991
 31
0.0
 73
     3
  0
TEXT
  5
90
  8
HIBINO-BASE
 62
     7
 10
2.8750000000000062
 20
-802.85836499999994
 30
0.0
 40
4.8865234374999993
  1
PAPER SIZE
 41
0.7
 11
2.8750000000000071
 21
-797.9718415625
 31
0.0
 73
     3
  0
TEXT
  5
91
  8
HIBINO-BASE
 62
     7
 10
-248.44800000000001
 20
-844.12654500000008
 30
0.0
 40
10.58746744791666
  1
Hibino-Intersound Corporation
 41
0.7
 11
-248.44800000000001
 21
-833.53907755208331
 31
0.0
 73
     3
  0
TEXT
  5
92
  8
HIBINO-BASE
 62
     7
 10
42.073002501729398
 20
-844.12654500000008
 30
0.0
 40
10.58746744791666
  1
ヒビノインターサウンド株式会社
 41
0.7
 11
42.073002501729398
 21
-833.53907755208331
 31
0.0
 73
     3
  0
LINE
  5
93
  8
SPEC
  6
CONTINUOUS
 62
     7
 10
-247.49999999999989
 20
825.0
 30
0.0
 11
195.00000000000011
 21
825.0
 31
0.0
  0
LINE
  5
94
  8
SPEC
  6
CONTINUOUS
 62
     7
 10
-247.49999999999989
 20
813.74999999999989
 30
0.0
 11
195.00000000000011
 21
813.74999999999989
 31
0.0
  0
LINE
  5
95
  8
SPEC
  6
CONTINUOUS
 62
     7
 10
-247.49999999999989
 20
825.0
 30
0.0
 11
-247.49999999999989
 21
802.5
 31
0.0
  0
TEXT
  5
96
  8
SPEC
 62
     7
 10
-243.74999999999989
 20
829.17980999999986
 30
0.0
 40
7.3297851562499989
  1
仕様
 41
0.7
 11
-243.74999999999989
 21
836.50959515624982
 31
0.0
 73
     3
  0
LINE
  5
97
  8
SPEC
  6
CONTINUOUS
 62
     7
 10
-149.99999999999989
 20
825.0
 30
0.0
 11
-149.99999999999989
 21
802.5
 31
0.0
  0
LINE
  5
98
  8
SPEC
  6
CONTINUOUS
 62
     7
 10
195.00000000000011
 20
825.0
 30
0.0
 11
195.00000000000011
 21
802.5
 31
0.0
  0
TEXT
  5
99
  8
SPEC
 62
     7
 10
-244.80000000000001
 20
816.11375333333308
 30
0.0
 40
5.7009440104166673
  1
寸法(W\U+00D7H\U+00D7D)
 41
0.7
 11
-244.80000000000001
 21
821.8146973437498
 31
0.0
 73
     3
  0
TEXT
  5
9A
  8
SPEC
 62
     7
 10
-244.80000000000001
 20
804.86375333333297
 30
0.0
 40
5.7009440104166673
  1
質量
 41
0.7
 11
-244.80000000000001
 21
810.56469734374969
 31
0.0
 73
     3
  0
LINE
  5
9B
  8
SPEC
  6
CONTINUOUS
 62
     7
 10
-247.49999999999989
 20
802.5
 30
0.0
 11
195.00000000000011
 21
802.5
 31
0.0
  0
TEXT
  5
9C
  8
SPEC
 62
     7
 10
-147.2999999999999
 20
816.11375333333308
 30
0.0
 40
5.7009440104166647
  1
198\U+00D744.0\U+00D7159mm(除突起部)
 41
0.7
 11
-147.2999999999999
 21
821.8146973437498
 31
0.0
 73
     3
  0
TEXT
  5
9D
  8
SPEC
 62
     7
 10
-147.2999999999999
 20
804.86375333333297
 30
0.0
 40
5.7009440104166647
  1
700g
 41
0.7
 11
-147.2999999999999
 21
810.56469734374969
 31
0.0
 73
     3
  0
LINE
  5
9E
  8
SPEC
  6
CONTINUOUS
 62
     7
 10
-247.49999999999989
 20
-75.0
 30
0.0
 11
195.00000000000011
 21
-75.0
 31
0.0
  0
LINE
  5
9F
  8
SPEC
  6
CONTINUOUS
 62
     7
 10
-247.49999999999989
 20
-86.249999999999957
 30
0.0
 11
195.00000000000011
 21
-86.249999999999957
 31
0.0
  0
LINE
  5
A0
  8
SPEC
  6
CONTINUOUS
 62
     7
 10
-247.49999999999989
 20
-333.75
 30
0.0
 11
195.00000000000011
 21
-333.75
 31
0.0
  0
LINE
  5
A1
  8
SPEC
  6
CONTINUOUS
 62
     7
 10
-149.9999999999998
 20
-322.5
 30
0.0
 11
195.00000000000011
 21
-322.5
 31
0.0
  0
LINE
  5
A2
  8
SPEC
  6
CONTINUOUS
 62
     7
 10
-247.49999999999989
 20
-311.25
 30
0.0
 11
195.00000000000011
 21
-311.25
 31
0.0
  0
LINE
  5
A3
  8
SPEC
  6
CONTINUOUS
 62
     7
 10
-247.49999999999989
 20
-75.0
 30
0.0
 11
-247.49999999999989
 21
-637.5
 31
0.0
  0
TEXT
  5
A4
  8
SPEC
 62
     7
 10
-243.74999999999989
 20
-70.820190000000011
 30
0.0
 40
7.3297851562499989
  1
仕様
 41
0.7
 11
-243.74999999999989
 21
-63.490404843750007
 31
0.0
 73
     3
  0
LINE
  5
A5
  8
SPEC
  6
CONTINUOUS
 62
     7
 10
-149.9999999999998
 20
-86.249999999999957
 30
0.0
 11
-149.9999999999998
 21
-266.25
 31
0.0
  0
LINE
  5
A6
  8
SPEC
  6
CONTINUOUS
 62
     7
 10
-149.9999999999998
 20
-277.5
 30
0.0
 11
-149.9999999999998
 21
-423.74999999999989
 31
0.0
  0
LINE
  5
A7
  8
SPEC
  6
CONTINUOUS
 62
     7
 10
-149.9999999999998
 20
-435.0
 30
0.0
 11
-149.9999999999998
 21
-525.0
 31
0.0
  0
LINE
  5
A8
  8
SPEC
  6
CONTINUOUS
 62
     7
 10
-149.9999999999998
 20
-536.24999999999989
 30
0.0
 11
-149.9999999999998
 21
-581.25
 31
0.0
  0
LINE
  5
A9
  8
SPEC
  6
CONTINUOUS
 62
     7
 10
-149.9999999999998
 20
-592.49999999999989
 30
0.0
 11
-149.9999999999998
 21
-615.0
 31
0.0
  0
LINE
  5
AA
  8
SPEC
  6
CONTINUOUS
 62
     7
 10
-149.9999999999998
 20
-592.49999999999989
 30
0.0
 11
-149.9999999999998
 21
-637.5
 31
0.0
  0
LINE
  5
AB
  8
SPEC
  6
CONTINUOUS
 62
     7
 10
195.00000000000011
 20
-75.0
 30
0.0
 11
195.00000000000011
 21
-637.5
 31
0.0
  0
TEXT
  5
AC
  8
SPEC
 62
     7
 10
-244.7999999999999
 20
-275.13624666666669
 30
0.0
 40
5.7009440104166673
  1
出力
 41
0.7
 11
-244.7999999999999
 21
-269.43530265624997
 31
0.0
 73
     3
  0
TEXT
  5
AD
  8
SPEC
 62
     7
 10
-244.7999999999999
 20
-325.76124666666669
 30
0.0
 40
5.7009440104166673
  1
AES3id 
 41
0.7
 11
-244.7999999999999
 21
-320.06030265625009
 31
0.0
 73
     3
  0
TEXT
  5
AE
  8
SPEC
 62
     7
 10
-244.7999999999999
 20
-83.886246666666679
 30
0.0
 40
5.7009440104166673
  1
入力
 41
0.7
 11
-244.7999999999999
 21
-78.185302656250016
 31
0.0
 73
     3
  0
TEXT
  5
AF
  8
SPEC
 62
     7
 10
-147.2999999999999
 20
-320.13624666666681
 30
0.0
 40
5.7009440104166673
  1
インターフェース
 41
0.7
 11
-147.2999999999999
 21
-314.43530265625009
 31
0.0
 73
     3
  0
LINE
  5
B0
  8
SPEC
  6
CONTINUOUS
 62
     7
 10
-149.9999999999998
 20
-97.499999999999957
 30
0.0
 11
195.00000000000011
 21
-97.499999999999957
 31
0.0
  0
TEXT
  5
B1
  8
SPEC
 62
     7
 10
-147.2999999999999
 20
-95.136246666666693
 30
0.0
 40
5.7009440104166673
  1
インターフェース
 41
0.7
 11
-147.2999999999999
 21
-89.435302656250045
 31
0.0
 73
     3
  0
LINE
  5
B2
  8
SPEC
  6
CONTINUOUS
 62
     7
 10
-247.49999999999989
 20
-108.7499999999999
 30
0.0
 11
195.00000000000011
 21
-108.7499999999999
 31
0.0
  0
TEXT
  5
B3
  8
SPEC
 62
     7
 10
-244.7999999999999
 20
-100.76124666666669
 30
0.0
 40
5.7009440104166673
  1
AES3
 41
0.7
 11
-244.7999999999999
 21
-95.060302656250045
 31
0.0
 73
     3
  0
TEXT
  5
B4
  8
SPEC
 62
     7
 10
-147.2999999999999
 20
-106.38624666666669
 30
0.0
 40
5.7009440104166673
  1
フォーマット 
 41
0.7
 11
-147.2999999999999
 21
-100.68530265625
 31
0.0
 73
     3
  0
LINE
  5
B5
  8
SPEC
  6
CONTINUOUS
 62
     7
 10
-247.49999999999989
 20
-131.25
 30
0.0
 11
195.00000000000011
 21
-131.25
 31
0.0
  0
LINE
  5
B6
  8
SPEC
  6
CONTINUOUS
 62
     7
 10
-149.9999999999998
 20
-142.5
 30
0.0
 11
195.00000000000011
 21
-142.5
 31
0.0
  0
TEXT
  5
B7
  8
SPEC
 62
     7
 10
-55.408333333333189
 20
-95.136246666666693
 30
0.0
 40
5.7009440104166673
  1
XLR\U+00D71、トランスバランス型、入力インピーダンス110\U+03A9、200mV ～ 7V
 41
0.7
 11
-55.408333333333189
 21
-89.435302656250045
 31
0.0
 73
     3
  0
LINE
  5
B8
  8
SPEC
  6
CONTINUOUS
 62
     7
 10
-247.49999999999989
 20
-153.74999999999989
 30
0.0
 11
195.00000000000011
 21
-153.74999999999989
 31
0.0
  0
TEXT
  5
B9
  8
SPEC
 62
     7
 10
-147.2999999999999
 20
-128.88624666666669
 30
0.0
 40
5.7009440104166673
  1
フォーマット 
 41
0.7
 11
-147.2999999999999
 21
-123.18530265625
 31
0.0
 73
     3
  0
TEXT
  5
BA
  8
SPEC
 62
     7
 10
-244.7999999999999
 20
-123.26124666666669
 30
0.0
 40
5.7009440104166673
  1
AES3id 
 41
0.7
 11
-244.7999999999999
 21
-117.56030265625
 31
0.0
 73
     3
  0
TEXT
  5
BB
  8
SPEC
 62
     7
 10
-147.2999999999999
 20
-140.13624666666669
 30
0.0
 40
5.7009440104166673
  1
インターフェース 
 41
0.7
 11
-147.2999999999999
 21
-134.43530265625
 31
0.0
 73
     3
  0
LINE
  5
BC
  8
SPEC
  6
CONTINUOUS
 62
     7
 10
-149.9999999999998
 20
-176.25
 30
0.0
 11
195.00000000000011
 21
-176.25
 31
0.0
  0
TEXT
  5
BD
  8
SPEC
 62
     7
 10
-147.2999999999999
 20
-151.38624666666669
 30
0.0
 40
5.7009440104166673
  1
フォーマット
 41
0.7
 11
-147.2999999999999
 21
-145.68530265625
 31
0.0
 73
     3
  0
LINE
  5
BE
  8
SPEC
  6
CONTINUOUS
 62
     7
 10
-247.49999999999989
 20
-187.5
 30
0.0
 11
195.00000000000011
 21
-187.5
 31
0.0
  0
TEXT
  5
BF
  8
SPEC
 62
     7
 10
-147.2999999999999
 20
-196.38624666666669
 30
0.0
 40
5.7009440104166673
  1
インターフェース
 41
0.7
 11
-147.2999999999999
 21
-190.68530265625
 31
0.0
 73
     3
  0
LINE
  5
C0
  8
SPEC
  6
CONTINUOUS
 62
     7
 10
-247.49999999999989
 20
-210.0
 30
0.0
 11
195.00000000000011
 21
-210.0
 31
0.0
  0
LINE
  5
C1
  8
SPEC
  6
CONTINUOUS
 62
     7
 10
-247.49999999999989
 20
-221.25
 30
0.0
 11
195.00000000000011
 21
-221.25
 31
0.0
  0
TEXT
  5
C2
  8
SPEC
 62
     7
 10
-244.7999999999999
 20
-202.01124666666669
 30
0.0
 40
5.7009440104166673
  1
AES11 リファレンス 
 41
0.7
 11
-244.7999999999999
 21
-196.31030265625
 31
0.0
 73
     3
  0
TEXT
  5
C3
  8
SPEC
 62
     7
 10
-147.2999999999999
 20
-207.63624666666669
 30
0.0
 40
5.7009440104166673
  1
フォーマット 
 41
0.7
 11
-147.2999999999999
 21
-201.93530265625
 31
0.0
 73
     3
  0
LINE
  5
C4
  8
SPEC
  6
CONTINUOUS
 62
     7
 10
-247.49999999999989
 20
-232.5
 30
0.0
 11
195.00000000000011
 21
-232.5
 31
0.0
  0
TEXT
  5
C5
  8
SPEC
 62
     7
 10
-147.2999999999999
 20
-230.13624666666669
 30
0.0
 40
5.7009440104166673
  1
25.0kHz ～ 200.0kHz
 41
0.7
 11
-147.2999999999999
 21
-224.43530265625
 31
0.0
 73
     3
  0
TEXT
  5
C6
  8
SPEC
 62
     7
 10
-147.2999999999999
 20
-247.01124666666669
 30
0.0
 40
5.7009440104166673
  1
インターフェース 
 41
0.7
 11
-147.2999999999999
 21
-241.31030265625
 31
0.0
 73
     3
  0
LINE
  5
C7
  8
SPEC
  6
CONTINUOUS
 62
     7
 10
-149.9999999999998
 20
-255.0
 30
0.0
 11
195.00000000000011
 21
-255.0
 31
0.0
  0
LINE
  5
C8
  8
SPEC
  6
CONTINUOUS
 62
     7
 10
-247.49999999999989
 20
-266.25
 30
0.0
 11
195.00000000000011
 21
-266.25
 31
0.0
  0
TEXT
  5
C9
  8
SPEC
 62
     7
 10
-147.2999999999999
 20
-263.88624666666669
 30
0.0
 40
5.7009440104166673
  1
ロック範囲 
 41
0.7
 11
-147.2999999999999
 21
-258.18530265624997
 31
0.0
 73
     3
  0
LINE
  5
CA
  8
SPEC
  6
CONTINUOUS
 62
     7
 10
-247.49999999999989
 20
-277.5
 30
0.0
 11
195.00000000000011
 21
-277.5
 31
0.0
  0
TEXT
  5
CB
  8
SPEC
 62
     7
 10
-244.7999999999999
 20
-218.88624666666669
 30
0.0
 40
5.7009440104166673
  1
分解能 
 41
0.7
 11
-244.7999999999999
 21
-213.18530265625
 31
0.0
 73
     3
  0
TEXT
  5
CC
  8
SPEC
 62
     7
 10
-147.2999999999999
 20
-292.01124666666669
 30
0.0
 40
5.7009440104166673
  1
インターフェース 
 41
0.7
 11
-147.2999999999999
 21
-286.31030265625009
 31
0.0
 73
     3
  0
LINE
  5
CD
  8
SPEC
  6
CONTINUOUS
 62
     7
 10
-149.9999999999998
 20
-300.0
 30
0.0
 11
195.00000000000011
 21
-300.0
 31
0.0
  0
TEXT
  5
CE
  8
SPEC
 62
     7
 10
-147.2999999999999
 20
-308.88624666666681
 30
0.0
 40
5.7009440104166673
  1
フォーマット 
 41
0.7
 11
-147.2999999999999
 21
-303.18530265625009
 31
0.0
 73
     3
  0
TEXT
  5
CF
  8
SPEC
 62
     7
 10
-147.2999999999999
 20
-331.38624666666669
 30
0.0
 40
5.7009440104166673
  1
フォーマット 
 41
0.7
 11
-147.2999999999999
 21
-325.68530265625009
 31
0.0
 73
     3
  0
LINE
  5
D0
  8
SPEC
  6
CONTINUOUS
 62
     7
 10
-59.999999999999893
 20
-86.249999999999957
 30
0.0
 11
-59.999999999999893
 21
-210.0
 31
0.0
  0
LINE
  5
D1
  8
SPEC
  6
CONTINUOUS
 62
     7
 10
-59.999999999999893
 20
-232.5
 30
0.0
 11
-59.999999999999893
 21
-266.25
 31
0.0
  0
LINE
  5
D2
  8
SPEC
  6
CONTINUOUS
 62
     7
 10
-59.999999999999893
 20
-277.5
 30
0.0
 11
-59.999999999999893
 21
-378.75
 31
0.0
  0
LINE
  5
D3
  8
SPEC
  6
CONTINUOUS
 62
     7
 10
-59.999999999999893
 20
-401.25
 30
0.0
 11
-59.999999999999893
 21
-423.74999999999989
 31
0.0
  0
TEXT
  5
D4
  8
SPEC
 62
     7
 10
-57.299999999999962
 20
-106.38624666666669
 30
0.0
 40
5.7009440104166673
  1
AES3-1992/2003、AES11-1997/2003、IEC60958
 41
0.7
 11
-57.299999999999962
 21
-100.68530265625
 31
0.0
 73
     3
  0
TEXT
  5
D5
  8
SPEC
 62
     7
 10
-147.2999999999999
 20
-117.63624666666669
 30
0.0
 40
5.7009440104166673
  1
インターフェース
 41
0.7
 11
-147.2999999999999
 21
-111.93530265625
 31
0.0
 73
     3
  0
TEXT
  5
D6
  8
SPEC
 62
     7
 10
-57.299999999999962
 20
-128.88624666666669
 30
0.0
 40
5.7009440104166673
  1
AES3id-1995/2001
 41
0.7
 11
-57.299999999999962
 21
-123.18530265625
 31
0.0
 73
     3
  0
TEXT
  5
D7
  8
SPEC
 62
     7
 10
-57.299999999999962
 20
-140.13624666666669
 30
0.0
 40
5.7009440104166673
  1
Toslink\U+00D71、EIAJ RC-5720
 41
0.7
 11
-57.299999999999962
 21
-134.43530265625
 31
0.0
 73
     3
  0
TEXT
  5
D8
  8
SPEC
 62
     7
 10
-57.299999999999962
 20
-151.38624666666669
 30
0.0
 40
5.7009440104166673
  1
IEC60958
 41
0.7
 11
-57.299999999999962
 21
-145.68530265625
 31
0.0
 73
     3
  0
TEXT
  5
D9
  8
SPEC
 62
     7
 10
-57.299999999999962
 20
-185.13624666666669
 30
0.0
 40
5.7009440104166673
  1
IEC60958
 41
0.7
 11
-57.299999999999962
 21
-179.43530265625
 31
0.0
 73
     3
  0
TEXT
  5
DA
  8
SPEC
 62
     7
 10
-57.299999999999962
 20
-117.63624666666669
 30
0.0
 40
5.7009440104166673
  1
BNC\U+00D71、200mV ～ 7V、アンバランス型 、入力インピーダンス75\U+03A9
 41
0.7
 11
-57.299999999999962
 21
-111.93530265625
 31
0.0
 73
     3
  0
TEXT
  5
DB
  8
SPEC
 62
     7
 10
-57.299999999999962
 20
-196.38624666666669
 30
0.0
 40
5.7009440104166673
  1
XLR\U+00D71、トランスバランス型、入力インピーダンス110\U+03A9、200mV ～ 7V
 41
0.7
 11
-57.299999999999962
 21
-190.68530265625
 31
0.0
 73
     3
  0
TEXT
  5
DC
  8
SPEC
 62
     7
 10
-57.299999999999962
 20
-207.63624666666669
 30
0.0
 40
5.7009440104166673
  1
AES11-1997/2003、AES3-1992/2003
 41
0.7
 11
-57.299999999999962
 21
-201.93530265625
 31
0.0
 73
     3
  0
TEXT
  5
DD
  8
SPEC
 62
     7
 10
-57.299999999999962
 20
-263.88624666666669
 30
0.0
 40
5.7009440104166673
  1
25.0kHz ～ 200.0kHz、11.2896MHz+12.288MHz(Super Clock)
 41
0.7
 11
-57.299999999999962
 21
-258.18530265624997
 31
0.0
 73
     3
  0
TEXT
  5
DE
  8
SPEC
 62
     7
 10
-57.299999999999962
 20
-286.38624666666669
 30
0.0
 40
5.7009440104166673
  1
XLR\U+00D71、トランスバランス型、3.5Vpp＠110\U+03A9、出力インピーダンス110\U+03A9
 41
0.7
 11
-57.299999999999962
 21
-280.68530265624997
 31
0.0
 73
     3
  0
TEXT
  5
DF
  8
SPEC
 62
     7
 10
-57.299999999999962
 20
-297.63624666666669
 30
0.0
 40
5.7009440104166673
  1
バッファ出力
 41
0.7
 11
-57.299999999999962
 21
-291.93530265625009
 31
0.0
 73
     3
  0
LINE
  5
E0
  8
SPEC
  6
CONTINUOUS
 62
     7
 10
-149.9999999999998
 20
-345.0
 30
0.0
 11
195.00000000000011
 21
-345.0
 31
0.0
  0
LINE
  5
E1
  8
SPEC
  6
CONTINUOUS
 62
     7
 10
-247.49999999999989
 20
-356.25
 30
0.0
 11
195.00000000000011
 21
-356.25
 31
0.0
  0
LINE
  5
E2
  8
SPEC
  6
CONTINUOUS
 62
     7
 10
-149.9999999999998
 20
-367.5
 30
0.0
 11
195.00000000000011
 21
-367.5
 31
0.0
  0
LINE
  5
E3
  8
SPEC
  6
CONTINUOUS
 62
     7
 10
-247.49999999999989
 20
-378.75
 30
0.0
 11
195.00000000000011
 21
-378.75
 31
0.0
  0
LINE
  5
E4
  8
SPEC
  6
CONTINUOUS
 62
     7
 10
-247.49999999999989
 20
-390.0
 30
0.0
 11
195.00000000000011
 21
-390.0
 31
0.0
  0
LINE
  5
E5
  8
SPEC
  6
CONTINUOUS
 62
     7
 10
-247.49999999999989
 20
-401.25
 30
0.0
 11
195.00000000000011
 21
-401.25
 31
0.0
  0
LINE
  5
E6
  8
SPEC
  6
CONTINUOUS
 62
     7
 10
-149.9999999999998
 20
-412.5
 30
0.0
 11
195.00000000000011
 21
-412.5
 31
0.0
  0
LINE
  5
E7
  8
SPEC
  6
CONTINUOUS
 62
     7
 10
-247.49999999999989
 20
-423.74999999999989
 30
0.0
 11
195.00000000000011
 21
-423.74999999999989
 31
0.0
  0
LINE
  5
E8
  8
SPEC
  6
CONTINUOUS
 62
     7
 10
-247.49999999999989
 20
-435.0
 30
0.0
 11
195.00000000000011
 21
-435.0
 31
0.0
  0
LINE
  5
E9
  8
SPEC
  6
CONTINUOUS
 62
     7
 10
-247.49999999999989
 20
-457.5
 30
0.0
 11
195.00000000000011
 21
-457.5
 31
0.0
  0
LINE
  5
EA
  8
SPEC
  6
CONTINUOUS
 62
     7
 10
-247.49999999999989
 20
-468.75
 30
0.0
 11
195.00000000000011
 21
-468.75
 31
0.0
  0
LINE
  5
EB
  8
SPEC
  6
CONTINUOUS
 62
     7
 10
-247.49999999999989
 20
-480.0
 30
0.0
 11
195.00000000000011
 21
-480.0
 31
0.0
  0
LINE
  5
EC
  8
SPEC
  6
CONTINUOUS
 62
     7
 10
-247.49999999999989
 20
-491.25
 30
0.0
 11
195.00000000000011
 21
-491.25
 31
0.0
  0
LINE
  5
ED
  8
SPEC
  6
CONTINUOUS
 62
     7
 10
-247.49999999999989
 20
-502.5
 30
0.0
 11
195.00000000000011
 21
-502.5
 31
0.0
  0
LINE
  5
EE
  8
SPEC
  6
CONTINUOUS
 62
     7
 10
-247.49999999999989
 20
-525.0
 30
0.0
 11
195.00000000000011
 21
-525.0
 31
0.0
  0
LINE
  5
EF
  8
SPEC
  6
CONTINUOUS
 62
     7
 10
-247.49999999999989
 20
-547.5
 30
0.0
 11
195.00000000000011
 21
-547.5
 31
0.0
  0
LINE
  5
F0
  8
SPEC
  6
CONTINUOUS
 62
     7
 10
-247.49999999999989
 20
-558.75
 30
0.0
 11
195.00000000000011
 21
-558.75
 31
0.0
  0
TEXT
  5
F1
  8
SPEC
 62
     7
 10
-244.7999999999999
 20
-348.26124666666681
 30
0.0
 40
5.7009440104166673
  1
S/PDIF オプティカル 
 41
0.7
 11
-244.7999999999999
 21
-342.56030265625009
 31
0.0
 73
     3
  0
TEXT
  5
F2
  8
SPEC
 62
     7
 10
-244.7999999999999
 20
-370.76124666666658
 30
0.0
 40
5.7009440104166673
  1
S/PDIFコアキシャル
 41
0.7
 11
-244.7999999999999
 21
-365.06030265624997
 31
0.0
 73
     3
  0
TEXT
  5
F3
  8
SPEC
 62
     7
 10
-244.7999999999999
 20
-466.37124666666671
 30
0.0
 40
5.7009440104166673
  1
サンプリングレート変換 
 41
0.7
 11
-244.7999999999999
 21
-460.6703026562501
 31
0.0
 73
     3
  0
TEXT
  5
F4
  8
SPEC
 62
     7
 10
-244.7999999999999
 20
-432.63624666666658
 30
0.0
 40
5.7009440104166673
  1
信号処理
 41
0.7
 11
-244.7999999999999
 21
-426.93530265624992
 31
0.0
 73
     3
  0
TEXT
  5
F5
  8
SPEC
 62
     7
 10
-244.7999999999999
 20
-511.38624666666658
 30
0.0
 40
5.7009440104166673
  1
入力/ 出力サンプリング
 41
0.7
 11
-244.7999999999999
 21
-505.68530265624997
 31
0.0
 73
     3
  0
TEXT
  5
F6
  8
SPEC
 62
     7
 10
-244.7999999999999
 20
-522.63624666666669
 30
0.0
 40
5.7009440104166673
  1
レシオ 
 41
0.7
 11
-244.7999999999999
 21
-516.93530265624986
 31
0.0
 73
     3
  0
TEXT
  5
F7
  8
SPEC
 62
     7
 10
-244.7999999999999
 20
-533.87124666666671
 30
0.0
 40
5.7009440104166673
  1
内部リファレンスクロック
 41
0.7
 11
-244.7999999999999
 21
-528.17030265624999
 31
0.0
 73
     3
  0
TEXT
  5
F8
  8
SPEC
 62
     7
 10
-244.7999999999999
 20
-556.38624666666669
 30
0.0
 40
5.7009440104166673
  1
クロック精度（出荷時) 
 41
0.7
 11
-244.7999999999999
 21
-550.68530265624997
 31
0.0
 73
     3
  0
TEXT
  5
F9
  8
SPEC
 62
     7
 10
-147.2999999999999
 20
-342.63624666666681
 30
0.0
 40
5.7009440104166673
  1
インターフェース
 41
0.7
 11
-147.2999999999999
 21
-336.93530265625009
 31
0.0
 73
     3
  0
TEXT
  5
FA
  8
SPEC
 62
     7
 10
-147.2999999999999
 20
-353.88624666666669
 30
0.0
 40
5.7009440104166673
  1
フォーマット
 41
0.7
 11
-147.2999999999999
 21
-348.18530265625009
 31
0.0
 73
     3
  0
TEXT
  5
FB
  8
SPEC
 62
     7
 10
-147.2999999999999
 20
-376.38624666666658
 30
0.0
 40
5.7009440104166673
  1
フォーマット 
 41
0.7
 11
-147.2999999999999
 21
-370.68530265624997
 31
0.0
 73
     3
  0
TEXT
  5
FC
  8
SPEC
 62
     7
 10
-147.2999999999999
 20
-387.63624666666658
 30
0.0
 40
5.7009440104166673
  1
24bits
 41
0.7
 11
-147.2999999999999
 21
-381.93530265624997
 31
0.0
 73
     3
  0
TEXT
  5
FD
  8
SPEC
 62
     7
 10
-147.2999999999999
 20
-398.88624666666658
 30
0.0
 40
5.7009440104166673
  1
25.0kHz ～ 200.0kHz
 41
0.7
 11
-147.2999999999999
 21
-393.18530265624997
 31
0.0
 73
     3
  0
TEXT
  5
FE
  8
SPEC
 62
     7
 10
-147.2999999999999
 20
-410.13624666666658
 30
0.0
 40
5.7009440104166673
  1
インターフェース 
 41
0.7
 11
-147.2999999999999
 21
-404.43530265624992
 31
0.0
 73
     3
  0
TEXT
  5
FF
  8
SPEC
 62
     7
 10
-147.2999999999999
 20
-421.38624666666658
 30
0.0
 40
5.7009440104166673
  1
出力クロックレート 
 41
0.7
 11
-147.2999999999999
 21
-415.68530265624992
 31
0.0
 73
     3
  0
TEXT
  5
100
  8
SPEC
 62
     7
 10
-147.2999999999999
 20
-449.51124666666658
 30
0.0
 40
5.7009440104166673
  1
AES3、AES3id、S/PDIF( オプティカル+ コアキシャル)※全ての組み合わせが可能
 41
0.7
 11
-147.2999999999999
 21
-443.81030265624992
 31
0.0
 73
     3
  0
TEXT
  5
101
  8
SPEC
 62
     7
 10
-147.2999999999999
 20
-466.38624666666658
 30
0.0
 40
5.7009440104166673
  1
ロック範囲 25.0kHz ～ 200.0kHz
 41
0.7
 11
-147.2999999999999
 21
-460.68530265624992
 31
0.0
 73
     3
  0
TEXT
  5
102
  8
SPEC
 62
     7
 10
-147.2999999999999
 20
-477.63624666666658
 30
0.0
 40
5.7009440104166673
  1
144dB(A ウェイト)
 41
0.7
 11
-147.2999999999999
 21
-471.93530265624992
 31
0.0
 73
     3
  0
TEXT
  5
103
  8
SPEC
 62
     7
 10
-147.2999999999999
 20
-488.88624666666658
 30
0.0
 40
5.7009440104166673
  1
24bits
 41
0.7
 11
-147.2999999999999
 21
-483.18530265624992
 31
0.0
 73
     3
  0
TEXT
  5
104
  8
SPEC
 62
     7
 10
-147.2999999999999
 20
-517.01124666666658
 30
0.0
 40
5.7009440104166673
  1
1：16( アップサンプリング)、16：1（ダウンサンプリング）
 41
0.7
 11
-147.2999999999999
 21
-511.31030265624992
 31
0.0
 73
     3
  0
TEXT
  5
105
  8
SPEC
 62
     7
 10
-147.2999999999999
 20
-567.63624666666669
 30
0.0
 40
5.7009440104166673
  1
－10℃～＋60℃
 41
0.7
 11
-147.2999999999999
 21
-561.93530265624997
 31
0.0
 73
     3
  0
TEXT
  5
106
  8
SPEC
 62
     7
 10
-57.299999999999962
 20
-320.13624666666681
 30
0.0
 40
5.7009440104166673
  1
BNC\U+00D71、1.0V、アンバランス型、出力インピーダンス75\U+03A9
 41
0.7
 11
-57.299999999999962
 21
-314.43530265625009
 31
0.0
 73
     3
  0
TEXT
  5
107
  8
SPEC
 62
     7
 10
-57.299999999999962
 20
-331.38624666666669
 30
0.0
 40
5.7009440104166673
  1
AES3id-1995/2001
 41
0.7
 11
-57.299999999999962
 21
-325.68530265625009
 31
0.0
 73
     3
  0
TEXT
  5
108
  8
SPEC
 62
     7
 10
-57.299999999999962
 20
-342.63624666666681
 30
0.0
 40
5.7009440104166673
  1
Toslink\U+00D71、EIAJ RC-5720
 41
0.7
 11
-57.299999999999962
 21
-336.93530265625009
 31
0.0
 73
     3
  0
TEXT
  5
109
  8
SPEC
 62
     7
 10
-57.299999999999962
 20
-353.88624666666669
 30
0.0
 40
5.7009440104166673
  1
IEC60958
 41
0.7
 11
-57.299999999999962
 21
-348.18530265625009
 31
0.0
 73
     3
  0
TEXT
  5
10A
  8
SPEC
 62
     7
 10
-57.299999999999962
 20
-365.13624666666681
 30
0.0
 40
5.7009440104166673
  1
BNC\U+00D71、0.5V、アンバランス型、出力インピーダンス75\U+03A9、バッファ出力
 41
0.7
 11
-57.299999999999962
 21
-359.43530265625009
 31
0.0
 73
     3
  0
TEXT
  5
10B
  8
SPEC
 62
     7
 10
-57.299999999999962
 20
-376.38624666666658
 30
0.0
 40
5.7009440104166673
  1
IEC60958
 41
0.7
 11
-57.299999999999962
 21
-370.68530265624997
 31
0.0
 73
     3
  0
TEXT
  5
10C
  8
SPEC
 62
     7
 10
-57.299999999999962
 20
-410.13624666666658
 30
0.0
 40
5.7009440104166673
  1
BNC\U+00D71、3.5V@22\U+03A9、アンバランス型 、バッファ出力
 41
0.7
 11
-57.299999999999962
 21
-404.43530265624992
 31
0.0
 73
     3
  0
TEXT
  5
10D
  8
SPEC
 62
     7
 10
-57.299999999999962
 20
-421.38624666666658
 30
0.0
 40
5.7009440104166673
  1
25.0kHz ～ 200.0kHz
 41
0.7
 11
-57.299999999999962
 21
-415.68530265624992
 31
0.0
 73
     3
  0
LINE
  5
10E
  8
SPEC
  6
CONTINUOUS
 62
     7
 10
-247.49999999999989
 20
-570.0
 30
0.0
 11
195.00000000000011
 21
-570.0
 31
0.0
  0
LINE
  5
10F
  8
SPEC
  6
CONTINUOUS
 62
     7
 10
-247.49999999999989
 20
-581.25
 30
0.0
 11
195.00000000000011
 21
-581.25
 31
0.0
  0
LINE
  5
110
  8
SPEC
  6
CONTINUOUS
 62
     7
 10
-247.49999999999989
 20
-592.49999999999989
 30
0.0
 11
195.00000000000011
 21
-592.49999999999989
 31
0.0
  0
LINE
  5
111
  8
SPEC
  6
CONTINUOUS
 62
     7
 10
-247.49999999999989
 20
-603.75
 30
0.0
 11
195.00000000000011
 21
-603.75
 31
0.0
  0
LINE
  5
112
  8
SPEC
  6
CONTINUOUS
 62
     7
 10
-247.49999999999989
 20
-615.0
 30
0.0
 11
195.00000000000011
 21
-615.0
 31
0.0
  0
TEXT
  5
113
  8
SPEC
 62
     7
 10
-244.7999999999999
 20
-567.63624666666669
 30
0.0
 40
5.7009440104166673
  1
動作温度 
 41
0.7
 11
-244.7999999999999
 21
-561.93530265624997
 31
0.0
 73
     3
  0
TEXT
  5
114
  8
SPEC
 62
     7
 10
-147.2999999999999
 20
-578.88624666666669
 30
0.0
 40
5.7009440104166673
  1
10ps(RMS) 以下
 41
0.7
 11
-147.2999999999999
 21
-573.18530265624986
 31
0.0
 73
     3
  0
TEXT
  5
115
  8
SPEC
 62
     7
 10
-147.2999999999999
 20
-601.38624666666658
 30
0.0
 40
5.7009440104166673
  1
内蔵、スイッチング電源
 41
0.7
 11
-147.2999999999999
 21
-595.68530265624986
 31
0.0
 73
     3
  0
TEXT
  5
116
  8
SPEC
 62
     7
 10
-147.2999999999999
 20
-612.63624666666669
 30
0.0
 40
5.7009440104166673
  1
AC100V、50/60Hz、10W
 41
0.7
 11
-147.2999999999999
 21
-606.93530265624997
 31
0.0
 73
     3
  0
TEXT
  5
117
  8
SPEC
 62
     7
 10
-244.7999999999999
 20
-578.88624666666669
 30
0.0
 40
5.7009440104166673
  1
クロックジッター 
 41
0.7
 11
-244.7999999999999
 21
-573.18530265624986
 31
0.0
 73
     3
  0
TEXT
  5
118
  8
SPEC
 62
     7
 10
-244.7999999999999
 20
-590.13624666666658
 30
0.0
 40
5.7009440104166673
  1
電源
 41
0.7
 11
-244.7999999999999
 21
-584.43530265624986
 31
0.0
 73
     3
  0
TEXT
  5
119
  8
SPEC
 62
     7
 10
-244.7999999999999
 20
-601.38624666666658
 30
0.0
 40
5.7009440104166673
  1
形式
 41
0.7
 11
-244.7999999999999
 21
-595.68530265624986
 31
0.0
 73
     3
  0
TEXT
  5
11A
  8
SPEC
 62
     7
 10
-244.7999999999999
 20
-612.63624666666669
 30
0.0
 40
5.7009440104166673
  1
入力電圧
 41
0.7
 11
-244.7999999999999
 21
-606.93530265624997
 31
0.0
 73
     3
  0
TEXT
  5
11B
  8
SPEC
 62
     7
 10
-57.299999999999962
 20
-241.38624666666669
 30
0.0
 40
5.7009440104166673
  1
BNC\U+00D71、200mV ～ 7V、アンバランス型 、
 41
0.7
 11
-57.299999999999962
 21
-235.68530265625
 31
0.0
 73
     3
  0
TEXT
  5
11C
  8
SPEC
 62
     7
 10
-57.299999999999962
 20
-252.63624666666669
 30
0.0
 40
5.7009440104166673
  1
入力インピーダンス75\U+03A9( スイッチで切断可能)
 41
0.7
 11
-57.299999999999962
 21
-246.93530265625
 31
0.0
 73
     3
  0
LINE
  5
11D
  8
SPEC
  6
CONTINUOUS
 62
     7
 10
-149.9999999999998
 20
-119.9999999999999
 30
0.0
 11
195.00000000000011
 21
-119.9999999999999
 31
0.0
  0
TEXT
  5
11E
  8
SPEC
 62
     7
 10
-244.7999999999999
 20
-145.76124666666669
 30
0.0
 40
5.7009440104166673
  1
S/PDIF オプティカル
 41
0.7
 11
-244.7999999999999
 21
-140.06030265625
 31
0.0
 73
     3
  0
TEXT
  5
11F
  8
SPEC
 62
     7
 10
-147.2999999999999
 20
-168.26124666666669
 30
0.0
 40
5.7009440104166673
  1
インターフェース 
 41
0.7
 11
-147.2999999999999
 21
-162.56030265625
 31
0.0
 73
     3
  0
TEXT
  5
120
  8
SPEC
 62
     7
 10
-147.2999999999999
 20
-185.13624666666669
 30
0.0
 40
5.7009440104166673
  1
フォーマット
 41
0.7
 11
-147.2999999999999
 21
-179.43530265625
 31
0.0
 73
     3
  0
TEXT
  5
121
  8
SPEC
 62
     7
 10
-57.299999999999962
 20
-162.63624666666669
 30
0.0
 40
5.7009440104166673
  1
コアキシャル(Cinch/RCA)\U+00D71、アンバランス型、0.5-1.0Vpp@75\U+03A9
 41
0.7
 11
-57.299999999999962
 21
-156.93530265625
 31
0.0
 73
     3
  0
TEXT
  5
122
  8
SPEC
 62
     7
 10
-57.299999999999962
 20
-173.88624666666669
 30
0.0
 40
5.7009440104166673
  1
出力インピーダンス75\U+03A9
 41
0.7
 11
-57.299999999999962
 21
-168.18530265625
 31
0.0
 73
     3
  0
TEXT
  5
123
  8
SPEC
 62
     7
 10
-244.7999999999999
 20
-173.88624666666669
 30
0.0
 40
5.7009440104166673
  1
S/PDIF コアキシャル
 41
0.7
 11
-244.7999999999999
 21
-168.18530265625
 31
0.0
 73
     3
  0
LINE
  5
124
  8
SPEC
  6
CONTINUOUS
 62
     7
 10
-149.9999999999998
 20
-198.75
 30
0.0
 11
195.00000000000011
 21
-198.75
 31
0.0
  0
TEXT
  5
125
  8
SPEC
 62
     7
 10
-147.2999999999999
 20
-218.88624666666669
 30
0.0
 40
5.7009440104166673
  1
16-24bits
 41
0.7
 11
-147.2999999999999
 21
-213.18530265625
 31
0.0
 73
     3
  0
TEXT
  5
126
  8
SPEC
 62
     7
 10
-244.7999999999999
 20
-230.13624666666669
 30
0.0
 40
5.7009440104166673
  1
ロック範囲 
 41
0.7
 11
-244.7999999999999
 21
-224.43530265625
 31
0.0
 73
     3
  0
TEXT
  5
127
  8
SPEC
 62
     7
 10
-244.7999999999999
 20
-252.63624666666669
 30
0.0
 40
5.7009440104166673
  1
ワードクロック 
 41
0.7
 11
-244.7999999999999
 21
-246.93530265625
 31
0.0
 73
     3
  0
TEXT
  5
128
  8
SPEC
 62
     7
 10
-244.7999999999999
 20
-297.65124666666668
 30
0.0
 40
5.7009440104166673
  1
AES3 
 41
0.7
 11
-244.7999999999999
 21
-291.95030265625002
 31
0.0
 73
     3
  0
TEXT
  5
129
  8
SPEC
 62
     7
 10
-57.299999999999962
 20
-308.88624666666681
 30
0.0
 40
5.7009440104166673
  1
AES3-1992/2003、AES11-1997/2003
 41
0.7
 11
-57.299999999999962
 21
-303.18530265625009
 31
0.0
 73
     3
  0
TEXT
  5
12A
  8
SPEC
 62
     7
 10
-147.2999999999999
 20
-365.13624666666681
 30
0.0
 40
5.7009440104166673
  1
インターフェース
 41
0.7
 11
-147.2999999999999
 21
-359.43530265625009
 31
0.0
 73
     3
  0
TEXT
  5
12B
  8
SPEC
 62
     7
 10
-244.7999999999999
 20
-387.63624666666658
 30
0.0
 40
5.7009440104166673
  1
分解能 
 41
0.7
 11
-244.7999999999999
 21
-381.93530265624997
 31
0.0
 73
     3
  0
TEXT
  5
12C
  8
SPEC
 62
     7
 10
-244.7999999999999
 20
-398.88624666666658
 30
0.0
 40
5.7009440104166673
  1
出力クロックレート 
 41
0.7
 11
-244.7999999999999
 21
-393.18530265624997
 31
0.0
 73
     3
  0
TEXT
  5
12D
  8
SPEC
 62
     7
 10
-244.7999999999999
 20
-415.76124666666658
 30
0.0
 40
5.7009440104166673
  1
ワードクロック 
 41
0.7
 11
-244.7999999999999
 21
-410.06030265624997
 31
0.0
 73
     3
  0
TEXT
  5
12E
  8
SPEC
 62
     7
 10
-244.7999999999999
 20
-443.88624666666658
 30
0.0
 40
5.7009440104166673
  1
デジタルオーディオ
 41
0.7
 11
-244.7999999999999
 21
-438.18530265624997
 31
0.0
 73
     3
  0
TEXT
  5
12F
  8
SPEC
 62
     7
 10
-244.7999999999999
 20
-455.13624666666658
 30
0.0
 40
5.7009440104166673
  1
フォーマット変換 
 41
0.7
 11
-244.7999999999999
 21
-449.43530265624997
 31
0.0
 73
     3
  0
TEXT
  5
130
  8
SPEC
 62
     7
 10
-244.7999999999999
 20
-477.62124666666682
 30
0.0
 40
5.7009440104166673
  1
ダイナミックレンジ
 41
0.7
 11
-244.7999999999999
 21
-471.92030265624999
 31
0.0
 73
     3
  0
TEXT
  5
131
  8
SPEC
 62
     7
 10
-244.7999999999999
 20
-488.87124666666671
 30
0.0
 40
5.7009440104166673
  1
分解能 
 41
0.7
 11
-244.7999999999999
 21
-483.17030265624999
 31
0.0
 73
     3
  0
TEXT
  5
132
  8
SPEC
 62
     7
 10
-147.2999999999999
 20
-500.13624666666658
 30
0.0
 40
5.7009440104166673
  1
－140dB
 41
0.7
 11
-147.2999999999999
 21
-494.43530265624997
 31
0.0
 73
     3
  0
TEXT
  5
133
  8
SPEC
 62
     7
 10
-244.7999999999999
 20
-500.12124666666671
 30
0.0
 40
5.7009440104166673
  1
THD+N
 41
0.7
 11
-244.7999999999999
 21
-494.4203026562501
 31
0.0
 73
     3
  0
LINE
  5
134
  8
SPEC
  6
CONTINUOUS
 62
     7
 10
-247.49999999999989
 20
-536.24999999999989
 30
0.0
 11
195.00000000000011
 21
-536.24999999999989
 31
0.0
  0
TEXT
  5
135
  8
SPEC
 62
     7
 10
-244.7999999999999
 20
-545.12124666666671
 30
0.0
 40
5.7009440104166673
  1
オシレーター 
 41
0.7
 11
-244.7999999999999
 21
-539.42030265624987
 31
0.0
 73
     3
  0
TEXT
  5
136
  8
SPEC
 62
     7
 10
-147.2999999999999
 20
-556.38624666666669
 30
0.0
 40
5.7009440104166673
  1
\U+00B10.5ppm 以下
 41
0.7
 11
-147.2999999999999
 21
-550.68530265624997
 31
0.0
 73
     3
  0
TEXT
  5
137
  8
SPEC
 62
     7
 10
-147.2999999999999
 20
-545.13624666666658
 30
0.0
 40
5.7009440104166673
  1
TCXO、温度補償型水晶発振器
 41
0.7
 11
-147.2999999999999
 21
-539.43530265624986
 31
0.0
 73
     3
  0
LINE
  5
138
  8
SPEC
  6
CONTINUOUS
 62
     7
 10
-247.49999999999989
 20
-626.25
 30
0.0
 11
195.00000000000011
 21
-626.25
 31
0.0
  0
TEXT
  5
139
  8
SPEC
 62
     7
 10
-244.7999999999999
 20
-623.88624666666681
 30
0.0
 40
5.7009440104166673
  1
寸法(W\U+00D7H\U+00D7D)
 41
0.7
 11
-244.7999999999999
 21
-618.18530265625009
 31
0.0
 73
     3
  0
TEXT
  5
13A
  8
SPEC
 62
     7
 10
-244.7999999999999
 20
-635.13624666666692
 30
0.0
 40
5.7009440104166673
  1
質量
 41
0.7
 11
-244.7999999999999
 21
-629.4353026562502
 31
0.0
 73
     3
  0
LINE
  5
13B
  8
SPEC
  6
CONTINUOUS
 62
     7
 10
-247.49999999999989
 20
-637.5
 30
0.0
 11
195.00000000000011
 21
-637.5
 31
0.0
  0
TEXT
  5
13C
  8
SPEC
 62
     7
 10
-147.2999999999999
 20
-623.88624666666681
 30
0.0
 40
5.7009440104166647
  1
198\U+00D744.0\U+00D7159mm(除突起部)
 41
0.7
 11
-147.2999999999999
 21
-618.18530265625009
 31
0.0
 73
     3
  0
TEXT
  5
13D
  8
SPEC
 62
     7
 10
-147.2999999999999
 20
-635.13624666666692
 30
0.0
 40
5.7009440104166647
  1
700g
 41
0.7
 11
-147.2999999999999
 21
-629.4353026562502
 31
0.0
 73
     3
  0
TEXT
  5
13E
  8
DIMNSIONS
 62
     7
 10
-59.999999999999979
 20
111.8084700000001
 30
0.0
 40
7.3297851562499989
  1
(単位：mm)
 41
0.7
 11
-59.999999999999979
 21
119.1382551562501
 31
0.0
 73
     3
  0
TEXT
  5
13F
  8
DIMNSIONS
 62
     7
 10
-59.999999999999979
 20
-788.1915299999996
 30
0.0
 40
7.3297851562499989
  1
(単位：mm)
 41
0.7
 11
-59.999999999999979
 21
-780.86174484374965
 31
0.0
 73
     3
  0
LINE
  5
140
  8
DIMNSIONS
  6
CONTINUOUS
 62
     7
 10
-205.0
 20
294.0
 30
0.0
 11
-231.0
 21
294.0
 31
0.0
  0
LINE
  5
141
  8
DIMNSIONS
  6
CONTINUOUS
 62
     7
 10
-205.0
 20
250.0
 30
0.0
 11
-231.0
 21
250.0
 31
0.0
  0
LINE
  5
142
  8
DIMNSIONS
  6
CONTINUOUS
 62
     7
 10
-225.0
 20
294.0
 30
0.0
 11
-225.0
 21
250.0
 31
0.0
  0
LINE
  5
143
  8
DIMNSIONS
  6
CONTINUOUS
 62
     7
 10
-225.0
 20
294.0
 30
0.0
 11
-222.98988061454929
 21
286.49813232421877
 31
0.0
  0
LINE
  5
144
  8
DIMNSIONS
  6
CONTINUOUS
 62
     7
 10
-225.0
 20
294.0
 30
0.0
 11
-227.01011938545071
 21
286.49813232421877
 31
0.0
  0
LINE
  5
145
  8
DIMNSIONS
  6
CONTINUOUS
 62
     7
 10
-225.0
 20
250.0
 30
0.0
 11
-227.01011938545071
 21
257.50186767578123
 31
0.0
  0
LINE
  5
146
  8
DIMNSIONS
  6
CONTINUOUS
 62
     7
 10
-225.0
 20
250.0
 30
0.0
 11
-222.98988061454929
 21
257.50186767578123
 31
0.0
  0
TEXT
  5
147
  8
DIMNSIONS
 62
     7
 10
-228.9816666666666
 20
261.41666666666657
 30
0.0
 40
8.1442057291666661
  1
44.0
 50
90.0
 41
0.7
 11
-237.12587239583331
 21
261.41666666666657
 31
0.0
 73
     3
  0
LINE
  5
148
  8
DIMNSIONS
  6
CONTINUOUS
 62
     7
 10
-206.0
 20
350.0
 30
0.0
 11
-231.0
 21
350.0
 31
0.0
  0
LINE
  5
149
  8
DIMNSIONS
  6
CONTINUOUS
 62
     7
 10
-205.0
 20
509.0
 30
0.0
 11
-231.0
 21
509.0
 31
0.0
  0
LINE
  5
14A
  8
DIMNSIONS
  6
CONTINUOUS
 62
     7
 10
-225.0
 20
350.0
 30
0.0
 11
-225.0
 21
509.0
 31
0.0
  0
LINE
  5
14B
  8
DIMNSIONS
  6
CONTINUOUS
 62
     7
 10
-225.0
 20
350.0
 30
0.0
 11
-227.01011938545071
 21
357.50186767578123
 31
0.0
  0
LINE
  5
14C
  8
DIMNSIONS
  6
CONTINUOUS
 62
     7
 10
-225.0
 20
350.0
 30
0.0
 11
-222.98988061454929
 21
357.50186767578123
 31
0.0
  0
LINE
  5
14D
  8
DIMNSIONS
  6
CONTINUOUS
 62
     7
 10
-225.0
 20
509.0
 30
0.0
 11
-222.98988061454929
 21
501.49813232421877
 31
0.0
  0
LINE
  5
14E
  8
DIMNSIONS
  6
CONTINUOUS
 62
     7
 10
-225.0
 20
509.0
 30
0.0
 11
-227.01011938545071
 21
501.49813232421877
 31
0.0
  0
TEXT
  5
14F
  8
DIMNSIONS
 62
     7
 10
-227.9816666666666
 20
421.5625
 30
0.0
 40
8.1442057291666661
  1
159
 50
90.0
 41
0.7
 11
-236.12587239583331
 21
421.5625
 31
0.0
 73
     3
  0
LINE
  5
150
  8
DIMNSIONS
  6
CONTINUOUS
 62
     7
 10
-206.0
 20
509.0
 30
0.0
 11
-231.0
 21
509.0
 31
0.0
  0
LINE
  5
151
  8
DIMNSIONS
  6
CONTINUOUS
 62
     7
 10
-126.0
 20
528.0
 30
0.0
 11
-231.0
 21
528.0
 31
0.0
  0
LINE
  5
152
  8
DIMNSIONS
  6
CONTINUOUS
 62
     7
 10
-225.0
 20
528.0
 30
0.0
 11
-225.0
 21
552.41666666666652
 31
0.0
  0
LINE
  5
153
  8
DIMNSIONS
  6
CONTINUOUS
 62
     7
 10
-225.0
 20
509.0
 30
0.0
 11
-225.0
 21
528.0
 31
0.0
  0
LINE
  5
154
  8
DIMNSIONS
  6
CONTINUOUS
 62
     7
 10
-225.0
 20
509.0
 30
0.0
 11
-227.01011938545071
 21
516.50186767578123
 31
0.0
  0
LINE
  5
155
  8
DIMNSIONS
  6
CONTINUOUS
 62
     7
 10
-225.0
 20
509.0
 30
0.0
 11
-222.98988061454929
 21
516.50186767578123
 31
0.0
  0
LINE
  5
156
  8
DIMNSIONS
  6
CONTINUOUS
 62
     7
 10
-225.0
 20
528.0
 30
0.0
 11
-222.98988061454929
 21
520.49813232421866
 31
0.0
  0
LINE
  5
157
  8
DIMNSIONS
  6
CONTINUOUS
 62
     7
 10
-225.0
 20
528.0
 30
0.0
 11
-227.01011938545071
 21
520.49813232421866
 31
0.0
  0
TEXT
  5
158
  8
DIMNSIONS
 62
     7
 10
-227.98166666666671
 20
531.25
 30
0.0
 40
8.1442057291666661
  1
19.0
 50
90.0
 41
0.7
 11
-236.12587239583331
 21
531.25
 31
0.0
 73
     3
  0
LINE
  5
159
  8
DIMNSIONS
  6
CONTINUOUS
 62
     7
 10
-202.5
 20
346.0
 30
0.0
 11
-231.0
 21
346.0
 31
0.0
  0
LINE
  5
15A
  8
DIMNSIONS
  6
CONTINUOUS
 62
     7
 10
-206.0
 20
350.0
 30
0.0
 11
-231.0
 21
350.0
 31
0.0
  0
LINE
  5
15B
  8
DIMNSIONS
  6
CONTINUOUS
 62
     7
 10
-225.0
 20
350.0
 30
0.0
 11
-225.0
 21
346.0
 31
0.0
  0
LINE
  5
15C
  8
DIMNSIONS
  6
CONTINUOUS
 62
     7
 10
-225.0
 20
346.0
 30
0.0
 11
-225.0
 21
321.625
 31
0.0
  0
LINE
  5
15D
  8
DIMNSIONS
  6
CONTINUOUS
 62
     7
 10
-225.0
 20
346.0
 30
0.0
 11
-222.98988061454929
 21
338.49813232421877
 31
0.0
  0
LINE
  5
15E
  8
DIMNSIONS
  6
CONTINUOUS
 62
     7
 10
-225.0
 20
346.0
 30
0.0
 11
-227.01011938545071
 21
338.49813232421877
 31
0.0
  0
LINE
  5
15F
  8
DIMNSIONS
  6
CONTINUOUS
 62
     7
 10
-225.0
 20
350.0
 30
0.0
 11
-225.0
 21
365.0
 31
0.0
  0
LINE
  5
160
  8
DIMNSIONS
  6
CONTINUOUS
 62
     7
 10
-225.0
 20
350.0
 30
0.0
 11
-227.01011938545071
 21
357.50186767578123
 31
0.0
  0
LINE
  5
161
  8
DIMNSIONS
  6
CONTINUOUS
 62
     7
 10
-225.0
 20
350.0
 30
0.0
 11
-222.98988061454929
 21
357.50186767578123
 31
0.0
  0
TEXT
  5
162
  8
DIMNSIONS
 62
     7
 10
-227.9816666666666
 20
321.625
 30
0.0
 40
8.1442057291666661
  1
4.0
 50
90.0
 41
0.7
 11
-236.12587239583331
 21
321.625
 31
0.0
 73
     3
  0
LINE
  5
163
  8
DIMNSIONS
  6
CONTINUOUS
 62
     7
 10
-200.0
 20
245.0
 30
0.0
 11
-200.0
 21
219.0
 31
0.0
  0
LINE
  5
164
  8
DIMNSIONS
  6
CONTINUOUS
 62
     7
 10
-2.0
 20
245.0
 30
0.0
 11
-2.0
 21
219.0
 31
0.0
  0
LINE
  5
165
  8
DIMNSIONS
  6
CONTINUOUS
 62
     7
 10
-200.0
 20
225.0
 30
0.0
 11
-2.0
 21
225.0
 31
0.0
  0
LINE
  5
166
  8
DIMNSIONS
  6
CONTINUOUS
 62
     7
 10
-200.0
 20
225.0
 30
0.0
 11
-192.49813232421869
 21
227.01011938545071
 31
0.0
  0
LINE
  5
167
  8
DIMNSIONS
  6
CONTINUOUS
 62
     7
 10
-200.0
 20
225.0
 30
0.0
 11
-192.49813232421869
 21
222.98988061454929
 31
0.0
  0
LINE
  5
168
  8
DIMNSIONS
  6
CONTINUOUS
 62
     7
 10
-2.0
 20
225.0
 30
0.0
 11
-9.5018676757812486
 21
222.98988061454929
 31
0.0
  0
LINE
  5
169
  8
DIMNSIONS
  6
CONTINUOUS
 62
     7
 10
-2.0
 20
225.0
 30
0.0
 11
-9.5018676757812486
 21
227.01011938545071
 31
0.0
  0
TEXT
  5
16A
  8
DIMNSIONS
 62
     7
 10
-108.9375
 20
227.98166666666671
 30
0.0
 40
8.1442057291666661
  1
198
 41
0.7
 11
-108.9375
 21
236.12587239583331
 31
0.0
 73
     3
  0
LINE
  5
16B
  8
DIMNSIONS
  6
CONTINUOUS
 62
     7
 10
-199.0
 20
515.0
 30
0.0
 11
-199.0
 21
556.0
 31
0.0
  0
LINE
  5
16C
  8
DIMNSIONS
  6
CONTINUOUS
 62
     7
 10
-3.0
 20
515.0
 30
0.0
 11
-3.0
 21
556.0
 31
0.0
  0
LINE
  5
16D
  8
DIMNSIONS
  6
CONTINUOUS
 62
     7
 10
-199.0
 20
550.0
 30
0.0
 11
-3.0
 21
550.0
 31
0.0
  0
LINE
  5
16E
  8
DIMNSIONS
  6
CONTINUOUS
 62
     7
 10
-199.0
 20
550.0
 30
0.0
 11
-191.49813232421869
 21
552.01011938545071
 31
0.0
  0
LINE
  5
16F
  8
DIMNSIONS
  6
CONTINUOUS
 62
     7
 10
-199.0
 20
550.0
 30
0.0
 11
-191.49813232421869
 21
547.98988061454918
 31
0.0
  0
LINE
  5
170
  8
DIMNSIONS
  6
CONTINUOUS
 62
     7
 10
-3.0
 20
550.0
 30
0.0
 11
-10.50186767578124
 21
547.98988061454918
 31
0.0
  0
LINE
  5
171
  8
DIMNSIONS
  6
CONTINUOUS
 62
     7
 10
-3.0
 20
550.0
 30
0.0
 11
-10.50186767578124
 21
552.01011938545071
 31
0.0
  0
TEXT
  5
172
  8
DIMNSIONS
 62
     7
 10
-108.9375
 20
552.98166666666668
 30
0.0
 40
8.1442057291666661
  1
196
 41
0.7
 11
-108.9375
 21
561.12587239583343
 31
0.0
 73
     3
  0
LINE
  5
173
  8
DATA
  6
CONTINUOUS
 62
     7
 10
-149.4499999999997
 20
511.0
 30
0.0
 11
-146.8499999999998
 21
511.0
 31
0.0
  0
TEXT
  5
174
  8
DATA
 62
     7
 10
-262.5
 20
98.628833333333347
 30
0.0
 40
5.7009440104166673
  1
※仕様及び外観は予告なく変更されることがあります。
 41
0.7
 11
-262.5
 21
104.32977734375
 31
0.0
 73
     3
  0
TEXT
  5
175
  8
DATA
 62
     7
 10
-262.5
 20
91.220499999999987
 30
0.0
 40
5.7009440104166673
  1
　また、同一商品でも若干の個体差があることがあります。ご了承ください。
 41
0.7
 11
-262.5
 21
96.921444010416664
 31
0.0
 73
     3
  0
TEXT
  5
176
  8
DATA
 62
     7
 10
-262.5
 20
-801.37116666666645
 30
0.0
 40
5.7009440104166673
  1
※仕様及び外観は予告なく変更されることがあります。
 41
0.7
 11
-262.5
 21
-795.67022265624985
 31
0.0
 73
     3
  0
TEXT
  5
177
  8
DATA
 62
     7
 10
-262.5
 20
-808.7795000000001
 30
0.0
 40
5.7009440104166673
  1
　また、同一商品でも若干の個体差があることがあります。ご了承ください。
 41
0.7
 11
-262.5
 21
-803.07855598958338
 31
0.0
 73
     3
  0
TEXT
  5
178
  8
DATA
 62
     7
 10
149.99999999999989
 20
108.39267000000009
 30
0.0
 40
7.3297851562499989
  1
MC-6
 41
0.7
 11
149.99999999999989
 21
115.72245515625011
 31
0.0
 73
     3
  0
TEXT
  5
179
  8
DATA
 62
     7
 10
149.99999999999989
 20
130.14267000000001
 30
0.0
 40
7.3297851562499989
  1
MUTEC
 41
0.7
 11
149.99999999999989
 21
137.47245515625011
 31
0.0
 73
     3
  0
TEXT
  5
17A
  8
DATA
 62
     7
 10
118.75
 20
119.7118049999999
 30
0.0
 40
4.8865234374999993
  1
フォーマット/サンプリングレート・コンバータ ー
 41
0.7
 11
118.75
 21
124.5983284374999
 31
0.0
 73
     3
  0
TEXT
  5
17B
  8
DATA
 62
     7
 10
-178.6666992187499
 20
254.9616569103213
 30
0.0
 40
1.923828125
  1
POWER
 41
0.7
 72
     1
 11
-175.2999999999999
 21
254.9616569103213
 31
0.0
  0
TEXT
  5
17C
  8
DATA
 62
     7
 10
-164.76891276041661
 20
254.9616569103213
 30
0.0
 40
1.923828125
  1
MENU
 41
0.7
 72
     1
 11
-162.2999999999999
 21
254.9616569103213
 31
0.0
  0
TEXT
  5
17D
  8
DATA
 62
     7
 10
-153.11559244791661
 20
254.9616569103213
 30
0.0
 40
1.923828125
  1
SELECT
 41
0.7
 72
     1
 11
-149.2999999999999
 21
254.9616569103213
 31
0.0
  0
CIRCLE
  5
17E
  8
DATA
  6
CONTINUOUS
 62
     7
 10
-193.19999999999999
 20
286.0
 30
0.0
 40
3.2999999999999541
  0
CIRCLE
  5
17F
  8
DATA
  6
CONTINUOUS
 62
     7
 10
-193.19999999999999
 20
286.0
 30
0.0
 40
1.75
  0
LINE
  5
180
  8
DATA
  6
CONTINUOUS
 62
     7
 10
-193.19999999999999
 20
287.75
 30
0.0
 11
-191.6844555433772
 21
286.875
 31
0.0
  0
LINE
  5
181
  8
DATA
  6
CONTINUOUS
 62
     7
 10
-191.6844555433772
 20
286.875
 30
0.0
 11
-191.6844555433772
 21
285.125
 31
0.0
  0
LINE
  5
182
  8
DATA
  6
CONTINUOUS
 62
     7
 10
-191.6844555433772
 20
285.125
 30
0.0
 11
-193.19999999999999
 21
284.25
 31
0.0
  0
LINE
  5
183
  8
DATA
  6
CONTINUOUS
 62
     7
 10
-193.19999999999999
 20
284.25
 30
0.0
 11
-194.71554445662289
 21
285.125
 31
0.0
  0
LINE
  5
184
  8
DATA
  6
CONTINUOUS
 62
     7
 10
-194.71554445662289
 20
285.125
 30
0.0
 11
-194.71554445662289
 21
286.875
 31
0.0
  0
LINE
  5
185
  8
DATA
  6
CONTINUOUS
 62
     7
 10
-194.71554445662289
 20
286.875
 30
0.0
 11
-193.19999999999999
 21
287.75
 31
0.0
  0
CIRCLE
  5
186
  8
DATA
  6
CONTINUOUS
 62
     7
 10
-193.19999999999999
 20
258.39999999999998
 30
0.0
 40
3.2999999999999541
  0
CIRCLE
  5
187
  8
DATA
  6
CONTINUOUS
 62
     7
 10
-193.19999999999999
 20
258.39999999999998
 30
0.0
 40
1.75
  0
LINE
  5
188
  8
DATA
  6
CONTINUOUS
 62
     7
 10
-193.19999999999999
 20
256.64999999999998
 30
0.0
 11
-191.6844555433772
 21
257.52499999999998
 31
0.0
  0
LINE
  5
189
  8
DATA
  6
CONTINUOUS
 62
     7
 10
-191.6844555433772
 20
257.52499999999998
 30
0.0
 11
-191.6844555433772
 21
259.27499999999998
 31
0.0
  0
LINE
  5
18A
  8
DATA
  6
CONTINUOUS
 62
     7
 10
-191.6844555433772
 20
259.27499999999998
 30
0.0
 11
-193.19999999999999
 21
260.14999999999998
 31
0.0
  0
LINE
  5
18B
  8
DATA
  6
CONTINUOUS
 62
     7
 10
-193.19999999999999
 20
260.14999999999998
 30
0.0
 11
-194.71554445662289
 21
259.27499999999998
 31
0.0
  0
LINE
  5
18C
  8
DATA
  6
CONTINUOUS
 62
     7
 10
-194.71554445662289
 20
259.27499999999998
 30
0.0
 11
-194.71554445662289
 21
257.52499999999998
 31
0.0
  0
LINE
  5
18D
  8
DATA
  6
CONTINUOUS
 62
     7
 10
-194.71554445662289
 20
257.52499999999998
 30
0.0
 11
-193.19999999999999
 21
256.64999999999998
 31
0.0
  0
CIRCLE
  5
18E
  8
DATA
  6
CONTINUOUS
 62
     7
 10
-136.0
 20
276.0
 30
0.0
 40
1.25
  0
CIRCLE
  5
18F
  8
DATA
  6
CONTINUOUS
 62
     7
 10
-121.0
 20
276.0
 30
0.0
 40
1.25
  0
CIRCLE
  5
190
  8
DATA
  6
CONTINUOUS
 62
     7
 10
-100.0
 20
276.0
 30
0.0
 40
1.25
  0
CIRCLE
  5
191
  8
DATA
  6
CONTINUOUS
 62
     7
 10
-85.0
 20
276.0
 30
0.0
 40
1.25
  0
CIRCLE
  5
192
  8
DATA
  6
CONTINUOUS
 62
     7
 10
-65.0
 20
276.0
 30
0.0
 40
1.25
  0
CIRCLE
  5
193
  8
DATA
  6
CONTINUOUS
 62
     7
 10
-50.0
 20
276.0
 30
0.0
 40
1.25
  0
CIRCLE
  5
194
  8
DATA
  6
CONTINUOUS
 62
     7
 10
-34.5
 20
276.0
 30
0.0
 40
1.25
  0
CIRCLE
  5
195
  8
DATA
  6
CONTINUOUS
 62
     7
 10
-29.5
 20
276.0
 30
0.0
 40
1.25
  0
CIRCLE
  5
196
  8
DATA
  6
CONTINUOUS
 62
     7
 10
-136.0
 20
271.0
 30
0.0
 40
1.25
  0
CIRCLE
  5
197
  8
DATA
  6
CONTINUOUS
 62
     7
 10
-121.0
 20
271.0
 30
0.0
 40
1.25
  0
CIRCLE
  5
198
  8
DATA
  6
CONTINUOUS
 62
     7
 10
-100.0
 20
271.0
 30
0.0
 40
1.25
  0
CIRCLE
  5
199
  8
DATA
  6
CONTINUOUS
 62
     7
 10
-85.0
 20
271.0
 30
0.0
 40
1.25
  0
CIRCLE
  5
19A
  8
DATA
  6
CONTINUOUS
 62
     7
 10
-65.0
 20
271.0
 30
0.0
 40
1.25
  0
CIRCLE
  5
19B
  8
DATA
  6
CONTINUOUS
 62
     7
 10
-50.0
 20
271.0
 30
0.0
 40
1.25
  0
CIRCLE
  5
19C
  8
DATA
  6
CONTINUOUS
 62
     7
 10
-34.5
 20
271.0
 30
0.0
 40
1.25
  0
CIRCLE
  5
19D
  8
DATA
  6
CONTINUOUS
 62
     7
 10
-29.5
 20
271.0
 30
0.0
 40
1.25
  0
CIRCLE
  5
19E
  8
DATA
  6
CONTINUOUS
 62
     7
 10
-136.0
 20
266.0
 30
0.0
 40
1.25
  0
CIRCLE
  5
19F
  8
DATA
  6
CONTINUOUS
 62
     7
 10
-121.0
 20
266.0
 30
0.0
 40
1.25
  0
CIRCLE
  5
1A0
  8
DATA
  6
CONTINUOUS
 62
     7
 10
-85.0
 20
266.0
 30
0.0
 40
1.25
  0
CIRCLE
  5
1A1
  8
DATA
  6
CONTINUOUS
 62
     7
 10
-65.0
 20
266.0
 30
0.0
 40
1.25
  0
CIRCLE
  5
1A2
  8
DATA
  6
CONTINUOUS
 62
     7
 10
-50.0
 20
266.0
 30
0.0
 40
1.25
  0
CIRCLE
  5
1A3
  8
DATA
  6
CONTINUOUS
 62
     7
 10
-34.5
 20
266.0
 30
0.0
 40
1.25
  0
CIRCLE
  5
1A4
  8
DATA
  6
CONTINUOUS
 62
     7
 10
-29.5
 20
266.0
 30
0.0
 40
1.25
  0
CIRCLE
  5
1A5
  8
DATA
  6
CONTINUOUS
 62
     7
 10
-136.0
 20
261.0
 30
0.0
 40
1.25
  0
CIRCLE
  5
1A6
  8
DATA
  6
CONTINUOUS
 62
     7
 10
-121.0
 20
261.0
 30
0.0
 40
1.25
  0
CIRCLE
  5
1A7
  8
DATA
  6
CONTINUOUS
 62
     7
 10
-85.0
 20
261.0
 30
0.0
 40
1.25
  0
CIRCLE
  5
1A8
  8
DATA
  6
CONTINUOUS
 62
     7
 10
-65.0
 20
261.0
 30
0.0
 40
1.25
  0
CIRCLE
  5
1A9
  8
DATA
  6
CONTINUOUS
 62
     7
 10
-50.0
 20
261.0
 30
0.0
 40
1.25
  0
CIRCLE
  5
1AA
  8
DATA
  6
CONTINUOUS
 62
     7
 10
-34.5
 20
261.0
 30
0.0
 40
1.25
  0
CIRCLE
  5
1AB
  8
DATA
  6
CONTINUOUS
 62
     7
 10
-29.5
 20
261.0
 30
0.0
 40
1.25
  0
TEXT
  5
1AC
  8
DATA
 62
     7
 10
-133.4972205131119
 20
274.75
 30
0.0
 40
1.923828125
  1
UNI-DIR
 41
0.7
 72
     1
 11
-129.45718145061181
 21
274.75
 31
0.0
  0
TEXT
  5
1AD
  8
DATA
 62
     7
 10
-133.476997226061
 20
269.75
 30
0.0
 40
1.923828125
  1
BI-DIR
 41
0.7
 72
     1
 11
-130.110298007311
 21
269.75
 31
0.0
  0
TEXT
  5
1AE
  8
DATA
 62
     7
 10
-133.7999089384052
 20
264.75
 30
0.0
 40
1.923828125
  1
SRC
 41
0.7
 72
     1
 11
-132.0043360217386
 21
264.75
 31
0.0
  0
TEXT
  5
1AF
  8
DATA
 62
     7
 10
-133.90566716817679
 20
259.75
 30
0.0
 40
1.923828125
  1
X-SRC
 41
0.7
 72
     1
 11
-130.76341456401019
 21
259.75
 31
0.0
  0
TEXT
  5
1B0
  8
DATA
 62
     7
 10
-118.8330623804962
 20
274.75
 30
0.0
 40
1.923828125
  1
AES-3
 41
0.7
  0
TEXT
  5
1B1
  8
DATA
 62
     7
 10
-118.8330623804962
 20
269.75
 30
0.0
 40
1.923828125
  1
AES-3id
 41
0.7
  0
TEXT
  5
1B2
  8
DATA
 62
     7
 10
-118.8983740361661
 20
264.75
 30
0.0
 40
1.923828125
  1
S/P-DIF op
 41
0.7
  0
TEXT
  5
1B3
  8
DATA
 62
     7
 10
-118.8330623804962
 20
259.75
 30
0.0
 40
1.923828125
  1
S/P-DIF co
 41
0.7
  0
TEXT
  5
1B4
  8
DATA
 62
     7
 10
-97.833062380496244
 20
274.75
 30
0.0
 40
1.923828125
  1
WCLK
 41
0.7
  0
TEXT
  5
1B5
  8
DATA
 62
     7
 10
-97.833062380496244
 20
269.75
 30
0.0
 40
1.923828125
  1
AES11
 41
0.7
  0
TEXT
  5
1B6
  8
DATA
 62
     7
 10
-82.833062380496244
 20
274.75
 30
0.0
 40
1.923828125
  1
AES-3
 41
0.7
  0
TEXT
  5
1B7
  8
DATA
 62
     7
 10
-82.833062380496244
 20
269.75
 30
0.0
 40
1.923828125
  1
AES-3id
 41
0.7
  0
TEXT
  5
1B8
  8
DATA
 62
     7
 10
-82.898374036166146
 20
264.75
 30
0.0
 40
1.923828125
  1
S/P-DIF op
 41
0.7
  0
TEXT
  5
1B9
  8
DATA
 62
     7
 10
-82.833062380496244
 20
259.75
 30
0.0
 40
1.923828125
  1
S/P-DIF co
 41
0.7
  0
TEXT
  5
1BA
  8
DATA
 62
     7
 10
-62.353230993902088
 20
274.70913032103499
 30
0.0
 40
1.923828125
  1
32.0
 41
0.7
 72
     1
 11
-60.445434769943752
 21
274.70913032103499
 31
0.0
  0
TEXT
  5
1BB
  8
DATA
 62
     7
 10
-62.241007686610423
 20
269.70913032103499
 30
0.0
 40
1.923828125
  1
44.1
 41
0.7
 72
     1
 11
-60.445434769943752
 21
269.70913032103499
 31
0.0
  0
TEXT
  5
1BC
  8
DATA
 62
     7
 10
-62.353230993902088
 20
264.70913032103499
 30
0.0
 40
1.923828125
  1
48.0
 41
0.7
 72
     1
 11
-60.445434769943752
 21
264.70913032103499
 31
0.0
  0
TEXT
  5
1BD
  8
DATA
 62
     7
 10
-62.465454301193752
 20
259.70913032103499
 30
0.0
 40
1.923828125
  1
88.2
 41
0.7
 72
     1
 11
-60.445434769943752
 21
259.70913032103499
 31
0.0
  0
LINE
  5
1BE
  8
DATA
  6
CONTINUOUS
 62
     7
 10
-57.445434882530222
 20
275.4291303210349
 30
0.0
 11
-56.445434882530208
 21
275.4291303210349
 31
0.0
  0
LINE
  5
1BF
  8
DATA
  6
CONTINUOUS
 62
     7
 10
-57.445434882530222
 20
270.4291303210349
 30
0.0
 11
-56.445434882530208
 21
270.4291303210349
 31
0.0
  0
LINE
  5
1C0
  8
DATA
  6
CONTINUOUS
 62
     7
 10
-57.445434882530222
 20
265.4291303210349
 30
0.0
 11
-56.445434882530208
 21
265.4291303210349
 31
0.0
  0
LINE
  5
1C1
  8
DATA
  6
CONTINUOUS
 62
     7
 10
-57.445434882530222
 20
260.4291303210349
 30
0.0
 11
-56.445434882530208
 21
260.4291303210349
 31
0.0
  0
TEXT
  5
1C2
  8
DATA
 62
     7
 10
-57.855633090091338
 20
272.20913032103499
 30
0.0
 40
1.923828125
  1
96.0
 41
0.7
 72
     1
 11
-55.947836866133002
 21
272.20913032103499
 31
0.0
  0
TEXT
  5
1C3
  8
DATA
 62
     7
 10
-59.003392831394571
 20
267.20913032103499
 30
0.0
 40
1.923828125
  1
176.4
 41
0.7
 72
     1
 11
-56.534480070977899
 21
267.20913032103499
 31
0.0
  0
TEXT
  5
1C4
  8
DATA
 62
     7
 10
-58.891169524102899
 20
262.20913032103499
 30
0.0
 40
1.923828125
  1
192.0
 41
0.7
 72
     1
 11
-56.534480070977899
 21
262.20913032103499
 31
0.0
  0
TEXT
  5
1C5
  8
DATA
 62
     7
 10
-47.833062380496237
 20
274.75
 30
0.0
 40
1.923828125
  1
LOCK
 41
0.7
  0
TEXT
  5
1C6
  8
DATA
 62
     7
 10
-47.833062380496237
 20
269.75
 30
0.0
 40
1.923828125
  1
LOCK
 41
0.7
  0
TEXT
  5
1C7
  8
DATA
 62
     7
 10
-47.898374036166153
 20
264.75
 30
0.0
 40
1.923828125
  1
AUDIO
 41
0.7
  0
TEXT
  5
1C8
  8
DATA
 62
     7
 10
-47.833062380496237
 20
259.75
 30
0.0
 40
1.923828125
  1
AUDIO
 41
0.7
  0
TEXT
  5
1C9
  8
DATA
 62
     7
 10
-26.853230993902081
 20
274.70913032103499
 30
0.0
 40
1.923828125
  1
32.0
 41
0.7
 72
     1
 11
-24.945434769943748
 21
274.70913032103499
 31
0.0
  0
TEXT
  5
1CA
  8
DATA
 62
     7
 10
-26.74100768661042
 20
269.70913032103499
 30
0.0
 40
1.923828125
  1
44.1
 41
0.7
 72
     1
 11
-24.945434769943748
 21
269.70913032103499
 31
0.0
  0
TEXT
  5
1CB
  8
DATA
 62
     7
 10
-26.853230993902081
 20
264.70913032103499
 30
0.0
 40
1.923828125
  1
48.0
 41
0.7
 72
     1
 11
-24.945434769943748
 21
264.70913032103499
 31
0.0
  0
TEXT
  5
1CC
  8
DATA
 62
     7
 10
-26.965454301193748
 20
259.70913032103499
 30
0.0
 40
1.923828125
  1
88.2
 41
0.7
 72
     1
 11
-24.945434769943748
 21
259.70913032103499
 31
0.0
  0
LINE
  5
1CD
  8
DATA
  6
CONTINUOUS
 62
     7
 10
-21.945434882530211
 20
275.4291303210349
 30
0.0
 11
-20.945434882530211
 21
275.4291303210349
 31
0.0
  0
LINE
  5
1CE
  8
DATA
  6
CONTINUOUS
 62
     7
 10
-21.945434882530211
 20
270.4291303210349
 30
0.0
 11
-20.945434882530211
 21
270.4291303210349
 31
0.0
  0
LINE
  5
1CF
  8
DATA
  6
CONTINUOUS
 62
     7
 10
-21.945434882530211
 20
265.4291303210349
 30
0.0
 11
-20.945434882530211
 21
265.4291303210349
 31
0.0
  0
LINE
  5
1D0
  8
DATA
  6
CONTINUOUS
 62
     7
 10
-21.945434882530211
 20
260.4291303210349
 30
0.0
 11
-20.945434882530211
 21
260.4291303210349
 31
0.0
  0
TEXT
  5
1D1
  8
DATA
 62
     7
 10
-22.355633090091331
 20
272.20913032103499
 30
0.0
 40
1.923828125
  1
96.0
 41
0.7
 72
     1
 11
-20.447836866132999
 21
272.20913032103499
 31
0.0
  0
TEXT
  5
1D2
  8
DATA
 62
     7
 10
-23.503392831394581
 20
267.20913032103499
 30
0.0
 40
1.923828125
  1
176.4
 41
0.7
 72
     1
 11
-21.03448007097791
 21
267.20913032103499
 31
0.0
  0
TEXT
  5
1D3
  8
DATA
 62
     7
 10
-23.39116952410291
 20
262.20913032103499
 30
0.0
 40
1.923828125
  1
192.0
 41
0.7
 72
     1
 11
-21.03448007097791
 21
262.20913032103499
 31
0.0
  0
TEXT
  5
1D4
  8
DATA
 62
     7
 10
-34.724446614583343
 20
278.22912899302071
 30
0.0
 40
1.923828125
  1
1
 41
0.7
 72
     1
 11
-34.5
 21
278.22912899302071
 31
0.0
  0
TEXT
  5
1D5
  8
DATA
 62
     7
 10
-29.948893229166671
 20
278.22912899302071
 30
0.0
 40
1.923828125
  1
2
 41
0.7
 72
     1
 11
-29.5
 21
278.22912899302071
 31
0.0
  0
CIRCLE
  5
1D6
  8
DATA
  6
CONTINUOUS
 62
     7
 10
-8.7999999999999527
 20
286.0
 30
0.0
 40
3.2999999999999541
  0
CIRCLE
  5
1D7
  8
DATA
  6
CONTINUOUS
 62
     7
 10
-8.7999999999999527
 20
286.0
 30
0.0
 40
1.75
  0
LINE
  5
1D8
  8
DATA
  6
CONTINUOUS
 62
     7
 10
-8.7999999999999527
 20
287.75
 30
0.0
 11
-10.315544456622771
 21
286.875
 31
0.0
  0
LINE
  5
1D9
  8
DATA
  6
CONTINUOUS
 62
     7
 10
-10.315544456622771
 20
286.875
 30
0.0
 11
-10.315544456622771
 21
285.125
 31
0.0
  0
LINE
  5
1DA
  8
DATA
  6
CONTINUOUS
 62
     7
 10
-10.315544456622771
 20
285.125
 30
0.0
 11
-8.7999999999999527
 21
284.25
 31
0.0
  0
LINE
  5
1DB
  8
DATA
  6
CONTINUOUS
 62
     7
 10
-8.7999999999999527
 20
284.25
 30
0.0
 11
-7.2844555433771339
 21
285.125
 31
0.0
  0
LINE
  5
1DC
  8
DATA
  6
CONTINUOUS
 62
     7
 10
-7.2844555433771339
 20
285.125
 30
0.0
 11
-7.2844555433771339
 21
286.875
 31
0.0
  0
LINE
  5
1DD
  8
DATA
  6
CONTINUOUS
 62
     7
 10
-7.2844555433771339
 20
286.875
 30
0.0
 11
-8.7999999999999527
 21
287.75
 31
0.0
  0
CIRCLE
  5
1DE
  8
DATA
  6
CONTINUOUS
 62
     7
 10
-8.7999999999999527
 20
258.39999999999998
 30
0.0
 40
3.2999999999999541
  0
CIRCLE
  5
1DF
  8
DATA
  6
CONTINUOUS
 62
     7
 10
-8.7999999999999527
 20
258.39999999999998
 30
0.0
 40
1.75
  0
LINE
  5
1E0
  8
DATA
  6
CONTINUOUS
 62
     7
 10
-8.7999999999999527
 20
256.64999999999998
 30
0.0
 11
-10.315544456622771
 21
257.52499999999998
 31
0.0
  0
LINE
  5
1E1
  8
DATA
  6
CONTINUOUS
 62
     7
 10
-10.315544456622771
 20
257.52499999999998
 30
0.0
 11
-10.315544456622771
 21
259.27499999999998
 31
0.0
  0
LINE
  5
1E2
  8
DATA
  6
CONTINUOUS
 62
     7
 10
-10.315544456622771
 20
259.27499999999998
 30
0.0
 11
-8.7999999999999527
 21
260.14999999999998
 31
0.0
  0
LINE
  5
1E3
  8
DATA
  6
CONTINUOUS
 62
     7
 10
-8.7999999999999527
 20
260.14999999999998
 30
0.0
 11
-7.2844555433771339
 21
259.27499999999998
 31
0.0
  0
LINE
  5
1E4
  8
DATA
  6
CONTINUOUS
 62
     7
 10
-7.2844555433771339
 20
259.27499999999998
 30
0.0
 11
-7.2844555433771339
 21
257.52499999999998
 31
0.0
  0
LINE
  5
1E5
  8
DATA
  6
CONTINUOUS
 62
     7
 10
-7.2844555433771339
 20
257.52499999999998
 30
0.0
 11
-8.7999999999999527
 21
256.64999999999998
 31
0.0
  0
TEXT
  5
1E6
  8
DATA
 62
     7
 10
-137.25047927658289
 20
254.9616569103213
 30
0.0
 40
1.7314453125
  1
ＭＯＤＥ
 41
0.7
  0
TEXT
  5
1E7
  8
DATA
 62
     7
 10
-122.25047927658289
 20
254.9616569103213
 30
0.0
 40
1.7314453125
  1
ＡＵＤＩＯIN
 41
0.7
  0
TEXT
  5
1E8
  8
DATA
 62
     7
 10
-101.25047927658289
 20
254.9616569103213
 30
0.0
 40
1.5390625
  1
ＲＥＦＥＲＲＥＮＣＥ
 41
0.7
  0
TEXT
  5
1E9
  8
DATA
 62
     7
 10
-51.250479276582958
 20
254.9616569103213
 30
0.0
 40
1.7314453125
  1
STATUS
 41
0.7
  0
TEXT
  5
1EA
  8
DATA
 62
     7
 10
-35.750479276582951
 20
254.9616569103213
 30
0.0
 40
1.7314453125
  1
REF CLOCK IN
 41
0.7
  0
TEXT
  5
1EB
  8
DATA
 62
     7
 10
-136.28111505683279
 20
285.01999999999998
 30
0.0
 40
2.693359375
  1
AES3-S/P-DIF Digital Audio Format & Sampling Rate Converte
 41
0.7
  0
TEXT
  5
1EC
  8
DATA
 62
     7
 10
-27.74990861061692
 20
284.7164990056072
 30
0.0
 40
0.7695312500000002
  1
BIT
 41
0.7
  0
TEXT
  5
1ED
  8
DATA
 62
     7
 10
-25.775944554203889
 20
283.21044653442237
 30
0.0
 40
2.0360514322916661
  1
192
 41
0.7
 72
     1
 11
-24.113169217832372
 21
283.21044653442237
 31
0.0
  0
TEXT
  5
1EE
  8
DATA
 62
     7
 10
-21.57048148788407
 20
284.7164990056072
 30
0.0
 40
0.7695312500000002
  1
KHZ
 41
0.7
 72
     1
 11
-20.85225232121741
 21
284.7164990056072
 31
0.0
  0
LINE
  5
1EF
  8
DATA
  6
CONTINUOUS
 62
     7
 10
-28.0
 20
285.6878492455495
 30
0.0
 11
-20.0
 21
285.6878492455495
 31
0.0
  0
LINE
  5
1F0
  8
DATA
  6
CONTINUOUS
 62
     7
 10
-28.0
 20
285.6878492455495
 30
0.0
 11
-28.0
 21
287.1878492455495
 31
0.0
  0
LINE
  5
1F1
  8
DATA
  6
CONTINUOUS
 62
     7
 10
-28.0
 20
287.1878492455495
 30
0.0
 11
-20.0
 21
285.6878492455495
 31
0.0
  0
LINE
  5
1F2
  8
DATA
  6
CONTINUOUS
 62
     7
 10
-200.0
 20
251.0
 30
0.0
 11
-200.0
 21
272.0
 31
0.0
  0
LINE
  5
1F3
  8
DATA
  6
CONTINUOUS
 62
     7
 10
-101.0
 20
250.0
 30
0.0
 11
-199.0
 21
250.0
 31
0.0
  0
LINE
  5
1F4
  8
DATA
  6
CONTINUOUS
 62
     7
 10
-3.0
 20
250.0
 30
0.0
 11
-101.0
 21
250.0
 31
0.0
  0
LINE
  5
1F5
  8
DATA
  6
CONTINUOUS
 62
     7
 10
-2.0
 20
272.0
 30
0.0
 11
-2.0
 21
251.0
 31
0.0
  0
LINE
  5
1F6
  8
DATA
  6
CONTINUOUS
 62
     7
 10
-2.0
 20
293.0
 30
0.0
 11
-2.0
 21
272.0
 31
0.0
  0
LINE
  5
1F7
  8
DATA
  6
CONTINUOUS
 62
     7
 10
-101.0
 20
294.0
 30
0.0
 11
-3.0
 21
294.0
 31
0.0
  0
LINE
  5
1F8
  8
DATA
  6
CONTINUOUS
 62
     7
 10
-199.0
 20
294.0
 30
0.0
 11
-101.0
 21
294.0
 31
0.0
  0
LINE
  5
1F9
  8
DATA
  6
CONTINUOUS
 62
     7
 10
-200.0
 20
272.0
 30
0.0
 11
-200.0
 21
293.0
 31
0.0
  0
ARC
  5
1FA
  8
DATA
  6
CONTINUOUS
 62
     7
 10
-199.0
 20
251.0
 30
0.0
 40
1.0
 50
180.0
 51
270.0
  0
ARC
  5
1FB
  8
DATA
  6
CONTINUOUS
 62
     7
 10
-199.0
 20
293.0
 30
0.0
 40
1.0
 50
90.0
 51
180.0
  0
ARC
  5
1FC
  8
DATA
  6
CONTINUOUS
 62
     7
 10
-3.0
 20
293.0
 30
0.0
 40
1.0
 50
0.0
 51
90.0
  0
ARC
  5
1FD
  8
DATA
  6
CONTINUOUS
 62
     7
 10
-3.0
 20
251.0
 30
0.0
 40
1.0
 50
270.0
 51
0.0
  0
LINE
  5
1FE
  8
DATA
  6
CONTINUOUS
 62
     7
 10
50.0
 20
250.0
 30
0.0
 11
50.0
 21
294.0
 31
0.0
  0
LINE
  5
1FF
  8
DATA
  6
CONTINUOUS
 62
     7
 10
209.0
 20
292.14999999999998
 30
0.0
 11
209.0
 21
250.84999999999999
 31
0.0
  0
LINE
  5
200
  8
DATA
  6
CONTINUOUS
 62
     7
 10
188.0
 20
285.14999999999998
 30
0.0
 11
188.0
 21
259.14999999999998
 31
0.0
  0
LINE
  5
201
  8
DATA
  6
CONTINUOUS
 62
     7
 10
185.5
 20
285.14999999999998
 30
0.0
 11
185.5
 21
259.14999999999998
 31
0.0
  0
LINE
  5
202
  8
DATA
  6
CONTINUOUS
 62
     7
 10
208.0
 20
293.14999999999998
 30
0.0
 11
52.0
 21
293.14999999999998
 31
0.0
  0
LINE
  5
203
  8
DATA
  6
CONTINUOUS
 62
     7
 10
209.0
 20
250.84999999999999
 30
0.0
 11
52.0
 21
250.84999999999999
 31
0.0
  0
LINE
  5
204
  8
DATA
  6
CONTINUOUS
 62
     7
 10
188.0
 20
259.14999999999998
 30
0.0
 11
185.5
 21
259.14999999999998
 31
0.0
  0
LINE
  5
205
  8
DATA
  6
CONTINUOUS
 62
     7
 10
188.0
 20
285.14999999999998
 30
0.0
 11
185.5
 21
285.14999999999998
 31
0.0
  0
LINE
  5
206
  8
DATA
  6
CONTINUOUS
 62
     7
 10
183.035
 20
285.14999999999998
 30
0.0
 11
183.035
 21
259.14999999999998
 31
0.0
  0
LINE
  5
207
  8
DATA
  6
CONTINUOUS
 62
     7
 10
180.535
 20
285.14999999999998
 30
0.0
 11
180.535
 21
259.14999999999998
 31
0.0
  0
LINE
  5
208
  8
DATA
  6
CONTINUOUS
 62
     7
 10
183.035
 20
259.14999999999998
 30
0.0
 11
180.535
 21
259.14999999999998
 31
0.0
  0
LINE
  5
209
  8
DATA
  6
CONTINUOUS
 62
     7
 10
183.035
 20
285.14999999999998
 30
0.0
 11
180.535
 21
285.14999999999998
 31
0.0
  0
LINE
  5
20A
  8
DATA
  6
CONTINUOUS
 62
     7
 10
178.06999999999999
 20
285.14999999999998
 30
0.0
 11
178.06999999999999
 21
259.14999999999998
 31
0.0
  0
LINE
  5
20B
  8
DATA
  6
CONTINUOUS
 62
     7
 10
175.56999999999999
 20
285.14999999999998
 30
0.0
 11
175.56999999999999
 21
259.14999999999998
 31
0.0
  0
LINE
  5
20C
  8
DATA
  6
CONTINUOUS
 62
     7
 10
178.06999999999999
 20
259.14999999999998
 30
0.0
 11
175.56999999999999
 21
259.14999999999998
 31
0.0
  0
LINE
  5
20D
  8
DATA
  6
CONTINUOUS
 62
     7
 10
178.06999999999999
 20
285.14999999999998
 30
0.0
 11
175.56999999999999
 21
285.14999999999998
 31
0.0
  0
LINE
  5
20E
  8
DATA
  6
CONTINUOUS
 62
     7
 10
173.10499999999999
 20
285.14999999999998
 30
0.0
 11
173.10499999999999
 21
259.14999999999998
 31
0.0
  0
LINE
  5
20F
  8
DATA
  6
CONTINUOUS
 62
     7
 10
170.60499999999999
 20
285.14999999999998
 30
0.0
 11
170.60499999999999
 21
259.14999999999998
 31
0.0
  0
LINE
  5
210
  8
DATA
  6
CONTINUOUS
 62
     7
 10
173.10499999999999
 20
259.14999999999998
 30
0.0
 11
170.60499999999999
 21
259.14999999999998
 31
0.0
  0
LINE
  5
211
  8
DATA
  6
CONTINUOUS
 62
     7
 10
173.10499999999999
 20
285.14999999999998
 30
0.0
 11
170.60499999999999
 21
285.14999999999998
 31
0.0
  0
LINE
  5
212
  8
DATA
  6
CONTINUOUS
 62
     7
 10
168.13999999999999
 20
285.14999999999998
 30
0.0
 11
168.13999999999999
 21
259.14999999999998
 31
0.0
  0
LINE
  5
213
  8
DATA
  6
CONTINUOUS
 62
     7
 10
165.63999999999999
 20
285.14999999999998
 30
0.0
 11
165.63999999999999
 21
259.14999999999998
 31
0.0
  0
LINE
  5
214
  8
DATA
  6
CONTINUOUS
 62
     7
 10
168.13999999999999
 20
259.14999999999998
 30
0.0
 11
165.63999999999999
 21
259.14999999999998
 31
0.0
  0
LINE
  5
215
  8
DATA
  6
CONTINUOUS
 62
     7
 10
168.13999999999999
 20
285.14999999999998
 30
0.0
 11
165.63999999999999
 21
285.14999999999998
 31
0.0
  0
LINE
  5
216
  8
DATA
  6
CONTINUOUS
 62
     7
 10
163.17500000000001
 20
285.14999999999998
 30
0.0
 11
163.17500000000001
 21
259.14999999999998
 31
0.0
  0
LINE
  5
217
  8
DATA
  6
CONTINUOUS
 62
     7
 10
160.67500000000001
 20
285.14999999999998
 30
0.0
 11
160.67500000000001
 21
259.14999999999998
 31
0.0
  0
LINE
  5
218
  8
DATA
  6
CONTINUOUS
 62
     7
 10
163.17500000000001
 20
259.14999999999998
 30
0.0
 11
160.67500000000001
 21
259.14999999999998
 31
0.0
  0
LINE
  5
219
  8
DATA
  6
CONTINUOUS
 62
     7
 10
163.17500000000001
 20
285.14999999999998
 30
0.0
 11
160.67500000000001
 21
285.14999999999998
 31
0.0
  0
LINE
  5
21A
  8
DATA
  6
CONTINUOUS
 62
     7
 10
158.21000000000001
 20
285.14999999999998
 30
0.0
 11
158.21000000000001
 21
259.14999999999998
 31
0.0
  0
LINE
  5
21B
  8
DATA
  6
CONTINUOUS
 62
     7
 10
155.71000000000001
 20
285.14999999999998
 30
0.0
 11
155.71000000000001
 21
259.14999999999998
 31
0.0
  0
LINE
  5
21C
  8
DATA
  6
CONTINUOUS
 62
     7
 10
158.21000000000001
 20
259.14999999999998
 30
0.0
 11
155.71000000000001
 21
259.14999999999998
 31
0.0
  0
LINE
  5
21D
  8
DATA
  6
CONTINUOUS
 62
     7
 10
158.21000000000001
 20
285.14999999999998
 30
0.0
 11
155.71000000000001
 21
285.14999999999998
 31
0.0
  0
LINE
  5
21E
  8
DATA
  6
CONTINUOUS
 62
     7
 10
153.245
 20
285.14999999999998
 30
0.0
 11
153.245
 21
259.14999999999998
 31
0.0
  0
LINE
  5
21F
  8
DATA
  6
CONTINUOUS
 62
     7
 10
150.745
 20
285.14999999999998
 30
0.0
 11
150.745
 21
259.14999999999998
 31
0.0
  0
LINE
  5
220
  8
DATA
  6
CONTINUOUS
 62
     7
 10
153.245
 20
259.14999999999998
 30
0.0
 11
150.745
 21
259.14999999999998
 31
0.0
  0
LINE
  5
221
  8
DATA
  6
CONTINUOUS
 62
     7
 10
153.245
 20
285.14999999999998
 30
0.0
 11
150.745
 21
285.14999999999998
 31
0.0
  0
LINE
  5
222
  8
DATA
  6
CONTINUOUS
 62
     7
 10
148.28
 20
285.14999999999998
 30
0.0
 11
148.28
 21
259.14999999999998
 31
0.0
  0
LINE
  5
223
  8
DATA
  6
CONTINUOUS
 62
     7
 10
145.78
 20
285.14999999999998
 30
0.0
 11
145.78
 21
259.14999999999998
 31
0.0
  0
LINE
  5
224
  8
DATA
  6
CONTINUOUS
 62
     7
 10
148.28
 20
259.14999999999998
 30
0.0
 11
145.78
 21
259.14999999999998
 31
0.0
  0
LINE
  5
225
  8
DATA
  6
CONTINUOUS
 62
     7
 10
148.28
 20
285.14999999999998
 30
0.0
 11
145.78
 21
285.14999999999998
 31
0.0
  0
LINE
  5
226
  8
DATA
  6
CONTINUOUS
 62
     7
 10
143.315
 20
285.14999999999998
 30
0.0
 11
143.315
 21
259.14999999999998
 31
0.0
  0
LINE
  5
227
  8
DATA
  6
CONTINUOUS
 62
     7
 10
140.815
 20
285.14999999999998
 30
0.0
 11
140.815
 21
259.14999999999998
 31
0.0
  0
LINE
  5
228
  8
DATA
  6
CONTINUOUS
 62
     7
 10
143.315
 20
259.14999999999998
 30
0.0
 11
140.815
 21
259.14999999999998
 31
0.0
  0
LINE
  5
229
  8
DATA
  6
CONTINUOUS
 62
     7
 10
143.315
 20
285.14999999999998
 30
0.0
 11
140.815
 21
285.14999999999998
 31
0.0
  0
LINE
  5
22A
  8
DATA
  6
CONTINUOUS
 62
     7
 10
138.34999999999999
 20
285.14999999999998
 30
0.0
 11
138.34999999999999
 21
259.14999999999998
 31
0.0
  0
LINE
  5
22B
  8
DATA
  6
CONTINUOUS
 62
     7
 10
135.84999999999999
 20
285.14999999999998
 30
0.0
 11
135.84999999999999
 21
259.14999999999998
 31
0.0
  0
LINE
  5
22C
  8
DATA
  6
CONTINUOUS
 62
     7
 10
138.34999999999999
 20
259.14999999999998
 30
0.0
 11
135.84999999999999
 21
259.14999999999998
 31
0.0
  0
LINE
  5
22D
  8
DATA
  6
CONTINUOUS
 62
     7
 10
138.34999999999999
 20
285.14999999999998
 30
0.0
 11
135.84999999999999
 21
285.14999999999998
 31
0.0
  0
LINE
  5
22E
  8
DATA
  6
CONTINUOUS
 62
     7
 10
133.38499999999999
 20
285.14999999999998
 30
0.0
 11
133.38499999999999
 21
259.14999999999998
 31
0.0
  0
LINE
  5
22F
  8
DATA
  6
CONTINUOUS
 62
     7
 10
130.88499999999999
 20
285.14999999999998
 30
0.0
 11
130.88499999999999
 21
259.14999999999998
 31
0.0
  0
LINE
  5
230
  8
DATA
  6
CONTINUOUS
 62
     7
 10
133.38499999999999
 20
259.14999999999998
 30
0.0
 11
130.88499999999999
 21
259.14999999999998
 31
0.0
  0
LINE
  5
231
  8
DATA
  6
CONTINUOUS
 62
     7
 10
133.38499999999999
 20
285.14999999999998
 30
0.0
 11
130.88499999999999
 21
285.14999999999998
 31
0.0
  0
LINE
  5
232
  8
DATA
  6
CONTINUOUS
 62
     7
 10
128.41999999999999
 20
285.14999999999998
 30
0.0
 11
128.41999999999999
 21
259.14999999999998
 31
0.0
  0
LINE
  5
233
  8
DATA
  6
CONTINUOUS
 62
     7
 10
125.92
 20
285.14999999999998
 30
0.0
 11
125.92
 21
259.14999999999998
 31
0.0
  0
LINE
  5
234
  8
DATA
  6
CONTINUOUS
 62
     7
 10
128.41999999999999
 20
259.14999999999998
 30
0.0
 11
125.92
 21
259.14999999999998
 31
0.0
  0
LINE
  5
235
  8
DATA
  6
CONTINUOUS
 62
     7
 10
128.41999999999999
 20
285.14999999999998
 30
0.0
 11
125.92
 21
285.14999999999998
 31
0.0
  0
LINE
  5
236
  8
DATA
  6
CONTINUOUS
 62
     7
 10
123.455
 20
285.14999999999998
 30
0.0
 11
123.455
 21
259.14999999999998
 31
0.0
  0
LINE
  5
237
  8
DATA
  6
CONTINUOUS
 62
     7
 10
120.955
 20
285.14999999999998
 30
0.0
 11
120.955
 21
259.14999999999998
 31
0.0
  0
LINE
  5
238
  8
DATA
  6
CONTINUOUS
 62
     7
 10
123.455
 20
259.14999999999998
 30
0.0
 11
120.955
 21
259.14999999999998
 31
0.0
  0
LINE
  5
239
  8
DATA
  6
CONTINUOUS
 62
     7
 10
123.455
 20
285.14999999999998
 30
0.0
 11
120.955
 21
285.14999999999998
 31
0.0
  0
LINE
  5
23A
  8
DATA
  6
CONTINUOUS
 62
     7
 10
118.48999999999999
 20
285.14999999999998
 30
0.0
 11
118.48999999999999
 21
259.14999999999998
 31
0.0
  0
LINE
  5
23B
  8
DATA
  6
CONTINUOUS
 62
     7
 10
115.98999999999999
 20
285.14999999999998
 30
0.0
 11
115.98999999999999
 21
259.14999999999998
 31
0.0
  0
LINE
  5
23C
  8
DATA
  6
CONTINUOUS
 62
     7
 10
118.48999999999999
 20
259.14999999999998
 30
0.0
 11
115.98999999999999
 21
259.14999999999998
 31
0.0
  0
LINE
  5
23D
  8
DATA
  6
CONTINUOUS
 62
     7
 10
118.48999999999999
 20
285.14999999999998
 30
0.0
 11
115.98999999999999
 21
285.14999999999998
 31
0.0
  0
CIRCLE
  5
23E
  8
DATA
  6
CONTINUOUS
 62
     7
 10
97.0
 20
272.0
 30
0.0
 40
3.0
  0
CIRCLE
  5
23F
  8
DATA
  6
CONTINUOUS
 62
     7
 10
97.0
 20
272.0
 30
0.0
 40
1.5
  0
CIRCLE
  5
240
  8
DATA
  6
CONTINUOUS
 62
     7
 10
67.0
 20
272.0
 30
0.0
 40
3.0
  0
CIRCLE
  5
241
  8
DATA
  6
CONTINUOUS
 62
     7
 10
67.0
 20
272.0
 30
0.0
 40
1.5
  0
LINE
  5
242
  8
DATA
  6
CONTINUOUS
 62
     7
 10
209.0
 20
292.14999999999998
 30
0.0
 11
52.0
 21
292.14999999999998
 31
0.0
  0
LINE
  5
243
  8
DATA
  6
CONTINUOUS
 62
     7
 10
208.0
 20
292.14999999999998
 30
0.0
 11
208.0
 21
293.14999999999998
 31
0.0
  0
LINE
  5
244
  8
DATA
  6
CONTINUOUS
 62
     7
 10
212.0
 20
290.90000000000009
 30
0.0
 11
209.0
 21
290.90000000000009
 31
0.0
  0
LINE
  5
245
  8
DATA
  6
CONTINUOUS
 62
     7
 10
212.0
 20
274.90000000000009
 30
0.0
 11
209.0
 21
274.90000000000009
 31
0.0
  0
LINE
  5
246
  8
DATA
  6
CONTINUOUS
 62
     7
 10
212.0
 20
286.90000000000009
 30
0.0
 11
209.5
 21
286.90000000000009
 31
0.0
  0
LINE
  5
247
  8
DATA
  6
CONTINUOUS
 62
     7
 10
212.0
 20
278.90000000000009
 30
0.0
 11
209.5
 21
278.90000000000009
 31
0.0
  0
LINE
  5
248
  8
DATA
  6
CONTINUOUS
 62
     7
 10
209.5
 20
290.90000000000009
 30
0.0
 11
209.5
 21
274.90000000000009
 31
0.0
  0
LINE
  5
249
  8
DATA
  6
CONTINUOUS
 62
     7
 10
212.0
 20
290.90000000000009
 30
0.0
 11
212.0
 21
274.90000000000009
 31
0.0
  0
LINE
  5
24A
  8
DATA
  6
CONTINUOUS
 62
     7
 10
216.0
 20
289.82820323027568
 30
0.0
 11
212.0
 21
289.82820323027568
 31
0.0
  0
LINE
  5
24B
  8
DATA
  6
CONTINUOUS
 62
     7
 10
216.0
 20
275.97179676972451
 30
0.0
 11
212.0
 21
275.97179676972451
 31
0.0
  0
LINE
  5
24C
  8
DATA
  6
CONTINUOUS
 62
     7
 10
216.0
 20
289.82820323027568
 30
0.0
 11
216.0
 21
275.97179676972451
 31
0.0
  0
LINE
  5
24D
  8
DATA
  6
CONTINUOUS
 62
     7
 10
228.0
 20
287.65000000000009
 30
0.0
 11
228.0
 21
278.15000000000009
 31
0.0
  0
LINE
  5
24E
  8
DATA
  6
CONTINUOUS
 62
     7
 10
216.0
 20
289.82820323027568
 30
0.0
 11
215.0
 21
275.97179676972451
 31
0.0
  0
LINE
  5
24F
  8
DATA
  6
CONTINUOUS
 62
     7
 10
215.0
 20
289.82820323027568
 30
0.0
 11
214.0
 21
275.97179676972451
 31
0.0
  0
LINE
  5
250
  8
DATA
  6
CONTINUOUS
 62
     7
 10
214.0
 20
289.82820323027568
 30
0.0
 11
213.0
 21
275.97179676972451
 31
0.0
  0
LINE
  5
251
  8
DATA
  6
CONTINUOUS
 62
     7
 10
213.0
 20
289.82820323027568
 30
0.0
 11
212.0
 21
275.97179676972451
 31
0.0
  0
LINE
  5
252
  8
DATA
  6
CONTINUOUS
 62
     7
 10
228.0
 20
287.65000000000009
 30
0.0
 11
216.0
 21
287.65000000000009
 31
0.0
  0
LINE
  5
253
  8
DATA
  6
CONTINUOUS
 62
     7
 10
228.0
 20
278.15000000000009
 30
0.0
 11
216.0
 21
278.15000000000009
 31
0.0
  0
LINE
  5
254
  8
DATA
  6
CONTINUOUS
 62
     7
 10
212.0
 20
274.89999999999998
 30
0.0
 11
209.0
 21
274.89999999999998
 31
0.0
  0
LINE
  5
255
  8
DATA
  6
CONTINUOUS
 62
     7
 10
212.0
 20
258.89999999999998
 30
0.0
 11
209.0
 21
258.89999999999998
 31
0.0
  0
LINE
  5
256
  8
DATA
  6
CONTINUOUS
 62
     7
 10
212.0
 20
270.89999999999998
 30
0.0
 11
209.5
 21
270.89999999999998
 31
0.0
  0
LINE
  5
257
  8
DATA
  6
CONTINUOUS
 62
     7
 10
212.0
 20
262.89999999999998
 30
0.0
 11
209.5
 21
262.89999999999998
 31
0.0
  0
LINE
  5
258
  8
DATA
  6
CONTINUOUS
 62
     7
 10
209.5
 20
274.89999999999998
 30
0.0
 11
209.5
 21
258.89999999999998
 31
0.0
  0
LINE
  5
259
  8
DATA
  6
CONTINUOUS
 62
     7
 10
212.0
 20
274.89999999999998
 30
0.0
 11
212.0
 21
258.89999999999998
 31
0.0
  0
LINE
  5
25A
  8
DATA
  6
CONTINUOUS
 62
     7
 10
216.0
 20
273.82820323027562
 30
0.0
 11
212.0
 21
273.82820323027562
 31
0.0
  0
LINE
  5
25B
  8
DATA
  6
CONTINUOUS
 62
     7
 10
216.0
 20
259.97179676972439
 30
0.0
 11
212.0
 21
259.97179676972439
 31
0.0
  0
LINE
  5
25C
  8
DATA
  6
CONTINUOUS
 62
     7
 10
216.0
 20
273.82820323027562
 30
0.0
 11
216.0
 21
259.97179676972439
 31
0.0
  0
LINE
  5
25D
  8
DATA
  6
CONTINUOUS
 62
     7
 10
228.0
 20
271.64999999999998
 30
0.0
 11
228.0
 21
262.14999999999998
 31
0.0
  0
LINE
  5
25E
  8
DATA
  6
CONTINUOUS
 62
     7
 10
216.0
 20
273.82820323027562
 30
0.0
 11
215.0
 21
259.97179676972439
 31
0.0
  0
LINE
  5
25F
  8
DATA
  6
CONTINUOUS
 62
     7
 10
215.0
 20
273.82820323027562
 30
0.0
 11
214.0
 21
259.97179676972439
 31
0.0
  0
LINE
  5
260
  8
DATA
  6
CONTINUOUS
 62
     7
 10
214.0
 20
273.82820323027562
 30
0.0
 11
213.0
 21
259.97179676972439
 31
0.0
  0
LINE
  5
261
  8
DATA
  6
CONTINUOUS
 62
     7
 10
213.0
 20
273.82820323027562
 30
0.0
 11
212.0
 21
259.97179676972439
 31
0.0
  0
LINE
  5
262
  8
DATA
  6
CONTINUOUS
 62
     7
 10
228.0
 20
271.64999999999998
 30
0.0
 11
216.0
 21
271.64999999999998
 31
0.0
  0
LINE
  5
263
  8
DATA
  6
CONTINUOUS
 62
     7
 10
228.0
 20
262.14999999999998
 30
0.0
 11
216.0
 21
262.14999999999998
 31
0.0
  0
CIRCLE
  5
264
  8
DATA
  6
CONTINUOUS
 62
     7
 10
224.09999999999999
 20
282.90000000000009
 30
0.0
 40
0.8999999999999772
  0
CIRCLE
  5
265
  8
DATA
  6
CONTINUOUS
 62
     7
 10
224.09999999999999
 20
266.89999999999998
 30
0.0
 40
0.8999999999999772
  0
LINE
  5
266
  8
DATA
  6
CONTINUOUS
 62
     7
 10
211.0
 20
291.5
 30
0.0
 11
209.0
 21
291.5
 31
0.0
  0
LINE
  5
267
  8
DATA
  6
CONTINUOUS
 62
     7
 10
211.0
 20
251.5
 30
0.0
 11
209.0
 21
251.5
 31
0.0
  0
POLYLINE
  5
268
  8
DATA
  6
CONTINUOUS
 62
     7
 66
     1
 10
0.0
 20
0.0
 30
0.0
 70
   128
  0
VERTEX
  5
700
  8
DATA
  6
CONTINUOUS
 62
     7
 10
211.86312061437201
 20
290.89999999999998
 30
0.0
  0
VERTEX
  5
701
  8
DATA
  6
CONTINUOUS
 62
     7
 10
211.8589229491574
 20
290.9086268076594
 30
0.0
  0
VERTEX
  5
702
  8
DATA
  6
CONTINUOUS
 62
     7
 10
211.85467842380359
 20
290.91719681515008
 30
0.0
  0
VERTEX
  5
703
  8
DATA
  6
CONTINUOUS
 62
     7
 10
211.85038703831049
 20
290.92571002247212
 30
0.0
  0
VERTEX
  5
704
  8
DATA
  6
CONTINUOUS
 62
     7
 10
211.84604879267829
 20
290.93416642962529
 30
0.0
  0
VERTEX
  5
705
  8
DATA
  6
CONTINUOUS
 62
     7
 10
211.8416636869068
 20
290.94256603661
 30
0.0
  0
VERTEX
  5
706
  8
DATA
  6
CONTINUOUS
 62
     7
 10
211.8372317209961
 20
290.95090884342579
 30
0.0
  0
VERTEX
  5
707
  8
DATA
  6
CONTINUOUS
 62
     7
 10
211.83275289494631
 20
290.95919485007278
 30
0.0
  0
VERTEX
  5
708
  8
DATA
  6
CONTINUOUS
 62
     7
 10
211.8282272087572
 20
290.96742405655118
 30
0.0
  0
VERTEX
  5
709
  8
DATA
  6
CONTINUOUS
 62
     7
 10
211.82365466242891
 20
290.97559646286078
 30
0.0
  0
VERTEX
  5
70A
  8
DATA
  6
CONTINUOUS
 62
     7
 10
211.8190352559615
 20
290.98371206900163
 30
0.0
  0
VERTEX
  5
70B
  8
DATA
  6
CONTINUOUS
 62
     7
 10
211.81436898935479
 20
290.99177087497378
 30
0.0
  0
VERTEX
  5
70C
  8
DATA
  6
CONTINUOUS
 62
     7
 10
211.80965586260891
 20
290.99977288077719
 30
0.0
  0
VERTEX
  5
70D
  8
DATA
  6
CONTINUOUS
 62
     7
 10
211.80489587572379
 20
291.0077180864119
 30
0.0
  0
VERTEX
  5
70E
  8
DATA
  6
CONTINUOUS
 62
     7
 10
211.8000890286996
 20
291.0156064918778
 30
0.0
  0
VERTEX
  5
70F
  8
DATA
  6
CONTINUOUS
 62
     7
 10
211.79523532153601
 20
291.02343809717507
 30
0.0
  0
VERTEX
  5
710
  8
DATA
  6
CONTINUOUS
 62
     7
 10
211.7903347542333
 20
291.03121290230359
 30
0.0
  0
VERTEX
  5
711
  8
DATA
  6
CONTINUOUS
 62
     7
 10
211.78538732679141
 20
291.03893090726331
 30
0.0
  0
VERTEX
  5
712
  8
DATA
  6
CONTINUOUS
 62
     7
 10
211.78039303921031
 20
291.04659211205438
 30
0.0
  0
VERTEX
  5
713
  8
DATA
  6
CONTINUOUS
 62
     7
 10
211.77535189149
 20
291.05419651667671
 30
0.0
  0
VERTEX
  5
714
  8
DATA
  6
CONTINUOUS
 62
     7
 10
211.77026388363049
 20
291.06174412113
 30
0.0
  0
VERTEX
  5
715
  8
DATA
  6
CONTINUOUS
 62
     7
 10
211.7651290156318
 20
291.069234925415
 30
0.0
  0
VERTEX
  5
716
  8
DATA
  6
CONTINUOUS
 62
     7
 10
211.75994728749379
 20
291.07666892953108
 30
0.0
  0
VERTEX
  5
717
  8
DATA
  6
CONTINUOUS
 62
     7
 10
211.7547186992168
 20
291.08404613347841
 30
0.0
  0
VERTEX
  5
718
  8
DATA
  6
CONTINUOUS
 62
     7
 10
211.7494432508004
 20
291.0913665372571
 30
0.0
  0
VERTEX
  5
719
  8
DATA
  6
CONTINUOUS
 62
     7
 10
211.7441209422449
 20
291.09863014086687
 30
0.0
  0
VERTEX
  5
71A
  8
DATA
  6
CONTINUOUS
 62
     7
 10
211.73875177355009
 20
291.10583694430812
 30
0.0
  0
VERTEX
  5
71B
  8
DATA
  6
CONTINUOUS
 62
     7
 10
211.73333574471619
 20
291.11298694758051
 30
0.0
  0
VERTEX
  5
71C
  8
DATA
  6
CONTINUOUS
 62
     7
 10
211.7278728557431
 20
291.1200801506842
 30
0.0
  0
VERTEX
  5
71D
  8
DATA
  6
CONTINUOUS
 62
     7
 10
211.7223631066307
 20
291.1271165536192
 30
0.0
  0
VERTEX
  5
71E
  8
DATA
  6
CONTINUOUS
 62
     7
 10
211.7168064973792
 20
291.1340961563854
 30
0.0
  0
VERTEX
  5
71F
  8
DATA
  6
CONTINUOUS
 62
     7
 10
211.7112030279884
 20
291.1410189589829
 30
0.0
  0
VERTEX
  5
720
  8
DATA
  6
CONTINUOUS
 62
     7
 10
211.70555269845849
 20
291.14788496141171
 30
0.0
  0
VERTEX
  5
721
  8
DATA
  6
CONTINUOUS
 62
     7
 10
211.69985550878931
 20
291.15469416367171
 30
0.0
  0
VERTEX
  5
722
  8
DATA
  6
CONTINUOUS
 62
     7
 10
211.6941114589809
 20
291.16144656576301
 30
0.0
  0
VERTEX
  5
723
  8
DATA
  6
CONTINUOUS
 62
     7
 10
211.68832054903331
 20
291.16814216768557
 30
0.0
  0
VERTEX
  5
724
  8
DATA
  6
CONTINUOUS
 62
     7
 10
211.68248277894659
 20
291.17478096943938
 30
0.0
  0
VERTEX
  5
725
  8
DATA
  6
CONTINUOUS
 62
     7
 10
211.67659814872059
 20
291.18136297102461
 30
0.0
  0
VERTEX
  5
726
  8
DATA
  6
CONTINUOUS
 62
     7
 10
211.6706666583554
 20
291.18788817244092
 30
0.0
  0
VERTEX
  5
727
  8
DATA
  6
CONTINUOUS
 62
     7
 10
211.66468830785109
 20
291.19435657368848
 30
0.0
  0
VERTEX
  5
728
  8
DATA
  6
CONTINUOUS
 62
     7
 10
211.65866309720741
 20
291.20076817476752
 30
0.0
  0
VERTEX
  5
729
  8
DATA
  6
CONTINUOUS
 62
     7
 10
211.6525910264246
 20
291.20712297567769
 30
0.0
  0
VERTEX
  5
72A
  8
DATA
  6
CONTINUOUS
 62
     7
 10
211.64647209550259
 20
291.21342097641912
 30
0.0
  0
VERTEX
  5
72B
  8
DATA
  6
CONTINUOUS
 62
     7
 10
211.64030630444151
 20
291.21966217699179
 30
0.0
  0
VERTEX
  5
72C
  8
DATA
  6
CONTINUOUS
 62
     7
 10
211.634093653241
 20
291.22584657739588
 30
0.0
  0
VERTEX
  5
72D
  8
DATA
  6
CONTINUOUS
 62
     7
 10
211.62783414190139
 20
291.23197417763112
 30
0.0
  0
VERTEX
  5
72E
  8
DATA
  6
CONTINUOUS
 62
     7
 10
211.62152777042249
 20
291.23804497769771
 30
0.0
  0
VERTEX
  5
72F
  8
DATA
  6
CONTINUOUS
 62
     7
 10
211.6151745388045
 20
291.24405897759539
 30
0.0
  0
VERTEX
  5
730
  8
DATA
  6
CONTINUOUS
 62
     7
 10
211.6087744470473
 20
291.25001617732448
 30
0.0
  0
VERTEX
  5
731
  8
DATA
  6
CONTINUOUS
 62
     7
 10
211.6023274951508
 20
291.25591657688477
 30
0.0
  0
VERTEX
  5
732
  8
DATA
  6
CONTINUOUS
 62
     7
 10
211.59583368311519
 20
291.26176017627643
 30
0.0
  0
VERTEX
  5
733
  8
DATA
  6
CONTINUOUS
 62
     7
 10
211.58929301094039
 20
291.26754697549927
 30
0.0
  0
VERTEX
  5
734
  8
DATA
  6
CONTINUOUS
 62
     7
 10
211.58270547862639
 20
291.27327697455343
 30
0.0
  0
VERTEX
  5
735
  8
DATA
  6
CONTINUOUS
 62
     7
 10
211.57607108617319
 20
291.27895017343877
 30
0.0
  0
VERTEX
  5
736
  8
DATA
  6
CONTINUOUS
 62
     7
 10
211.56938983358069
 20
291.28456657215548
 30
0.0
  0
VERTEX
  5
737
  8
DATA
  6
CONTINUOUS
 62
     7
 10
211.56266172084901
 20
291.29012617070339
 30
0.0
  0
VERTEX
  5
738
  8
DATA
  6
CONTINUOUS
 62
     7
 10
211.55588674797821
 20
291.29562896908249
 30
0.0
  0
VERTEX
  5
739
  8
DATA
  6
CONTINUOUS
 62
     7
 10
211.54906491496811
 20
291.30107496729289
 30
0.0
  0
VERTEX
  5
73A
  8
DATA
  6
CONTINUOUS
 62
     7
 10
211.5421962218189
 20
291.3064641653346
 30
0.0
  0
VERTEX
  5
73B
  8
DATA
  6
CONTINUOUS
 62
     7
 10
211.53528066853039
 20
291.31179656320768
 30
0.0
  0
VERTEX
  5
73C
  8
DATA
  6
CONTINUOUS
 62
     7
 10
211.5283182551027
 20
291.31707216091201
 30
0.0
  0
VERTEX
  5
73D
  8
DATA
  6
CONTINUOUS
 62
     7
 10
211.52130898153581
 20
291.32229095844741
 30
0.0
  0
VERTEX
  5
73E
  8
DATA
  6
CONTINUOUS
 62
     7
 10
211.51425284782971
 20
291.32745295581441
 30
0.0
  0
VERTEX
  5
73F
  8
DATA
  6
CONTINUOUS
 62
     7
 10
211.5071498539844
 20
291.33255815301243
 30
0.0
  0
VERTEX
  5
740
  8
DATA
  6
CONTINUOUS
 62
     7
 10
211.5
 20
291.3376065500417
 30
0.0
  0
VERTEX
  5
741
  8
DATA
  6
CONTINUOUS
 62
     7
 10
211.5
 20
291.3376065500417
 30
0.0
  0
VERTEX
  5
742
  8
DATA
  6
CONTINUOUS
 62
     7
 10
211.49273964800929
 20
291.34264169851463
 30
0.0
  0
VERTEX
  5
743
  8
DATA
  6
CONTINUOUS
 62
     7
 10
211.48546176751049
 20
291.34759755331061
 30
0.0
  0
VERTEX
  5
744
  8
DATA
  6
CONTINUOUS
 62
     7
 10
211.47816635850339
 20
291.35247411442998
 30
0.0
  0
VERTEX
  5
745
  8
DATA
  6
CONTINUOUS
 62
     7
 10
211.47085342098799
 20
291.35727138187269
 30
0.0
  0
VERTEX
  5
746
  8
DATA
  6
CONTINUOUS
 62
     7
 10
211.46352295496439
 20
291.36198935563851
 30
0.0
  0
VERTEX
  5
747
  8
DATA
  6
CONTINUOUS
 62
     7
 10
211.45617496043261
 20
291.36662803572767
 30
0.0
  0
VERTEX
  5
748
  8
DATA
  6
CONTINUOUS
 62
     7
 10
211.44880943739261
 20
291.37118742214011
 30
0.0
  0
VERTEX
  5
749
  8
DATA
  6
CONTINUOUS
 62
     7
 10
211.4414263858443
 20
291.37566751487572
 30
0.0
  0
VERTEX
  5
74A
  8
DATA
  6
CONTINUOUS
 62
     7
 10
211.4340258057878
 20
291.38006831393471
 30
0.0
  0
VERTEX
  5
74B
  8
DATA
  6
CONTINUOUS
 62
     7
 10
211.42660769722301
 20
291.38438981931682
 30
0.0
  0
VERTEX
  5
74C
  8
DATA
  6
CONTINUOUS
 62
     7
 10
211.41917206015009
 20
291.38863203102221
 30
0.0
  0
VERTEX
  5
74D
  8
DATA
  6
CONTINUOUS
 62
     7
 10
211.41171889456879
 20
291.39279494905099
 30
0.0
  0
VERTEX
  5
74E
  8
DATA
  6
CONTINUOUS
 62
     7
 10
211.4042482004794
 20
291.396878573403
 30
0.0
  0
VERTEX
  5
74F
  8
DATA
  6
CONTINUOUS
 62
     7
 10
211.39675997788169
 20
291.40088290407817
 30
0.0
  0
VERTEX
  5
750
  8
DATA
  6
CONTINUOUS
 62
     7
 10
211.38925422677571
 20
291.40480794107668
 30
0.0
  0
VERTEX
  5
751
  8
DATA
  6
CONTINUOUS
 62
     7
 10
211.38173094716171
 20
291.40865368439847
 30
0.0
  0
VERTEX
  5
752
  8
DATA
  6
CONTINUOUS
 62
     7
 10
211.37419013903931
 20
291.4124201340436
 30
0.0
  0
VERTEX
  5
753
  8
DATA
  6
CONTINUOUS
 62
     7
 10
211.3666318024087
 20
291.41610729001178
 30
0.0
  0
VERTEX
  5
754
  8
DATA
  6
CONTINUOUS
 62
     7
 10
211.35905593726989
 20
291.41971515230341
 30
0.0
  0
VERTEX
  5
755
  8
DATA
  6
CONTINUOUS
 62
     7
 10
211.3514625436228
 20
291.42324372091821
 30
0.0
  0
VERTEX
  5
756
  8
DATA
  6
CONTINUOUS
 62
     7
 10
211.34385162146739
 20
291.42669299585629
 30
0.0
  0
VERTEX
  5
757
  8
DATA
  6
CONTINUOUS
 62
     7
 10
211.33622317080381
 20
291.43006297711759
 30
0.0
  0
VERTEX
  5
758
  8
DATA
  6
CONTINUOUS
 62
     7
 10
211.32857719163209
 20
291.43335366470228
 30
0.0
  0
VERTEX
  5
759
  8
DATA
  6
CONTINUOUS
 62
     7
 10
211.32091368395211
 20
291.43656505861009
 30
0.0
  0
VERTEX
  5
75A
  8
DATA
  6
CONTINUOUS
 62
     7
 10
211.3132326477639
 20
291.43969715884123
 30
0.0
  0
VERTEX
  5
75B
  8
DATA
  6
CONTINUOUS
 62
     7
 10
211.30553408306741
 20
291.44274996539571
 30
0.0
  0
VERTEX
  5
75C
  8
DATA
  6
CONTINUOUS
 62
     7
 10
211.29781798986261
 20
291.44572347827318
 30
0.0
  0
VERTEX
  5
75D
  8
DATA
  6
CONTINUOUS
 62
     7
 10
211.29008436814971
 20
291.44861769747428
 30
0.0
  0
VERTEX
  5
75E
  8
DATA
  6
CONTINUOUS
 62
     7
 10
211.28233321792851
 20
291.45143262299831
 30
0.0
  0
VERTEX
  5
75F
  8
DATA
  6
CONTINUOUS
 62
     7
 10
211.2745645391991
 20
291.4541682548458
 30
0.0
  0
VERTEX
  5
760
  8
DATA
  6
CONTINUOUS
 62
     7
 10
211.26677833196149
 20
291.45682459301651
 30
0.0
  0
VERTEX
  5
761
  8
DATA
  6
CONTINUOUS
 62
     7
 10
211.2589745962155
 20
291.45940163751038
 30
0.0
  0
VERTEX
  5
762
  8
DATA
  6
CONTINUOUS
 62
     7
 10
211.2511533319614
 20
291.46189938832759
 30
0.0
  0
VERTEX
  5
763
  8
DATA
  6
CONTINUOUS
 62
     7
 10
211.2433145391991
 20
291.4643178454682
 30
0.0
  0
VERTEX
  5
764
  8
DATA
  6
CONTINUOUS
 62
     7
 10
211.23545821792851
 20
291.46665700893192
 30
0.0
  0
VERTEX
  5
765
  8
DATA
  6
CONTINUOUS
 62
     7
 10
211.22758436814971
 20
291.46891687871891
 30
0.0
  0
VERTEX
  5
766
  8
DATA
  6
CONTINUOUS
 62
     7
 10
211.21969298986261
 20
291.47109745482919
 30
0.0
  0
VERTEX
  5
767
  8
DATA
  6
CONTINUOUS
 62
     7
 10
211.2117840830673
 20
291.47319873726269
 30
0.0
  0
VERTEX
  5
768
  8
DATA
  6
CONTINUOUS
 62
     7
 10
211.2038576477639
 20
291.47522072601947
 30
0.0
  0
VERTEX
  5
769
  8
DATA
  6
CONTINUOUS
 62
     7
 10
211.19591368395211
 20
291.47716342109959
 30
0.0
  0
VERTEX
  5
76A
  8
DATA
  6
CONTINUOUS
 62
     7
 10
211.18795219163209
 20
291.47902682250287
 30
0.0
  0
VERTEX
  5
76B
  8
DATA
  6
CONTINUOUS
 62
     7
 10
211.17997317080389
 20
291.4808109302295
 30
0.0
  0
VERTEX
  5
76C
  8
DATA
  6
CONTINUOUS
 62
     7
 10
211.17197662146751
 20
291.48251574427951
 30
0.0
  0
VERTEX
  5
76D
  8
DATA
  6
CONTINUOUS
 62
     7
 10
211.16396254362269
 20
291.48414126465241
 30
0.0
  0
VERTEX
  5
76E
  8
DATA
  6
CONTINUOUS
 62
     7
 10
211.15593093726989
 20
291.48568749134893
 30
0.0
  0
VERTEX
  5
76F
  8
DATA
  6
CONTINUOUS
 62
     7
 10
211.1478818024087
 20
291.4871544243685
 30
0.0
  0
VERTEX
  5
770
  8
DATA
  6
CONTINUOUS
 62
     7
 10
211.1398151390392
 20
291.48854206371141
 30
0.0
  0
VERTEX
  5
771
  8
DATA
  6
CONTINUOUS
 62
     7
 10
211.13173094716171
 20
291.48985040937771
 30
0.0
  0
VERTEX
  5
772
  8
DATA
  6
CONTINUOUS
 62
     7
 10
211.12362922677571
 20
291.49107946136701
 30
0.0
  0
VERTEX
  5
773
  8
DATA
  6
CONTINUOUS
 62
     7
 10
211.11550997788169
 20
291.49222921967981
 30
0.0
  0
VERTEX
  5
774
  8
DATA
  6
CONTINUOUS
 62
     7
 10
211.1073732004794
 20
291.49329968431567
 30
0.0
  0
VERTEX
  5
775
  8
DATA
  6
CONTINUOUS
 62
     7
 10
211.09921889456879
 20
291.49429085527493
 30
0.0
  0
VERTEX
  5
776
  8
DATA
  6
CONTINUOUS
 62
     7
 10
211.09104706015009
 20
291.49520273255729
 30
0.0
  0
VERTEX
  5
777
  8
DATA
  6
CONTINUOUS
 62
     7
 10
211.08285769722301
 20
291.49603531616322
 30
0.0
  0
VERTEX
  5
778
  8
DATA
  6
CONTINUOUS
 62
     7
 10
211.07465080578771
 20
291.4967886060922
 30
0.0
  0
VERTEX
  5
779
  8
DATA
  6
CONTINUOUS
 62
     7
 10
211.0664263858443
 20
291.49746260234429
 30
0.0
  0
VERTEX
  5
77A
  8
DATA
  6
CONTINUOUS
 62
     7
 10
211.05818443739261
 20
291.49805730491988
 30
0.0
  0
VERTEX
  5
77B
  8
DATA
  6
CONTINUOUS
 62
     7
 10
211.04992496043261
 20
291.4985727138187
 30
0.0
  0
VERTEX
  5
77C
  8
DATA
  6
CONTINUOUS
 62
     7
 10
211.04164795496439
 20
291.4990088290408
 30
0.0
  0
VERTEX
  5
77D
  8
DATA
  6
CONTINUOUS
 62
     7
 10
211.03335342098799
 20
291.49936565058613
 30
0.0
  0
VERTEX
  5
77E
  8
DATA
  6
CONTINUOUS
 62
     7
 10
211.02504135850339
 20
291.49964317845479
 30
0.0
  0
VERTEX
  5
77F
  8
DATA
  6
CONTINUOUS
 62
     7
 10
211.0167117675104
 20
291.49984141264662
 30
0.0
  0
VERTEX
  5
780
  8
DATA
  6
CONTINUOUS
 62
     7
 10
211.00836464800929
 20
291.49996035316173
 30
0.0
  0
VERTEX
  5
781
  8
DATA
  6
CONTINUOUS
 62
     7
 10
211.0
 20
291.5
 30
0.0
  0
VERTEX
  5
782
  8
DATA
  6
CONTINUOUS
 62
     7
 10
211.0
 20
291.5
 30
0.0
  0
SEQEND
  5
783
  8
DATA
  6
CONTINUOUS
 62
     7
  0
POLYLINE
  5
2ED
  8
DATA
  6
CONTINUOUS
 62
     7
 66
     1
 10
0.0
 20
0.0
 30
0.0
 70
   128
  0
VERTEX
  5
784
  8
DATA
  6
CONTINUOUS
 62
     7
 10
211.0
 20
251.5
 30
0.0
  0
VERTEX
  5
785
  8
DATA
  6
CONTINUOUS
 62
     7
 10
211.00836464800929
 20
251.50003964683839
 30
0.0
  0
VERTEX
  5
786
  8
DATA
  6
CONTINUOUS
 62
     7
 10
211.0167117675104
 20
251.5001585873535
 30
0.0
  0
VERTEX
  5
787
  8
DATA
  6
CONTINUOUS
 62
     7
 10
211.02504135850339
 20
251.5003568215453
 30
0.0
  0
VERTEX
  5
788
  8
DATA
  6
CONTINUOUS
 62
     7
 10
211.03335342098799
 20
251.5006343494139
 30
0.0
  0
VERTEX
  5
789
  8
DATA
  6
CONTINUOUS
 62
     7
 10
211.04164795496439
 20
251.5009911709592
 30
0.0
  0
VERTEX
  5
78A
  8
DATA
  6
CONTINUOUS
 62
     7
 10
211.04992496043261
 20
251.5014272861813
 30
0.0
  0
VERTEX
  5
78B
  8
DATA
  6
CONTINUOUS
 62
     7
 10
211.05818443739261
 20
251.50194269508009
 30
0.0
  0
VERTEX
  5
78C
  8
DATA
  6
CONTINUOUS
 62
     7
 10
211.0664263858443
 20
251.5025373976556
 30
0.0
  0
VERTEX
  5
78D
  8
DATA
  6
CONTINUOUS
 62
     7
 10
211.07465080578771
 20
251.50321139390789
 30
0.0
  0
VERTEX
  5
78E
  8
DATA
  6
CONTINUOUS
 62
     7
 10
211.08285769722301
 20
251.5039646838369
 30
0.0
  0
VERTEX
  5
78F
  8
DATA
  6
CONTINUOUS
 62
     7
 10
211.09104706015009
 20
251.5047972674426
 30
0.0
  0
VERTEX
  5
790
  8
DATA
  6
CONTINUOUS
 62
     7
 10
211.09921889456879
 20
251.5057091447251
 30
0.0
  0
VERTEX
  5
791
  8
DATA
  6
CONTINUOUS
 62
     7
 10
211.1073732004794
 20
251.5067003156843
 30
0.0
  0
VERTEX
  5
792
  8
DATA
  6
CONTINUOUS
 62
     7
 10
211.11550997788169
 20
251.5077707803203
 30
0.0
  0
VERTEX
  5
793
  8
DATA
  6
CONTINUOUS
 62
     7
 10
211.12362922677571
 20
251.50892053863299
 30
0.0
  0
VERTEX
  5
794
  8
DATA
  6
CONTINUOUS
 62
     7
 10
211.13173094716171
 20
251.5101495906224
 30
0.0
  0
VERTEX
  5
795
  8
DATA
  6
CONTINUOUS
 62
     7
 10
211.1398151390392
 20
251.51145793628859
 30
0.0
  0
VERTEX
  5
796
  8
DATA
  6
CONTINUOUS
 62
     7
 10
211.1478818024087
 20
251.5128455756315
 30
0.0
  0
VERTEX
  5
797
  8
DATA
  6
CONTINUOUS
 62
     7
 10
211.15593093726989
 20
251.5143125086511
 30
0.0
  0
VERTEX
  5
798
  8
DATA
  6
CONTINUOUS
 62
     7
 10
211.16396254362269
 20
251.51585873534751
 30
0.0
  0
VERTEX
  5
799
  8
DATA
  6
CONTINUOUS
 62
     7
 10
211.17197662146751
 20
251.5174842557206
 30
0.0
  0
VERTEX
  5
79A
  8
DATA
  6
CONTINUOUS
 62
     7
 10
211.17997317080389
 20
251.5191890697705
 30
0.0
  0
VERTEX
  5
79B
  8
DATA
  6
CONTINUOUS
 62
     7
 10
211.18795219163209
 20
251.5209731774971
 30
0.0
  0
VERTEX
  5
79C
  8
DATA
  6
CONTINUOUS
 62
     7
 10
211.19591368395211
 20
251.52283657890041
 30
0.0
  0
VERTEX
  5
79D
  8
DATA
  6
CONTINUOUS
 62
     7
 10
211.2038576477639
 20
251.52477927398041
 30
0.0
  0
VERTEX
  5
79E
  8
DATA
  6
CONTINUOUS
 62
     7
 10
211.2117840830673
 20
251.52680126273719
 30
0.0
  0
VERTEX
  5
79F
  8
DATA
  6
CONTINUOUS
 62
     7
 10
211.21969298986261
 20
251.52890254517081
 30
0.0
  0
VERTEX
  5
7A0
  8
DATA
  6
CONTINUOUS
 62
     7
 10
211.22758436814971
 20
251.531083121281
 30
0.0
  0
VERTEX
  5
7A1
  8
DATA
  6
CONTINUOUS
 62
     7
 10
211.23545821792851
 20
251.53334299106811
 30
0.0
  0
VERTEX
  5
7A2
  8
DATA
  6
CONTINUOUS
 62
     7
 10
211.2433145391991
 20
251.53568215453191
 30
0.0
  0
VERTEX
  5
7A3
  8
DATA
  6
CONTINUOUS
 62
     7
 10
211.2511533319614
 20
251.53810061167229
 30
0.0
  0
VERTEX
  5
7A4
  8
DATA
  6
CONTINUOUS
 62
     7
 10
211.2589745962155
 20
251.54059836248959
 30
0.0
  0
VERTEX
  5
7A5
  8
DATA
  6
CONTINUOUS
 62
     7
 10
211.26677833196149
 20
251.54317540698349
 30
0.0
  0
VERTEX
  5
7A6
  8
DATA
  6
CONTINUOUS
 62
     7
 10
211.2745645391991
 20
251.54583174515429
 30
0.0
  0
VERTEX
  5
7A7
  8
DATA
  6
CONTINUOUS
 62
     7
 10
211.28233321792851
 20
251.54856737700169
 30
0.0
  0
VERTEX
  5
7A8
  8
DATA
  6
CONTINUOUS
 62
     7
 10
211.29008436814971
 20
251.55138230252581
 30
0.0
  0
VERTEX
  5
7A9
  8
DATA
  6
CONTINUOUS
 62
     7
 10
211.29781798986261
 20
251.55427652172679
 30
0.0
  0
VERTEX
  5
7AA
  8
DATA
  6
CONTINUOUS
 62
     7
 10
211.30553408306741
 20
251.55725003460449
 30
0.0
  0
VERTEX
  5
7AB
  8
DATA
  6
CONTINUOUS
 62
     7
 10
211.3132326477639
 20
251.56030284115889
 30
0.0
  0
VERTEX
  5
7AC
  8
DATA
  6
CONTINUOUS
 62
     7
 10
211.32091368395211
 20
251.56343494139
 30
0.0
  0
VERTEX
  5
7AD
  8
DATA
  6
CONTINUOUS
 62
     7
 10
211.32857719163209
 20
251.56664633529789
 30
0.0
  0
VERTEX
  5
7AE
  8
DATA
  6
CONTINUOUS
 62
     7
 10
211.33622317080381
 20
251.5699370228825
 30
0.0
  0
VERTEX
  5
7AF
  8
DATA
  6
CONTINUOUS
 62
     7
 10
211.34385162146739
 20
251.5733070041438
 30
0.0
  0
VERTEX
  5
7B0
  8
DATA
  6
CONTINUOUS
 62
     7
 10
211.3514625436228
 20
251.57675627908191
 30
0.0
  0
VERTEX
  5
7B1
  8
DATA
  6
CONTINUOUS
 62
     7
 10
211.35905593726989
 20
251.5802848476967
 30
0.0
  0
VERTEX
  5
7B2
  8
DATA
  6
CONTINUOUS
 62
     7
 10
211.3666318024087
 20
251.58389270998831
 30
0.0
  0
VERTEX
  5
7B3
  8
DATA
  6
CONTINUOUS
 62
     7
 10
211.37419013903931
 20
251.58757986595651
 30
0.0
  0
VERTEX
  5
7B4
  8
DATA
  6
CONTINUOUS
 62
     7
 10
211.38173094716171
 20
251.59134631560161
 30
0.0
  0
VERTEX
  5
7B5
  8
DATA
  6
CONTINUOUS
 62
     7
 10
211.38925422677571
 20
251.59519205892329
 30
0.0
  0
VERTEX
  5
7B6
  8
DATA
  6
CONTINUOUS
 62
     7
 10
211.39675997788169
 20
251.5991170959218
 30
0.0
  0
VERTEX
  5
7B7
  8
DATA
  6
CONTINUOUS
 62
     7
 10
211.4042482004794
 20
251.603121426597
 30
0.0
  0
VERTEX
  5
7B8
  8
DATA
  6
CONTINUOUS
 62
     7
 10
211.41171889456879
 20
251.60720505094901
 30
0.0
  0
VERTEX
  5
7B9
  8
DATA
  6
CONTINUOUS
 62
     7
 10
211.41917206015009
 20
251.6113679689777
 30
0.0
  0
VERTEX
  5
7BA
  8
DATA
  6
CONTINUOUS
 62
     7
 10
211.42660769722301
 20
251.61561018068329
 30
0.0
  0
VERTEX
  5
7BB
  8
DATA
  6
CONTINUOUS
 62
     7
 10
211.4340258057878
 20
251.6199316860654
 30
0.0
  0
VERTEX
  5
7BC
  8
DATA
  6
CONTINUOUS
 62
     7
 10
211.4414263858443
 20
251.6243324851244
 30
0.0
  0
VERTEX
  5
7BD
  8
DATA
  6
CONTINUOUS
 62
     7
 10
211.44880943739261
 20
251.62881257786
 30
0.0
  0
VERTEX
  5
7BE
  8
DATA
  6
CONTINUOUS
 62
     7
 10
211.45617496043261
 20
251.63337196427241
 30
0.0
  0
VERTEX
  5
7BF
  8
DATA
  6
CONTINUOUS
 62
     7
 10
211.46352295496439
 20
251.6380106443616
 30
0.0
  0
VERTEX
  5
7C0
  8
DATA
  6
CONTINUOUS
 62
     7
 10
211.47085342098799
 20
251.64272861812739
 30
0.0
  0
VERTEX
  5
7C1
  8
DATA
  6
CONTINUOUS
 62
     7
 10
211.47816635850339
 20
251.64752588556999
 30
0.0
  0
VERTEX
  5
7C2
  8
DATA
  6
CONTINUOUS
 62
     7
 10
211.48546176751049
 20
251.65240244668939
 30
0.0
  0
VERTEX
  5
7C3
  8
DATA
  6
CONTINUOUS
 62
     7
 10
211.49273964800929
 20
251.65735830148549
 30
0.0
  0
VERTEX
  5
7C4
  8
DATA
  6
CONTINUOUS
 62
     7
 10
211.5
 20
251.6623934499583
 30
0.0
  0
VERTEX
  5
7C5
  8
DATA
  6
CONTINUOUS
 62
     7
 10
211.5
 20
251.6623934499583
 30
0.0
  0
VERTEX
  5
7C6
  8
DATA
  6
CONTINUOUS
 62
     7
 10
211.5072276433489
 20
251.66749726876961
 30
0.0
  0
VERTEX
  5
7C7
  8
DATA
  6
CONTINUOUS
 62
     7
 10
211.51440739792289
 20
251.6726591345809
 30
0.0
  0
VERTEX
  5
7C8
  8
DATA
  6
CONTINUOUS
 62
     7
 10
211.52153926372171
 20
251.67787904739231
 30
0.0
  0
VERTEX
  5
7C9
  8
DATA
  6
CONTINUOUS
 62
     7
 10
211.5286232407455
 20
251.68315700720379
 30
0.0
  0
VERTEX
  5
7CA
  8
DATA
  6
CONTINUOUS
 62
     7
 10
211.5356593289942
 20
251.68849301401539
 30
0.0
  0
VERTEX
  5
7CB
  8
DATA
  6
CONTINUOUS
 62
     7
 10
211.5426475284678
 20
251.69388706782709
 30
0.0
  0
VERTEX
  5
7CC
  8
DATA
  6
CONTINUOUS
 62
     7
 10
211.54958783916641
 20
251.69933916863889
 30
0.0
  0
VERTEX
  5
7CD
  8
DATA
  6
CONTINUOUS
 62
     7
 10
211.5564802610898
 20
251.7048493164508
 30
0.0
  0
VERTEX
  5
7CE
  8
DATA
  6
CONTINUOUS
 62
     7
 10
211.56332479423821
 20
251.7104175112627
 30
0.0
  0
VERTEX
  5
7CF
  8
DATA
  6
CONTINUOUS
 62
     7
 10
211.57012143861149
 20
251.71604375307481
 30
0.0
  0
VERTEX
  5
7D0
  8
DATA
  6
CONTINUOUS
 62
     7
 10
211.5768701942097
 20
251.72172804188691
 30
0.0
  0
VERTEX
  5
7D1
  8
DATA
  6
CONTINUOUS
 62
     7
 10
211.5835710610329
 20
251.72747037769921
 30
0.0
  0
VERTEX
  5
7D2
  8
DATA
  6
CONTINUOUS
 62
     7
 10
211.59022403908099
 20
251.73327076051149
 30
0.0
  0
VERTEX
  5
7D3
  8
DATA
  6
CONTINUOUS
 62
     7
 10
211.59682912835399
 20
251.73912919032389
 30
0.0
  0
VERTEX
  5
7D4
  8
DATA
  6
CONTINUOUS
 62
     7
 10
211.603386328852
 20
251.7450456671364
 30
0.0
  0
VERTEX
  5
7D5
  8
DATA
  6
CONTINUOUS
 62
     7
 10
211.60989564057479
 20
251.75102019094899
 30
0.0
  0
VERTEX
  5
7D6
  8
DATA
  6
CONTINUOUS
 62
     7
 10
211.6163570635226
 20
251.75705276176171
 30
0.0
  0
VERTEX
  5
7D7
  8
DATA
  6
CONTINUOUS
 62
     7
 10
211.62277059769539
 20
251.76314337957459
 30
0.0
  0
VERTEX
  5
7D8
  8
DATA
  6
CONTINUOUS
 62
     7
 10
211.629136243093
 20
251.76929204438741
 30
0.0
  0
VERTEX
  5
7D9
  8
DATA
  6
CONTINUOUS
 62
     7
 10
211.63545399971559
 20
251.77549875620039
 30
0.0
  0
VERTEX
  5
7DA
  8
DATA
  6
CONTINUOUS
 62
     7
 10
211.641723867563
 20
251.78176351501349
 30
0.0
  0
VERTEX
  5
7DB
  8
DATA
  6
CONTINUOUS
 62
     7
 10
211.64794584663551
 20
251.78808632082661
 30
0.0
  0
VERTEX
  5
7DC
  8
DATA
  6
CONTINUOUS
 62
     7
 10
211.6541199369328
 20
251.79446717363979
 30
0.0
  0
VERTEX
  5
7DD
  8
DATA
  6
CONTINUOUS
 62
     7
 10
211.66024613845511
 20
251.80090607345309
 30
0.0
  0
VERTEX
  5
7DE
  8
DATA
  6
CONTINUOUS
 62
     7
 10
211.66632445120231
 20
251.80740302026649
 30
0.0
  0
VERTEX
  5
7DF
  8
DATA
  6
CONTINUOUS
 62
     7
 10
211.67235487517439
 20
251.8139580140801
 30
0.0
  0
VERTEX
  5
7E0
  8
DATA
  6
CONTINUOUS
 62
     7
 10
211.6783374103714
 20
251.82057105489369
 30
0.0
  0
VERTEX
  5
7E1
  8
DATA
  6
CONTINUOUS
 62
     7
 10
211.68427205679339
 20
251.82724214270729
 30
0.0
  0
VERTEX
  5
7E2
  8
DATA
  6
CONTINUOUS
 62
     7
 10
211.69015881444039
 20
251.83397127752119
 30
0.0
  0
VERTEX
  5
7E3
  8
DATA
  6
CONTINUOUS
 62
     7
 10
211.6959976833121
 20
251.84075845933501
 30
0.0
  0
VERTEX
  5
7E4
  8
DATA
  6
CONTINUOUS
 62
     7
 10
211.70178866340891
 20
251.84760368814901
 30
0.0
  0
VERTEX
  5
7E5
  8
DATA
  6
CONTINUOUS
 62
     7
 10
211.7075317547305
 20
251.85450696396299
 30
0.0
  0
VERTEX
  5
7E6
  8
DATA
  6
CONTINUOUS
 62
     7
 10
211.7132269572771
 20
251.86146828677721
 30
0.0
  0
VERTEX
  5
7E7
  8
DATA
  6
CONTINUOUS
 62
     7
 10
211.71887427104861
 20
251.86848765659141
 30
0.0
  0
VERTEX
  5
7E8
  8
DATA
  6
CONTINUOUS
 62
     7
 10
211.7244736960451
 20
251.87556507340571
 30
0.0
  0
VERTEX
  5
7E9
  8
DATA
  6
CONTINUOUS
 62
     7
 10
211.73002523226651
 20
251.88270053722019
 30
0.0
  0
VERTEX
  5
7EA
  8
DATA
  6
CONTINUOUS
 62
     7
 10
211.7355288797128
 20
251.88989404803471
 30
0.0
  0
VERTEX
  5
7EB
  8
DATA
  6
CONTINUOUS
 62
     7
 10
211.74098463838399
 20
251.89714560584929
 30
0.0
  0
VERTEX
  5
7EC
  8
DATA
  6
CONTINUOUS
 62
     7
 10
211.74639250828011
 20
251.904455210664
 30
0.0
  0
VERTEX
  5
7ED
  8
DATA
  6
CONTINUOUS
 62
     7
 10
211.75175248940121
 20
251.91182286247869
 30
0.0
  0
VERTEX
  5
7EE
  8
DATA
  6
CONTINUOUS
 62
     7
 10
211.75706458174719
 20
251.91924856129361
 30
0.0
  0
VERTEX
  5
7EF
  8
DATA
  6
CONTINUOUS
 62
     7
 10
211.76232878531809
 20
251.92673230710861
 30
0.0
  0
VERTEX
  5
7F0
  8
DATA
  6
CONTINUOUS
 62
     7
 10
211.76754510011401
 20
251.93427409992361
 30
0.0
  0
VERTEX
  5
7F1
  8
DATA
  6
CONTINUOUS
 62
     7
 10
211.77271352613479
 20
251.94187393973871
 30
0.0
  0
VERTEX
  5
7F2
  8
DATA
  6
CONTINUOUS
 62
     7
 10
211.7778340633804
 20
251.94953182655399
 30
0.0
  0
VERTEX
  5
7F3
  8
DATA
  6
CONTINUOUS
 62
     7
 10
211.7829067118511
 20
251.95724776036931
 30
0.0
  0
VERTEX
  5
7F4
  8
DATA
  6
CONTINUOUS
 62
     7
 10
211.78793147154661
 20
251.9650217411847
 30
0.0
  0
VERTEX
  5
7F5
  8
DATA
  6
CONTINUOUS
 62
     7
 10
211.79290834246709
 20
251.97285376900021
 30
0.0
  0
VERTEX
  5
7F6
  8
DATA
  6
CONTINUOUS
 62
     7
 10
211.79783732461249
 20
251.98074384381579
 30
0.0
  0
VERTEX
  5
7F7
  8
DATA
  6
CONTINUOUS
 62
     7
 10
211.80271841798279
 20
251.98869196563149
 30
0.0
  0
VERTEX
  5
7F8
  8
DATA
  6
CONTINUOUS
 62
     7
 10
211.80755162257799
 20
251.99669813444731
 30
0.0
  0
VERTEX
  5
7F9
  8
DATA
  6
CONTINUOUS
 62
     7
 10
211.81233693839829
 20
252.00476235026321
 30
0.0
  0
VERTEX
  5
7FA
  8
DATA
  6
CONTINUOUS
 62
     7
 10
211.81707436544329
 20
252.01288461307911
 30
0.0
  0
VERTEX
  5
7FB
  8
DATA
  6
CONTINUOUS
 62
     7
 10
211.8217639037133
 20
252.02106492289519
 30
0.0
  0
VERTEX
  5
7FC
  8
DATA
  6
CONTINUOUS
 62
     7
 10
211.8264055532083
 20
252.02930327971131
 30
0.0
  0
VERTEX
  5
7FD
  8
DATA
  6
CONTINUOUS
 62
     7
 10
211.83099931392809
 20
252.0375996835275
 30
0.0
  0
VERTEX
  5
7FE
  8
DATA
  6
CONTINUOUS
 62
     7
 10
211.83554518587289
 20
252.04595413434379
 30
0.0
  0
VERTEX
  5
7FF
  8
DATA
  6
CONTINUOUS
 62
     7
 10
211.8400431690427
 20
252.05436663216031
 30
0.0
  0
VERTEX
  5
800
  8
DATA
  6
CONTINUOUS
 62
     7
 10
211.84449326343741
 20
252.0628371769767
 30
0.0
  0
VERTEX
  5
801
  8
DATA
  6
CONTINUOUS
 62
     7
 10
211.84889546905691
 20
252.0713657687933
 30
0.0
  0
VERTEX
  5
802
  8
DATA
  6
CONTINUOUS
 62
     7
 10
211.8532497859014
 20
252.07995240760999
 30
0.0
  0
VERTEX
  5
803
  8
DATA
  6
CONTINUOUS
 62
     7
 10
211.85755621397081
 20
252.08859709342681
 30
0.0
  0
VERTEX
  5
804
  8
DATA
  6
CONTINUOUS
 62
     7
 10
211.86181475326521
 20
252.0972998262437
 30
0.0
  0
VERTEX
  5
805
  8
DATA
  6
CONTINUOUS
 62
     7
 10
211.86602540378439
 20
252.10606060606059
 30
0.0
  0
VERTEX
  5
806
  8
DATA
  6
CONTINUOUS
 62
     7
 10
211.86602540378439
 20
252.10606060606059
 30
0.0
  0
VERTEX
  5
807
  8
DATA
  6
CONTINUOUS
 62
     7
 10
211.8701794012745
 20
252.11486103271591
 30
0.0
  0
VERTEX
  5
808
  8
DATA
  6
CONTINUOUS
 62
     7
 10
211.8742679814813
 20
252.12368270604799
 30
0.0
  0
VERTEX
  5
809
  8
DATA
  6
CONTINUOUS
 62
     7
 10
211.8782911444049
 20
252.13252562605649
 30
0.0
  0
VERTEX
  5
80A
  8
DATA
  6
CONTINUOUS
 62
     7
 10
211.88224889004491
 20
252.14138979274171
 30
0.0
  0
VERTEX
  5
80B
  8
DATA
  6
CONTINUOUS
 62
     7
 10
211.8861412184018
 20
252.15027520610369
 30
0.0
  0
VERTEX
  5
80C
  8
DATA
  6
CONTINUOUS
 62
     7
 10
211.88996812947531
 20
252.15918186614229
 30
0.0
  0
VERTEX
  5
80D
  8
DATA
  6
CONTINUOUS
 62
     7
 10
211.89372962326561
 20
252.16810977285741
 30
0.0
  0
VERTEX
  5
80E
  8
DATA
  6
CONTINUOUS
 62
     7
 10
211.8974256997725
 20
252.17705892624929
 30
0.0
  0
VERTEX
  5
80F
  8
DATA
  6
CONTINUOUS
 62
     7
 10
211.9010563589961
 20
252.18602932631771
 30
0.0
  0
VERTEX
  5
810
  8
DATA
  6
CONTINUOUS
 62
     7
 10
211.90462160093639
 20
252.1950209730629
 30
0.0
  0
VERTEX
  5
811
  8
DATA
  6
CONTINUOUS
 62
     7
 10
211.90812142559341
 20
252.20403386648479
 30
0.0
  0
VERTEX
  5
812
  8
DATA
  6
CONTINUOUS
 62
     7
 10
211.911555832967
 20
252.2130680065832
 30
0.0
  0
VERTEX
  5
813
  8
DATA
  6
CONTINUOUS
 62
     7
 10
211.91492482305739
 20
252.22212339335829
 30
0.0
  0
VERTEX
  5
814
  8
DATA
  6
CONTINUOUS
 62
     7
 10
211.9182283958645
 20
252.23120002681
 30
0.0
  0
VERTEX
  5
815
  8
DATA
  6
CONTINUOUS
 62
     7
 10
211.92146655138831
 20
252.24029790693839
 30
0.0
  0
VERTEX
  5
816
  8
DATA
  6
CONTINUOUS
 62
     7
 10
211.92463928962869
 20
252.24941703374341
 30
0.0
  0
VERTEX
  5
817
  8
DATA
  6
CONTINUOUS
 62
     7
 10
211.9277466105859
 20
252.25855740722511
 30
0.0
  0
VERTEX
  5
818
  8
DATA
  6
CONTINUOUS
 62
     7
 10
211.93078851425969
 20
252.26771902738341
 30
0.0
  0
VERTEX
  5
819
  8
DATA
  6
CONTINUOUS
 62
     7
 10
211.93376500065031
 20
252.27690189421841
 30
0.0
  0
VERTEX
  5
81A
  8
DATA
  6
CONTINUOUS
 62
     7
 10
211.93667606975751
 20
252.28610600773001
 30
0.0
  0
VERTEX
  5
81B
  8
DATA
  6
CONTINUOUS
 62
     7
 10
211.9395217215814
 20
252.29533136791821
 30
0.0
  0
VERTEX
  5
81C
  8
DATA
  6
CONTINUOUS
 62
     7
 10
211.94230195612201
 20
252.3045779747832
 30
0.0
  0
VERTEX
  5
81D
  8
DATA
  6
CONTINUOUS
 62
     7
 10
211.94501677337939
 20
252.3138458283247
 30
0.0
  0
VERTEX
  5
81E
  8
DATA
  6
CONTINUOUS
 62
     7
 10
211.9476661733533
 20
252.32313492854291
 30
0.0
  0
VERTEX
  5
81F
  8
DATA
  6
CONTINUOUS
 62
     7
 10
211.95025015604401
 20
252.33244527543781
 30
0.0
  0
VERTEX
  5
820
  8
DATA
  6
CONTINUOUS
 62
     7
 10
211.95276872145129
 20
252.34177686900929
 30
0.0
  0
VERTEX
  5
821
  8
DATA
  6
CONTINUOUS
 62
     7
 10
211.95522186957541
 20
252.35112970925741
 30
0.0
  0
VERTEX
  5
822
  8
DATA
  6
CONTINUOUS
 62
     7
 10
211.95760960041611
 20
252.3605037961822
 30
0.0
  0
VERTEX
  5
823
  8
DATA
  6
CONTINUOUS
 62
     7
 10
211.95993191397361
 20
252.36989912978359
 30
0.0
  0
VERTEX
  5
824
  8
DATA
  6
CONTINUOUS
 62
     7
 10
211.9621888102478
 20
252.37931571006169
 30
0.0
  0
VERTEX
  5
825
  8
DATA
  6
CONTINUOUS
 62
     7
 10
211.96438028923859
 20
252.38875353701641
 30
0.0
  0
VERTEX
  5
826
  8
DATA
  6
CONTINUOUS
 62
     7
 10
211.9665063509461
 20
252.3982126106477
 30
0.0
  0
VERTEX
  5
827
  8
DATA
  6
CONTINUOUS
 62
     7
 10
211.96856699537031
 20
252.4076929309559
 30
0.0
  0
VERTEX
  5
828
  8
DATA
  6
CONTINUOUS
 62
     7
 10
211.97056222251121
 20
252.4171944979405
 30
0.0
  0
VERTEX
  5
829
  8
DATA
  6
CONTINUOUS
 62
     7
 10
211.97249203236879
 20
252.42671731160181
 30
0.0
  0
VERTEX
  5
82A
  8
DATA
  6
CONTINUOUS
 62
     7
 10
211.9743564249431
 20
252.43626137193971
 30
0.0
  0
VERTEX
  5
82B
  8
DATA
  6
CONTINUOUS
 62
     7
 10
211.97615540023409
 20
252.4458266789544
 30
0.0
  0
VERTEX
  5
82C
  8
DATA
  6
CONTINUOUS
 62
     7
 10
211.97788895824169
 20
252.45541323264561
 30
0.0
  0
VERTEX
  5
82D
  8
DATA
  6
CONTINUOUS
 62
     7
 10
211.97955709896621
 20
252.4650210330135
 30
0.0
  0
VERTEX
  5
82E
  8
DATA
  6
CONTINUOUS
 62
     7
 10
211.98115982240719
 20
252.4746500800581
 30
0.0
  0
VERTEX
  5
82F
  8
DATA
  6
CONTINUOUS
 62
     7
 10
211.98269712856489
 20
252.48430037377929
 30
0.0
  0
VERTEX
  5
830
  8
DATA
  6
CONTINUOUS
 62
     7
 10
211.9841690174394
 20
252.49397191417711
 30
0.0
  0
VERTEX
  5
831
  8
DATA
  6
CONTINUOUS
 62
     7
 10
211.98557548903051
 20
252.50366470125161
 30
0.0
  0
VERTEX
  5
832
  8
DATA
  6
CONTINUOUS
 62
     7
 10
211.9869165433384
 20
252.51337873500279
 30
0.0
  0
VERTEX
  5
833
  8
DATA
  6
CONTINUOUS
 62
     7
 10
211.98819218036289
 20
252.52311401543039
 30
0.0
  0
VERTEX
  5
834
  8
DATA
  6
CONTINUOUS
 62
     7
 10
211.9894024001041
 20
252.53287054253499
 30
0.0
  0
VERTEX
  5
835
  8
DATA
  6
CONTINUOUS
 62
     7
 10
211.990547202562
 20
252.54264831631599
 30
0.0
  0
VERTEX
  5
836
  8
DATA
  6
CONTINUOUS
 62
     7
 10
211.99162658773659
 20
252.5524473367737
 30
0.0
  0
VERTEX
  5
837
  8
DATA
  6
CONTINUOUS
 62
     7
 10
211.9926405556279
 20
252.56226760390811
 30
0.0
  0
VERTEX
  5
838
  8
DATA
  6
CONTINUOUS
 62
     7
 10
211.9935891062357
 20
252.57210911771909
 30
0.0
  0
VERTEX
  5
839
  8
DATA
  6
CONTINUOUS
 62
     7
 10
211.99447223956051
 20
252.58197187820679
 30
0.0
  0
VERTEX
  5
83A
  8
DATA
  6
CONTINUOUS
 62
     7
 10
211.99528995560181
 20
252.5918558853711
 30
0.0
  0
VERTEX
  5
83B
  8
DATA
  6
CONTINUOUS
 62
     7
 10
211.99604225435991
 20
252.60176113921199
 30
0.0
  0
VERTEX
  5
83C
  8
DATA
  6
CONTINUOUS
 62
     7
 10
211.99672913583461
 20
252.61168763972969
 30
0.0
  0
VERTEX
  5
83D
  8
DATA
  6
CONTINUOUS
 62
     7
 10
211.99735060002601
 20
252.62163538692391
 30
0.0
  0
VERTEX
  5
83E
  8
DATA
  6
CONTINUOUS
 62
     7
 10
211.9979066469341
 20
252.63160438079481
 30
0.0
  0
VERTEX
  5
83F
  8
DATA
  6
CONTINUOUS
 62
     7
 10
211.9983972765589
 20
252.64159462134239
 30
0.0
  0
VERTEX
  5
840
  8
DATA
  6
CONTINUOUS
 62
     7
 10
211.9988224889004
 20
252.65160610856651
 30
0.0
  0
VERTEX
  5
841
  8
DATA
  6
CONTINUOUS
 62
     7
 10
211.99918228395859
 20
252.6616388424674
 30
0.0
  0
VERTEX
  5
842
  8
DATA
  6
CONTINUOUS
 62
     7
 10
211.9994766617335
 20
252.67169282304479
 30
0.0
  0
VERTEX
  5
843
  8
DATA
  6
CONTINUOUS
 62
     7
 10
211.99970562222509
 20
252.68176805029901
 30
0.0
  0
VERTEX
  5
844
  8
DATA
  6
CONTINUOUS
 62
     7
 10
211.99986916543341
 20
252.6918645242298
 30
0.0
  0
VERTEX
  5
845
  8
DATA
  6
CONTINUOUS
 62
     7
 10
211.99996729135839
 20
252.70198224483721
 30
0.0
  0
VERTEX
  5
846
  8
DATA
  6
CONTINUOUS
 62
     7
 10
212.0
 20
252.71212121212119
 30
0.0
  0
VERTEX
  5
847
  8
DATA
  6
CONTINUOUS
 62
     7
 10
212.0
 20
252.71212121212119
 30
0.0
  0
SEQEND
  5
848
  8
DATA
  6
CONTINUOUS
 62
     7
  0
LINE
  5
3B3
  8
DATA
  6
CONTINUOUS
 62
     7
 10
212.0
 20
252.71212121212119
 30
0.0
 11
212.0
 21
258.89999999999998
 31
0.0
  0
LINE
  5
3B4
  8
DATA
  6
CONTINUOUS
 62
     7
 10
46.0
 20
289.2999999999999
 30
0.0
 11
50.0
 21
289.2999999999999
 31
0.0
  0
LINE
  5
3B5
  8
DATA
  6
CONTINUOUS
 62
     7
 10
46.0
 20
282.7000000000001
 30
0.0
 11
50.0
 21
282.7000000000001
 31
0.0
  0
LINE
  5
3B6
  8
DATA
  6
CONTINUOUS
 62
     7
 10
46.0
 20
261.69999999999999
 30
0.0
 11
50.0
 21
261.69999999999999
 31
0.0
  0
LINE
  5
3B7
  8
DATA
  6
CONTINUOUS
 62
     7
 10
46.0
 20
255.09999999999999
 30
0.0
 11
50.0
 21
255.09999999999999
 31
0.0
  0
LINE
  5
3B8
  8
DATA
  6
CONTINUOUS
 62
     7
 10
46.0
 20
289.2999999999999
 30
0.0
 11
46.0
 21
282.7000000000001
 31
0.0
  0
LINE
  5
3B9
  8
DATA
  6
CONTINUOUS
 62
     7
 10
46.0
 20
261.69999999999999
 30
0.0
 11
46.0
 21
255.09999999999999
 31
0.0
  0
LINE
  5
3BA
  8
DATA
  6
CONTINUOUS
 62
     7
 10
52.0
 20
250.0
 30
0.0
 11
52.0
 21
294.0
 31
0.0
  0
LINE
  5
3BB
  8
DATA
  6
CONTINUOUS
 62
     7
 10
52.0
 20
294.0
 30
0.0
 11
50.0
 21
294.0
 31
0.0
  0
LINE
  5
3BC
  8
DATA
  6
CONTINUOUS
 62
     7
 10
52.0
 20
250.0
 30
0.0
 11
50.0
 21
250.0
 31
0.0
  0
ARC
  5
3BD
  8
DATA
  6
CONTINUOUS
 62
     7
 10
50.0
 20
276.0
 30
0.0
 40
1.5
 50
90.0
 51
270.0
  0
ARC
  5
3BE
  8
DATA
  6
CONTINUOUS
 62
     7
 10
50.0
 20
271.0
 30
0.0
 40
1.5
 50
90.0
 51
270.0
  0
ARC
  5
3BF
  8
DATA
  6
CONTINUOUS
 62
     7
 10
50.0
 20
266.0
 30
0.0
 40
1.5
 50
90.0
 51
270.0
  0
ARC
  5
3C0
  8
DATA
  6
CONTINUOUS
 62
     7
 10
50.0
 20
261.0
 30
0.0
 40
1.5
 50
90.0
 51
152.18186071535371
  0
LINE
  5
3C1
  8
DATA
  6
CONTINUOUS
 62
     7
 10
-199.0
 20
352.0
 30
0.0
 11
-199.0
 21
509.0
 31
0.0
  0
LINE
  5
3C2
  8
DATA
  6
CONTINUOUS
 62
     7
 10
-2.0
 20
350.0
 30
0.0
 11
-200.0
 21
350.0
 31
0.0
  0
LINE
  5
3C3
  8
DATA
  6
CONTINUOUS
 62
     7
 10
-3.0
 20
509.0
 30
0.0
 11
-3.0
 21
352.0
 31
0.0
  0
LINE
  5
3C4
  8
DATA
  6
CONTINUOUS
 62
     7
 10
-199.0
 20
509.0
 30
0.0
 11
-3.0
 21
509.0
 31
0.0
  0
LINE
  5
3C5
  8
DATA
  6
CONTINUOUS
 62
     7
 10
-2.0
 20
352.0
 30
0.0
 11
-200.0
 21
352.0
 31
0.0
  0
LINE
  5
3C6
  8
DATA
  6
CONTINUOUS
 62
     7
 10
-2.0
 20
352.0
 30
0.0
 11
-2.0
 21
350.0
 31
0.0
  0
LINE
  5
3C7
  8
DATA
  6
CONTINUOUS
 62
     7
 10
-200.0
 20
352.0
 30
0.0
 11
-200.0
 21
350.0
 31
0.0
  0
LINE
  5
3C8
  8
DATA
  6
CONTINUOUS
 62
     7
 10
-34.0
 20
354.0
 30
0.0
 11
-189.0
 21
354.0
 31
0.0
  0
LINE
  5
3C9
  8
DATA
  6
CONTINUOUS
 62
     7
 10
-33.0
 20
353.0
 30
0.0
 11
-33.0
 21
352.0
 31
0.0
  0
LINE
  5
3CA
  8
DATA
  6
CONTINUOUS
 62
     7
 10
-190.0
 20
353.0
 30
0.0
 11
-190.0
 21
352.0
 31
0.0
  0
ARC
  5
3CB
  8
DATA
  6
CONTINUOUS
 62
     7
 10
-189.0
 20
353.0
 30
0.0
 40
1.0
 50
90.0
 51
180.0
  0
ARC
  5
3CC
  8
DATA
  6
CONTINUOUS
 62
     7
 10
-34.0
 20
353.0
 30
0.0
 40
1.0
 50
0.0
 51
90.0
  0
LINE
  5
3CD
  8
DATA
  6
CONTINUOUS
 62
     7
 10
-197.0
 20
352.0
 30
0.0
 11
-197.0
 21
507.0
 31
0.0
  0
LINE
  5
3CE
  8
DATA
  6
CONTINUOUS
 62
     7
 10
-5.0
 20
507.0
 30
0.0
 11
-5.0
 21
352.0
 31
0.0
  0
LINE
  5
3CF
  8
DATA
  6
CONTINUOUS
 62
     7
 10
-197.0
 20
507.0
 30
0.0
 11
-5.0
 21
507.0
 31
0.0
  0
LINE
  5
3D0
  8
DATA
  6
CONTINUOUS
 62
     7
 10
-5.0
 20
507.0
 30
0.0
 11
-3.0
 21
509.0
 31
0.0
  0
LINE
  5
3D1
  8
DATA
  6
CONTINUOUS
 62
     7
 10
-197.0
 20
507.0
 30
0.0
 11
-199.0
 21
509.0
 31
0.0
  0
CIRCLE
  5
3D2
  8
DATA
  6
CONTINUOUS
 62
     7
 10
-8.0
 20
366.0
 30
0.0
 40
3.0
  0
LINE
  5
3D3
  8
DATA
  6
CONTINUOUS
 62
     7
 10
-9.75
 20
366.5
 30
0.0
 11
-9.0
 21
366.5
 31
0.0
  0
LINE
  5
3D4
  8
DATA
  6
CONTINUOUS
 62
     7
 10
-7.0
 20
366.5
 30
0.0
 11
-6.25
 21
366.5
 31
0.0
  0
LINE
  5
3D5
  8
DATA
  6
CONTINUOUS
 62
     7
 10
-9.75
 20
365.5
 30
0.0
 11
-9.0
 21
365.5
 31
0.0
  0
LINE
  5
3D6
  8
DATA
  6
CONTINUOUS
 62
     7
 10
-7.0
 20
365.5
 30
0.0
 11
-6.25
 21
365.5
 31
0.0
  0
LINE
  5
3D7
  8
DATA
  6
CONTINUOUS
 62
     7
 10
-8.5
 20
364.25
 30
0.0
 11
-8.5
 21
365.0
 31
0.0
  0
LINE
  5
3D8
  8
DATA
  6
CONTINUOUS
 62
     7
 10
-8.5
 20
367.0
 30
0.0
 11
-8.5
 21
367.75
 31
0.0
  0
LINE
  5
3D9
  8
DATA
  6
CONTINUOUS
 62
     7
 10
-7.5
 20
364.25
 30
0.0
 11
-7.5
 21
365.0
 31
0.0
  0
LINE
  5
3DA
  8
DATA
  6
CONTINUOUS
 62
     7
 10
-7.5
 20
367.0
 30
0.0
 11
-7.5
 21
367.75
 31
0.0
  0
LINE
  5
3DB
  8
DATA
  6
CONTINUOUS
 62
     7
 10
-8.5
 20
364.25
 30
0.0
 11
-7.5
 21
364.25
 31
0.0
  0
LINE
  5
3DC
  8
DATA
  6
CONTINUOUS
 62
     7
 10
-6.25
 20
365.5
 30
0.0
 11
-6.25
 21
366.5
 31
0.0
  0
LINE
  5
3DD
  8
DATA
  6
CONTINUOUS
 62
     7
 10
-9.75
 20
365.5
 30
0.0
 11
-9.75
 21
366.5
 31
0.0
  0
LINE
  5
3DE
  8
DATA
  6
CONTINUOUS
 62
     7
 10
-8.5
 20
367.75
 30
0.0
 11
-7.5
 21
367.75
 31
0.0
  0
ARC
  5
3DF
  8
DATA
  6
CONTINUOUS
 62
     7
 10
-9.0
 20
365.0
 30
0.0
 40
0.5
 50
0.0
 51
90.0
  0
ARC
  5
3E0
  8
DATA
  6
CONTINUOUS
 62
     7
 10
-9.0
 20
367.0
 30
0.0
 40
0.5
 50
270.0
 51
0.0
  0
ARC
  5
3E1
  8
DATA
  6
CONTINUOUS
 62
     7
 10
-7.0
 20
367.0
 30
0.0
 40
0.5
 50
180.0
 51
270.0
  0
ARC
  5
3E2
  8
DATA
  6
CONTINUOUS
 62
     7
 10
-7.0
 20
365.0
 30
0.0
 40
0.5
 50
90.0
 51
180.0
  0
CIRCLE
  5
3E3
  8
DATA
  6
CONTINUOUS
 62
     7
 10
-8.0
 20
481.0
 30
0.0
 40
3.0
  0
LINE
  5
3E4
  8
DATA
  6
CONTINUOUS
 62
     7
 10
-9.75
 20
481.5
 30
0.0
 11
-9.0
 21
481.5
 31
0.0
  0
LINE
  5
3E5
  8
DATA
  6
CONTINUOUS
 62
     7
 10
-7.0
 20
481.5
 30
0.0
 11
-6.25
 21
481.5
 31
0.0
  0
LINE
  5
3E6
  8
DATA
  6
CONTINUOUS
 62
     7
 10
-9.75
 20
480.49999999999989
 30
0.0
 11
-9.0
 21
480.49999999999989
 31
0.0
  0
LINE
  5
3E7
  8
DATA
  6
CONTINUOUS
 62
     7
 10
-7.0
 20
480.49999999999989
 30
0.0
 11
-6.25
 21
480.49999999999989
 31
0.0
  0
LINE
  5
3E8
  8
DATA
  6
CONTINUOUS
 62
     7
 10
-8.5
 20
479.25
 30
0.0
 11
-8.5
 21
480.0
 31
0.0
  0
LINE
  5
3E9
  8
DATA
  6
CONTINUOUS
 62
     7
 10
-8.5
 20
482.0
 30
0.0
 11
-8.5
 21
482.74999999999989
 31
0.0
  0
LINE
  5
3EA
  8
DATA
  6
CONTINUOUS
 62
     7
 10
-7.5
 20
479.25
 30
0.0
 11
-7.5
 21
480.0
 31
0.0
  0
LINE
  5
3EB
  8
DATA
  6
CONTINUOUS
 62
     7
 10
-7.5
 20
482.0
 30
0.0
 11
-7.5
 21
482.74999999999989
 31
0.0
  0
LINE
  5
3EC
  8
DATA
  6
CONTINUOUS
 62
     7
 10
-8.5
 20
479.25
 30
0.0
 11
-7.5
 21
479.25
 31
0.0
  0
LINE
  5
3ED
  8
DATA
  6
CONTINUOUS
 62
     7
 10
-6.25
 20
480.49999999999989
 30
0.0
 11
-6.25
 21
481.5
 31
0.0
  0
LINE
  5
3EE
  8
DATA
  6
CONTINUOUS
 62
     7
 10
-9.75
 20
480.49999999999989
 30
0.0
 11
-9.75
 21
481.5
 31
0.0
  0
LINE
  5
3EF
  8
DATA
  6
CONTINUOUS
 62
     7
 10
-8.5
 20
482.74999999999989
 30
0.0
 11
-7.5
 21
482.74999999999989
 31
0.0
  0
ARC
  5
3F0
  8
DATA
  6
CONTINUOUS
 62
     7
 10
-9.0
 20
480.0
 30
0.0
 40
0.5
 50
0.0
 51
90.0
  0
ARC
  5
3F1
  8
DATA
  6
CONTINUOUS
 62
     7
 10
-9.0
 20
482.0
 30
0.0
 40
0.5
 50
270.0
 51
0.0
  0
ARC
  5
3F2
  8
DATA
  6
CONTINUOUS
 62
     7
 10
-7.0
 20
482.0
 30
0.0
 40
0.5
 50
180.0
 51
270.0
  0
ARC
  5
3F3
  8
DATA
  6
CONTINUOUS
 62
     7
 10
-7.0
 20
480.0
 30
0.0
 40
0.5
 50
90.0
 51
180.0
  0
CIRCLE
  5
3F4
  8
DATA
  6
CONTINUOUS
 62
     7
 10
-194.0
 20
366.0
 30
0.0
 40
3.0
  0
LINE
  5
3F5
  8
DATA
  6
CONTINUOUS
 62
     7
 10
-192.25
 20
366.5
 30
0.0
 11
-193.0
 21
366.5
 31
0.0
  0
LINE
  5
3F6
  8
DATA
  6
CONTINUOUS
 62
     7
 10
-195.0
 20
366.5
 30
0.0
 11
-195.75
 21
366.5
 31
0.0
  0
LINE
  5
3F7
  8
DATA
  6
CONTINUOUS
 62
     7
 10
-192.25
 20
365.5
 30
0.0
 11
-193.0
 21
365.5
 31
0.0
  0
LINE
  5
3F8
  8
DATA
  6
CONTINUOUS
 62
     7
 10
-195.0
 20
365.5
 30
0.0
 11
-195.75
 21
365.5
 31
0.0
  0
LINE
  5
3F9
  8
DATA
  6
CONTINUOUS
 62
     7
 10
-193.5
 20
364.25
 30
0.0
 11
-193.5
 21
365.0
 31
0.0
  0
LINE
  5
3FA
  8
DATA
  6
CONTINUOUS
 62
     7
 10
-193.5
 20
367.0
 30
0.0
 11
-193.5
 21
367.75
 31
0.0
  0
LINE
  5
3FB
  8
DATA
  6
CONTINUOUS
 62
     7
 10
-194.5
 20
364.25
 30
0.0
 11
-194.5
 21
365.0
 31
0.0
  0
LINE
  5
3FC
  8
DATA
  6
CONTINUOUS
 62
     7
 10
-194.5
 20
367.0
 30
0.0
 11
-194.5
 21
367.75
 31
0.0
  0
LINE
  5
3FD
  8
DATA
  6
CONTINUOUS
 62
     7
 10
-193.5
 20
364.25
 30
0.0
 11
-194.5
 21
364.25
 31
0.0
  0
LINE
  5
3FE
  8
DATA
  6
CONTINUOUS
 62
     7
 10
-195.75
 20
365.5
 30
0.0
 11
-195.75
 21
366.5
 31
0.0
  0
LINE
  5
3FF
  8
DATA
  6
CONTINUOUS
 62
     7
 10
-192.25
 20
365.5
 30
0.0
 11
-192.25
 21
366.5
 31
0.0
  0
LINE
  5
400
  8
DATA
  6
CONTINUOUS
 62
     7
 10
-193.5
 20
367.75
 30
0.0
 11
-194.5
 21
367.75
 31
0.0
  0
ARC
  5
401
  8
DATA
  6
CONTINUOUS
 62
     7
 10
-193.0
 20
365.0
 30
0.0
 40
0.5
 50
90.0
 51
180.0
  0
ARC
  5
402
  8
DATA
  6
CONTINUOUS
 62
     7
 10
-193.0
 20
367.0
 30
0.0
 40
0.5
 50
180.0
 51
270.0
  0
ARC
  5
403
  8
DATA
  6
CONTINUOUS
 62
     7
 10
-195.0
 20
367.0
 30
0.0
 40
0.5
 50
270.0
 51
0.0
  0
ARC
  5
404
  8
DATA
  6
CONTINUOUS
 62
     7
 10
-195.0
 20
365.0
 30
0.0
 40
0.5
 50
0.0
 51
90.0
  0
CIRCLE
  5
405
  8
DATA
  6
CONTINUOUS
 62
     7
 10
-194.0
 20
481.0
 30
0.0
 40
3.0
  0
LINE
  5
406
  8
DATA
  6
CONTINUOUS
 62
     7
 10
-192.25
 20
481.5
 30
0.0
 11
-193.0
 21
481.5
 31
0.0
  0
LINE
  5
407
  8
DATA
  6
CONTINUOUS
 62
     7
 10
-195.0
 20
481.5
 30
0.0
 11
-195.75
 21
481.5
 31
0.0
  0
LINE
  5
408
  8
DATA
  6
CONTINUOUS
 62
     7
 10
-192.25
 20
480.49999999999989
 30
0.0
 11
-193.0
 21
480.49999999999989
 31
0.0
  0
LINE
  5
409
  8
DATA
  6
CONTINUOUS
 62
     7
 10
-195.0
 20
480.49999999999989
 30
0.0
 11
-195.75
 21
480.49999999999989
 31
0.0
  0
LINE
  5
40A
  8
DATA
  6
CONTINUOUS
 62
     7
 10
-193.5
 20
479.25
 30
0.0
 11
-193.5
 21
480.0
 31
0.0
  0
LINE
  5
40B
  8
DATA
  6
CONTINUOUS
 62
     7
 10
-193.5
 20
482.0
 30
0.0
 11
-193.5
 21
482.74999999999989
 31
0.0
  0
LINE
  5
40C
  8
DATA
  6
CONTINUOUS
 62
     7
 10
-194.5
 20
479.25
 30
0.0
 11
-194.5
 21
480.0
 31
0.0
  0
LINE
  5
40D
  8
DATA
  6
CONTINUOUS
 62
     7
 10
-194.5
 20
482.0
 30
0.0
 11
-194.5
 21
482.74999999999989
 31
0.0
  0
LINE
  5
40E
  8
DATA
  6
CONTINUOUS
 62
     7
 10
-193.5
 20
479.25
 30
0.0
 11
-194.5
 21
479.25
 31
0.0
  0
LINE
  5
40F
  8
DATA
  6
CONTINUOUS
 62
     7
 10
-195.75
 20
480.49999999999989
 30
0.0
 11
-195.75
 21
481.5
 31
0.0
  0
LINE
  5
410
  8
DATA
  6
CONTINUOUS
 62
     7
 10
-192.25
 20
480.49999999999989
 30
0.0
 11
-192.25
 21
481.5
 31
0.0
  0
LINE
  5
411
  8
DATA
  6
CONTINUOUS
 62
     7
 10
-193.5
 20
482.74999999999989
 30
0.0
 11
-194.5
 21
482.74999999999989
 31
0.0
  0
ARC
  5
412
  8
DATA
  6
CONTINUOUS
 62
     7
 10
-193.0
 20
480.0
 30
0.0
 40
0.5
 50
90.0
 51
180.0
  0
ARC
  5
413
  8
DATA
  6
CONTINUOUS
 62
     7
 10
-193.0
 20
482.0
 30
0.0
 40
0.5
 50
180.0
 51
270.0
  0
ARC
  5
414
  8
DATA
  6
CONTINUOUS
 62
     7
 10
-195.0
 20
482.0
 30
0.0
 40
0.5
 50
270.0
 51
0.0
  0
ARC
  5
415
  8
DATA
  6
CONTINUOUS
 62
     7
 10
-195.0
 20
480.0
 30
0.0
 40
0.5
 50
0.0
 51
90.0
  0
CIRCLE
  5
416
  8
DATA
  6
CONTINUOUS
 62
     7
 10
-58.0
 20
504.0
 30
0.0
 40
3.0
  0
LINE
  5
417
  8
DATA
  6
CONTINUOUS
 62
     7
 10
-59.75
 20
504.49999999999989
 30
0.0
 11
-59.0
 21
504.49999999999989
 31
0.0
  0
LINE
  5
418
  8
DATA
  6
CONTINUOUS
 62
     7
 10
-57.0
 20
504.49999999999989
 30
0.0
 11
-56.25
 21
504.49999999999989
 31
0.0
  0
LINE
  5
419
  8
DATA
  6
CONTINUOUS
 62
     7
 10
-59.75
 20
503.5
 30
0.0
 11
-59.0
 21
503.5
 31
0.0
  0
LINE
  5
41A
  8
DATA
  6
CONTINUOUS
 62
     7
 10
-57.0
 20
503.5
 30
0.0
 11
-56.25
 21
503.5
 31
0.0
  0
LINE
  5
41B
  8
DATA
  6
CONTINUOUS
 62
     7
 10
-58.5
 20
502.24999999999989
 30
0.0
 11
-58.5
 21
503.0
 31
0.0
  0
LINE
  5
41C
  8
DATA
  6
CONTINUOUS
 62
     7
 10
-58.5
 20
505.0
 30
0.0
 11
-58.5
 21
505.75
 31
0.0
  0
LINE
  5
41D
  8
DATA
  6
CONTINUOUS
 62
     7
 10
-57.5
 20
502.24999999999989
 30
0.0
 11
-57.5
 21
503.0
 31
0.0
  0
LINE
  5
41E
  8
DATA
  6
CONTINUOUS
 62
     7
 10
-57.5
 20
505.0
 30
0.0
 11
-57.5
 21
505.75
 31
0.0
  0
LINE
  5
41F
  8
DATA
  6
CONTINUOUS
 62
     7
 10
-58.5
 20
502.24999999999989
 30
0.0
 11
-57.5
 21
502.24999999999989
 31
0.0
  0
LINE
  5
420
  8
DATA
  6
CONTINUOUS
 62
     7
 10
-56.25
 20
503.5
 30
0.0
 11
-56.25
 21
504.49999999999989
 31
0.0
  0
LINE
  5
421
  8
DATA
  6
CONTINUOUS
 62
     7
 10
-59.75
 20
503.5
 30
0.0
 11
-59.75
 21
504.49999999999989
 31
0.0
  0
LINE
  5
422
  8
DATA
  6
CONTINUOUS
 62
     7
 10
-58.5
 20
505.75
 30
0.0
 11
-57.5
 21
505.75
 31
0.0
  0
ARC
  5
423
  8
DATA
  6
CONTINUOUS
 62
     7
 10
-59.0
 20
503.0
 30
0.0
 40
0.5
 50
0.0
 51
90.0
  0
ARC
  5
424
  8
DATA
  6
CONTINUOUS
 62
     7
 10
-59.0
 20
505.0
 30
0.0
 40
0.5
 50
270.0
 51
0.0
  0
ARC
  5
425
  8
DATA
  6
CONTINUOUS
 62
     7
 10
-57.0
 20
505.0
 30
0.0
 40
0.5
 50
180.0
 51
270.0
  0
ARC
  5
426
  8
DATA
  6
CONTINUOUS
 62
     7
 10
-57.0
 20
503.0
 30
0.0
 40
0.5
 50
90.0
 51
180.0
  0
CIRCLE
  5
427
  8
DATA
  6
CONTINUOUS
 62
     7
 10
-144.0
 20
504.0
 30
0.0
 40
3.0
  0
LINE
  5
428
  8
DATA
  6
CONTINUOUS
 62
     7
 10
-145.75
 20
504.49999999999989
 30
0.0
 11
-145.0
 21
504.49999999999989
 31
0.0
  0
LINE
  5
429
  8
DATA
  6
CONTINUOUS
 62
     7
 10
-143.0
 20
504.49999999999989
 30
0.0
 11
-142.25
 21
504.49999999999989
 31
0.0
  0
LINE
  5
42A
  8
DATA
  6
CONTINUOUS
 62
     7
 10
-145.75
 20
503.5
 30
0.0
 11
-145.0
 21
503.5
 31
0.0
  0
LINE
  5
42B
  8
DATA
  6
CONTINUOUS
 62
     7
 10
-143.0
 20
503.5
 30
0.0
 11
-142.25
 21
503.5
 31
0.0
  0
LINE
  5
42C
  8
DATA
  6
CONTINUOUS
 62
     7
 10
-144.5
 20
502.24999999999989
 30
0.0
 11
-144.5
 21
503.0
 31
0.0
  0
LINE
  5
42D
  8
DATA
  6
CONTINUOUS
 62
     7
 10
-144.5
 20
505.0
 30
0.0
 11
-144.5
 21
505.75
 31
0.0
  0
LINE
  5
42E
  8
DATA
  6
CONTINUOUS
 62
     7
 10
-143.5
 20
502.24999999999989
 30
0.0
 11
-143.5
 21
503.0
 31
0.0
  0
LINE
  5
42F
  8
DATA
  6
CONTINUOUS
 62
     7
 10
-143.5
 20
505.0
 30
0.0
 11
-143.5
 21
505.75
 31
0.0
  0
LINE
  5
430
  8
DATA
  6
CONTINUOUS
 62
     7
 10
-144.5
 20
502.24999999999989
 30
0.0
 11
-143.5
 21
502.24999999999989
 31
0.0
  0
LINE
  5
431
  8
DATA
  6
CONTINUOUS
 62
     7
 10
-142.25
 20
503.5
 30
0.0
 11
-142.25
 21
504.49999999999989
 31
0.0
  0
LINE
  5
432
  8
DATA
  6
CONTINUOUS
 62
     7
 10
-145.75
 20
503.5
 30
0.0
 11
-145.75
 21
504.49999999999989
 31
0.0
  0
LINE
  5
433
  8
DATA
  6
CONTINUOUS
 62
     7
 10
-144.5
 20
505.75
 30
0.0
 11
-143.5
 21
505.75
 31
0.0
  0
ARC
  5
434
  8
DATA
  6
CONTINUOUS
 62
     7
 10
-145.0
 20
503.0
 30
0.0
 40
0.5
 50
0.0
 51
90.0
  0
ARC
  5
435
  8
DATA
  6
CONTINUOUS
 62
     7
 10
-145.0
 20
505.0
 30
0.0
 40
0.5
 50
270.0
 51
0.0
  0
ARC
  5
436
  8
DATA
  6
CONTINUOUS
 62
     7
 10
-143.0
 20
505.0
 30
0.0
 40
0.5
 50
180.0
 51
270.0
  0
ARC
  5
437
  8
DATA
  6
CONTINUOUS
 62
     7
 10
-143.0
 20
503.0
 30
0.0
 40
0.5
 50
90.0
 51
180.0
  0
LINE
  5
438
  8
DATA
  6
CONTINUOUS
 62
     7
 10
-21.0
 20
512.0
 30
0.0
 11
-21.0
 21
509.0
 31
0.0
  0
LINE
  5
439
  8
DATA
  6
CONTINUOUS
 62
     7
 10
-5.0
 20
512.0
 30
0.0
 11
-5.0
 21
509.0
 31
0.0
  0
LINE
  5
43A
  8
DATA
  6
CONTINUOUS
 62
     7
 10
-17.0
 20
512.0
 30
0.0
 11
-17.0
 21
509.49999999999989
 31
0.0
  0
LINE
  5
43B
  8
DATA
  6
CONTINUOUS
 62
     7
 10
-9.0
 20
512.0
 30
0.0
 11
-9.0
 21
509.49999999999989
 31
0.0
  0
LINE
  5
43C
  8
DATA
  6
CONTINUOUS
 62
     7
 10
-21.0
 20
509.49999999999989
 30
0.0
 11
-5.0
 21
509.49999999999989
 31
0.0
  0
LINE
  5
43D
  8
DATA
  6
CONTINUOUS
 62
     7
 10
-21.0
 20
512.0
 30
0.0
 11
-5.0
 21
512.0
 31
0.0
  0
LINE
  5
43E
  8
DATA
  6
CONTINUOUS
 62
     7
 10
-19.928203230275582
 20
516.0
 30
0.0
 11
-19.928203230275582
 21
512.0
 31
0.0
  0
LINE
  5
43F
  8
DATA
  6
CONTINUOUS
 62
     7
 10
-6.071796769724414
 20
516.0
 30
0.0
 11
-6.071796769724414
 21
512.0
 31
0.0
  0
LINE
  5
440
  8
DATA
  6
CONTINUOUS
 62
     7
 10
-19.928203230275582
 20
516.0
 30
0.0
 11
-6.071796769724414
 21
516.0
 31
0.0
  0
LINE
  5
441
  8
DATA
  6
CONTINUOUS
 62
     7
 10
-17.75
 20
528.0
 30
0.0
 11
-8.25
 21
528.0
 31
0.0
  0
LINE
  5
442
  8
DATA
  6
CONTINUOUS
 62
     7
 10
-19.928203230275582
 20
516.0
 30
0.0
 11
-6.071796769724414
 21
515.0
 31
0.0
  0
LINE
  5
443
  8
DATA
  6
CONTINUOUS
 62
     7
 10
-19.928203230275582
 20
515.0
 30
0.0
 11
-6.071796769724414
 21
514.0
 31
0.0
  0
LINE
  5
444
  8
DATA
  6
CONTINUOUS
 62
     7
 10
-19.928203230275582
 20
514.0
 30
0.0
 11
-6.071796769724414
 21
513.0
 31
0.0
  0
LINE
  5
445
  8
DATA
  6
CONTINUOUS
 62
     7
 10
-19.928203230275582
 20
513.0
 30
0.0
 11
-6.071796769724414
 21
512.0
 31
0.0
  0
LINE
  5
446
  8
DATA
  6
CONTINUOUS
 62
     7
 10
-18.66448744912929
 20
525.0
 30
0.0
 11
-18.66448744912929
 21
523.20000000000005
 31
0.0
  0
LINE
  5
447
  8
DATA
  6
CONTINUOUS
 62
     7
 10
-7.3355125508707024
 20
525.0
 30
0.0
 11
-7.3355125508707024
 21
523.20000000000005
 31
0.0
  0
LINE
  5
448
  8
DATA
  6
CONTINUOUS
 62
     7
 10
-17.75
 20
528.0
 30
0.0
 11
-17.75
 21
516.0
 31
0.0
  0
LINE
  5
449
  8
DATA
  6
CONTINUOUS
 62
     7
 10
-8.25
 20
528.0
 30
0.0
 11
-8.25
 21
516.0
 31
0.0
  0
LINE
  5
44A
  8
DATA
  6
CONTINUOUS
 62
     7
 10
-18.66448744912929
 20
523.20000000000005
 30
0.0
 11
-17.75
 21
523.20000000000005
 31
0.0
  0
LINE
  5
44B
  8
DATA
  6
CONTINUOUS
 62
     7
 10
-8.25
 20
523.20000000000005
 30
0.0
 11
-7.3355125508707024
 21
523.20000000000005
 31
0.0
  0
LINE
  5
44C
  8
DATA
  6
CONTINUOUS
 62
     7
 10
-18.66448744912929
 20
525.0
 30
0.0
 11
-17.75
 21
525.0
 31
0.0
  0
LINE
  5
44D
  8
DATA
  6
CONTINUOUS
 62
     7
 10
-8.25
 20
525.0
 30
0.0
 11
-7.3355125508707024
 21
525.0
 31
0.0
  0
LINE
  5
44E
  8
DATA
  6
CONTINUOUS
 62
     7
 10
-123.25
 20
512.0
 30
0.0
 11
-123.25
 21
509.0
 31
0.0
  0
LINE
  5
44F
  8
DATA
  6
CONTINUOUS
 62
     7
 10
-107.25
 20
512.0
 30
0.0
 11
-107.25
 21
509.0
 31
0.0
  0
LINE
  5
450
  8
DATA
  6
CONTINUOUS
 62
     7
 10
-119.25
 20
512.0
 30
0.0
 11
-119.25
 21
509.49999999999989
 31
0.0
  0
LINE
  5
451
  8
DATA
  6
CONTINUOUS
 62
     7
 10
-111.25
 20
512.0
 30
0.0
 11
-111.25
 21
509.49999999999989
 31
0.0
  0
LINE
  5
452
  8
DATA
  6
CONTINUOUS
 62
     7
 10
-123.25
 20
509.49999999999989
 30
0.0
 11
-107.25
 21
509.49999999999989
 31
0.0
  0
LINE
  5
453
  8
DATA
  6
CONTINUOUS
 62
     7
 10
-123.25
 20
512.0
 30
0.0
 11
-107.25
 21
512.0
 31
0.0
  0
LINE
  5
454
  8
DATA
  6
CONTINUOUS
 62
     7
 10
-122.1782032302756
 20
516.0
 30
0.0
 11
-122.1782032302756
 21
512.0
 31
0.0
  0
LINE
  5
455
  8
DATA
  6
CONTINUOUS
 62
     7
 10
-108.3217967697244
 20
516.0
 30
0.0
 11
-108.3217967697244
 21
512.0
 31
0.0
  0
LINE
  5
456
  8
DATA
  6
CONTINUOUS
 62
     7
 10
-122.1782032302756
 20
516.0
 30
0.0
 11
-108.3217967697244
 21
516.0
 31
0.0
  0
LINE
  5
457
  8
DATA
  6
CONTINUOUS
 62
     7
 10
-120.0
 20
528.0
 30
0.0
 11
-110.5
 21
528.0
 31
0.0
  0
LINE
  5
458
  8
DATA
  6
CONTINUOUS
 62
     7
 10
-122.1782032302756
 20
516.0
 30
0.0
 11
-108.3217967697244
 21
515.0
 31
0.0
  0
LINE
  5
459
  8
DATA
  6
CONTINUOUS
 62
     7
 10
-122.1782032302756
 20
515.0
 30
0.0
 11
-108.3217967697244
 21
514.0
 31
0.0
  0
LINE
  5
45A
  8
DATA
  6
CONTINUOUS
 62
     7
 10
-122.1782032302756
 20
514.0
 30
0.0
 11
-108.3217967697244
 21
513.0
 31
0.0
  0
LINE
  5
45B
  8
DATA
  6
CONTINUOUS
 62
     7
 10
-122.1782032302756
 20
513.0
 30
0.0
 11
-108.3217967697244
 21
512.0
 31
0.0
  0
LINE
  5
45C
  8
DATA
  6
CONTINUOUS
 62
     7
 10
-120.9144874491293
 20
525.0
 30
0.0
 11
-120.9144874491293
 21
523.20000000000005
 31
0.0
  0
LINE
  5
45D
  8
DATA
  6
CONTINUOUS
 62
     7
 10
-109.5855125508707
 20
525.0
 30
0.0
 11
-109.5855125508707
 21
523.20000000000005
 31
0.0
  0
LINE
  5
45E
  8
DATA
  6
CONTINUOUS
 62
     7
 10
-120.0
 20
528.0
 30
0.0
 11
-120.0
 21
516.0
 31
0.0
  0
LINE
  5
45F
  8
DATA
  6
CONTINUOUS
 62
     7
 10
-110.5
 20
528.0
 30
0.0
 11
-110.5
 21
516.0
 31
0.0
  0
LINE
  5
460
  8
DATA
  6
CONTINUOUS
 62
     7
 10
-120.9144874491293
 20
523.20000000000005
 30
0.0
 11
-120.0
 21
523.20000000000005
 31
0.0
  0
LINE
  5
461
  8
DATA
  6
CONTINUOUS
 62
     7
 10
-110.5
 20
523.20000000000005
 30
0.0
 11
-109.5855125508707
 21
523.20000000000005
 31
0.0
  0
LINE
  5
462
  8
DATA
  6
CONTINUOUS
 62
     7
 10
-120.9144874491293
 20
525.0
 30
0.0
 11
-120.0
 21
525.0
 31
0.0
  0
LINE
  5
463
  8
DATA
  6
CONTINUOUS
 62
     7
 10
-110.5
 20
525.0
 30
0.0
 11
-109.5855125508707
 21
525.0
 31
0.0
  0
LINE
  5
464
  8
DATA
  6
CONTINUOUS
 62
     7
 10
-32.25
 20
509.0
 30
0.0
 11
-32.25
 21
515.0
 31
0.0
  0
LINE
  5
465
  8
DATA
  6
CONTINUOUS
 62
     7
 10
-24.25
 20
509.0
 30
0.0
 11
-24.25
 21
515.0
 31
0.0
  0
LINE
  5
466
  8
DATA
  6
CONTINUOUS
 62
     7
 10
-31.25
 20
516.0
 30
0.0
 11
-25.25
 21
516.0
 31
0.0
  0
ARC
  5
467
  8
DATA
  6
CONTINUOUS
 62
     7
 10
-31.25
 20
515.0
 30
0.0
 40
1.0
 50
90.0
 51
180.0
  0
ARC
  5
468
  8
DATA
  6
CONTINUOUS
 62
     7
 10
-25.25
 20
515.0
 30
0.0
 40
1.0
 50
0.0
 51
90.0
  0
LINE
  5
469
  8
DATA
  6
CONTINUOUS
 62
     7
 10
-80.000353908523579
 20
514.5
 30
0.0
 11
-80.000353908523579
 21
513.49999999999989
 31
0.0
  0
LINE
  5
46A
  8
DATA
  6
CONTINUOUS
 62
     7
 10
-69.999646091469913
 20
514.5
 30
0.0
 11
-69.999646091469913
 21
513.49999999999989
 31
0.0
  0
LINE
  5
46B
  8
DATA
  6
CONTINUOUS
 62
     7
 10
-77.349999999999923
 20
513.49999999999989
 30
0.0
 11
-77.349999999999923
 21
509.0
 31
0.0
  0
LINE
  5
46C
  8
DATA
  6
CONTINUOUS
 62
     7
 10
-72.649999999999963
 20
513.49999999999989
 30
0.0
 11
-72.649999999999963
 21
509.0
 31
0.0
  0
LINE
  5
46D
  8
DATA
  6
CONTINUOUS
 62
     7
 10
-85.750000000000014
 20
510.5
 30
0.0
 11
-85.750000000000014
 21
509.0
 31
0.0
  0
LINE
  5
46E
  8
DATA
  6
CONTINUOUS
 62
     7
 10
-62.25
 20
510.5
 30
0.0
 11
-62.25
 21
509.0
 31
0.0
  0
LINE
  5
46F
  8
DATA
  6
CONTINUOUS
 62
     7
 10
-85.750000000000014
 20
510.5
 30
0.0
 11
-77.349999999999923
 21
510.5
 31
0.0
  0
LINE
  5
470
  8
DATA
  6
CONTINUOUS
 62
     7
 10
-72.649999999999963
 20
510.5
 30
0.0
 11
-67.266025403784283
 21
510.5
 31
0.0
  0
LINE
  5
471
  8
DATA
  6
CONTINUOUS
 62
     7
 10
-62.25
 20
510.5
 30
0.0
 11
-43.766025403784298
 21
510.5
 31
0.0
  0
LINE
  5
472
  8
DATA
  6
CONTINUOUS
 62
     7
 10
-80.000353908523579
 20
513.49999999999989
 30
0.0
 11
-69.999646091469913
 21
513.49999999999989
 31
0.0
  0
LINE
  5
473
  8
DATA
  6
CONTINUOUS
 62
     7
 10
-80.000353908523579
 20
514.5
 30
0.0
 11
-69.999646091469913
 21
514.5
 31
0.0
  0
LINE
  5
474
  8
DATA
  6
CONTINUOUS
 62
     7
 10
-87.199999999999804
 20
510.0
 30
0.0
 11
-87.199999999999804
 21
509.0
 31
0.0
  0
LINE
  5
475
  8
DATA
  6
CONTINUOUS
 62
     7
 10
-62.699999999999811
 20
511.0
 30
0.0
 11
-60.099999999999802
 21
511.0
 31
0.0
  0
ARC
  5
476
  8
DATA
  6
CONTINUOUS
 62
     7
 10
-60.099999999999802
 20
510.0
 30
0.0
 40
0.9999999999999836
 50
30.000000000000551
 51
89.999999999999986
  0
ARC
  5
477
  8
DATA
  6
CONTINUOUS
 62
     7
 10
-62.699999999999811
 20
510.0
 30
0.0
 40
1.0
 50
90.0
 51
123.3670129692354
  0
LINE
  5
478
  8
DATA
  6
CONTINUOUS
 62
     7
 10
-86.199999999999804
 20
511.0
 30
0.0
 11
-83.599999999999795
 21
511.0
 31
0.0
  0
ARC
  5
479
  8
DATA
  6
CONTINUOUS
 62
     7
 10
-86.199999999999804
 20
510.0
 30
0.0
 40
1.0
 50
90.0
 51
180.0
  0
ARC
  5
47A
  8
DATA
  6
CONTINUOUS
 62
     7
 10
-83.599999999999795
 20
510.0
 30
0.0
 40
0.9999999999999836
 50
30.000000000000551
 51
89.999999999999986
  0
LINE
  5
47B
  8
DATA
  6
CONTINUOUS
 62
     7
 10
-98.75
 20
509.0
 30
0.0
 11
-98.75
 21
515.0
 31
0.0
  0
LINE
  5
47C
  8
DATA
  6
CONTINUOUS
 62
     7
 10
-90.750000000000014
 20
509.0
 30
0.0
 11
-90.750000000000014
 21
515.0
 31
0.0
  0
LINE
  5
47D
  8
DATA
  6
CONTINUOUS
 62
     7
 10
-97.75
 20
516.0
 30
0.0
 11
-91.75
 21
516.0
 31
0.0
  0
ARC
  5
47E
  8
DATA
  6
CONTINUOUS
 62
     7
 10
-97.75
 20
515.0
 30
0.0
 40
1.0
 50
90.0
 51
180.0
  0
ARC
  5
47F
  8
DATA
  6
CONTINUOUS
 62
     7
 10
-91.75
 20
515.0
 30
0.0
 40
1.0
 50
0.0
 51
90.0
  0
LINE
  5
480
  8
DATA
  6
CONTINUOUS
 62
     7
 10
-143.25035390852361
 20
514.5
 30
0.0
 11
-143.25035390852361
 21
513.49999999999989
 31
0.0
  0
LINE
  5
481
  8
DATA
  6
CONTINUOUS
 62
     7
 10
-133.24964609146991
 20
514.5
 30
0.0
 11
-133.24964609146991
 21
513.49999999999989
 31
0.0
  0
LINE
  5
482
  8
DATA
  6
CONTINUOUS
 62
     7
 10
-140.59999999999991
 20
513.49999999999989
 30
0.0
 11
-140.59999999999991
 21
509.0
 31
0.0
  0
LINE
  5
483
  8
DATA
  6
CONTINUOUS
 62
     7
 10
-135.89999999999989
 20
513.49999999999989
 30
0.0
 11
-135.89999999999989
 21
509.0
 31
0.0
  0
LINE
  5
484
  8
DATA
  6
CONTINUOUS
 62
     7
 10
-149.0
 20
510.5
 30
0.0
 11
-149.0
 21
509.0
 31
0.0
  0
LINE
  5
485
  8
DATA
  6
CONTINUOUS
 62
     7
 10
-149.0
 20
510.5
 30
0.0
 11
-140.59999999999991
 21
510.5
 31
0.0
  0
LINE
  5
486
  8
DATA
  6
CONTINUOUS
 62
     7
 10
-135.89999999999989
 20
510.5
 30
0.0
 11
-130.51602540378431
 21
510.5
 31
0.0
  0
LINE
  5
487
  8
DATA
  6
CONTINUOUS
 62
     7
 10
-143.25035390852361
 20
513.49999999999989
 30
0.0
 11
-133.24964609146991
 21
513.49999999999989
 31
0.0
  0
LINE
  5
488
  8
DATA
  6
CONTINUOUS
 62
     7
 10
-143.25035390852361
 20
514.5
 30
0.0
 11
-133.24964609146991
 21
514.5
 31
0.0
  0
LINE
  5
489
  8
DATA
  6
CONTINUOUS
 62
     7
 10
-197.0
 20
511.0
 30
0.0
 11
-197.0
 21
509.0
 31
0.0
  0
LINE
  5
48A
  8
DATA
  6
CONTINUOUS
 62
     7
 10
-164.0
 20
511.0
 30
0.0
 11
-164.0
 21
509.0
 31
0.0
  0
LINE
  5
48B
  8
DATA
  6
CONTINUOUS
 62
     7
 10
-196.0
 20
512.0
 30
0.0
 11
-165.0
 21
512.0
 31
0.0
  0
ARC
  5
48C
  8
DATA
  6
CONTINUOUS
 62
     7
 10
-196.0
 20
511.0
 30
0.0
 40
1.0
 50
90.0
 51
180.0
  0
ARC
  5
48D
  8
DATA
  6
CONTINUOUS
 62
     7
 10
-165.0
 20
511.0
 30
0.0
 40
1.0
 50
0.0
 51
90.0
  0
LINE
  5
48E
  8
DATA
  6
CONTINUOUS
 62
     7
 10
-166.2999999999999
 20
347.5
 30
0.0
 11
-166.2999999999999
 21
350.0
 31
0.0
  0
LINE
  5
48F
  8
DATA
  6
CONTINUOUS
 62
     7
 10
-158.69999999999999
 20
347.5
 30
0.0
 11
-158.69999999999999
 21
350.0
 31
0.0
  0
LINE
  5
490
  8
DATA
  6
CONTINUOUS
 62
     7
 10
-153.2999999999999
 20
347.5
 30
0.0
 11
-153.2999999999999
 21
350.0
 31
0.0
  0
LINE
  5
491
  8
DATA
  6
CONTINUOUS
 62
     7
 10
-145.69999999999999
 20
347.5
 30
0.0
 11
-145.69999999999999
 21
350.0
 31
0.0
  0
LINE
  5
492
  8
DATA
  6
CONTINUOUS
 62
     7
 10
-166.2999999999999
 20
347.5
 30
0.0
 11
-158.69999999999999
 21
347.5
 31
0.0
  0
LINE
  5
493
  8
DATA
  6
CONTINUOUS
 62
     7
 10
-153.2999999999999
 20
347.5
 30
0.0
 11
-145.69999999999999
 21
347.5
 31
0.0
  0
LINE
  5
494
  8
DATA
  6
CONTINUOUS
 62
     7
 10
-196.5
 20
346.0
 30
0.0
 11
-196.5
 21
350.0
 31
0.0
  0
LINE
  5
495
  8
DATA
  6
CONTINUOUS
 62
     7
 10
-189.90000000000001
 20
346.0
 30
0.0
 11
-189.90000000000001
 21
350.0
 31
0.0
  0
LINE
  5
496
  8
DATA
  6
CONTINUOUS
 62
     7
 10
-196.5
 20
346.0
 30
0.0
 11
-189.90000000000001
 21
346.0
 31
0.0
  0
LINE
  5
497
  8
DATA
  6
CONTINUOUS
 62
     7
 10
-5.5
 20
346.0
 30
0.0
 11
-5.5
 21
350.0
 31
0.0
  0
LINE
  5
498
  8
DATA
  6
CONTINUOUS
 62
     7
 10
-12.099999999999911
 20
346.0
 30
0.0
 11
-12.099999999999911
 21
350.0
 31
0.0
  0
LINE
  5
499
  8
DATA
  6
CONTINUOUS
 62
     7
 10
-5.5
 20
346.0
 30
0.0
 11
-12.099999999999911
 21
346.0
 31
0.0
  0
ARC
  5
49A
  8
DATA
  6
CONTINUOUS
 62
     7
 10
-136.0
 20
350.0
 30
0.0
 40
1.5
 50
180.0
 51
0.0
  0
ARC
  5
49B
  8
DATA
  6
CONTINUOUS
 62
     7
 10
-121.0
 20
350.0
 30
0.0
 40
1.5
 50
180.0
 51
0.0
  0
ARC
  5
49C
  8
DATA
  6
CONTINUOUS
 62
     7
 10
-100.0
 20
350.0
 30
0.0
 40
1.5
 50
180.0
 51
0.0
  0
ARC
  5
49D
  8
DATA
  6
CONTINUOUS
 62
     7
 10
-85.0
 20
350.0
 30
0.0
 40
1.5
 50
180.0
 51
0.0
  0
ARC
  5
49E
  8
DATA
  6
CONTINUOUS
 62
     7
 10
-65.0
 20
350.0
 30
0.0
 40
1.5
 50
180.0
 51
0.0
  0
ARC
  5
49F
  8
DATA
  6
CONTINUOUS
 62
     7
 10
-50.0
 20
350.0
 30
0.0
 40
1.5
 50
180.0
 51
0.0
  0
ARC
  5
4A0
  8
DATA
  6
CONTINUOUS
 62
     7
 10
-34.5
 20
350.0
 30
0.0
 40
1.5
 50
180.0
 51
0.0
  0
ARC
  5
4A1
  8
DATA
  6
CONTINUOUS
 62
     7
 10
-29.5
 20
350.0
 30
0.0
 40
1.5
 50
180.0
 51
0.0
  0
POLYLINE
  5
4A2
  8
DATA
  6
CONTINUOUS
 62
     7
 66
     1
 10
0.0
 20
0.0
 30
0.0
 70
   129
  0
VERTEX
  5
849
  8
DATA
  6
CONTINUOUS
 62
     7
 10
-67.399999999999864
 20
510.0
 30
0.0
 42
-0.4142135623730951
  0
VERTEX
  5
84A
  8
DATA
  6
CONTINUOUS
 62
     7
 10
-66.399999999999864
 20
511.0
 30
0.0
  0
VERTEX
  5
84B
  8
DATA
  6
CONTINUOUS
 62
     7
 10
-63.799999999999962
 20
511.0
 30
0.0
 42
-0.4142135623730951
  0
VERTEX
  5
84C
  8
DATA
  6
CONTINUOUS
 62
     7
 10
-62.799999999999962
 20
510.0
 30
0.0
  0
VERTEX
  5
84D
  8
DATA
  6
CONTINUOUS
 62
     7
 10
-62.799999999999962
 20
509.0
 30
0.0
  0
VERTEX
  5
84E
  8
DATA
  6
CONTINUOUS
 62
     7
 10
-67.399999999999864
 20
509.0
 30
0.0
  0
SEQEND
  5
84F
  8
DATA
  6
CONTINUOUS
 62
     7
  0
LINE
  5
4AA
  8
DATA
  6
CONTINUOUS
 62
     7
 10
-62.799999999999962
 20
510.0
 30
0.0
 11
-62.799999999999962
 21
509.0
 31
0.0
  0
LINE
  5
4AB
  8
DATA
  6
CONTINUOUS
 62
     7
 10
-66.399999999999864
 20
511.0
 30
0.0
 11
-63.799999999999962
 21
511.0
 31
0.0
  0
LINE
  5
4AC
  8
DATA
  6
CONTINUOUS
 62
     7
 10
-67.399999999999864
 20
509.0
 30
0.0
 11
-67.399999999999864
 21
510.0
 31
0.0
  0
ARC
  5
4AD
  8
DATA
  6
CONTINUOUS
 62
     7
 10
-66.399999999999864
 20
510.0
 30
0.0
 40
1.0
 50
90.0
 51
180.0
  0
ARC
  5
4AE
  8
DATA
  6
CONTINUOUS
 62
     7
 10
-63.799999999999962
 20
510.0
 30
0.0
 40
1.0
 50
0.0
 51
90.0
  0
LINE
  5
4AF
  8
DATA
  6
CONTINUOUS
 62
     7
 10
-39.299999999999962
 20
510.0
 30
0.0
 11
-39.299999999999962
 21
509.0
 31
0.0
  0
LINE
  5
4B0
  8
DATA
  6
CONTINUOUS
 62
     7
 10
-42.899999999999842
 20
511.0
 30
0.0
 11
-40.299999999999962
 21
511.0
 31
0.0
  0
LINE
  5
4B1
  8
DATA
  6
CONTINUOUS
 62
     7
 10
-43.899999999999849
 20
509.0
 30
0.0
 11
-43.899999999999849
 21
510.0
 31
0.0
  0
ARC
  5
4B2
  8
DATA
  6
CONTINUOUS
 62
     7
 10
-42.899999999999842
 20
510.0
 30
0.0
 40
1.0
 50
90.0
 51
180.0
  0
ARC
  5
4B3
  8
DATA
  6
CONTINUOUS
 62
     7
 10
-40.299999999999962
 20
510.0
 30
0.0
 40
1.0
 50
0.0
 51
90.0
  0
LINE
  5
4B4
  8
DATA
  6
CONTINUOUS
 62
     7
 10
-33.0
 20
510.0
 30
0.0
 11
-33.0
 21
509.0
 31
0.0
  0
LINE
  5
4B5
  8
DATA
  6
CONTINUOUS
 62
     7
 10
-37.0
 20
511.0
 30
0.0
 11
-34.0
 21
511.0
 31
0.0
  0
LINE
  5
4B6
  8
DATA
  6
CONTINUOUS
 62
     7
 10
-38.0
 20
509.0
 30
0.0
 11
-38.0
 21
510.0
 31
0.0
  0
ARC
  5
4B7
  8
DATA
  6
CONTINUOUS
 62
     7
 10
-37.0
 20
510.0
 30
0.0
 40
1.0
 50
90.0
 51
180.0
  0
ARC
  5
4B8
  8
DATA
  6
CONTINUOUS
 62
     7
 10
-34.0
 20
510.0
 30
0.0
 40
1.0
 50
0.0
 51
90.0
  0
LINE
  5
4B9
  8
DATA
  6
CONTINUOUS
 62
     7
 10
-99.500000000000014
 20
510.0
 30
0.0
 11
-99.500000000000014
 21
509.0
 31
0.0
  0
LINE
  5
4BA
  8
DATA
  6
CONTINUOUS
 62
     7
 10
-103.5
 20
511.0
 30
0.0
 11
-100.5
 21
511.0
 31
0.0
  0
LINE
  5
4BB
  8
DATA
  6
CONTINUOUS
 62
     7
 10
-104.5
 20
509.0
 30
0.0
 11
-104.5
 21
510.0
 31
0.0
  0
ARC
  5
4BC
  8
DATA
  6
CONTINUOUS
 62
     7
 10
-103.5
 20
510.0
 30
0.0
 40
1.0
 50
90.0
 51
180.0
  0
ARC
  5
4BD
  8
DATA
  6
CONTINUOUS
 62
     7
 10
-100.5
 20
510.0
 30
0.0
 40
1.0
 50
0.0
 51
90.0
  0
POLYLINE
  5
4BE
  8
DATA
  6
CONTINUOUS
 62
     7
 66
     1
 10
0.0
 20
0.0
 30
0.0
 70
   129
  0
VERTEX
  5
850
  8
DATA
  6
CONTINUOUS
 62
     7
 10
-130.64999999999981
 20
510.0
 30
0.0
 42
-0.4142135623730951
  0
VERTEX
  5
851
  8
DATA
  6
CONTINUOUS
 62
     7
 10
-129.64999999999981
 20
511.0
 30
0.0
  0
VERTEX
  5
852
  8
DATA
  6
CONTINUOUS
 62
     7
 10
-127.0499999999999
 20
511.0
 30
0.0
 42
-0.4142135623730951
  0
VERTEX
  5
853
  8
DATA
  6
CONTINUOUS
 62
     7
 10
-126.0499999999999
 20
510.0
 30
0.0
  0
VERTEX
  5
854
  8
DATA
  6
CONTINUOUS
 62
     7
 10
-126.0499999999999
 20
509.0
 30
0.0
  0
VERTEX
  5
855
  8
DATA
  6
CONTINUOUS
 62
     7
 10
-130.64999999999981
 20
509.0
 30
0.0
  0
SEQEND
  5
856
  8
DATA
  6
CONTINUOUS
 62
     7
  0
LINE
  5
4C6
  8
DATA
  6
CONTINUOUS
 62
     7
 10
-126.0499999999999
 20
510.0
 30
0.0
 11
-126.0499999999999
 21
509.0
 31
0.0
  0
LINE
  5
4C7
  8
DATA
  6
CONTINUOUS
 62
     7
 10
-129.64999999999981
 20
511.0
 30
0.0
 11
-127.0499999999999
 21
511.0
 31
0.0
  0
LINE
  5
4C8
  8
DATA
  6
CONTINUOUS
 62
     7
 10
-130.64999999999981
 20
509.0
 30
0.0
 11
-130.64999999999981
 21
510.0
 31
0.0
  0
ARC
  5
4C9
  8
DATA
  6
CONTINUOUS
 62
     7
 10
-129.64999999999981
 20
510.0
 30
0.0
 40
1.0
 50
90.0
 51
180.0
  0
ARC
  5
4CA
  8
DATA
  6
CONTINUOUS
 62
     7
 10
-127.0499999999999
 20
510.0
 30
0.0
 40
1.0
 50
0.0
 51
90.0
  0
LINE
  5
4CB
  8
DATA
  6
CONTINUOUS
 62
     7
 10
-150.4499999999997
 20
509.0
 30
0.0
 11
-150.4499999999997
 21
510.0
 31
0.0
  0
ARC
  5
4CC
  8
DATA
  6
CONTINUOUS
 62
     7
 10
-149.4499999999997
 20
510.0
 30
0.0
 40
1.0
 50
90.0
 51
180.0
  0
ARC
  5
4CD
  8
DATA
  6
CONTINUOUS
 62
     7
 10
-146.8499999999998
 20
510.0
 30
0.0
 40
1.000000000000008
 50
29.999999999999719
 51
90.0
  0
CIRCLE
  5
4CE
  8
DATA
  6
CONTINUOUS
 62
     7
 10
-13.0
 20
611.10000000000002
 30
0.0
 40
8.0
  0
LINE
  5
4CF
  8
DATA
  6
CONTINUOUS
 62
     7
 10
-19.928203230275582
 20
615.10000000000002
 30
0.0
 11
-13.0
 21
619.10000000000002
 31
0.0
  0
LINE
  5
4D0
  8
DATA
  6
CONTINUOUS
 62
     7
 10
-13.0
 20
619.10000000000002
 30
0.0
 11
-6.071796769724414
 21
615.10000000000002
 31
0.0
  0
LINE
  5
4D1
  8
DATA
  6
CONTINUOUS
 62
     7
 10
-6.071796769724414
 20
615.10000000000002
 30
0.0
 11
-6.071796769724414
 21
607.10000000000002
 31
0.0
  0
LINE
  5
4D2
  8
DATA
  6
CONTINUOUS
 62
     7
 10
-6.071796769724414
 20
607.10000000000002
 30
0.0
 11
-13.0
 21
603.10000000000002
 31
0.0
  0
LINE
  5
4D3
  8
DATA
  6
CONTINUOUS
 62
     7
 10
-13.0
 20
603.10000000000002
 30
0.0
 11
-19.928203230275582
 21
607.10000000000002
 31
0.0
  0
LINE
  5
4D4
  8
DATA
  6
CONTINUOUS
 62
     7
 10
-19.928203230275582
 20
607.10000000000002
 30
0.0
 11
-19.928203230275582
 21
615.10000000000002
 31
0.0
  0
CIRCLE
  5
4D5
  8
DATA
  6
CONTINUOUS
 62
     7
 10
-13.0
 20
611.10000000000002
 30
0.0
 40
6.9282032302755283
  0
CIRCLE
  5
4D6
  8
DATA
  6
CONTINUOUS
 62
     7
 10
-13.0
 20
611.10000000000002
 30
0.0
 40
6.0
  0
LINE
  5
4D7
  8
DATA
  6
CONTINUOUS
 62
     7
 10
-18.5
 20
608.70208423834356
 30
0.0
 11
-18.5
 21
610.20000000000016
 31
0.0
  0
LINE
  5
4D8
  8
DATA
  6
CONTINUOUS
 62
     7
 10
-18.5
 20
612.0
 30
0.0
 11
-18.5
 21
613.49791576165626
 31
0.0
  0
LINE
  5
4D9
  8
DATA
  6
CONTINUOUS
 62
     7
 10
-10.60208423834365
 20
616.60000000000002
 30
0.0
 11
-15.39791576165635
 21
616.60000000000002
 31
0.0
  0
LINE
  5
4DA
  8
DATA
  6
CONTINUOUS
 62
     7
 10
-10.60208423834365
 20
605.60000000000002
 30
0.0
 11
-15.39791576165635
 21
605.60000000000002
 31
0.0
  0
CIRCLE
  5
4DB
  8
DATA
  6
CONTINUOUS
 62
     7
 10
-13.0
 20
611.10000000000002
 30
0.0
 40
4.75
  0
CIRCLE
  5
4DC
  8
DATA
  6
CONTINUOUS
 62
     7
 10
-13.0
 20
611.10000000000002
 30
0.0
 40
4.25
  0
CIRCLE
  5
4DD
  8
DATA
  6
CONTINUOUS
 62
     7
 10
-13.0
 20
611.10000000000002
 30
0.0
 40
1.0
  0
CIRCLE
  5
4DE
  8
DATA
  6
CONTINUOUS
 62
     7
 10
-13.0
 20
611.10000000000002
 30
0.0
 40
0.5
  0
POLYLINE
  5
4DF
  8
DATA
  6
CONTINUOUS
 62
     7
 66
     1
 10
0.0
 20
0.0
 30
0.0
  0
VERTEX
  5
857
  8
DATA
  6
CONTINUOUS
 62
     7
 10
-17.6644874491293
 20
610.20275040433808
 30
0.0
  0
VERTEX
  5
858
  8
DATA
  6
CONTINUOUS
 62
     7
 10
-17.6644874491293
 20
610.20000000000016
 30
0.0
  0
VERTEX
  5
859
  8
DATA
  6
CONTINUOUS
 62
     7
 10
-18.66448744912929
 20
610.20000000000016
 30
0.0
  0
VERTEX
  5
85A
  8
DATA
  6
CONTINUOUS
 62
     7
 10
-18.66448744912929
 20
612.0
 30
0.0
  0
VERTEX
  5
85B
  8
DATA
  6
CONTINUOUS
 62
     7
 10
-17.6644874491293
 20
612.0
 30
0.0
  0
VERTEX
  5
85C
  8
DATA
  6
CONTINUOUS
 62
     7
 10
-17.6644874491293
 20
611.99724959566186
 30
0.0
  0
SEQEND
  5
85D
  8
DATA
  6
CONTINUOUS
 62
     7
  0
POLYLINE
  5
4E8
  8
DATA
  6
CONTINUOUS
 62
     7
 66
     1
 10
0.0
 20
0.0
 30
0.0
  0
VERTEX
  5
85E
  8
DATA
  6
CONTINUOUS
 62
     7
 10
-8.3355125508707015
 20
610.20275040433808
 30
0.0
  0
VERTEX
  5
85F
  8
DATA
  6
CONTINUOUS
 62
     7
 10
-8.3355125508707015
 20
610.20000000000016
 30
0.0
  0
VERTEX
  5
860
  8
DATA
  6
CONTINUOUS
 62
     7
 10
-7.3355125508707024
 20
610.20000000000016
 30
0.0
  0
VERTEX
  5
861
  8
DATA
  6
CONTINUOUS
 62
     7
 10
-7.3355125508707024
 20
612.0
 30
0.0
  0
VERTEX
  5
862
  8
DATA
  6
CONTINUOUS
 62
     7
 10
-8.3355125508707015
 20
612.0
 30
0.0
  0
VERTEX
  5
863
  8
DATA
  6
CONTINUOUS
 62
     7
 10
-8.3355125508707015
 20
611.99724959566186
 30
0.0
  0
SEQEND
  5
864
  8
DATA
  6
CONTINUOUS
 62
     7
  0
LINE
  5
4F1
  8
DATA
  6
CONTINUOUS
 62
     7
 10
-199.0
 20
603.0
 30
0.0
 11
-199.0
 21
642.0
 31
0.0
  0
LINE
  5
4F2
  8
DATA
  6
CONTINUOUS
 62
     7
 10
-5.0
 20
601.0
 30
0.0
 11
-197.0
 21
601.0
 31
0.0
  0
LINE
  5
4F3
  8
DATA
  6
CONTINUOUS
 62
     7
 10
-3.0
 20
642.0
 30
0.0
 11
-3.0
 21
603.0
 31
0.0
  0
LINE
  5
4F4
  8
DATA
  6
CONTINUOUS
 62
     7
 10
-198.0
 20
643.0
 30
0.0
 11
-4.0
 21
643.0
 31
0.0
  0
LINE
  5
4F5
  8
DATA
  6
CONTINUOUS
 62
     7
 10
-198.0
 20
603.0
 30
0.0
 11
-198.0
 21
642.0
 31
0.0
  0
LINE
  5
4F6
  8
DATA
  6
CONTINUOUS
 62
     7
 10
-4.0
 20
602.0
 30
0.0
 11
-198.0
 21
602.0
 31
0.0
  0
ARC
  5
4F7
  8
DATA
  6
CONTINUOUS
 62
     7
 10
-198.0
 20
603.0
 30
0.0
 40
1.0
 50
180.0
 51
270.0
  0
ARC
  5
4F8
  8
DATA
  6
CONTINUOUS
 62
     7
 10
-197.0
 20
603.0
 30
0.0
 40
1.0
 50
180.0
 51
270.0
  0
LINE
  5
4F9
  8
DATA
  6
CONTINUOUS
 62
     7
 10
-197.0
 20
601.0
 30
0.0
 11
-197.0
 21
643.0
 31
0.0
  0
LINE
  5
4FA
  8
DATA
  6
CONTINUOUS
 62
     7
 10
-4.0
 20
603.0
 30
0.0
 11
-4.0
 21
642.0
 31
0.0
  0
ARC
  5
4FB
  8
DATA
  6
CONTINUOUS
 62
     7
 10
-4.0
 20
603.0
 30
0.0
 40
1.0
 50
270.0
 51
0.0
  0
ARC
  5
4FC
  8
DATA
  6
CONTINUOUS
 62
     7
 10
-5.0
 20
603.0
 30
0.0
 40
1.0
 50
270.0
 51
0.0
  0
LINE
  5
4FD
  8
DATA
  6
CONTINUOUS
 62
     7
 10
-5.0
 20
601.0
 30
0.0
 11
-5.0
 21
602.0
 31
0.0
  0
POLYLINE
  5
4FE
  8
DATA
  6
CONTINUOUS
 62
     7
 66
     1
 10
0.0
 20
0.0
 30
0.0
 70
     1
  0
VERTEX
  5
865
  8
DATA
  6
CONTINUOUS
 62
     7
 10
-197.0
 20
642.49999999999989
 30
0.0
  0
VERTEX
  5
866
  8
DATA
  6
CONTINUOUS
 62
     7
 10
-164.0
 20
642.49999999999989
 30
0.0
  0
VERTEX
  5
867
  8
DATA
  6
CONTINUOUS
 62
     7
 10
-164.0
 20
602.5
 30
0.0
  0
VERTEX
  5
868
  8
DATA
  6
CONTINUOUS
 62
     7
 10
-197.0
 20
602.5
 30
0.0
  0
SEQEND
  5
869
  8
DATA
  6
CONTINUOUS
 62
     7
  0
LINE
  5
505
  8
DATA
  6
CONTINUOUS
 62
     7
 10
-173.84162115156619
 20
623.30000000000018
 30
0.0
 11
-187.15837884843381
 21
623.30000000000018
 31
0.0
  0
LINE
  5
506
  8
DATA
  6
CONTINUOUS
 62
     7
 10
-170.59999999999999
 20
639.5
 30
0.0
 11
-190.40000000000001
 21
639.5
 31
0.0
  0
LINE
  5
507
  8
DATA
  6
CONTINUOUS
 62
     7
 10
-192.40000000000001
 20
628.61529435955617
 30
0.0
 11
-192.40000000000001
 21
637.5
 31
0.0
  0
LINE
  5
508
  8
DATA
  6
CONTINUOUS
 62
     7
 10
-168.59999999999999
 20
628.61529435955617
 30
0.0
 11
-168.59999999999999
 21
637.5
 31
0.0
  0
LINE
  5
509
  8
DATA
  6
CONTINUOUS
 62
     7
 10
-169.16998666197381
 20
627.21705909570846
 30
0.0
 11
-172.41160781354
 21
623.90176473615213
 31
0.0
  0
LINE
  5
50A
  8
DATA
  6
CONTINUOUS
 62
     7
 10
-191.83001333802599
 20
627.21705909570846
 30
0.0
 11
-188.58839218646
 21
623.90176473615213
 31
0.0
  0
ARC
  5
50B
  8
DATA
  6
CONTINUOUS
 62
     7
 10
-170.59999999999999
 20
628.61529435955617
 30
0.0
 40
1.999999999999976
 50
315.6437457141767
 51
0.0
  0
ARC
  5
50C
  8
DATA
  6
CONTINUOUS
 62
     7
 10
-190.40000000000001
 20
628.61529435955617
 30
0.0
 40
2.0
 50
180.0
 51
224.35625428582341
  0
ARC
  5
50D
  8
DATA
  6
CONTINUOUS
 62
     7
 10
-187.15837884843381
 20
625.30000000000007
 30
0.0
 40
2.0000000000000551
 50
224.35625428582571
 51
270.0
  0
ARC
  5
50E
  8
DATA
  6
CONTINUOUS
 62
     7
 10
-173.84162115156619
 20
625.30000000000007
 30
0.0
 40
2.0
 50
270.0
 51
315.64374571417432
  0
ARC
  5
50F
  8
DATA
  6
CONTINUOUS
 62
     7
 10
-170.59999999999999
 20
637.5
 30
0.0
 40
2.0
 50
0.0
 51
90.0
  0
ARC
  5
510
  8
DATA
  6
CONTINUOUS
 62
     7
 10
-190.40000000000001
 20
637.5
 30
0.0
 40
2.0
 50
90.0
 51
180.0
  0
LINE
  5
511
  8
DATA
  6
CONTINUOUS
 62
     7
 10
-187.65000000000001
 20
631.29999999999995
 30
0.0
 11
-187.65000000000001
 21
635.29999999999995
 31
0.0
  0
LINE
  5
512
  8
DATA
  6
CONTINUOUS
 62
     7
 10
-173.64999999999989
 20
631.29999999999995
 30
0.0
 11
-173.64999999999989
 21
635.29999999999995
 31
0.0
  0
LINE
  5
513
  8
DATA
  6
CONTINUOUS
 62
     7
 10
-172.14999999999989
 20
631.29999999999995
 30
0.0
 11
-172.14999999999989
 21
635.29999999999995
 31
0.0
  0
LINE
  5
514
  8
DATA
  6
CONTINUOUS
 62
     7
 10
-186.15000000000001
 20
631.29999999999995
 30
0.0
 11
-186.15000000000001
 21
635.29999999999995
 31
0.0
  0
LINE
  5
515
  8
DATA
  6
CONTINUOUS
 62
     7
 10
-181.15000000000001
 20
627.30000000000018
 30
0.0
 11
-181.15000000000001
 21
631.29999999999995
 31
0.0
  0
LINE
  5
516
  8
DATA
  6
CONTINUOUS
 62
     7
 10
-179.64999999999989
 20
627.30000000000018
 30
0.0
 11
-179.64999999999989
 21
631.29999999999995
 31
0.0
  0
LINE
  5
517
  8
DATA
  6
CONTINUOUS
 62
     7
 10
-172.14999999999989
 20
631.29999999999995
 30
0.0
 11
-173.64999999999989
 21
631.29999999999995
 31
0.0
  0
LINE
  5
518
  8
DATA
  6
CONTINUOUS
 62
     7
 10
-179.64999999999989
 20
631.29999999999995
 30
0.0
 11
-181.15000000000001
 21
631.29999999999995
 31
0.0
  0
LINE
  5
519
  8
DATA
  6
CONTINUOUS
 62
     7
 10
-186.15000000000001
 20
631.29999999999995
 30
0.0
 11
-187.65000000000001
 21
631.29999999999995
 31
0.0
  0
LINE
  5
51A
  8
DATA
  6
CONTINUOUS
 62
     7
 10
-179.64999999999989
 20
627.30000000000018
 30
0.0
 11
-181.15000000000001
 21
627.30000000000018
 31
0.0
  0
LINE
  5
51B
  8
DATA
  6
CONTINUOUS
 62
     7
 10
-172.14999999999989
 20
635.29999999999995
 30
0.0
 11
-173.64999999999989
 21
635.29999999999995
 31
0.0
  0
LINE
  5
51C
  8
DATA
  6
CONTINUOUS
 62
     7
 10
-186.15000000000001
 20
635.29999999999995
 30
0.0
 11
-187.65000000000001
 21
635.29999999999995
 31
0.0
  0
POLYLINE
  5
51D
  8
DATA
  6
CONTINUOUS
 62
     7
 66
     1
 10
0.0
 20
0.0
 30
0.0
 70
     1
  0
VERTEX
  5
86A
  8
DATA
  6
CONTINUOUS
 62
     7
 10
-193.0
 20
618.25
 30
0.0
  0
VERTEX
  5
86B
  8
DATA
  6
CONTINUOUS
 62
     7
 10
-168.0
 20
618.25
 30
0.0
  0
VERTEX
  5
86C
  8
DATA
  6
CONTINUOUS
 62
     7
 10
-168.0
 20
606.74999999999989
 30
0.0
  0
VERTEX
  5
86D
  8
DATA
  6
CONTINUOUS
 62
     7
 10
-193.0
 20
606.74999999999989
 30
0.0
  0
SEQEND
  5
86E
  8
DATA
  6
CONTINUOUS
 62
     7
  0
POLYLINE
  5
524
  8
DATA
  6
CONTINUOUS
 62
     7
 66
     1
 10
0.0
 20
0.0
 30
0.0
 70
     1
  0
VERTEX
  5
86F
  8
DATA
  6
CONTINUOUS
 62
     7
 10
-195.0
 20
620.0
 30
0.0
  0
VERTEX
  5
870
  8
DATA
  6
CONTINUOUS
 62
     7
 10
-166.0
 20
620.0
 30
0.0
  0
VERTEX
  5
871
  8
DATA
  6
CONTINUOUS
 62
     7
 10
-166.0
 20
605.0
 30
0.0
  0
VERTEX
  5
872
  8
DATA
  6
CONTINUOUS
 62
     7
 10
-195.0
 20
605.0
 30
0.0
  0
SEQEND
  5
873
  8
DATA
  6
CONTINUOUS
 62
     7
  0
POLYLINE
  5
52B
  8
DATA
  6
CONTINUOUS
 62
     7
 66
     1
 10
0.0
 20
0.0
 30
0.0
 70
     1
  0
VERTEX
  5
874
  8
DATA
  6
CONTINUOUS
 62
     7
 10
-171.5
 20
615.0
 30
0.0
  0
VERTEX
  5
875
  8
DATA
  6
CONTINUOUS
 62
     7
 10
-168.5
 20
615.0
 30
0.0
  0
VERTEX
  5
876
  8
DATA
  6
CONTINUOUS
 62
     7
 10
-168.5
 20
610.0
 30
0.0
  0
VERTEX
  5
877
  8
DATA
  6
CONTINUOUS
 62
     7
 10
-171.5
 20
610.0
 30
0.0
  0
SEQEND
  5
878
  8
DATA
  6
CONTINUOUS
 62
     7
  0
TEXT
  5
532
  8
DATA
 62
     7
 10
-169.1022135416666
 20
614.42382812499989
 30
0.0
 40
3.84765625
  1
O
 50
180.0
 41
0.7
 72
     1
 11
-170.0
 21
612.5
 31
0.0
 73
     2
  0
POLYLINE
  5
533
  8
DATA
  6
CONTINUOUS
 62
     7
 66
     1
 10
0.0
 20
0.0
 30
0.0
 70
     1
  0
VERTEX
  5
879
  8
DATA
  6
CONTINUOUS
 62
     7
 10
-192.5
 20
615.0
 30
0.0
  0
VERTEX
  5
87A
  8
DATA
  6
CONTINUOUS
 62
     7
 10
-189.5
 20
615.0
 30
0.0
  0
VERTEX
  5
87B
  8
DATA
  6
CONTINUOUS
 62
     7
 10
-189.5
 20
610.0
 30
0.0
  0
VERTEX
  5
87C
  8
DATA
  6
CONTINUOUS
 62
     7
 10
-192.5
 20
610.0
 30
0.0
  0
SEQEND
  5
87D
  8
DATA
  6
CONTINUOUS
 62
     7
  0
TEXT
  5
53A
  8
DATA
 62
     7
 10
-190.55110677083329
 20
614.42382812499989
 30
0.0
 40
3.84765625
  1
I
 50
180.0
 41
0.7
 72
     1
 11
-191.0
 21
612.5
 31
0.0
 73
     2
  0
ARC
  5
53B
  8
DATA
  6
CONTINUOUS
 62
     7
 10
-5.0
 20
642.0
 30
0.0
 40
1.0
 50
0.0
 51
90.0
  0
ARC
  5
53C
  8
DATA
  6
CONTINUOUS
 62
     7
 10
-4.0
 20
642.0
 30
0.0
 40
1.0
 50
0.0
 51
90.0
  0
ARC
  5
53D
  8
DATA
  6
CONTINUOUS
 62
     7
 10
-197.0
 20
642.0
 30
0.0
 40
1.0
 50
90.0
 51
180.0
  0
ARC
  5
53E
  8
DATA
  6
CONTINUOUS
 62
     7
 10
-198.0
 20
642.0
 30
0.0
 40
1.0
 50
90.0
 51
180.0
  0
CIRCLE
  5
53F
  8
DATA
  6
CONTINUOUS
 62
     7
 10
-13.0
 20
627.10000000000002
 30
0.0
 40
8.0
  0
LINE
  5
540
  8
DATA
  6
CONTINUOUS
 62
     7
 10
-19.928203230275582
 20
631.09999999999991
 30
0.0
 11
-13.0
 21
635.09999999999991
 31
0.0
  0
LINE
  5
541
  8
DATA
  6
CONTINUOUS
 62
     7
 10
-13.0
 20
635.09999999999991
 30
0.0
 11
-6.071796769724414
 21
631.09999999999991
 31
0.0
  0
LINE
  5
542
  8
DATA
  6
CONTINUOUS
 62
     7
 10
-6.071796769724414
 20
631.09999999999991
 30
0.0
 11
-6.071796769724414
 21
623.10000000000002
 31
0.0
  0
LINE
  5
543
  8
DATA
  6
CONTINUOUS
 62
     7
 10
-6.071796769724414
 20
623.10000000000002
 30
0.0
 11
-13.0
 21
619.10000000000002
 31
0.0
  0
LINE
  5
544
  8
DATA
  6
CONTINUOUS
 62
     7
 10
-13.0
 20
619.10000000000002
 30
0.0
 11
-19.928203230275582
 21
623.10000000000002
 31
0.0
  0
LINE
  5
545
  8
DATA
  6
CONTINUOUS
 62
     7
 10
-19.928203230275582
 20
623.10000000000002
 30
0.0
 11
-19.928203230275582
 21
631.09999999999991
 31
0.0
  0
CIRCLE
  5
546
  8
DATA
  6
CONTINUOUS
 62
     7
 10
-13.0
 20
627.10000000000002
 30
0.0
 40
6.9282032302755283
  0
CIRCLE
  5
547
  8
DATA
  6
CONTINUOUS
 62
     7
 10
-13.0
 20
627.10000000000002
 30
0.0
 40
6.0
  0
LINE
  5
548
  8
DATA
  6
CONTINUOUS
 62
     7
 10
-18.5
 20
624.70208423834356
 30
0.0
 11
-18.5
 21
626.20000000000005
 31
0.0
  0
LINE
  5
549
  8
DATA
  6
CONTINUOUS
 62
     7
 10
-18.5
 20
628.0
 30
0.0
 11
-18.5
 21
629.49791576165626
 31
0.0
  0
LINE
  5
54A
  8
DATA
  6
CONTINUOUS
 62
     7
 10
-10.60208423834365
 20
632.60000000000002
 30
0.0
 11
-15.39791576165635
 21
632.60000000000002
 31
0.0
  0
LINE
  5
54B
  8
DATA
  6
CONTINUOUS
 62
     7
 10
-10.60208423834365
 20
621.60000000000002
 30
0.0
 11
-15.39791576165635
 21
621.60000000000002
 31
0.0
  0
CIRCLE
  5
54C
  8
DATA
  6
CONTINUOUS
 62
     7
 10
-13.0
 20
627.10000000000002
 30
0.0
 40
4.75
  0
CIRCLE
  5
54D
  8
DATA
  6
CONTINUOUS
 62
     7
 10
-13.0
 20
627.10000000000002
 30
0.0
 40
4.25
  0
CIRCLE
  5
54E
  8
DATA
  6
CONTINUOUS
 62
     7
 10
-13.0
 20
627.10000000000002
 30
0.0
 40
1.0
  0
CIRCLE
  5
54F
  8
DATA
  6
CONTINUOUS
 62
     7
 10
-13.0
 20
627.10000000000002
 30
0.0
 40
0.5
  0
POLYLINE
  5
550
  8
DATA
  6
CONTINUOUS
 62
     7
 66
     1
 10
0.0
 20
0.0
 30
0.0
  0
VERTEX
  5
87E
  8
DATA
  6
CONTINUOUS
 62
     7
 10
-17.6644874491293
 20
626.20275040433808
 30
0.0
  0
VERTEX
  5
87F
  8
DATA
  6
CONTINUOUS
 62
     7
 10
-17.6644874491293
 20
626.20000000000005
 30
0.0
  0
VERTEX
  5
880
  8
DATA
  6
CONTINUOUS
 62
     7
 10
-18.66448744912929
 20
626.20000000000005
 30
0.0
  0
VERTEX
  5
881
  8
DATA
  6
CONTINUOUS
 62
     7
 10
-18.66448744912929
 20
628.0
 30
0.0
  0
VERTEX
  5
882
  8
DATA
  6
CONTINUOUS
 62
     7
 10
-17.6644874491293
 20
628.0
 30
0.0
  0
VERTEX
  5
883
  8
DATA
  6
CONTINUOUS
 62
     7
 10
-17.6644874491293
 20
627.99724959566186
 30
0.0
  0
SEQEND
  5
884
  8
DATA
  6
CONTINUOUS
 62
     7
  0
POLYLINE
  5
559
  8
DATA
  6
CONTINUOUS
 62
     7
 66
     1
 10
0.0
 20
0.0
 30
0.0
  0
VERTEX
  5
885
  8
DATA
  6
CONTINUOUS
 62
     7
 10
-8.3355125508707015
 20
626.20275040433808
 30
0.0
  0
VERTEX
  5
886
  8
DATA
  6
CONTINUOUS
 62
     7
 10
-8.3355125508707015
 20
626.20000000000005
 30
0.0
  0
VERTEX
  5
887
  8
DATA
  6
CONTINUOUS
 62
     7
 10
-7.3355125508707024
 20
626.20000000000005
 30
0.0
  0
VERTEX
  5
888
  8
DATA
  6
CONTINUOUS
 62
     7
 10
-7.3355125508707024
 20
628.0
 30
0.0
  0
VERTEX
  5
889
  8
DATA
  6
CONTINUOUS
 62
     7
 10
-8.3355125508707015
 20
628.0
 30
0.0
  0
VERTEX
  5
88A
  8
DATA
  6
CONTINUOUS
 62
     7
 10
-8.3355125508707015
 20
627.99724959566186
 30
0.0
  0
SEQEND
  5
88B
  8
DATA
  6
CONTINUOUS
 62
     7
  0
CIRCLE
  5
562
  8
DATA
  6
CONTINUOUS
 62
     7
 10
-28.25
 20
613.0
 30
0.0
 40
4.0
  0
CIRCLE
  5
563
  8
DATA
  6
CONTINUOUS
 62
     7
 10
-28.25
 20
613.0
 30
0.0
 40
3.0
  0
CIRCLE
  5
564
  8
DATA
  6
CONTINUOUS
 62
     7
 10
-28.25
 20
613.0
 30
0.0
 40
2.0
  0
CIRCLE
  5
565
  8
DATA
  6
CONTINUOUS
 62
     7
 10
-28.25
 20
613.0
 30
0.0
 40
1.5
  0
CIRCLE
  5
566
  8
DATA
  6
CONTINUOUS
 62
     7
 10
-28.25
 20
613.0
 30
0.0
 40
5.5
  0
POLYLINE
  5
567
  8
DATA
  6
CONTINUOUS
 62
     7
 66
     1
 10
0.0
 20
0.0
 30
0.0
 70
     1
  0
VERTEX
  5
88C
  8
DATA
  6
CONTINUOUS
 62
     7
 10
-33.0
 20
633.49999999999989
 30
0.0
  0
VERTEX
  5
88D
  8
DATA
  6
CONTINUOUS
 62
     7
 10
-23.5
 20
633.49999999999989
 30
0.0
  0
VERTEX
  5
88E
  8
DATA
  6
CONTINUOUS
 62
     7
 10
-23.5
 20
624.5
 30
0.0
  0
VERTEX
  5
88F
  8
DATA
  6
CONTINUOUS
 62
     7
 10
-33.0
 20
624.5
 30
0.0
  0
SEQEND
  5
890
  8
DATA
  6
CONTINUOUS
 62
     7
  0
LINE
  5
56E
  8
DATA
  6
CONTINUOUS
 62
     7
 10
-30.25
 20
632.5
 30
0.0
 11
-26.25
 21
632.5
 31
0.0
  0
LINE
  5
56F
  8
DATA
  6
CONTINUOUS
 62
     7
 10
-30.25
 20
632.5
 30
0.0
 11
-31.75
 21
631.5
 31
0.0
  0
LINE
  5
570
  8
DATA
  6
CONTINUOUS
 62
     7
 10
-31.75
 20
631.5
 30
0.0
 11
-31.75
 21
630.49999999999989
 31
0.0
  0
LINE
  5
571
  8
DATA
  6
CONTINUOUS
 62
     7
 10
-26.25
 20
632.5
 30
0.0
 11
-24.75
 21
631.5
 31
0.0
  0
LINE
  5
572
  8
DATA
  6
CONTINUOUS
 62
     7
 10
-24.75
 20
631.5
 30
0.0
 11
-24.75
 21
630.49999999999989
 31
0.0
  0
LINE
  5
573
  8
DATA
  6
CONTINUOUS
 62
     7
 10
-31.75
 20
630.49999999999989
 30
0.0
 11
-32.25
 21
629.49999999999989
 31
0.0
  0
LINE
  5
574
  8
DATA
  6
CONTINUOUS
 62
     7
 10
-24.75
 20
630.49999999999989
 30
0.0
 11
-24.25
 21
629.49999999999989
 31
0.0
  0
LINE
  5
575
  8
DATA
  6
CONTINUOUS
 62
     7
 10
-24.25
 20
629.49999999999989
 30
0.0
 11
-24.25
 21
624.5
 31
0.0
  0
LINE
  5
576
  8
DATA
  6
CONTINUOUS
 62
     7
 10
-32.25
 20
629.49999999999989
 30
0.0
 11
-32.25
 21
624.5
 31
0.0
  0
POLYLINE
  5
577
  8
DATA
  6
CONTINUOUS
 62
     7
 66
     1
 10
0.0
 20
0.0
 30
0.0
 70
     1
  0
VERTEX
  5
891
  8
DATA
  6
CONTINUOUS
 62
     7
 10
-33.25
 20
634.0
 30
0.0
  0
VERTEX
  5
892
  8
DATA
  6
CONTINUOUS
 62
     7
 10
-23.25
 20
634.0
 30
0.0
  0
VERTEX
  5
893
  8
DATA
  6
CONTINUOUS
 62
     7
 10
-23.25
 20
624.0
 30
0.0
  0
VERTEX
  5
894
  8
DATA
  6
CONTINUOUS
 62
     7
 10
-33.25
 20
624.0
 30
0.0
  0
SEQEND
  5
895
  8
DATA
  6
CONTINUOUS
 62
     7
  0
CIRCLE
  5
57E
  8
DATA
  6
CONTINUOUS
 62
     7
 10
-35.5
 20
620.5
 30
0.0
 40
2.5
  0
LINE
  5
57F
  8
DATA
  6
CONTINUOUS
 62
     7
 10
-35.5
 20
621.75
 30
0.0
 11
-35.5
 21
619.24999999999989
 31
0.0
  0
LINE
  5
580
  8
DATA
  6
CONTINUOUS
 62
     7
 10
-34.25
 20
620.5
 30
0.0
 11
-36.750000000000227
 21
620.5
 31
0.0
  0
TEXT
  5
581
  8
DATA
 62
     7
 10
-34.454427083333343
 20
630.54166353475148
 30
0.0
 40
3.078125
  1
OP
 50
180.0
 41
0.7
 72
     1
 11
-36.25
 21
630.9520802014182
 31
0.0
 73
     1
  0
TEXT
  5
582
  8
DATA
 62
     7
 10
-34.954427083333343
 20
614.54166353475148
 30
0.0
 40
3.078125
  1
CO
 50
180.0
 41
0.7
 72
     1
 11
-36.75
 21
614.9520802014182
 31
0.0
 73
     1
  0
CIRCLE
  5
583
  8
DATA
  6
CONTINUOUS
 62
     7
 10
-51.5
 20
622.25
 30
0.0
 40
10.75
  0
CIRCLE
  5
584
  8
DATA
  6
CONTINUOUS
 62
     7
 10
-51.5
 20
622.25
 30
0.0
 40
8.25
  0
CIRCLE
  5
585
  8
DATA
  6
CONTINUOUS
 62
     7
 10
-55.5
 20
622.25
 30
0.0
 40
1.5
  0
CIRCLE
  5
586
  8
DATA
  6
CONTINUOUS
 62
     7
 10
-51.5
 20
626.0
 30
0.0
 40
1.5
  0
CIRCLE
  5
587
  8
DATA
  6
CONTINUOUS
 62
     7
 10
-47.5
 20
622.25
 30
0.0
 40
1.5
  0
LINE
  5
588
  8
DATA
  6
CONTINUOUS
 62
     7
 10
-40.349999999999902
 20
612.34999999999991
 30
0.0
 11
-42.849999999999902
 21
612.34999999999991
 31
0.0
  0
LINE
  5
589
  8
DATA
  6
CONTINUOUS
 62
     7
 10
-41.599999999999902
 20
611.10000000000002
 30
0.0
 11
-41.599999999999902
 21
613.60000000000002
 31
0.0
  0
CIRCLE
  5
58A
  8
DATA
  6
CONTINUOUS
 62
     7
 10
-41.599999999999902
 20
612.34999999999991
 30
0.0
 40
2.2999999999999958
  0
CIRCLE
  5
58B
  8
DATA
  6
CONTINUOUS
 62
     7
 10
-61.399999999999856
 20
632.14999999999998
 30
0.0
 40
2.3000000000000682
  0
LINE
  5
58C
  8
DATA
  6
CONTINUOUS
 62
     7
 10
-61.399999999999856
 20
633.39999999999986
 30
0.0
 11
-61.399999999999856
 21
630.89999999999998
 31
0.0
  0
LINE
  5
58D
  8
DATA
  6
CONTINUOUS
 62
     7
 10
-60.149999999999856
 20
632.14999999999998
 30
0.0
 11
-62.650000000000098
 21
632.14999999999998
 31
0.0
  0
ARC
  5
58E
  8
DATA
  6
CONTINUOUS
 62
     7
 10
-51.5
 20
622.25
 30
0.0
 40
9.7499999999999911
 50
292.30620505490788
 51
247.69379494509209
  0
LINE
  5
58F
  8
DATA
  6
CONTINUOUS
 62
     7
 10
-56.491497238941633
 20
613.87459223000781
 30
0.0
 11
-56.974835172153462
 21
612.99858498186643
 31
0.0
  0
LINE
  5
590
  8
DATA
  6
CONTINUOUS
 62
     7
 10
-46.509004709460207
 20
613.87429310387415
 30
0.0
 11
-45.997107756584462
 21
613.01524624273316
 31
0.0
  0
LINE
  5
591
  8
DATA
  6
CONTINUOUS
 62
     7
 10
-47.419769170244763
 20
612.3044373524715
 30
0.0
 11
-47.799325526501093
 21
613.22960597084636
 31
0.0
  0
LINE
  5
592
  8
DATA
  6
CONTINUOUS
 62
     7
 10
-55.58023082975523
 20
612.3044373524715
 30
0.0
 11
-55.200674473499021
 21
613.22960597084602
 31
0.0
  0
LINE
  5
593
  8
DATA
  6
CONTINUOUS
 62
     7
 10
-48.273770971821357
 20
614.38606674381435
 30
0.0
 11
-48.368660060885531
 21
614.61735889840816
 31
0.0
  0
LINE
  5
594
  8
DATA
  6
CONTINUOUS
 62
     7
 10
-54.726229028178643
 20
614.38606674381447
 30
0.0
 11
-54.631339939114248
 21
614.61735889840918
 31
0.0
  0
ARC
  5
595
  8
DATA
  6
CONTINUOUS
 62
     7
 10
-51.5
 20
622.25
 30
0.0
 40
8.4999999999999822
 50
247.69379494509209
 51
292.30620505490731
  0
CIRCLE
  5
596
  8
DATA
  6
CONTINUOUS
 62
     7
 10
-75.0
 20
622.25
 30
0.0
 40
10.75
  0
ARC
  5
597
  8
DATA
  6
CONTINUOUS
 62
     7
 10
-75.0
 20
622.25
 30
0.0
 40
8.2500000000000302
 50
318.46822925891752
 51
311.526893822619
  0
CIRCLE
  5
598
  8
DATA
  6
CONTINUOUS
 62
     7
 10
-79.0
 20
622.25
 30
0.0
 40
1.5
  0
CIRCLE
  5
599
  8
DATA
  6
CONTINUOUS
 62
     7
 10
-75.0
 20
626.0
 30
0.0
 40
1.5
  0
CIRCLE
  5
59A
  8
DATA
  6
CONTINUOUS
 62
     7
 10
-71.0
 20
622.25
 30
0.0
 40
1.5
  0
LINE
  5
59B
  8
DATA
  6
CONTINUOUS
 62
     7
 10
-63.849999999999902
 20
612.34999999999991
 30
0.0
 11
-66.349999999999895
 21
612.34999999999991
 31
0.0
  0
LINE
  5
59C
  8
DATA
  6
CONTINUOUS
 62
     7
 10
-65.099999999999895
 20
611.10000000000002
 30
0.0
 11
-65.099999999999895
 21
613.60000000000002
 31
0.0
  0
CIRCLE
  5
59D
  8
DATA
  6
CONTINUOUS
 62
     7
 10
-65.099999999999895
 20
612.34999999999991
 30
0.0
 40
2.2999999999999958
  0
CIRCLE
  5
59E
  8
DATA
  6
CONTINUOUS
 62
     7
 10
-84.899999999999864
 20
632.14999999999998
 30
0.0
 40
2.3000000000000682
  0
LINE
  5
59F
  8
DATA
  6
CONTINUOUS
 62
     7
 10
-84.899999999999864
 20
633.39999999999986
 30
0.0
 11
-84.899999999999864
 21
630.89999999999998
 31
0.0
  0
LINE
  5
5A0
  8
DATA
  6
CONTINUOUS
 62
     7
 10
-83.649999999999864
 20
632.14999999999998
 30
0.0
 11
-86.150000000000091
 21
632.14999999999998
 31
0.0
  0
ARC
  5
5A1
  8
DATA
  6
CONTINUOUS
 62
     7
 10
-75.0
 20
622.25
 30
0.0
 40
9.7500000000000124
 50
283.94708242184993
 51
256.05291757815058
  0
LINE
  5
5A2
  8
DATA
  6
CONTINUOUS
 62
     7
 10
-79.991497238941619
 20
613.87459223000781
 30
0.0
 11
-80.474835172153448
 21
612.99858498186643
 31
0.0
  0
LINE
  5
5A3
  8
DATA
  6
CONTINUOUS
 62
     7
 10
-70.009004709460214
 20
613.87429310387415
 30
0.0
 11
-69.497107756584469
 21
613.01524624273316
 31
0.0
  0
LINE
  5
5A4
  8
DATA
  6
CONTINUOUS
 62
     7
 10
-70.919769170244777
 20
612.3044373524715
 30
0.0
 11
-71.299325526501093
 21
613.22960597084636
 31
0.0
  0
LINE
  5
5A5
  8
DATA
  6
CONTINUOUS
 62
     7
 10
-79.080230829755223
 20
612.3044373524715
 30
0.0
 11
-78.700674473499006
 21
613.22960597084602
 31
0.0
  0
POLYLINE
  5
5A6
  8
DATA
  6
CONTINUOUS
 62
     7
 66
     1
 10
0.0
 20
0.0
 30
0.0
 70
     1
  0
VERTEX
  5
896
  8
DATA
  6
CONTINUOUS
 62
     7
 10
-77.349999999999923
 20
612.78744220625299
 30
0.0
  0
VERTEX
  5
897
  8
DATA
  6
CONTINUOUS
 62
     7
 10
-72.649999999999963
 20
612.78744220625299
 30
0.0
  0
VERTEX
  5
898
  8
DATA
  6
CONTINUOUS
 62
     7
 10
-72.649999999999963
 20
611.7874422062531
 30
0.0
  0
VERTEX
  5
899
  8
DATA
  6
CONTINUOUS
 62
     7
 10
-77.349999999999923
 20
611.7874422062531
 30
0.0
  0
SEQEND
  5
89A
  8
DATA
  6
CONTINUOUS
 62
     7
  0
LINE
  5
5AD
  8
DATA
  6
CONTINUOUS
 62
     7
 10
-77.000000000000213
 20
605.99018326958685
 30
0.0
 11
-73.000000000000213
 21
605.99018326958685
 31
0.0
  0
LINE
  5
5AE
  8
DATA
  6
CONTINUOUS
 62
     7
 10
-73.0
 20
611.7874422062531
 30
0.0
 11
-77.0
 21
611.7874422062531
 31
0.0
  0
ARC
  5
5AF
  8
DATA
  6
CONTINUOUS
 62
     7
 10
-77.099999999999923
 20
608.88881273792003
 30
0.0
 40
2.9003539085236421
 50
94.929428110377259
 51
271.97586706033678
  0
ARC
  5
5B0
  8
DATA
  6
CONTINUOUS
 62
     7
 10
-72.900000000000091
 20
608.88881273791947
 30
0.0
 40
2.900353908523722
 50
268.02413293965861
 51
85.070571889627374
  0
ARC
  5
5B1
  8
DATA
  6
CONTINUOUS
 62
     7
 10
-69.166369055210893
 20
616.41636905521091
 30
0.0
 40
0.5000000000000759
 50
223.2064682027256
 51
44.999999999990749
  0
CIRCLE
  5
5B2
  8
DATA
  6
CONTINUOUS
 62
     7
 10
-94.749999999999986
 20
612.99194653238783
 30
0.0
 40
4.0
  0
CIRCLE
  5
5B3
  8
DATA
  6
CONTINUOUS
 62
     7
 10
-94.749999999999986
 20
612.99194653238783
 30
0.0
 40
3.0
  0
CIRCLE
  5
5B4
  8
DATA
  6
CONTINUOUS
 62
     7
 10
-94.749999999999986
 20
612.99194653238783
 30
0.0
 40
2.0
  0
CIRCLE
  5
5B5
  8
DATA
  6
CONTINUOUS
 62
     7
 10
-94.749999999999986
 20
612.99194653238783
 30
0.0
 40
1.5
  0
CIRCLE
  5
5B6
  8
DATA
  6
CONTINUOUS
 62
     7
 10
-94.749999999999986
 20
612.99194653238783
 30
0.0
 40
5.5
  0
POLYLINE
  5
5B7
  8
DATA
  6
CONTINUOUS
 62
     7
 66
     1
 10
0.0
 20
0.0
 30
0.0
 70
     1
  0
VERTEX
  5
89B
  8
DATA
  6
CONTINUOUS
 62
     7
 10
-99.500000000000014
 20
633.49194653238783
 30
0.0
  0
VERTEX
  5
89C
  8
DATA
  6
CONTINUOUS
 62
     7
 10
-90.0
 20
633.49194653238783
 30
0.0
  0
VERTEX
  5
89D
  8
DATA
  6
CONTINUOUS
 62
     7
 10
-90.0
 20
624.49194653238783
 30
0.0
  0
VERTEX
  5
89E
  8
DATA
  6
CONTINUOUS
 62
     7
 10
-99.500000000000014
 20
624.49194653238783
 30
0.0
  0
SEQEND
  5
89F
  8
DATA
  6
CONTINUOUS
 62
     7
  0
LINE
  5
5BE
  8
DATA
  6
CONTINUOUS
 62
     7
 10
-96.75
 20
632.49194653238783
 30
0.0
 11
-92.75
 21
632.49194653238783
 31
0.0
  0
LINE
  5
5BF
  8
DATA
  6
CONTINUOUS
 62
     7
 10
-96.75
 20
632.49194653238783
 30
0.0
 11
-98.250000000000014
 21
631.49194653238783
 31
0.0
  0
LINE
  5
5C0
  8
DATA
  6
CONTINUOUS
 62
     7
 10
-98.250000000000014
 20
631.49194653238783
 30
0.0
 11
-98.250000000000014
 21
630.49194653238783
 31
0.0
  0
LINE
  5
5C1
  8
DATA
  6
CONTINUOUS
 62
     7
 10
-92.75
 20
632.49194653238783
 30
0.0
 11
-91.25
 21
631.49194653238783
 31
0.0
  0
LINE
  5
5C2
  8
DATA
  6
CONTINUOUS
 62
     7
 10
-91.25
 20
631.49194653238783
 30
0.0
 11
-91.25
 21
630.49194653238783
 31
0.0
  0
LINE
  5
5C3
  8
DATA
  6
CONTINUOUS
 62
     7
 10
-98.250000000000014
 20
630.49194653238783
 30
0.0
 11
-98.75
 21
629.49194653238783
 31
0.0
  0
LINE
  5
5C4
  8
DATA
  6
CONTINUOUS
 62
     7
 10
-91.25
 20
630.49194653238783
 30
0.0
 11
-90.750000000000014
 21
629.49194653238783
 31
0.0
  0
LINE
  5
5C5
  8
DATA
  6
CONTINUOUS
 62
     7
 10
-90.750000000000014
 20
629.49194653238783
 30
0.0
 11
-90.750000000000014
 21
624.49194653238783
 31
0.0
  0
LINE
  5
5C6
  8
DATA
  6
CONTINUOUS
 62
     7
 10
-98.75
 20
629.49194653238783
 30
0.0
 11
-98.75
 21
624.49194653238783
 31
0.0
  0
POLYLINE
  5
5C7
  8
DATA
  6
CONTINUOUS
 62
     7
 66
     1
 10
0.0
 20
0.0
 30
0.0
 70
     1
  0
VERTEX
  5
8A0
  8
DATA
  6
CONTINUOUS
 62
     7
 10
-99.750000000000014
 20
633.99194653238783
 30
0.0
  0
VERTEX
  5
8A1
  8
DATA
  6
CONTINUOUS
 62
     7
 10
-89.749999999999986
 20
633.99194653238783
 30
0.0
  0
VERTEX
  5
8A2
  8
DATA
  6
CONTINUOUS
 62
     7
 10
-89.749999999999986
 20
623.99194653238783
 30
0.0
  0
VERTEX
  5
8A3
  8
DATA
  6
CONTINUOUS
 62
     7
 10
-99.750000000000014
 20
623.99194653238783
 30
0.0
  0
SEQEND
  5
8A4
  8
DATA
  6
CONTINUOUS
 62
     7
  0
CIRCLE
  5
5CE
  8
DATA
  6
CONTINUOUS
 62
     7
 10
-102.0
 20
620.49194653238783
 30
0.0
 40
2.5
  0
LINE
  5
5CF
  8
DATA
  6
CONTINUOUS
 62
     7
 10
-102.0
 20
621.74194653238783
 30
0.0
 11
-102.0
 21
619.24194653238783
 31
0.0
  0
LINE
  5
5D0
  8
DATA
  6
CONTINUOUS
 62
     7
 10
-100.75
 20
620.49194653238783
 30
0.0
 11
-103.2500000000002
 21
620.49194653238783
 31
0.0
  0
TEXT
  5
5D1
  8
DATA
 62
     7
 10
-100.9544270833333
 20
630.53361006713931
 30
0.0
 40
3.078125
  1
OP
 50
180.0
 41
0.7
 72
     1
 11
-102.75
 21
630.94402673380603
 31
0.0
 73
     1
  0
TEXT
  5
5D2
  8
DATA
 62
     7
 10
-101.4544270833333
 20
614.53361006713931
 30
0.0
 40
3.078125
  1
CO
 50
180.0
 41
0.7
 72
     1
 11
-103.25
 21
614.94402673380603
 31
0.0
 73
     1
  0
CIRCLE
  5
5D3
  8
DATA
  6
CONTINUOUS
 62
     7
 10
-138.25
 20
622.25
 30
0.0
 40
10.75
  0
ARC
  5
5D4
  8
DATA
  6
CONTINUOUS
 62
     7
 10
-138.25
 20
622.25
 30
0.0
 40
8.2500000000000302
 50
318.46822925891752
 51
311.526893822619
  0
CIRCLE
  5
5D5
  8
DATA
  6
CONTINUOUS
 62
     7
 10
-142.25
 20
622.25
 30
0.0
 40
1.5
  0
CIRCLE
  5
5D6
  8
DATA
  6
CONTINUOUS
 62
     7
 10
-138.25
 20
626.0
 30
0.0
 40
1.5
  0
CIRCLE
  5
5D7
  8
DATA
  6
CONTINUOUS
 62
     7
 10
-134.25
 20
622.25
 30
0.0
 40
1.5
  0
LINE
  5
5D8
  8
DATA
  6
CONTINUOUS
 62
     7
 10
-127.09999999999989
 20
612.34999999999991
 30
0.0
 11
-129.59999999999991
 21
612.34999999999991
 31
0.0
  0
LINE
  5
5D9
  8
DATA
  6
CONTINUOUS
 62
     7
 10
-128.34999999999991
 20
611.10000000000002
 30
0.0
 11
-128.34999999999991
 21
613.60000000000002
 31
0.0
  0
CIRCLE
  5
5DA
  8
DATA
  6
CONTINUOUS
 62
     7
 10
-128.34999999999991
 20
612.34999999999991
 30
0.0
 40
2.2999999999999958
  0
CIRCLE
  5
5DB
  8
DATA
  6
CONTINUOUS
 62
     7
 10
-148.14999999999981
 20
632.14999999999998
 30
0.0
 40
2.3000000000000682
  0
LINE
  5
5DC
  8
DATA
  6
CONTINUOUS
 62
     7
 10
-148.14999999999981
 20
633.39999999999986
 30
0.0
 11
-148.14999999999981
 21
630.89999999999998
 31
0.0
  0
LINE
  5
5DD
  8
DATA
  6
CONTINUOUS
 62
     7
 10
-146.89999999999981
 20
632.14999999999998
 30
0.0
 11
-149.40000000000009
 21
632.14999999999998
 31
0.0
  0
ARC
  5
5DE
  8
DATA
  6
CONTINUOUS
 62
     7
 10
-138.25
 20
622.25
 30
0.0
 40
9.7500000000000124
 50
283.94708242184993
 51
256.05291757815058
  0
LINE
  5
5DF
  8
DATA
  6
CONTINUOUS
 62
     7
 10
-143.24149723894161
 20
613.87459223000781
 30
0.0
 11
-143.7248351721534
 21
612.99858498186643
 31
0.0
  0
LINE
  5
5E0
  8
DATA
  6
CONTINUOUS
 62
     7
 10
-133.25900470946021
 20
613.87429310387415
 30
0.0
 11
-132.7471077565844
 21
613.01524624273316
 31
0.0
  0
LINE
  5
5E1
  8
DATA
  6
CONTINUOUS
 62
     7
 10
-134.16976917024471
 20
612.3044373524715
 30
0.0
 11
-134.54932552650109
 21
613.22960597084636
 31
0.0
  0
LINE
  5
5E2
  8
DATA
  6
CONTINUOUS
 62
     7
 10
-142.33023082975521
 20
612.3044373524715
 30
0.0
 11
-141.95067447349899
 21
613.22960597084602
 31
0.0
  0
POLYLINE
  5
5E3
  8
DATA
  6
CONTINUOUS
 62
     7
 66
     1
 10
0.0
 20
0.0
 30
0.0
 70
     1
  0
VERTEX
  5
8A5
  8
DATA
  6
CONTINUOUS
 62
     7
 10
-140.59999999999991
 20
612.78744220625299
 30
0.0
  0
VERTEX
  5
8A6
  8
DATA
  6
CONTINUOUS
 62
     7
 10
-135.89999999999989
 20
612.78744220625299
 30
0.0
  0
VERTEX
  5
8A7
  8
DATA
  6
CONTINUOUS
 62
     7
 10
-135.89999999999989
 20
611.7874422062531
 30
0.0
  0
VERTEX
  5
8A8
  8
DATA
  6
CONTINUOUS
 62
     7
 10
-140.59999999999991
 20
611.7874422062531
 30
0.0
  0
SEQEND
  5
8A9
  8
DATA
  6
CONTINUOUS
 62
     7
  0
LINE
  5
5EA
  8
DATA
  6
CONTINUOUS
 62
     7
 10
-140.2500000000002
 20
605.99018326958685
 30
0.0
 11
-136.2500000000002
 21
605.99018326958685
 31
0.0
  0
LINE
  5
5EB
  8
DATA
  6
CONTINUOUS
 62
     7
 10
-136.25
 20
611.7874422062531
 30
0.0
 11
-140.25
 21
611.7874422062531
 31
0.0
  0
ARC
  5
5EC
  8
DATA
  6
CONTINUOUS
 62
     7
 10
-140.34999999999991
 20
608.88881273792003
 30
0.0
 40
2.9003539085236421
 50
94.929428110377259
 51
271.97586706033678
  0
ARC
  5
5ED
  8
DATA
  6
CONTINUOUS
 62
     7
 10
-136.15000000000001
 20
608.88881273791947
 30
0.0
 40
2.900353908523722
 50
268.02413293965861
 51
85.070571889627374
  0
ARC
  5
5EE
  8
DATA
  6
CONTINUOUS
 62
     7
 10
-132.41636905521091
 20
616.41636905521091
 30
0.0
 40
0.5000000000000759
 50
223.2064682027256
 51
44.999999999990749
  0
CIRCLE
  5
5EF
  8
DATA
  6
CONTINUOUS
 62
     7
 10
-115.25
 20
611.10000000000002
 30
0.0
 40
8.0
  0
LINE
  5
5F0
  8
DATA
  6
CONTINUOUS
 62
     7
 10
-122.1782032302756
 20
615.10000000000002
 30
0.0
 11
-115.25
 21
619.10000000000002
 31
0.0
  0
LINE
  5
5F1
  8
DATA
  6
CONTINUOUS
 62
     7
 10
-115.25
 20
619.10000000000002
 30
0.0
 11
-108.3217967697244
 21
615.10000000000002
 31
0.0
  0
LINE
  5
5F2
  8
DATA
  6
CONTINUOUS
 62
     7
 10
-108.3217967697244
 20
615.10000000000002
 30
0.0
 11
-108.3217967697244
 21
607.10000000000002
 31
0.0
  0
LINE
  5
5F3
  8
DATA
  6
CONTINUOUS
 62
     7
 10
-108.3217967697244
 20
607.10000000000002
 30
0.0
 11
-115.25
 21
603.10000000000002
 31
0.0
  0
LINE
  5
5F4
  8
DATA
  6
CONTINUOUS
 62
     7
 10
-115.25
 20
603.10000000000002
 30
0.0
 11
-122.1782032302756
 21
607.10000000000002
 31
0.0
  0
LINE
  5
5F5
  8
DATA
  6
CONTINUOUS
 62
     7
 10
-122.1782032302756
 20
607.10000000000002
 30
0.0
 11
-122.1782032302756
 21
615.10000000000002
 31
0.0
  0
CIRCLE
  5
5F6
  8
DATA
  6
CONTINUOUS
 62
     7
 10
-115.25
 20
611.10000000000002
 30
0.0
 40
6.9282032302755283
  0
CIRCLE
  5
5F7
  8
DATA
  6
CONTINUOUS
 62
     7
 10
-115.25
 20
611.10000000000002
 30
0.0
 40
6.0
  0
LINE
  5
5F8
  8
DATA
  6
CONTINUOUS
 62
     7
 10
-120.75
 20
608.70208423834356
 30
0.0
 11
-120.75
 21
610.20000000000016
 31
0.0
  0
LINE
  5
5F9
  8
DATA
  6
CONTINUOUS
 62
     7
 10
-120.75
 20
612.0
 30
0.0
 11
-120.75
 21
613.49791576165626
 31
0.0
  0
LINE
  5
5FA
  8
DATA
  6
CONTINUOUS
 62
     7
 10
-112.85208423834359
 20
616.60000000000002
 30
0.0
 11
-117.64791576165629
 21
616.60000000000002
 31
0.0
  0
LINE
  5
5FB
  8
DATA
  6
CONTINUOUS
 62
     7
 10
-112.85208423834359
 20
605.60000000000002
 30
0.0
 11
-117.64791576165629
 21
605.60000000000002
 31
0.0
  0
CIRCLE
  5
5FC
  8
DATA
  6
CONTINUOUS
 62
     7
 10
-115.25
 20
611.10000000000002
 30
0.0
 40
4.75
  0
CIRCLE
  5
5FD
  8
DATA
  6
CONTINUOUS
 62
     7
 10
-115.25
 20
611.10000000000002
 30
0.0
 40
4.25
  0
CIRCLE
  5
5FE
  8
DATA
  6
CONTINUOUS
 62
     7
 10
-115.25
 20
611.10000000000002
 30
0.0
 40
1.0
  0
CIRCLE
  5
5FF
  8
DATA
  6
CONTINUOUS
 62
     7
 10
-115.25
 20
611.10000000000002
 30
0.0
 40
0.5
  0
POLYLINE
  5
600
  8
DATA
  6
CONTINUOUS
 62
     7
 66
     1
 10
0.0
 20
0.0
 30
0.0
  0
VERTEX
  5
8AA
  8
DATA
  6
CONTINUOUS
 62
     7
 10
-119.9144874491293
 20
610.20275040433808
 30
0.0
  0
VERTEX
  5
8AB
  8
DATA
  6
CONTINUOUS
 62
     7
 10
-119.9144874491293
 20
610.20000000000016
 30
0.0
  0
VERTEX
  5
8AC
  8
DATA
  6
CONTINUOUS
 62
     7
 10
-120.9144874491293
 20
610.20000000000016
 30
0.0
  0
VERTEX
  5
8AD
  8
DATA
  6
CONTINUOUS
 62
     7
 10
-120.9144874491293
 20
612.0
 30
0.0
  0
VERTEX
  5
8AE
  8
DATA
  6
CONTINUOUS
 62
     7
 10
-119.9144874491293
 20
612.0
 30
0.0
  0
VERTEX
  5
8AF
  8
DATA
  6
CONTINUOUS
 62
     7
 10
-119.9144874491293
 20
611.99724959566186
 30
0.0
  0
SEQEND
  5
8B0
  8
DATA
  6
CONTINUOUS
 62
     7
  0
POLYLINE
  5
609
  8
DATA
  6
CONTINUOUS
 62
     7
 66
     1
 10
0.0
 20
0.0
 30
0.0
  0
VERTEX
  5
8B1
  8
DATA
  6
CONTINUOUS
 62
     7
 10
-110.5855125508707
 20
610.20275040433808
 30
0.0
  0
VERTEX
  5
8B2
  8
DATA
  6
CONTINUOUS
 62
     7
 10
-110.5855125508707
 20
610.20000000000016
 30
0.0
  0
VERTEX
  5
8B3
  8
DATA
  6
CONTINUOUS
 62
     7
 10
-109.5855125508707
 20
610.20000000000016
 30
0.0
  0
VERTEX
  5
8B4
  8
DATA
  6
CONTINUOUS
 62
     7
 10
-109.5855125508707
 20
612.0
 30
0.0
  0
VERTEX
  5
8B5
  8
DATA
  6
CONTINUOUS
 62
     7
 10
-110.5855125508707
 20
612.0
 30
0.0
  0
VERTEX
  5
8B6
  8
DATA
  6
CONTINUOUS
 62
     7
 10
-110.5855125508707
 20
611.99724959566186
 30
0.0
  0
SEQEND
  5
8B7
  8
DATA
  6
CONTINUOUS
 62
     7
  0
CIRCLE
  5
612
  8
DATA
  6
CONTINUOUS
 62
     7
 10
-115.25
 20
627.10000000000002
 30
0.0
 40
8.0
  0
LINE
  5
613
  8
DATA
  6
CONTINUOUS
 62
     7
 10
-122.1782032302756
 20
631.09999999999991
 30
0.0
 11
-115.25
 21
635.09999999999991
 31
0.0
  0
LINE
  5
614
  8
DATA
  6
CONTINUOUS
 62
     7
 10
-115.25
 20
635.09999999999991
 30
0.0
 11
-108.3217967697244
 21
631.09999999999991
 31
0.0
  0
LINE
  5
615
  8
DATA
  6
CONTINUOUS
 62
     7
 10
-108.3217967697244
 20
631.09999999999991
 30
0.0
 11
-108.3217967697244
 21
623.10000000000002
 31
0.0
  0
LINE
  5
616
  8
DATA
  6
CONTINUOUS
 62
     7
 10
-108.3217967697244
 20
623.10000000000002
 30
0.0
 11
-115.25
 21
619.10000000000002
 31
0.0
  0
LINE
  5
617
  8
DATA
  6
CONTINUOUS
 62
     7
 10
-115.25
 20
619.10000000000002
 30
0.0
 11
-122.1782032302756
 21
623.10000000000002
 31
0.0
  0
LINE
  5
618
  8
DATA
  6
CONTINUOUS
 62
     7
 10
-122.1782032302756
 20
623.10000000000002
 30
0.0
 11
-122.1782032302756
 21
631.09999999999991
 31
0.0
  0
CIRCLE
  5
619
  8
DATA
  6
CONTINUOUS
 62
     7
 10
-115.25
 20
627.10000000000002
 30
0.0
 40
6.9282032302755283
  0
CIRCLE
  5
61A
  8
DATA
  6
CONTINUOUS
 62
     7
 10
-115.25
 20
627.10000000000002
 30
0.0
 40
6.0
  0
LINE
  5
61B
  8
DATA
  6
CONTINUOUS
 62
     7
 10
-120.75
 20
624.70208423834356
 30
0.0
 11
-120.75
 21
626.20000000000005
 31
0.0
  0
LINE
  5
61C
  8
DATA
  6
CONTINUOUS
 62
     7
 10
-120.75
 20
628.0
 30
0.0
 11
-120.75
 21
629.49791576165626
 31
0.0
  0
LINE
  5
61D
  8
DATA
  6
CONTINUOUS
 62
     7
 10
-112.85208423834359
 20
632.60000000000002
 30
0.0
 11
-117.64791576165629
 21
632.60000000000002
 31
0.0
  0
LINE
  5
61E
  8
DATA
  6
CONTINUOUS
 62
     7
 10
-112.85208423834359
 20
621.60000000000002
 30
0.0
 11
-117.64791576165629
 21
621.60000000000002
 31
0.0
  0
CIRCLE
  5
61F
  8
DATA
  6
CONTINUOUS
 62
     7
 10
-115.25
 20
627.10000000000002
 30
0.0
 40
4.75
  0
CIRCLE
  5
620
  8
DATA
  6
CONTINUOUS
 62
     7
 10
-115.25
 20
627.10000000000002
 30
0.0
 40
4.25
  0
CIRCLE
  5
621
  8
DATA
  6
CONTINUOUS
 62
     7
 10
-115.25
 20
627.10000000000002
 30
0.0
 40
1.0
  0
CIRCLE
  5
622
  8
DATA
  6
CONTINUOUS
 62
     7
 10
-115.25
 20
627.10000000000002
 30
0.0
 40
0.5
  0
POLYLINE
  5
623
  8
DATA
  6
CONTINUOUS
 62
     7
 66
     1
 10
0.0
 20
0.0
 30
0.0
  0
VERTEX
  5
8B8
  8
DATA
  6
CONTINUOUS
 62
     7
 10
-119.9144874491293
 20
626.20275040433808
 30
0.0
  0
VERTEX
  5
8B9
  8
DATA
  6
CONTINUOUS
 62
     7
 10
-119.9144874491293
 20
626.20000000000005
 30
0.0
  0
VERTEX
  5
8BA
  8
DATA
  6
CONTINUOUS
 62
     7
 10
-120.9144874491293
 20
626.20000000000005
 30
0.0
  0
VERTEX
  5
8BB
  8
DATA
  6
CONTINUOUS
 62
     7
 10
-120.9144874491293
 20
628.0
 30
0.0
  0
VERTEX
  5
8BC
  8
DATA
  6
CONTINUOUS
 62
     7
 10
-119.9144874491293
 20
628.0
 30
0.0
  0
VERTEX
  5
8BD
  8
DATA
  6
CONTINUOUS
 62
     7
 10
-119.9144874491293
 20
627.99724959566186
 30
0.0
  0
SEQEND
  5
8BE
  8
DATA
  6
CONTINUOUS
 62
     7
  0
POLYLINE
  5
62C
  8
DATA
  6
CONTINUOUS
 62
     7
 66
     1
 10
0.0
 20
0.0
 30
0.0
  0
VERTEX
  5
8BF
  8
DATA
  6
CONTINUOUS
 62
     7
 10
-110.5855125508707
 20
626.20275040433808
 30
0.0
  0
VERTEX
  5
8C0
  8
DATA
  6
CONTINUOUS
 62
     7
 10
-110.5855125508707
 20
626.20000000000005
 30
0.0
  0
VERTEX
  5
8C1
  8
DATA
  6
CONTINUOUS
 62
     7
 10
-109.5855125508707
 20
626.20000000000005
 30
0.0
  0
VERTEX
  5
8C2
  8
DATA
  6
CONTINUOUS
 62
     7
 10
-109.5855125508707
 20
628.0
 30
0.0
  0
VERTEX
  5
8C3
  8
DATA
  6
CONTINUOUS
 62
     7
 10
-110.5855125508707
 20
628.0
 30
0.0
  0
VERTEX
  5
8C4
  8
DATA
  6
CONTINUOUS
 62
     7
 10
-110.5855125508707
 20
627.99724959566186
 30
0.0
  0
SEQEND
  5
8C5
  8
DATA
  6
CONTINUOUS
 62
     7
  0
TEXT
  5
635
  8
DATA
 62
     7
 10
-44.769020586356959
 20
642.80000000000007
 30
0.0
 40
2.693359375
  1
AES3 OUT
 50
180.0
 41
0.7
 72
     1
 11
-51.619131263440288
 21
642.80000000000007
 31
0.0
  0
TEXT
  5
636
  8
DATA
 62
     7
 10
-69.482736260638021
 20
642.80000000000007
 30
0.0
 40
2.693359375
  1
AES3 IN
 50
180.0
 41
0.7
 72
     1
 11
-75.075945896054691
 21
642.80000000000007
 31
0.0
  0
TEXT
  5
637
  8
DATA
 62
     7
 10
-132.461696367607
 20
642.80000000000007
 30
0.0
 40
2.693359375
  1
AES11 IN
 50
180.0
 41
0.7
 72
     1
 11
-138.36913126344029
 21
642.80000000000007
 31
0.0
  0
TEXT
  5
638
  8
DATA
 62
     7
 10
-109.4185110002213
 20
642.80000000000007
 30
0.0
 40
2.693359375
  1
WCLK IN
 50
180.0
 41
0.7
 72
     1
 11
-115.32594589605471
 21
642.80000000000007
 31
0.0
  0
TEXT
  5
639
  8
DATA
 62
     7
 10
-108.4758352189713
 20
638.80000000000007
 30
0.0
 40
2.693359375
  1
AES3id IN
 50
180.0
 41
0.7
 72
     1
 11
-115.32594589605471
 21
638.80000000000007
 31
0.0
  0
TEXT
  5
63A
  8
DATA
 62
     7
 10
-5.9116099585546911
 20
642.80000000000007
 30
0.0
 40
2.693359375
  1
WCLK OUT
 50
180.0
 41
0.7
 72
     1
 11
-13.075945896054691
 21
642.80000000000007
 31
0.0
  0
TEXT
  5
63B
  8
DATA
 62
     7
 10
-4.9689341773046918
 20
638.80000000000007
 30
0.0
 40
2.693359375
  1
AES3id OUT
 50
180.0
 41
0.7
 72
     1
 11
-13.075945896054691
 21
638.80000000000007
 31
0.0
  0
TEXT
  5
63C
  8
DATA
 62
     7
 10
-25.812143812721359
 20
642.80000000000007
 30
0.0
 40
2.693359375
  1
OUT
 50
180.0
 41
0.7
 72
     1
 11
-28.325945896054691
 21
642.80000000000007
 31
0.0
  0
TEXT
  5
63D
  8
DATA
 62
     7
 10
-23.298341729388021
 20
638.80000000000007
 30
0.0
 40
2.693359375
  1
SP-DIF
 50
180.0
 41
0.7
 72
     1
 11
-28.325945896054691
 21
638.80000000000007
 31
0.0
  0
TEXT
  5
63E
  8
DATA
 62
     7
 10
-87.661609958554706
 20
642.80000000000007
 30
0.0
 40
2.693359375
  1
SP-DIF IN
 50
180.0
 41
0.7
 72
     1
 11
-94.825945896054691
 21
642.80000000000007
 31
0.0
  0
TEXT
  5
63F
  8
DATA
 62
     7
 10
-151.93095701469301
 20
604.81000000000006
 30
0.0
 40
1.923828125
  1
MAINS IN
 50
180.0
 41
0.7
 72
     1
 11
-156.3749999834431
 21
604.81000000000006
 31
0.0
  0
TEXT
  5
640
  8
DATA
 62
     7
 10
-151.88606769177639
 20
608.31000000000006
 30
0.0
 40
1.923828125
  1
90-260V
 50
180.0
 41
0.7
 72
     1
 11
-156.3749999834431
 21
608.31000000000006
 31
0.0
  0
TEXT
  5
641
  8
DATA
 62
     7
 10
-151.3249511553181
 20
611.81000000000006
 30
0.0
 40
1.923828125
  1
47-440Hz
 50
180.0
 41
0.7
 72
     1
 11
-156.3749999834431
 21
611.81000000000006
 31
0.0
  0
LINE
  5
642
  8
DATA
  6
CONTINUOUS
 62
     7
 10
-200.0
 20
602.0
 30
0.0
 11
-200.0
 21
642.0
 31
0.0
  0
LINE
  5
643
  8
DATA
  6
CONTINUOUS
 62
     7
 10
-4.0
 20
600.0
 30
0.0
 11
-198.0
 21
600.0
 31
0.0
  0
LINE
  5
644
  8
DATA
  6
CONTINUOUS
 62
     7
 10
-2.0
 20
642.0
 30
0.0
 11
-2.0
 21
602.0
 31
0.0
  0
LINE
  5
645
  8
DATA
  6
CONTINUOUS
 62
     7
 10
-198.0
 20
644.0
 30
0.0
 11
-4.0
 21
644.0
 31
0.0
  0
ARC
  5
646
  8
DATA
  6
CONTINUOUS
 62
     7
 10
-198.0
 20
602.0
 30
0.0
 40
2.0
 50
180.0
 51
270.0
  0
ARC
  5
647
  8
DATA
  6
CONTINUOUS
 62
     7
 10
-198.0
 20
642.0
 30
0.0
 40
2.0
 50
90.0
 51
180.0
  0
ARC
  5
648
  8
DATA
  6
CONTINUOUS
 62
     7
 10
-4.0
 20
642.0
 30
0.0
 40
2.0
 50
0.0
 51
90.0
  0
ARC
  5
649
  8
DATA
  6
CONTINUOUS
 62
     7
 10
-4.0
 20
602.0
 30
0.0
 40
2.0
 50
270.0
 51
0.0
  0
INSERT
  5
64A
  8
DATA
 62
     7
  2
____
 10
0.0
 20
0.0
 30
0.0
  0
INSERT
  5
64B
  8
DATA
 62
     7
  2
____-1
 10
0.0
 20
0.0
 30
0.0
  0
INSERT
  5
64C
  8
DATA
 62
     7
  2
____-2
 10
0.0
 20
0.0
 30
0.0
  0
LINE
  5
64D
  8
DATA
  6
CONTINUOUS
 62
     7
 10
-56.445434882530208
 20
275.4291303210349
 30
0.0
 11
-56.445434882530208
 21
274.62913032103489
 31
0.0
  0
LINE
  5
64E
  8
DATA
  6
CONTINUOUS
 62
     7
 10
-56.445434882530208
 20
269.8091303210349
 30
0.0
 11
-56.445434882530208
 21
271.40913032103498
 31
0.0
  0
LINE
  5
64F
  8
DATA
  6
CONTINUOUS
 62
     7
 10
-56.445434882530208
 20
264.80913032103501
 30
0.0
 11
-56.445434882530208
 21
266.40913032103498
 31
0.0
  0
LINE
  5
650
  8
DATA
  6
CONTINUOUS
 62
     7
 10
-56.445434882530208
 20
260.9291303210349
 30
0.0
 11
-56.445434882530208
 21
260.4291303210349
 31
0.0
  0
LINE
  5
651
  8
DATA
  6
CONTINUOUS
 62
     7
 10
-20.945434882530211
 20
275.4291303210349
 30
0.0
 11
-20.945434882530211
 21
274.62913032103489
 31
0.0
  0
LINE
  5
652
  8
DATA
  6
CONTINUOUS
 62
     7
 10
-20.945434882530211
 20
269.8091303210349
 30
0.0
 11
-20.945434882530211
 21
271.40913032103498
 31
0.0
  0
LINE
  5
653
  8
DATA
  6
CONTINUOUS
 62
     7
 10
-20.945434882530211
 20
264.80913032103501
 30
0.0
 11
-20.945434882530211
 21
266.40913032103498
 31
0.0
  0
LINE
  5
654
  8
DATA
  6
CONTINUOUS
 62
     7
 10
-20.945434882530211
 20
260.9291303210349
 30
0.0
 11
-20.945434882530211
 21
260.4291303210349
 31
0.0
  0
TEXT
  5
655
  8
DATA
 62
     7
 10
-30.749908694063429
 20
284.7164990056072
 30
0.0
 40
2.0360514322916661
  1
24
 41
0.7
  0
TEXT
  5
656
  8
DATA
 62
     7
 10
193.75
 20
108.39267000000009
 30
0.0
 40
7.3297851562499989
  1
外観図
 41
0.7
 11
193.75
 21
115.72245515625011
 31
0.0
 73
     3
  0
TEXT
  5
657
  8
DATA
 62
     7
 10
149.99999999999989
 20
-791.60732999999971
 30
0.0
 40
7.3297851562499989
  1
MC-6
 41
0.7
 11
149.99999999999989
 21
-784.27754484374975
 31
0.0
 73
     3
  0
TEXT
  5
658
  8
DATA
 62
     7
 10
149.99999999999989
 20
-769.85732999999959
 30
0.0
 40
7.3297851562499989
  1
MUTEC
 41
0.7
 11
149.99999999999989
 21
-762.52754484374975
 31
0.0
 73
     3
  0
TEXT
  5
659
  8
DATA
 62
     7
 10
118.75
 20
-780.28819499999997
 30
0.0
 40
4.8865234374999993
  1
フォーマット/サンプリングレート・コンバータ ー
 41
0.7
 11
118.75
 21
-775.40167156250004
 31
0.0
 73
     3
  0
TEXT
  5
65A
  8
DATA
 62
     7
 10
193.75
 20
-791.60732999999971
 30
0.0
 40
7.3297851562499989
  1
スペック
 41
0.7
 11
193.75
 21
-784.27754484374975
 31
0.0
 73
     3
  0
ENDSEC
  0
EOF
