  0
SECTION
  2
HEADER
  9
$ACADVER
  1
AC1009
  9
$INSBASE
 10
0.0
 20
0.0
 30
0.0
  9
$EXTMIN
 10
-450.02746372486871
 20
-687.75950135995345
 30
-0.0015258207003583
  9
$EXTMAX
 10
450.02746791582013
 20
650.04074675639231
 30
0.0000000349246037
  9
$LIMMIN
 10
0.0
 20
0.0
  9
$LIMMAX
 10
0.0
 20
0.0
  9
$ORTHOMODE
 70
     0
  9
$REGENMODE
 70
     1
  9
$FILLMODE
 70
     1
  9
$QTEXTMODE
 70
     0
  9
$MIRRTEXT
 70
     1
  9
$DRAGMODE
 70
     2
  9
$LTSCALE
 40
25.399999999999999
  9
$OSMODE
 70
   231
  9
$ATTMODE
 70
     1
  9
$TEXTSIZE
 40
0.0
  9
$TRACEWID
 40
1.0
  9
$TEXTSTYLE
  7
STANDARD
  9
$CLAYER
  8
DATA
  9
$CELTYPE
  6
BYLAYER
  9
$CECOLOR
 62
   256
  9
$DIMSCALE
 40
1.0
  9
$DIMASZ
 40
0.18
  9
$DIMEXO
 40
0.0625
  9
$DIMDLI
 40
0.38
  9
$DIMRND
 40
0.0
  9
$DIMDLE
 40
0.0
  9
$DIMEXE
 40
0.18
  9
$DIMTP
 40
0.0
  9
$DIMTM
 40
0.0
  9
$DIMTXT
 40
0.18
  9
$DIMCEN
 40
0.09
  9
$DIMTSZ
 40
0.0
  9
$DIMTOL
 70
     0
  9
$DIMLIM
 70
     0
  9
$DIMTIH
 70
     1
  9
$DIMTOH
 70
     1
  9
$DIMSE1
 70
     0
  9
$DIMSE2
 70
     0
  9
$DIMTAD
 70
     0
  9
$DIMZIN
 70
     0
  9
$DIMBLK
  1

  9
$DIMASO
 70
     1
  9
$DIMSHO
 70
     1
  9
$DIMPOST
  1

  9
$DIMAPOST
  1

  9
$DIMALT
 70
     0
  9
$DIMALTD
 70
     2
  9
$DIMALTF
 40
25.399999999999999
  9
$DIMLFAC
 40
1.0
  9
$DIMTOFL
 70
     0
  9
$DIMTVP
 40
0.0
  9
$DIMTIX
 70
     0
  9
$DIMSOXD
 70
     0
  9
$DIMSAH
 70
     0
  9
$DIMBLK1
  1

  9
$DIMBLK2
  1

  9
$DIMSTYLE
  2
STANDARD
  9
$DIMCLRD
 70
     0
  9
$DIMCLRE
 70
     0
  9
$DIMCLRT
 70
     0
  9
$DIMTFAC
 40
1.0
  9
$DIMGAP
 40
0.09
  9
$LUNITS
 70
     2
  9
$LUPREC
 70
     4
  9
$SKETCHINC
 40
0.1
  9
$FILLETRAD
 40
0.0
  9
$AUNITS
 70
     0
  9
$AUPREC
 70
     0
  9
$MENU
  1
acad
  9
$ELEVATION
 40
0.0
  9
$PELEVATION
 40
0.0
  9
$THICKNESS
 40
0.0
  9
$LIMCHECK
 70
     0
  9
$BLIPMODE
 70
     0
  9
$CHAMFERA
 40
0.0
  9
$CHAMFERB
 40
0.0
  9
$SKPOLY
 70
     0
  9
$TDCREATE
 40
2456776.5541435191
  9
$TDUPDATE
 40
2456776.565969456
  9
$TDINDWG
 40
0.0005897454
  9
$TDUSRTIMER
 40
0.0005756366
  9
$USRTIMER
 70
     1
  9
$ANGBASE
 50
0.0
  9
$ANGDIR
 70
     0
  9
$PDMODE
 70
     1
  9
$PDSIZE
 40
-2.0
  9
$PLINEWID
 40
0.0
  9
$COORDS
 70
     2
  9
$SPLFRAME
 70
     0
  9
$SPLINETYPE
 70
     6
  9
$SPLINESEGS
 70
     8
  9
$ATTDIA
 70
     0
  9
$ATTREQ
 70
     1
  9
$HANDLING
 70
     1
  9
$HANDSEED
  5
26F
  9
$SURFTAB1
 70
     6
  9
$SURFTAB2
 70
     6
  9
$SURFTYPE
 70
     6
  9
$SURFU
 70
     6
  9
$SURFV
 70
     6
  9
$UCSNAME
  2

  9
$UCSORG
 10
0.0
 20
0.0
 30
0.0
  9
$UCSXDIR
 10
1.0
 20
0.0
 30
0.0
  9
$UCSYDIR
 10
0.0
 20
1.0
 30
0.0
  9
$PUCSNAME
  2

  9
$PUCSORG
 10
0.0
 20
0.0
 30
0.0
  9
$PUCSXDIR
 10
1.0
 20
0.0
 30
0.0
  9
$PUCSYDIR
 10
0.0
 20
1.0
 30
0.0
  9
$USERI1
 70
     0
  9
$USERI2
 70
     0
  9
$USERI3
 70
     0
  9
$USERI4
 70
     0
  9
$USERI5
 70
     0
  9
$USERR1
 40
0.0
  9
$USERR2
 40
0.0
  9
$USERR3
 40
0.0
  9
$USERR4
 40
0.0
  9
$USERR5
 40
0.0
  9
$WORLDVIEW
 70
     1
  9
$SHADEDGE
 70
     3
  9
$SHADEDIF
 70
    70
  9
$TILEMODE
 70
     1
  9
$MAXACTVP
 70
    64
  9
$PLIMCHECK
 70
     0
  9
$PEXTMIN
 10
1.0000000000000000E+020
 20
1.0000000000000000E+020
 30
1.0000000000000000E+020
  9
$PEXTMAX
 10
-1.0000000000000000E+020
 20
-1.0000000000000000E+020
 30
-1.0000000000000000E+020
  9
$PLIMMIN
 10
0.0
 20
0.0
  9
$PLIMMAX
 10
12.0
 20
9.0
  9
$UNITMODE
 70
     0
  9
$VISRETAIN
 70
     0
  9
$PLINEGEN
 70
     1
  9
$PSLTSCALE
 70
     0
  0
ENDSEC
  0
SECTION
  2
TABLES
  0
TABLE
  2
VPORT
 70
     1
  0
VPORT
  2
*ACTIVE
 70
     0
 10
0.0
 20
0.0
 11
1.0
 21
1.0
 12
0.0000020954755655
 22
-17.543923280394889
 13
0.0
 23
0.0
 14
1.0
 24
1.0
 15
0.0
 25
0.0
 16
0.0
 26
0.0
 36
1.0
 17
0.0
 27
0.0
 37
0.0
 40
1346.188619358913
 41
2.2837465564738291
 42
50.0
 43
0.0
 44
0.0
 50
0.0
 51
0.0
 71
     0
 72
  2000
 73
     1
 74
     1
 75
     0
 76
     0
 77
     0
 78
     0
  0
ENDTAB
  0
TABLE
  2
LTYPE
 70
    11
  0
LTYPE
  2
CONTINUOUS
 70
     0
  3
Solid line
 72
    65
 73
     0
 40
0.0
  0
LTYPE
  2
STYLE_01
 70
     0
  3

 72
    65
 73
     2
 40
0.4166412353515625
 49
0.208282470703125
 49
-0.2083587646484375
  0
ENDTAB
  0
TABLE
  2
LAYER
 70
     5
  0
LAYER
  2
0
 70
     0
 62
     7
  6
CONTINUOUS
  0
LAYER
  2
DATA
 70
     0
 62
     7
  6
CONTINUOUS
  0
LAYER
  2
HIBINO-BASE
 70
     0
 62
     7
  6
CONTINUOUS
  0
LAYER
  2
SPEC
 70
     0
 62
     7
  6
CONTINUOUS
  0
LAYER
  2
DIMNSIONS
 70
     0
 62
     7
  6
CONTINUOUS
  0
ENDTAB
  0
TABLE
  2
STYLE
 70
     3
  0
STYLE
  2
STANDARD
 70
     0
 40
0.0
 41
1.0
 50
0.0
 71
     0
 42
0.0
  3
txt
  4
BIGFONT.SHX
  0
ENDTAB
  0
TABLE
  2
VIEW
 70
     0
  0
ENDTAB
  0
TABLE
  2
UCS
 70
     0
  0
ENDTAB
  0
TABLE
  2
APPID
 70
     4
  0
APPID
  2
ACAD
 70
     0
  0
APPID
  2
ACADANNOTATIVE
 70
     0
  0
APPID
  2
ACAD_NAV_VCDISPLAY
 70
     0
  0
APPID
  2
ACAD_MLEADERVER
 70
     0
  0
ENDTAB
  0
TABLE
  2
DIMSTYLE
 70
     2
  0
DIMSTYLE
  2
STANDARD
 70
     0
  3

  4

  5

  6

  7

 40
1.0
 41
0.18
 42
0.0625
 43
0.38
 44
0.18
 45
0.0
 46
0.0
 47
0.0
 48
0.0
140
0.18
141
0.09
142
0.0
143
25.399999999999999
144
1.0
145
0.0
146
1.0
147
0.09
 71
     0
 72
     0
 73
     1
 74
     1
 75
     0
 76
     0
 77
     0
 78
     0
170
     0
171
     2
172
     0
173
     0
174
     0
175
     0
176
     0
177
     0
178
     0
  0
ENDTAB
  0
ENDSEC
  0
SECTION
  2
BLOCKS
  0
BLOCK
  8
0
  2
$MODEL_SPACE
 70
     0
 10
0.0
 20
0.0
 30
0.0
  3
$MODEL_SPACE
  1

  0
ENDBLK
  5
1A4
  8
0
  0
BLOCK
 67
     1
  8
0
  2
$PAPER_SPACE
 70
     0
 10
0.0
 20
0.0
 30
0.0
  3
$PAPER_SPACE
  1

  0
ENDBLK
  5
1A0
 67
     1
  8
0
  0
ENDSEC
  0
SECTION
  2
ENTITIES
  0
LINE
  5
2C
  8
HIBINO-BASE
  6
CONTINUOUS
 62
     7
 10
-450.0
 20
650.0
 30
0.0
 11
450.0
 21
650.0
 31
0.0
  0
LINE
  5
2D
  8
HIBINO-BASE
  6
CONTINUOUS
 62
     7
 10
450.0
 20
-649.99999999999989
 30
0.0
 11
-450.0
 21
-649.99999999999989
 31
0.0
  0
LINE
  5
2E
  8
HIBINO-BASE
  6
CONTINUOUS
 62
     7
 10
-450.0
 20
-649.99999999999989
 30
0.0
 11
-450.0
 21
650.0
 31
0.0
  0
LINE
  5
2F
  8
HIBINO-BASE
  6
CONTINUOUS
 62
     7
 10
450.0
 20
650.0
 30
0.0
 11
450.0
 21
-649.99999999999989
 31
0.0
  0
LINE
  5
30
  8
HIBINO-BASE
  6
CONTINUOUS
 62
     7
 10
0.0000000000000355
 20
-537.49999999999989
 30
0.0
 11
450.0
 21
-537.49999999999989
 31
0.0
  0
LINE
  5
31
  8
HIBINO-BASE
  6
CONTINUOUS
 62
     7
 10
0.0000000000000355
 20
-649.99999999999989
 30
0.0
 11
0.0000000000000355
 21
-537.49999999999989
 31
0.0
  0
TEXT
  5
32
  8
HIBINO-BASE
 62
     7
 10
4.5000000000000631
 20
-550.0434666666664
 30
0.0
 40
8.1442057291666661
  1
NOTE
 41
0.7
 11
4.5000000000000631
 21
-541.89926093749966
 31
0.0
 73
     3
  0
LINE
  5
33
  8
HIBINO-BASE
  6
CONTINUOUS
 62
     7
 10
175.00000000000011
 20
-649.99999999999989
 30
0.0
 11
175.00000000000011
 21
-537.49999999999989
 31
0.0
  0
TEXT
  5
34
  8
HIBINO-BASE
 62
     7
 10
179.5
 20
-550.0434666666664
 30
0.0
 40
8.1442057291666661
  1
TITLE
 41
0.7
 11
179.5
 21
-541.89926093749966
 31
0.0
 73
     3
  0
LINE
  5
35
  8
HIBINO-BASE
  6
CONTINUOUS
 62
     7
 10
0.0000000000000355
 20
-599.99999999999989
 30
0.0
 11
450.0
 21
-599.99999999999989
 31
0.0
  0
TEXT
  5
36
  8
HIBINO-BASE
 62
     7
 10
242.0
 20
-612.26186666666638
 30
0.0
 40
8.1442057291666661
  1
DRAWN
 41
0.7
 11
242.0
 21
-604.11766093749975
 31
0.0
 73
     3
  0
TEXT
  5
37
  8
HIBINO-BASE
 62
     7
 10
117.0
 20
-612.26186666666638
 30
0.0
 40
8.1442057291666661
  1
DATE
 41
0.7
 11
117.0
 21
-604.11766093749975
 31
0.0
 73
     3
  0
TEXT
  5
38
  8
HIBINO-BASE
 62
     7
 10
67.0
 20
-612.26186666666638
 30
0.0
 40
8.1442057291666661
  1
SCALE
 41
0.7
 11
67.0
 21
-604.11766093749975
 31
0.0
 73
     3
  0
TEXT
  5
39
  8
HIBINO-BASE
 62
     7
 10
179.5
 20
-612.26186666666638
 30
0.0
 40
8.1442057291666661
  1
DESIGN
 41
0.7
 11
179.5
 21
-604.11766093749975
 31
0.0
 73
     3
  0
TEXT
  5
3A
  8
HIBINO-BASE
 62
     7
 10
367.0
 20
-612.26186666666638
 30
0.0
 40
8.1442057291666661
  1
DRAWING NO.
 41
0.7
 11
367.0
 21
-604.11766093749975
 31
0.0
 73
     3
  0
TEXT
  5
3B
  8
HIBINO-BASE
 62
     7
 10
304.49999999999989
 20
-612.26186666666638
 30
0.0
 40
8.1442057291666661
  1
CHECK
 41
0.7
 11
304.49999999999989
 21
-604.11766093749975
 31
0.0
 73
     3
  0
LINE
  5
3C
  8
HIBINO-BASE
  6
CONTINUOUS
 62
     7
 10
71.875000000000014
 20
-643.74999999999989
 30
0.0
 11
90.625000000000114
 21
-624.99999999999989
 31
0.0
  0
TEXT
  5
3D
  8
HIBINO-BASE
 62
     7
 10
68.750000000000014
 20
-630.54471666666643
 30
0.0
 40
8.1442057291666661
  1
1
 41
0.7
 11
68.750000000000014
 21
-622.40051093749969
 31
0.0
 73
     3
  0
LINE
  5
3E
  8
HIBINO-BASE
  6
CONTINUOUS
 62
     7
 10
62.500000000000028
 20
-649.99999999999989
 30
0.0
 11
62.500000000000028
 21
-599.99999999999989
 31
0.0
  0
LINE
  5
3F
  8
HIBINO-BASE
  6
CONTINUOUS
 62
     7
 10
112.4999999999999
 20
-649.99999999999989
 30
0.0
 11
112.4999999999999
 21
-599.99999999999989
 31
0.0
  0
LINE
  5
40
  8
HIBINO-BASE
  6
CONTINUOUS
 62
     7
 10
237.5
 20
-599.99999999999989
 30
0.0
 11
237.5
 21
-649.99999999999989
 31
0.0
  0
LINE
  5
41
  8
HIBINO-BASE
  6
CONTINUOUS
 62
     7
 10
362.5
 20
-599.99999999999989
 30
0.0
 11
362.5
 21
-649.99999999999989
 31
0.0
  0
LINE
  5
42
  8
HIBINO-BASE
  6
CONTINUOUS
 62
     7
 10
300.0
 20
-649.99999999999989
 30
0.0
 11
300.0
 21
-599.99999999999989
 31
0.0
  0
TEXT
  5
43
  8
HIBINO-BASE
 62
     7
 10
116.7827000000001
 20
-635.68176666666625
 30
0.0
 40
8.1442057291666661
  1
'14.04.
 41
0.7
 11
116.7827000000001
 21
-627.53756093749962
 31
0.0
 73
     3
  0
TEXT
  5
44
  8
HIBINO-BASE
 62
     7
 10
87.500000000000057
 20
-639.91971666666643
 30
0.0
 40
8.1442057291666661
  1
5
 41
0.7
 11
87.500000000000057
 21
-631.77551093749969
 31
0.0
 73
     3
  0
TEXT
  5
45
  8
HIBINO-BASE
 62
     7
 10
245.02905005517309
 20
-635.68176666666625
 30
0.0
 40
8.1442057291666661
  1
N.Sasaki
 41
0.7
 11
245.02905005517309
 21
-627.53756093749962
 31
0.0
 73
     3
  0
TEXT
  5
46
  8
HIBINO-BASE
 62
     7
 10
19.416666666666799
 20
-640.11999999999989
 30
0.0
 40
16.288411458333329
  1
A4
 41
0.7
 11
19.416666666666799
 21
-623.83158854166652
 31
0.0
 73
     3
  0
TEXT
  5
47
  8
HIBINO-BASE
 62
     7
 10
4.7916666666666776
 20
-613.09727499999974
 30
0.0
 40
8.1442057291666661
  1
PAPER SIZE
 41
0.7
 11
4.7916666666666794
 21
-604.95306927083311
 31
0.0
 73
     3
  0
TEXT
  5
48
  8
HIBINO-BASE
 62
     7
 10
-414.07999999999993
 20
-681.87757499999975
 30
0.0
 40
17.645779079861111
  1
Hibino-Intersound Corporation
 41
0.7
 11
-414.07999999999993
 21
-664.23179592013867
 31
0.0
 73
     3
  0
TEXT
  5
49
  8
HIBINO-BASE
 62
     7
 10
70.121670836215657
 20
-681.87757499999975
 30
0.0
 40
17.645779079861111
  1
ヒビノインターサウンド株式会社
 41
0.7
 11
70.121670836215657
 21
-664.23179592013867
 31
0.0
 73
     3
  0
LINE
  5
4A
  8
SPEC
  6
CONTINUOUS
 62
     7
 10
-412.49999999999989
 20
600.0
 30
0.0
 11
325.0
 21
600.0
 31
0.0
  0
LINE
  5
4B
  8
SPEC
  6
CONTINUOUS
 62
     7
 10
-412.49999999999989
 20
581.25
 30
0.0
 11
325.0
 21
581.25
 31
0.0
  0
LINE
  5
4C
  8
SPEC
  6
CONTINUOUS
 62
     7
 10
-412.49999999999989
 20
600.0
 30
0.0
 11
-412.49999999999989
 21
562.5
 31
0.0
  0
TEXT
  5
4D
  8
SPEC
 62
     7
 10
-406.24999999999989
 20
606.96635000000003
 30
0.0
 40
12.21630859375
  1
仕様
 41
0.7
 11
-406.24999999999989
 21
619.18265859375003
 31
0.0
 73
     3
  0
LINE
  5
4E
  8
SPEC
  6
CONTINUOUS
 62
     7
 10
-250.0
 20
600.0
 30
0.0
 11
-250.0
 21
562.5
 31
0.0
  0
LINE
  5
4F
  8
SPEC
  6
CONTINUOUS
 62
     7
 10
325.0
 20
600.0
 30
0.0
 11
325.0
 21
562.5
 31
0.0
  0
TEXT
  5
50
  8
SPEC
 62
     7
 10
-408.0
 20
585.58280285025035
 30
0.0
 40
9.1497240120853576
  1
寸法(W\U+00D7H\U+00D7D)
 41
0.7
 11
-408.0
 21
594.7325268623357
 31
0.0
 73
     3
  0
TEXT
  5
51
  8
SPEC
 62
     7
 10
-245.5
 20
585.58280285025035
 30
0.0
 40
9.1497240120853576
  1
483\U+00D744.0\U+00D7159mm(除突起部)
 41
0.7
 11
-245.5
 21
594.7325268623357
 31
0.0
 73
     3
  0
LINE
  5
52
  8
SPEC
  6
CONTINUOUS
 62
     7
 10
-412.49999999999989
 20
562.5
 30
0.0
 11
325.0
 21
562.5
 31
0.0
  0
TEXT
  5
53
  8
SPEC
 62
     7
 10
-408.0
 20
566.83280285025035
 30
0.0
 40
9.1497240120853576
  1
質量
 41
0.7
 11
-408.0
 21
575.9825268623357
 31
0.0
 73
     3
  0
TEXT
  5
54
  8
SPEC
 62
     7
 10
-245.5
 20
566.83280285025035
 30
0.0
 40
9.1497240120853576
  1
850g
 41
0.7
 11
-245.5
 21
575.9825268623357
 31
0.0
 73
     3
  0
TEXT
  5
55
  8
DIMNSIONS
 62
     7
 10
-99.999999999999957
 20
-588.65254999999968
 30
0.0
 40
12.21630859375
  1
(単位：mm)
 41
0.7
 11
-99.999999999999957
 21
-576.43624140624979
 31
0.0
 73
     3
  0
LINE
  5
56
  8
DIMNSIONS
  6
CONTINUOUS
 62
     7
 10
-268.5
 20
9.0
 30
0.0
 11
-360.0
 21
9.0
 31
0.0
  0
LINE
  5
57
  8
DIMNSIONS
  6
CONTINUOUS
 62
     7
 10
-310.0
 20
-150.0
 30
0.0
 11
-360.0
 21
-150.0
 31
0.0
  0
LINE
  5
58
  8
DIMNSIONS
  6
CONTINUOUS
 62
     7
 10
-350.0
 20
9.0
 30
0.0
 11
-350.0
 21
-150.0
 31
0.0
  0
LINE
  5
59
  8
DIMNSIONS
  6
CONTINUOUS
 62
     7
 10
-350.0
 20
9.0
 30
0.0
 11
-346.6498010242488
 21
-3.50311279296875
 31
0.0
  0
LINE
  5
5A
  8
DIMNSIONS
  6
CONTINUOUS
 62
     7
 10
-350.0
 20
9.0
 30
0.0
 11
-353.3501989757512
 21
-3.50311279296875
 31
0.0
  0
LINE
  5
5B
  8
DIMNSIONS
  6
CONTINUOUS
 62
     7
 10
-350.0
 20
-150.0
 30
0.0
 11
-353.3501989757512
 21
-137.49688720703119
 31
0.0
  0
LINE
  5
5C
  8
DIMNSIONS
  6
CONTINUOUS
 62
     7
 10
-350.0
 20
-150.0
 30
0.0
 11
-346.6498010242488
 21
-137.49688720703119
 31
0.0
  0
TEXT
  5
5D
  8
DIMNSIONS
 62
     7
 10
-355.4633333333332
 20
-86.375000000000014
 30
0.0
 40
16.288411458333329
  1
159
 50
90.0
 41
0.7
 11
-371.75174479166662
 21
-86.375000000000014
 31
0.0
 73
     3
  0
LINE
  5
5E
  8
DIMNSIONS
  6
CONTINUOUS
 62
     7
 10
-307.0
 20
-206.0
 30
0.0
 11
-360.0
 21
-206.0
 31
0.0
  0
LINE
  5
5F
  8
DIMNSIONS
  6
CONTINUOUS
 62
     7
 10
-307.0
 20
-250.0
 30
0.0
 11
-360.0
 21
-250.0
 31
0.0
  0
LINE
  5
60
  8
DIMNSIONS
  6
CONTINUOUS
 62
     7
 10
-350.0
 20
-206.0
 30
0.0
 11
-350.0
 21
-250.0
 31
0.0
  0
LINE
  5
61
  8
DIMNSIONS
  6
CONTINUOUS
 62
     7
 10
-350.0
 20
-206.0
 30
0.0
 11
-346.6498010242488
 21
-218.50311279296881
 31
0.0
  0
LINE
  5
62
  8
DIMNSIONS
  6
CONTINUOUS
 62
     7
 10
-350.0
 20
-206.0
 30
0.0
 11
-353.3501989757512
 21
-218.50311279296881
 31
0.0
  0
LINE
  5
63
  8
DIMNSIONS
  6
CONTINUOUS
 62
     7
 10
-350.0
 20
-250.0
 30
0.0
 11
-353.3501989757512
 21
-237.49688720703119
 31
0.0
  0
LINE
  5
64
  8
DIMNSIONS
  6
CONTINUOUS
 62
     7
 10
-350.0
 20
-250.0
 30
0.0
 11
-346.6498010242488
 21
-237.49688720703119
 31
0.0
  0
TEXT
  5
65
  8
DIMNSIONS
 62
     7
 10
-355.46333333333331
 20
-249.16666666666671
 30
0.0
 40
16.288411458333329
  1
44.0
 50
90.0
 41
0.7
 11
-371.75174479166662
 21
-249.16666666666671
 31
0.0
 73
     3
  0
LINE
  5
66
  8
DIMNSIONS
  6
CONTINUOUS
 62
     7
 10
-300.0
 20
-257.0
 30
0.0
 11
-300.0
 21
-300.0
 31
0.0
  0
LINE
  5
67
  8
DIMNSIONS
  6
CONTINUOUS
 62
     7
 10
183.0
 20
-257.0
 30
0.0
 11
183.0
 21
-300.0
 31
0.0
  0
LINE
  5
68
  8
DIMNSIONS
  6
CONTINUOUS
 62
     7
 10
-300.0
 20
-290.0
 30
0.0
 11
183.0
 21
-290.0
 31
0.0
  0
LINE
  5
69
  8
DIMNSIONS
  6
CONTINUOUS
 62
     7
 10
-300.0
 20
-290.0
 30
0.0
 11
-287.49688720703119
 21
-286.6498010242488
 31
0.0
  0
LINE
  5
6A
  8
DIMNSIONS
  6
CONTINUOUS
 62
     7
 10
-300.0
 20
-290.0
 30
0.0
 11
-287.49688720703119
 21
-293.3501989757512
 31
0.0
  0
LINE
  5
6B
  8
DIMNSIONS
  6
CONTINUOUS
 62
     7
 10
183.0
 20
-290.0
 30
0.0
 11
170.49688720703119
 21
-293.3501989757512
 31
0.0
  0
LINE
  5
6C
  8
DIMNSIONS
  6
CONTINUOUS
 62
     7
 10
183.0
 20
-290.0
 30
0.0
 11
170.49688720703119
 21
-286.6498010242488
 31
0.0
  0
TEXT
  5
6D
  8
DIMNSIONS
 62
     7
 10
-74.375
 20
-284.53666666666658
 30
0.0
 40
16.288411458333329
  1
483
 41
0.7
 11
-74.375
 21
-268.24825520833332
 31
0.0
 73
     3
  0
LINE
  5
6E
  8
DIMNSIONS
  6
CONTINUOUS
 62
     7
 10
-258.5
 20
19.0
 30
0.0
 11
-258.5
 21
85.0
 31
0.0
  0
LINE
  5
6F
  8
DIMNSIONS
  6
CONTINUOUS
 62
     7
 10
141.5
 20
19.0
 30
0.0
 11
141.5
 21
85.0
 31
0.0
  0
LINE
  5
70
  8
DIMNSIONS
  6
CONTINUOUS
 62
     7
 10
-258.5
 20
75.0
 30
0.0
 11
141.5
 21
75.0
 31
0.0
  0
LINE
  5
71
  8
DIMNSIONS
  6
CONTINUOUS
 62
     7
 10
-258.5
 20
75.0
 30
0.0
 11
-245.99688720703119
 21
78.350198975751212
 31
0.0
  0
LINE
  5
72
  8
DIMNSIONS
  6
CONTINUOUS
 62
     7
 10
-258.5
 20
75.0
 30
0.0
 11
-245.99688720703119
 21
71.649801024248802
 31
0.0
  0
LINE
  5
73
  8
DIMNSIONS
  6
CONTINUOUS
 62
     7
 10
141.5
 20
75.0
 30
0.0
 11
128.99688720703119
 21
71.64980102424876
 31
0.0
  0
LINE
  5
74
  8
DIMNSIONS
  6
CONTINUOUS
 62
     7
 10
141.5
 20
75.0
 30
0.0
 11
128.99688720703119
 21
78.350198975751212
 31
0.0
  0
TEXT
  5
75
  8
DIMNSIONS
 62
     7
 10
-71.729166666666671
 20
79.969444444444434
 30
0.0
 40
13.57367621527778
  1
400
 41
0.7
 11
-71.729166666666671
 21
93.543120659722206
 31
0.0
 73
     3
  0
TEXT
  5
76
  8
DATA
 62
     7
 10
250.0
 20
-594.34554999999978
 30
0.0
 40
12.21630859375
  1
MW-02/19
 41
0.7
 11
250.0
 21
-582.12924140624966
 31
0.0
 73
     3
  0
TEXT
  5
77
  8
DATA
 62
     7
 10
250.0
 20
-558.09554999999978
 30
0.0
 40
12.21630859375
  1
MUTEC
 41
0.7
 11
250.0
 21
-545.87924140624966
 31
0.0
 73
     3
  0
TEXT
  5
78
  8
DATA
 62
     7
 10
237.5
 20
-575.48033099999975
 30
0.0
 40
8.1442185546874981
  1
MC-3+ ラックマウントオプション
 41
0.7
 11
237.5
 21
-567.33611244531232
 31
0.0
 73
     3
  0
TEXT
  5
79
  8
DATA
 62
     7
 10
-437.5
 20
-610.61861111111079
 30
0.0
 40
9.5015733506944464
  1
※仕様及び外観は予告なく変更されることがあります。
 41
0.7
 11
-437.5
 21
-601.11703776041645
 31
0.0
 73
     3
  0
TEXT
  5
7A
  8
DATA
 62
     7
 10
-437.5
 20
-622.96583333333319
 30
0.0
 40
9.5015733506944464
  1
　また、同一商品でも若干の個体差があることがあります。ご了承ください。
 41
0.7
 11
-437.5
 21
-613.46425998263874
 31
0.0
 73
     3
  0
LINE
  5
7B
  8
DATA
  6
CONTINUOUS
 62
     7
 10
139.5
 20
-146.0
 30
0.0
 11
-256.5
 21
-146.0
 31
0.0
  0
POLYLINE
  5
7C
  8
DATA
  6
CONTINUOUS
 62
     7
 66
     1
 10
0.0
 20
0.0
 30
0.0
  0
VERTEX
  5
1D4
  8
DATA
  6
CONTINUOUS
 62
     7
 10
-258.5
 20
-145.0
 30
0.0
  0
VERTEX
  5
1D5
  8
DATA
  6
CONTINUOUS
 62
     7
 10
-258.5
 20
9.0
 30
0.0
  0
VERTEX
  5
1D6
  8
DATA
  6
CONTINUOUS
 62
     7
 10
141.5
 20
9.0
 30
0.0
  0
VERTEX
  5
1D7
  8
DATA
  6
CONTINUOUS
 62
     7
 10
141.5
 20
-145.0
 30
0.0
  0
SEQEND
  5
1D8
  8
DATA
  6
CONTINUOUS
 62
     7
  0
LINE
  5
83
  8
DATA
  6
CONTINUOUS
 62
     7
 10
139.5
 20
-206.0
 30
0.0
 11
139.5
 21
-250.0
 31
0.0
  0
LINE
  5
84
  8
DATA
  6
CONTINUOUS
 62
     7
 10
139.5
 20
-147.0
 30
0.0
 11
139.5
 21
9.0
 31
0.0
  0
LINE
  5
85
  8
DATA
  6
CONTINUOUS
 62
     7
 10
-256.5
 20
-206.0
 30
0.0
 11
-256.5
 21
-250.0
 31
0.0
  0
LINE
  5
86
  8
DATA
  6
CONTINUOUS
 62
     7
 10
-256.5
 20
-147.0
 30
0.0
 11
-256.5
 21
9.0
 31
0.0
  0
CIRCLE
  5
87
  8
DATA
  6
CONTINUOUS
 62
     7
 10
-68.0
 20
-138.0
 30
0.0
 40
2.5
  0
CIRCLE
  5
88
  8
DATA
  6
CONTINUOUS
 62
     7
 10
-49.0
 20
-138.0
 30
0.0
 40
2.5
  0
CIRCLE
  5
89
  8
DATA
  6
CONTINUOUS
 62
     7
 10
-68.0
 20
-20.5
 30
0.0
 40
2.5
  0
CIRCLE
  5
8A
  8
DATA
  6
CONTINUOUS
 62
     7
 10
-49.0
 20
-20.5
 30
0.0
 40
2.5
  0
CIRCLE
  5
8B
  8
DATA
  6
CONTINUOUS
 62
     7
 10
131.0
 20
-138.0
 30
0.0
 40
2.5
  0
CIRCLE
  5
8C
  8
DATA
  6
CONTINUOUS
 62
     7
 10
131.0
 20
-20.5
 30
0.0
 40
2.5
  0
CIRCLE
  5
8D
  8
DATA
  6
CONTINUOUS
 62
     7
 10
-248.0
 20
-138.0
 30
0.0
 40
2.5
  0
CIRCLE
  5
8E
  8
DATA
  6
CONTINUOUS
 62
     7
 10
-248.0
 20
-20.5
 30
0.0
 40
2.5
  0
LINE
  5
8F
  8
DATA
  6
STYLE_01
 62
     7
 10
141.5
 20
-206.0
 30
0.0
 11
141.5
 21
-250.0
 31
0.0
  0
LINE
  5
90
  8
DATA
  6
STYLE_01
 62
     7
 10
-258.5
 20
-206.0
 30
0.0
 11
-258.5
 21
-250.0
 31
0.0
  0
LINE
  5
91
  8
DATA
  6
CONTINUOUS
 62
     7
 10
175.5
 20
-240.0
 30
0.0
 11
172.0
 21
-240.0
 31
0.0
  0
LINE
  5
92
  8
DATA
  6
CONTINUOUS
 62
     7
 10
175.5
 20
-247.0
 30
0.0
 11
172.0
 21
-247.0
 31
0.0
  0
ARC
  5
93
  8
DATA
  6
CONTINUOUS
 62
     7
 10
175.5
 20
-243.5
 30
0.0
 40
3.5
 50
270.0
 51
90.0
  0
ARC
  5
94
  8
DATA
  6
CONTINUOUS
 62
     7
 10
172.0
 20
-243.5
 30
0.0
 40
3.5
 50
90.0
 51
270.0
  0
LINE
  5
95
  8
DATA
  6
CONTINUOUS
 62
     7
 10
-256.5
 20
-248.0
 30
0.0
 11
139.5
 21
-248.0
 31
0.0
  0
LINE
  5
96
  8
DATA
  6
CONTINUOUS
 62
     7
 10
142.5
 20
-150.0
 30
0.0
 11
183.0
 21
-150.0
 31
0.0
  0
LINE
  5
97
  8
DATA
  6
CONTINUOUS
 62
     7
 10
144.5
 20
-148.0
 30
0.0
 11
183.0
 21
-148.0
 31
0.0
  0
ARC
  5
98
  8
DATA
  6
CONTINUOUS
 62
     7
 10
142.5
 20
-147.0
 30
0.0
 40
3.0
 50
180.0
 51
270.0
  0
ARC
  5
99
  8
DATA
  6
CONTINUOUS
 62
     7
 10
144.5
 20
-145.0
 30
0.0
 40
3.0
 50
180.0
 51
270.0
  0
LINE
  5
9A
  8
DATA
  6
CONTINUOUS
 62
     7
 10
-300.0
 20
-150.0
 30
0.0
 11
-300.0
 21
-148.0
 31
0.0
  0
LINE
  5
9B
  8
DATA
  6
CONTINUOUS
 62
     7
 10
-259.5
 20
-150.0
 30
0.0
 11
-300.0
 21
-150.0
 31
0.0
  0
LINE
  5
9C
  8
DATA
  6
CONTINUOUS
 62
     7
 10
-261.5
 20
-148.0
 30
0.0
 11
-300.0
 21
-148.0
 31
0.0
  0
ARC
  5
9D
  8
DATA
  6
CONTINUOUS
 62
     7
 10
-261.5
 20
-145.0
 30
0.0
 40
3.0
 50
270.0
 51
0.0
  0
ARC
  5
9E
  8
DATA
  6
CONTINUOUS
 62
     7
 10
-259.5
 20
-147.0
 30
0.0
 40
3.0
 50
270.0
 51
0.0
  0
LINE
  5
9F
  8
DATA
  6
CONTINUOUS
 62
     7
 10
230.0
 20
-250.0
 30
0.0
 11
389.0
 21
-250.0
 31
0.0
  0
LINE
  5
A0
  8
DATA
  6
CONTINUOUS
 62
     7
 10
230.0
 20
-206.5
 30
0.0
 11
232.0
 21
-206.5
 31
0.0
  0
LINE
  5
A1
  8
DATA
  6
CONTINUOUS
 62
     7
 10
230.0
 20
-250.0
 30
0.0
 11
230.0
 21
-206.5
 31
0.0
  0
LINE
  5
A2
  8
DATA
  6
CONTINUOUS
 62
     7
 10
232.0
 20
-250.0
 30
0.0
 11
232.0
 21
-206.5
 31
0.0
  0
LINE
  5
A3
  8
DATA
  6
CONTINUOUS
 62
     7
 10
183.0
 20
-148.0
 30
0.0
 11
183.0
 21
-150.0
 31
0.0
  0
LINE
  5
A4
  8
DATA
  6
CONTINUOUS
 62
     7
 10
389.0
 20
-250.0
 30
0.0
 11
389.0
 21
-240.0
 31
0.0
  0
LINE
  5
A5
  8
DATA
  6
CONTINUOUS
 62
     7
 10
232.0
 20
-206.5
 30
0.0
 11
389.0
 21
-240.0
 31
0.0
  0
POLYLINE
  5
A6
  8
DATA
  6
CONTINUOUS
 62
     7
 66
     1
 10
0.0
 20
0.0
 30
0.0
 70
     1
  0
VERTEX
  5
1D9
  8
DATA
  6
CONTINUOUS
 62
     7
 10
241.74744350632611
 20
-213.13395844700671
 30
0.0
  0
VERTEX
  5
1DA
  8
DATA
  6
CONTINUOUS
 62
     7
 10
256.41965751733318
 20
-216.25263380927299
 30
0.0
  0
VERTEX
  5
1DB
  8
DATA
  6
CONTINUOUS
 62
     7
 10
255.79592244487989
 20
-219.1870766114744
 30
0.0
  0
VERTEX
  5
1DC
  8
DATA
  6
CONTINUOUS
 62
     7
 10
241.12370843387279
 20
-216.06840124920811
 30
0.0
  0
SEQEND
  5
1DD
  8
DATA
  6
CONTINUOUS
 62
     7
  0
POLYLINE
  5
AD
  8
DATA
  6
CONTINUOUS
 62
     7
 66
     1
 10
0.0
 20
0.0
 30
0.0
 70
     1
  0
VERTEX
  5
1DE
  8
DATA
  6
CONTINUOUS
 62
     7
 10
261.31039552100231
 20
-217.2921922633619
 30
0.0
  0
VERTEX
  5
1DF
  8
DATA
  6
CONTINUOUS
 62
     7
 10
275.98260953200929
 20
-220.41086762562821
 30
0.0
  0
VERTEX
  5
1E0
  8
DATA
  6
CONTINUOUS
 62
     7
 10
275.35887445955598
 20
-223.34531042782959
 30
0.0
  0
VERTEX
  5
1E1
  8
DATA
  6
CONTINUOUS
 62
     7
 10
260.68666044854899
 20
-220.22663506556319
 30
0.0
  0
SEQEND
  5
1E2
  8
DATA
  6
CONTINUOUS
 62
     7
  0
POLYLINE
  5
B4
  8
DATA
  6
CONTINUOUS
 62
     7
 66
     1
 10
0.0
 20
0.0
 30
0.0
 70
     1
  0
VERTEX
  5
1E3
  8
DATA
  6
CONTINUOUS
 62
     7
 10
280.87334753567842
 20
-221.450426079717
 30
0.0
  0
VERTEX
  5
1E4
  8
DATA
  6
CONTINUOUS
 62
     7
 10
295.54556154668541
 20
-224.56910144198341
 30
0.0
  0
VERTEX
  5
1E5
  8
DATA
  6
CONTINUOUS
 62
     7
 10
294.9218264742322
 20
-227.50354424418481
 30
0.0
  0
VERTEX
  5
1E6
  8
DATA
  6
CONTINUOUS
 62
     7
 10
280.24961246322499
 20
-224.38486888191849
 30
0.0
  0
SEQEND
  5
1E7
  8
DATA
  6
CONTINUOUS
 62
     7
  0
POLYLINE
  5
BB
  8
DATA
  6
CONTINUOUS
 62
     7
 66
     1
 10
0.0
 20
0.0
 30
0.0
 70
     1
  0
VERTEX
  5
1E8
  8
DATA
  6
CONTINUOUS
 62
     7
 10
300.43629955035448
 20
-225.6086598960722
 30
0.0
  0
VERTEX
  5
1E9
  8
DATA
  6
CONTINUOUS
 62
     7
 10
315.10851356136158
 20
-228.7273352583386
 30
0.0
  0
VERTEX
  5
1EA
  8
DATA
  6
CONTINUOUS
 62
     7
 10
314.48477848890832
 20
-231.66177806054009
 30
0.0
  0
VERTEX
  5
1EB
  8
DATA
  6
CONTINUOUS
 62
     7
 10
299.81256447790122
 20
-228.5431026982736
 30
0.0
  0
SEQEND
  5
1EC
  8
DATA
  6
CONTINUOUS
 62
     7
  0
POLYLINE
  5
C2
  8
DATA
  6
CONTINUOUS
 62
     7
 66
     1
 10
0.0
 20
0.0
 30
0.0
 70
     1
  0
VERTEX
  5
1ED
  8
DATA
  6
CONTINUOUS
 62
     7
 10
319.99925156503048
 20
-229.76689371242739
 30
0.0
  0
VERTEX
  5
1EE
  8
DATA
  6
CONTINUOUS
 62
     7
 10
334.67146557603769
 20
-232.88556907469379
 30
0.0
  0
VERTEX
  5
1EF
  8
DATA
  6
CONTINUOUS
 62
     7
 10
334.04773050358438
 20
-235.82001187689519
 30
0.0
  0
VERTEX
  5
1F0
  8
DATA
  6
CONTINUOUS
 62
     7
 10
319.37551649257728
 20
-232.70133651462879
 30
0.0
  0
SEQEND
  5
1F1
  8
DATA
  6
CONTINUOUS
 62
     7
  0
POLYLINE
  5
C9
  8
DATA
  6
CONTINUOUS
 62
     7
 66
     1
 10
0.0
 20
0.0
 30
0.0
 70
     1
  0
VERTEX
  5
1F2
  8
DATA
  6
CONTINUOUS
 62
     7
 10
339.56220357970682
 20
-233.92512752878261
 30
0.0
  0
VERTEX
  5
1F3
  8
DATA
  6
CONTINUOUS
 62
     7
 10
354.2344175907138
 20
-237.04380289104901
 30
0.0
  0
VERTEX
  5
1F4
  8
DATA
  6
CONTINUOUS
 62
     7
 10
353.61068251826049
 20
-239.97824569325039
 30
0.0
  0
VERTEX
  5
1F5
  8
DATA
  6
CONTINUOUS
 62
     7
 10
338.93846850725339
 20
-236.85957033098401
 30
0.0
  0
SEQEND
  5
1F6
  8
DATA
  6
CONTINUOUS
 62
     7
  0
POLYLINE
  5
D0
  8
DATA
  6
CONTINUOUS
 62
     7
 66
     1
 10
0.0
 20
0.0
 30
0.0
 70
     1
  0
VERTEX
  5
1F7
  8
DATA
  6
CONTINUOUS
 62
     7
 10
359.12515559438282
 20
-238.08336134513789
 30
0.0
  0
VERTEX
  5
1F8
  8
DATA
  6
CONTINUOUS
 62
     7
 10
373.79736960538992
 20
-241.2020367074042
 30
0.0
  0
VERTEX
  5
1F9
  8
DATA
  6
CONTINUOUS
 62
     7
 10
373.1736345329366
 20
-244.13647950960561
 30
0.0
  0
VERTEX
  5
1FA
  8
DATA
  6
CONTINUOUS
 62
     7
 10
358.5014205219295
 20
-241.01780414733921
 30
0.0
  0
SEQEND
  5
1FB
  8
DATA
  6
CONTINUOUS
 62
     7
  0
POLYLINE
  5
D7
  8
DATA
  6
CONTINUOUS
 62
     7
 66
     1
 10
0.0
 20
0.0
 30
0.0
 70
     1
  0
VERTEX
  5
1FC
  8
DATA
  6
CONTINUOUS
 62
     7
 10
240.33364400876539
 20
-219.78536213199661
 30
0.0
  0
VERTEX
  5
1FD
  8
DATA
  6
CONTINUOUS
 62
     7
 10
255.0058580197724
 20
-222.90403749426289
 30
0.0
  0
VERTEX
  5
1FE
  8
DATA
  6
CONTINUOUS
 62
     7
 10
254.38212294731909
 20
-225.83848029646441
 30
0.0
  0
VERTEX
  5
1FF
  8
DATA
  6
CONTINUOUS
 62
     7
 10
239.7099089363121
 20
-222.71980493419801
 30
0.0
  0
SEQEND
  5
200
  8
DATA
  6
CONTINUOUS
 62
     7
  0
POLYLINE
  5
DE
  8
DATA
  6
CONTINUOUS
 62
     7
 66
     1
 10
0.0
 20
0.0
 30
0.0
 70
     1
  0
VERTEX
  5
201
  8
DATA
  6
CONTINUOUS
 62
     7
 10
259.89659602344148
 20
-223.94359594835171
 30
0.0
  0
VERTEX
  5
202
  8
DATA
  6
CONTINUOUS
 62
     7
 10
274.56881003444857
 20
-227.0622713106182
 30
0.0
  0
VERTEX
  5
203
  8
DATA
  6
CONTINUOUS
 62
     7
 10
273.9450749619952
 20
-229.99671411281949
 30
0.0
  0
VERTEX
  5
204
  8
DATA
  6
CONTINUOUS
 62
     7
 10
259.27286095098822
 20
-226.8780387505532
 30
0.0
  0
SEQEND
  5
205
  8
DATA
  6
CONTINUOUS
 62
     7
  0
POLYLINE
  5
E5
  8
DATA
  6
CONTINUOUS
 62
     7
 66
     1
 10
0.0
 20
0.0
 30
0.0
 70
     1
  0
VERTEX
  5
206
  8
DATA
  6
CONTINUOUS
 62
     7
 10
279.45954803811759
 20
-228.10182976470699
 30
0.0
  0
VERTEX
  5
207
  8
DATA
  6
CONTINUOUS
 62
     7
 10
294.13176204912469
 20
-231.22050512697331
 30
0.0
  0
VERTEX
  5
208
  8
DATA
  6
CONTINUOUS
 62
     7
 10
293.50802697667137
 20
-234.1549479291748
 30
0.0
  0
VERTEX
  5
209
  8
DATA
  6
CONTINUOUS
 62
     7
 10
278.83581296566427
 20
-231.03627256690831
 30
0.0
  0
SEQEND
  5
20A
  8
DATA
  6
CONTINUOUS
 62
     7
  0
POLYLINE
  5
EC
  8
DATA
  6
CONTINUOUS
 62
     7
 66
     1
 10
0.0
 20
0.0
 30
0.0
 70
     1
  0
VERTEX
  5
20B
  8
DATA
  6
CONTINUOUS
 62
     7
 10
299.02250005279382
 20
-232.2600635810621
 30
0.0
  0
VERTEX
  5
20C
  8
DATA
  6
CONTINUOUS
 62
     7
 10
313.6947140638008
 20
-235.3787389433285
 30
0.0
  0
VERTEX
  5
20D
  8
DATA
  6
CONTINUOUS
 62
     7
 10
313.07097899134749
 20
-238.3131817455299
 30
0.0
  0
VERTEX
  5
20E
  8
DATA
  6
CONTINUOUS
 62
     7
 10
298.39876498034039
 20
-235.19450638326359
 30
0.0
  0
SEQEND
  5
20F
  8
DATA
  6
CONTINUOUS
 62
     7
  0
POLYLINE
  5
F3
  8
DATA
  6
CONTINUOUS
 62
     7
 66
     1
 10
0.0
 20
0.0
 30
0.0
 70
     1
  0
VERTEX
  5
210
  8
DATA
  6
CONTINUOUS
 62
     7
 10
318.58545206746982
 20
-236.41829739741729
 30
0.0
  0
VERTEX
  5
211
  8
DATA
  6
CONTINUOUS
 62
     7
 10
333.25766607847692
 20
-239.53697275968369
 30
0.0
  0
VERTEX
  5
212
  8
DATA
  6
CONTINUOUS
 62
     7
 10
332.6339310060236
 20
-242.4714155618851
 30
0.0
  0
VERTEX
  5
213
  8
DATA
  6
CONTINUOUS
 62
     7
 10
317.9617169950165
 20
-239.35274019961869
 30
0.0
  0
SEQEND
  5
214
  8
DATA
  6
CONTINUOUS
 62
     7
  0
POLYLINE
  5
FA
  8
DATA
  6
CONTINUOUS
 62
     7
 66
     1
 10
0.0
 20
0.0
 30
0.0
 70
     1
  0
VERTEX
  5
215
  8
DATA
  6
CONTINUOUS
 62
     7
 10
238.91984451120459
 20
-226.43676581698639
 30
0.0
  0
VERTEX
  5
216
  8
DATA
  6
CONTINUOUS
 62
     7
 10
253.59205852221169
 20
-229.5554411792528
 30
0.0
  0
VERTEX
  5
217
  8
DATA
  6
CONTINUOUS
 62
     7
 10
252.96832344975849
 20
-232.4898839814542
 30
0.0
  0
VERTEX
  5
218
  8
DATA
  6
CONTINUOUS
 62
     7
 10
238.2961094387513
 20
-229.37120861918791
 30
0.0
  0
SEQEND
  5
219
  8
DATA
  6
CONTINUOUS
 62
     7
  0
POLYLINE
  5
101
  8
DATA
  6
CONTINUOUS
 62
     7
 66
     1
 10
0.0
 20
0.0
 30
0.0
 70
     1
  0
VERTEX
  5
21A
  8
DATA
  6
CONTINUOUS
 62
     7
 10
258.48279652588081
 20
-230.59499963334159
 30
0.0
  0
VERTEX
  5
21B
  8
DATA
  6
CONTINUOUS
 62
     7
 10
273.1550105368878
 20
-233.71367499560799
 30
0.0
  0
VERTEX
  5
21C
  8
DATA
  6
CONTINUOUS
 62
     7
 10
272.53127546443449
 20
-236.64811779780939
 30
0.0
  0
VERTEX
  5
21D
  8
DATA
  6
CONTINUOUS
 62
     7
 10
257.8590614534275
 20
-233.52944243554299
 30
0.0
  0
SEQEND
  5
21E
  8
DATA
  6
CONTINUOUS
 62
     7
  0
POLYLINE
  5
108
  8
DATA
  6
CONTINUOUS
 62
     7
 66
     1
 10
0.0
 20
0.0
 30
0.0
 70
     1
  0
VERTEX
  5
21F
  8
DATA
  6
CONTINUOUS
 62
     7
 10
278.04574854055681
 20
-234.75323344969681
 30
0.0
  0
VERTEX
  5
220
  8
DATA
  6
CONTINUOUS
 62
     7
 10
292.71796255156403
 20
-237.87190881196321
 30
0.0
  0
VERTEX
  5
221
  8
DATA
  6
CONTINUOUS
 62
     7
 10
292.0942274791106
 20
-240.80635161416461
 30
0.0
  0
VERTEX
  5
222
  8
DATA
  6
CONTINUOUS
 62
     7
 10
277.42201346810361
 20
-237.68767625189821
 30
0.0
  0
SEQEND
  5
223
  8
DATA
  6
CONTINUOUS
 62
     7
  0
POLYLINE
  5
10F
  8
DATA
  6
CONTINUOUS
 62
     7
 66
     1
 10
0.0
 20
0.0
 30
0.0
 70
     1
  0
VERTEX
  5
224
  8
DATA
  6
CONTINUOUS
 62
     7
 10
237.50604501364381
 20
-233.0881695019763
 30
0.0
  0
VERTEX
  5
225
  8
DATA
  6
CONTINUOUS
 62
     7
 10
252.17825902465091
 20
-236.2068448642427
 30
0.0
  0
VERTEX
  5
226
  8
DATA
  6
CONTINUOUS
 62
     7
 10
251.55452395219771
 20
-239.1412876664441
 30
0.0
  0
VERTEX
  5
227
  8
DATA
  6
CONTINUOUS
 62
     7
 10
236.88230994119061
 20
-236.0226123041777
 30
0.0
  0
SEQEND
  5
228
  8
DATA
  6
CONTINUOUS
 62
     7
  0
POLYLINE
  5
116
  8
DATA
  6
CONTINUOUS
 62
     7
 66
     1
 10
0.0
 20
0.0
 30
0.0
 70
     1
  0
VERTEX
  5
229
  8
DATA
  6
CONTINUOUS
 62
     7
 10
257.06899702831998
 20
-237.24640331833149
 30
0.0
  0
VERTEX
  5
22A
  8
DATA
  6
CONTINUOUS
 62
     7
 10
271.74121103932703
 20
-240.36507868059789
 30
0.0
  0
VERTEX
  5
22B
  8
DATA
  6
CONTINUOUS
 62
     7
 10
271.11747596687383
 20
-243.29952148279929
 30
0.0
  0
VERTEX
  5
22C
  8
DATA
  6
CONTINUOUS
 62
     7
 10
256.44526195586673
 20
-240.18084612053281
 30
0.0
  0
SEQEND
  5
22D
  8
DATA
  6
CONTINUOUS
 62
     7
  0
LINE
  5
11D
  8
DATA
  6
STYLE_01
 62
     7
 10
232.0
 20
-248.0
 30
0.0
 11
389.0
 21
-248.0
 31
0.0
  0
LINE
  5
11E
  8
DATA
  6
CONTINUOUS
 62
     7
 10
-300.0
 20
-247.0
 30
0.0
 11
-300.0
 21
-209.0
 31
0.0
  0
LINE
  5
11F
  8
DATA
  6
CONTINUOUS
 62
     7
 10
180.0
 20
-250.0
 30
0.0
 11
-297.0
 21
-250.0
 31
0.0
  0
LINE
  5
120
  8
DATA
  6
CONTINUOUS
 62
     7
 10
183.0
 20
-209.0
 30
0.0
 11
183.0
 21
-247.0
 31
0.0
  0
LINE
  5
121
  8
DATA
  6
CONTINUOUS
 62
     7
 10
-297.0
 20
-206.0
 30
0.0
 11
180.0
 21
-206.0
 31
0.0
  0
ARC
  5
122
  8
DATA
  6
CONTINUOUS
 62
     7
 10
-297.0
 20
-247.0
 30
0.0
 40
3.0
 50
180.0
 51
270.0
  0
ARC
  5
123
  8
DATA
  6
CONTINUOUS
 62
     7
 10
-297.0
 20
-209.0
 30
0.0
 40
3.0
 50
90.0
 51
180.0
  0
ARC
  5
124
  8
DATA
  6
CONTINUOUS
 62
     7
 10
180.0
 20
-209.0
 30
0.0
 40
3.0
 50
0.0
 51
90.0
  0
ARC
  5
125
  8
DATA
  6
CONTINUOUS
 62
     7
 10
180.0
 20
-247.0
 30
0.0
 40
3.0
 50
270.0
 51
0.0
  0
LINE
  5
126
  8
DATA
  6
CONTINUOUS
 62
     7
 10
175.5
 20
-209.0
 30
0.0
 11
172.0
 21
-209.0
 31
0.0
  0
LINE
  5
127
  8
DATA
  6
CONTINUOUS
 62
     7
 10
175.5
 20
-216.0
 30
0.0
 11
172.0
 21
-216.0
 31
0.0
  0
ARC
  5
128
  8
DATA
  6
CONTINUOUS
 62
     7
 10
175.5
 20
-212.5
 30
0.0
 40
3.5
 50
270.0
 51
90.0
  0
ARC
  5
129
  8
DATA
  6
CONTINUOUS
 62
     7
 10
172.0
 20
-212.5
 30
0.0
 40
3.5
 50
90.0
 51
270.0
  0
LINE
  5
12A
  8
DATA
  6
CONTINUOUS
 62
     7
 10
-289.0
 20
-240.0
 30
0.0
 11
-292.5
 21
-240.0
 31
0.0
  0
LINE
  5
12B
  8
DATA
  6
CONTINUOUS
 62
     7
 10
-289.0
 20
-247.0
 30
0.0
 11
-292.5
 21
-247.0
 31
0.0
  0
ARC
  5
12C
  8
DATA
  6
CONTINUOUS
 62
     7
 10
-289.0
 20
-243.5
 30
0.0
 40
3.5
 50
270.0
 51
90.0
  0
ARC
  5
12D
  8
DATA
  6
CONTINUOUS
 62
     7
 10
-292.5
 20
-243.5
 30
0.0
 40
3.5
 50
90.0
 51
270.0
  0
LINE
  5
12E
  8
DATA
  6
CONTINUOUS
 62
     7
 10
-289.0
 20
-209.0
 30
0.0
 11
-292.5
 21
-209.0
 31
0.0
  0
LINE
  5
12F
  8
DATA
  6
CONTINUOUS
 62
     7
 10
-289.0
 20
-216.0
 30
0.0
 11
-292.5
 21
-216.0
 31
0.0
  0
ARC
  5
130
  8
DATA
  6
CONTINUOUS
 62
     7
 10
-289.0
 20
-212.5
 30
0.0
 40
3.5
 50
270.0
 51
90.0
  0
ARC
  5
131
  8
DATA
  6
CONTINUOUS
 62
     7
 10
-292.5
 20
-212.5
 30
0.0
 40
3.5
 50
90.0
 51
270.0
  0
ENDSEC
  0
EOF
