  0
SECTION
  2
HEADER
  9
$ACADVER
  1
AC1009
  9
$INSBASE
 10
0.0
 20
0.0
 30
0.0
  9
$EXTMIN
 10
-180.0109854899475
 20
-275.11077217222902
 30
-0.0015258207003583
  9
$EXTMAX
 10
180.01098716632799
 20
260.01629870255692
 30
0.0000000349246037
  9
$LIMMIN
 10
0.0
 20
0.0
  9
$LIMMAX
 10
0.0
 20
0.0
  9
$ORTHOMODE
 70
     0
  9
$REGENMODE
 70
     1
  9
$FILLMODE
 70
     1
  9
$QTEXTMODE
 70
     0
  9
$MIRRTEXT
 70
     1
  9
$DRAGMODE
 70
     2
  9
$LTSCALE
 40
10.16
  9
$OSMODE
 70
   231
  9
$ATTMODE
 70
     1
  9
$TEXTSIZE
 40
0.0
  9
$TRACEWID
 40
1.0
  9
$TEXTSTYLE
  7
STANDARD
  9
$CLAYER
  8
DATA
  9
$CELTYPE
  6
BYLAYER
  9
$CECOLOR
 62
   256
  9
$DIMSCALE
 40
1.0
  9
$DIMASZ
 40
0.18
  9
$DIMEXO
 40
0.0625
  9
$DIMDLI
 40
0.38
  9
$DIMRND
 40
0.0
  9
$DIMDLE
 40
0.0
  9
$DIMEXE
 40
0.18
  9
$DIMTP
 40
0.0
  9
$DIMTM
 40
0.0
  9
$DIMTXT
 40
0.18
  9
$DIMCEN
 40
0.09
  9
$DIMTSZ
 40
0.0
  9
$DIMTOL
 70
     0
  9
$DIMLIM
 70
     0
  9
$DIMTIH
 70
     1
  9
$DIMTOH
 70
     1
  9
$DIMSE1
 70
     0
  9
$DIMSE2
 70
     0
  9
$DIMTAD
 70
     0
  9
$DIMZIN
 70
     0
  9
$DIMBLK
  1

  9
$DIMASO
 70
     1
  9
$DIMSHO
 70
     1
  9
$DIMPOST
  1

  9
$DIMAPOST
  1

  9
$DIMALT
 70
     0
  9
$DIMALTD
 70
     2
  9
$DIMALTF
 40
25.399999999999999
  9
$DIMLFAC
 40
1.0
  9
$DIMTOFL
 70
     0
  9
$DIMTVP
 40
0.0
  9
$DIMTIX
 70
     0
  9
$DIMSOXD
 70
     0
  9
$DIMSAH
 70
     0
  9
$DIMBLK1
  1

  9
$DIMBLK2
  1

  9
$DIMSTYLE
  2
STANDARD
  9
$DIMCLRD
 70
     0
  9
$DIMCLRE
 70
     0
  9
$DIMCLRT
 70
     0
  9
$DIMTFAC
 40
1.0
  9
$DIMGAP
 40
0.09
  9
$LUNITS
 70
     2
  9
$LUPREC
 70
     4
  9
$SKETCHINC
 40
0.1
  9
$FILLETRAD
 40
0.0
  9
$AUNITS
 70
     0
  9
$AUPREC
 70
     0
  9
$MENU
  1
acad
  9
$ELEVATION
 40
0.0
  9
$PELEVATION
 40
0.0
  9
$THICKNESS
 40
0.0
  9
$LIMCHECK
 70
     0
  9
$BLIPMODE
 70
     0
  9
$CHAMFERA
 40
0.0
  9
$CHAMFERB
 40
0.0
  9
$SKPOLY
 70
     0
  9
$TDCREATE
 40
2456776.5653125001
  9
$TDUPDATE
 40
2456776.56650397
  9
$TDINDWG
 40
0.0004274421
  9
$TDUSRTIMER
 40
0.0004274074
  9
$USRTIMER
 70
     1
  9
$ANGBASE
 50
0.0
  9
$ANGDIR
 70
     0
  9
$PDMODE
 70
     1
  9
$PDSIZE
 40
-2.0
  9
$PLINEWID
 40
0.0
  9
$COORDS
 70
     2
  9
$SPLFRAME
 70
     0
  9
$SPLINETYPE
 70
     6
  9
$SPLINESEGS
 70
     8
  9
$ATTDIA
 70
     0
  9
$ATTREQ
 70
     1
  9
$HANDLING
 70
     1
  9
$HANDSEED
  5
189
  9
$SURFTAB1
 70
     6
  9
$SURFTAB2
 70
     6
  9
$SURFTYPE
 70
     6
  9
$SURFU
 70
     6
  9
$SURFV
 70
     6
  9
$UCSNAME
  2

  9
$UCSORG
 10
0.0
 20
0.0
 30
0.0
  9
$UCSXDIR
 10
1.0
 20
0.0
 30
0.0
  9
$UCSYDIR
 10
0.0
 20
1.0
 30
0.0
  9
$PUCSNAME
  2

  9
$PUCSORG
 10
0.0
 20
0.0
 30
0.0
  9
$PUCSXDIR
 10
1.0
 20
0.0
 30
0.0
  9
$PUCSYDIR
 10
0.0
 20
1.0
 30
0.0
  9
$USERI1
 70
     0
  9
$USERI2
 70
     0
  9
$USERI3
 70
     0
  9
$USERI4
 70
     0
  9
$USERI5
 70
     0
  9
$USERR1
 40
0.0
  9
$USERR2
 40
0.0
  9
$USERR3
 40
0.0
  9
$USERR4
 40
0.0
  9
$USERR5
 40
0.0
  9
$WORLDVIEW
 70
     1
  9
$SHADEDGE
 70
     3
  9
$SHADEDIF
 70
    70
  9
$TILEMODE
 70
     1
  9
$MAXACTVP
 70
    64
  9
$PLIMCHECK
 70
     0
  9
$PEXTMIN
 10
1.0000000000000000E+020
 20
1.0000000000000000E+020
 30
1.0000000000000000E+020
  9
$PEXTMAX
 10
-1.0000000000000000E+020
 20
-1.0000000000000000E+020
 30
-1.0000000000000000E+020
  9
$PLIMMIN
 10
0.0
 20
0.0
  9
$PLIMMAX
 10
12.0
 20
9.0
  9
$UNITMODE
 70
     0
  9
$VISRETAIN
 70
     0
  9
$PLINEGEN
 70
     1
  9
$PSLTSCALE
 70
     0
  0
ENDSEC
  0
SECTION
  2
TABLES
  0
TABLE
  2
VPORT
 70
     1
  0
VPORT
  2
*ACTIVE
 70
     0
 10
0.0
 20
0.0
 11
1.0
 21
1.0
 12
0.0000008381902603
 22
-7.5472367348360194
 13
0.0
 23
0.0
 14
1.0
 24
1.0
 15
0.0
 25
0.0
 16
0.0
 26
0.0
 36
1.0
 17
0.0
 27
0.0
 37
0.0
 40
539.54352537994225
 41
2.2837465564738291
 42
50.0
 43
0.0
 44
0.0
 50
0.0
 51
0.0
 71
     0
 72
  2000
 73
     1
 74
     1
 75
     0
 76
     0
 77
     0
 78
     0
  0
ENDTAB
  0
TABLE
  2
LTYPE
 70
    11
  0
LTYPE
  2
CONTINUOUS
 70
     0
  3
Solid line
 72
    65
 73
     0
 40
0.0
  0
LTYPE
  2
STYLE_01
 70
     0
  3

 72
    65
 73
     2
 40
0.4166412353515625
 49
0.208282470703125
 49
-0.2083587646484375
  0
ENDTAB
  0
TABLE
  2
LAYER
 70
     5
  0
LAYER
  2
0
 70
     0
 62
     7
  6
CONTINUOUS
  0
LAYER
  2
DATA
 70
     0
 62
     7
  6
CONTINUOUS
  0
LAYER
  2
HIBINO-BASE
 70
     0
 62
     7
  6
CONTINUOUS
  0
LAYER
  2
SPEC
 70
     0
 62
     7
  6
CONTINUOUS
  0
LAYER
  2
DIMNSIONS
 70
     0
 62
     7
  6
CONTINUOUS
  0
ENDTAB
  0
TABLE
  2
STYLE
 70
     3
  0
STYLE
  2
STANDARD
 70
     0
 40
0.0
 41
1.0
 50
0.0
 71
     0
 42
0.0
  3
txt
  4
BIGFONT.SHX
  0
ENDTAB
  0
TABLE
  2
VIEW
 70
     0
  0
ENDTAB
  0
TABLE
  2
UCS
 70
     0
  0
ENDTAB
  0
TABLE
  2
APPID
 70
     4
  0
APPID
  2
ACAD
 70
     0
  0
APPID
  2
ACADANNOTATIVE
 70
     0
  0
APPID
  2
ACAD_NAV_VCDISPLAY
 70
     0
  0
APPID
  2
ACAD_MLEADERVER
 70
     0
  0
ENDTAB
  0
TABLE
  2
DIMSTYLE
 70
     2
  0
DIMSTYLE
  2
STANDARD
 70
     0
  3

  4

  5

  6

  7

 40
1.0
 41
0.18
 42
0.0625
 43
0.38
 44
0.18
 45
0.0
 46
0.0
 47
0.0
 48
0.0
140
0.18
141
0.09
142
0.0
143
25.399999999999999
144
1.0
145
0.0
146
1.0
147
0.09
 71
     0
 72
     0
 73
     1
 74
     1
 75
     0
 76
     0
 77
     0
 78
     0
170
     0
171
     2
172
     0
173
     0
174
     0
175
     0
176
     0
177
     0
178
     0
  0
ENDTAB
  0
ENDSEC
  0
SECTION
  2
BLOCKS
  0
BLOCK
  8
0
  2
$MODEL_SPACE
 70
     0
 10
0.0
 20
0.0
 30
0.0
  3
$MODEL_SPACE
  1

  0
ENDBLK
  5
10E
  8
0
  0
BLOCK
 67
     1
  8
0
  2
$PAPER_SPACE
 70
     0
 10
0.0
 20
0.0
 30
0.0
  3
$PAPER_SPACE
  1

  0
ENDBLK
  5
10A
 67
     1
  8
0
  0
ENDSEC
  0
SECTION
  2
ENTITIES
  0
LINE
  5
2C
  8
HIBINO-BASE
  6
CONTINUOUS
 62
     7
 10
-180.0
 20
260.0
 30
0.0
 11
180.0
 21
260.0
 31
0.0
  0
LINE
  5
2D
  8
HIBINO-BASE
  6
CONTINUOUS
 62
     7
 10
180.0
 20
-260.0
 30
0.0
 11
-180.0
 21
-260.0
 31
0.0
  0
LINE
  5
2E
  8
HIBINO-BASE
  6
CONTINUOUS
 62
     7
 10
-180.0
 20
-260.0
 30
0.0
 11
-180.0
 21
260.0
 31
0.0
  0
LINE
  5
2F
  8
HIBINO-BASE
  6
CONTINUOUS
 62
     7
 10
180.0
 20
260.0
 30
0.0
 11
180.0
 21
-260.0
 31
0.0
  0
LINE
  5
30
  8
HIBINO-BASE
  6
CONTINUOUS
 62
     7
 10
0.0000000000000142
 20
-215.0
 30
0.0
 11
180.0
 21
-215.0
 31
0.0
  0
LINE
  5
31
  8
HIBINO-BASE
  6
CONTINUOUS
 62
     7
 10
0.0000000000000142
 20
-260.0
 30
0.0
 11
0.0000000000000142
 21
-215.0
 31
0.0
  0
TEXT
  5
32
  8
HIBINO-BASE
 62
     7
 10
1.8000000000000249
 20
-220.01738666666671
 30
0.0
 40
3.2576822916666659
  1
NOTE
 41
0.7
 11
1.8000000000000249
 21
-216.75970437500001
 31
0.0
 73
     3
  0
LINE
  5
33
  8
HIBINO-BASE
  6
CONTINUOUS
 62
     7
 10
70.000000000000043
 20
-260.0
 30
0.0
 11
70.000000000000043
 21
-215.0
 31
0.0
  0
TEXT
  5
34
  8
HIBINO-BASE
 62
     7
 10
71.799999999999983
 20
-220.01738666666671
 30
0.0
 40
3.2576822916666659
  1
TITLE
 41
0.7
 11
71.799999999999983
 21
-216.75970437500001
 31
0.0
 73
     3
  0
LINE
  5
35
  8
HIBINO-BASE
  6
CONTINUOUS
 62
     7
 10
0.0000000000000142
 20
-240.0
 30
0.0
 11
180.0
 21
-240.0
 31
0.0
  0
TEXT
  5
36
  8
HIBINO-BASE
 62
     7
 10
96.799999999999983
 20
-244.9047466666666
 30
0.0
 40
3.2576822916666659
  1
DRAWN
 41
0.7
 11
96.799999999999983
 21
-241.6470643749999
 31
0.0
 73
     3
  0
TEXT
  5
37
  8
HIBINO-BASE
 62
     7
 10
46.79999999999999
 20
-244.9047466666666
 30
0.0
 40
3.2576822916666659
  1
DATE
 41
0.7
 11
46.79999999999999
 21
-241.6470643749999
 31
0.0
 73
     3
  0
TEXT
  5
38
  8
HIBINO-BASE
 62
     7
 10
26.800000000000001
 20
-244.9047466666666
 30
0.0
 40
3.2576822916666659
  1
SCALE
 41
0.7
 11
26.800000000000001
 21
-241.6470643749999
 31
0.0
 73
     3
  0
TEXT
  5
39
  8
HIBINO-BASE
 62
     7
 10
71.799999999999983
 20
-244.9047466666666
 30
0.0
 40
3.2576822916666659
  1
DESIGN
 41
0.7
 11
71.799999999999983
 21
-241.6470643749999
 31
0.0
 73
     3
  0
TEXT
  5
3A
  8
HIBINO-BASE
 62
     7
 10
146.7999999999999
 20
-244.9047466666666
 30
0.0
 40
3.2576822916666659
  1
DRAWING NO.
 41
0.7
 11
146.7999999999999
 21
-241.6470643749999
 31
0.0
 73
     3
  0
TEXT
  5
3B
  8
HIBINO-BASE
 62
     7
 10
121.7999999999999
 20
-244.9047466666666
 30
0.0
 40
3.2576822916666659
  1
CHECK
 41
0.7
 11
121.7999999999999
 21
-241.6470643749999
 31
0.0
 73
     3
  0
LINE
  5
3C
  8
HIBINO-BASE
  6
CONTINUOUS
 62
     7
 10
28.750000000000011
 20
-257.5
 30
0.0
 11
36.25000000000005
 21
-250.0
 31
0.0
  0
TEXT
  5
3D
  8
HIBINO-BASE
 62
     7
 10
27.500000000000011
 20
-252.21788666666669
 30
0.0
 40
3.2576822916666659
  1
1
 41
0.7
 11
27.500000000000011
 21
-248.96020437499999
 31
0.0
 73
     3
  0
LINE
  5
3E
  8
HIBINO-BASE
  6
CONTINUOUS
 62
     7
 10
25.000000000000011
 20
-260.0
 30
0.0
 11
25.000000000000011
 21
-240.0
 31
0.0
  0
LINE
  5
3F
  8
HIBINO-BASE
  6
CONTINUOUS
 62
     7
 10
44.999999999999993
 20
-260.0
 30
0.0
 11
44.999999999999993
 21
-240.0
 31
0.0
  0
LINE
  5
40
  8
HIBINO-BASE
  6
CONTINUOUS
 62
     7
 10
94.999999999999986
 20
-240.0
 30
0.0
 11
94.999999999999986
 21
-260.0
 31
0.0
  0
LINE
  5
41
  8
HIBINO-BASE
  6
CONTINUOUS
 62
     7
 10
145.0
 20
-240.0
 30
0.0
 11
145.0
 21
-260.0
 31
0.0
  0
LINE
  5
42
  8
HIBINO-BASE
  6
CONTINUOUS
 62
     7
 10
120.0
 20
-260.0
 30
0.0
 11
120.0
 21
-240.0
 31
0.0
  0
TEXT
  5
43
  8
HIBINO-BASE
 62
     7
 10
46.713080000000041
 20
-254.27270666666669
 30
0.0
 40
3.2576822916666659
  1
'14.04.
 41
0.7
 11
46.713080000000041
 21
-251.015024375
 31
0.0
 73
     3
  0
TEXT
  5
44
  8
HIBINO-BASE
 62
     7
 10
35.000000000000007
 20
-255.96788666666669
 30
0.0
 40
3.2576822916666659
  1
2
 41
0.7
 11
35.000000000000007
 21
-252.71020437499999
 31
0.0
 73
     3
  0
TEXT
  5
45
  8
HIBINO-BASE
 62
     7
 10
98.011620022069224
 20
-254.27270666666669
 30
0.0
 40
3.2576822916666659
  1
N.Sasaki
 41
0.7
 11
98.011620022069224
 21
-251.015024375
 31
0.0
 73
     3
  0
TEXT
  5
46
  8
HIBINO-BASE
 62
     7
 10
7.7666666666667208
 20
-256.048
 30
0.0
 40
6.5153645833333327
  1
A4
 41
0.7
 11
7.7666666666667208
 21
-249.53263541666669
 31
0.0
 73
     3
  0
TEXT
  5
47
  8
HIBINO-BASE
 62
     7
 10
1.916666666666671
 20
-245.23890999999989
 30
0.0
 40
3.2576822916666659
  1
PAPER SIZE
 41
0.7
 11
1.916666666666671
 21
-241.98122770833331
 31
0.0
 73
     3
  0
TEXT
  5
48
  8
HIBINO-BASE
 62
     7
 10
-165.63199999999989
 20
-272.7510299999999
 30
0.0
 40
7.0583116319444441
  1
Hibino-Intersound Corporation
 41
0.7
 11
-165.63199999999989
 21
-265.69271836805552
 31
0.0
 73
     3
  0
TEXT
  5
49
  8
HIBINO-BASE
 62
     7
 10
28.048668334486269
 20
-272.7510299999999
 30
0.0
 40
7.0583116319444441
  1
ヒビノインターサウンド株式会社
 41
0.7
 11
28.048668334486269
 21
-265.69271836805552
 31
0.0
 73
     3
  0
LINE
  5
4A
  8
SPEC
  6
CONTINUOUS
 62
     7
 10
-164.99999999999989
 20
240.00000000000011
 30
0.0
 11
130.0
 21
240.00000000000011
 31
0.0
  0
LINE
  5
4B
  8
SPEC
  6
CONTINUOUS
 62
     7
 10
-164.99999999999989
 20
232.50000000000011
 30
0.0
 11
130.0
 21
232.50000000000011
 31
0.0
  0
LINE
  5
4C
  8
SPEC
  6
CONTINUOUS
 62
     7
 10
-164.99999999999989
 20
240.00000000000011
 30
0.0
 11
-164.99999999999989
 21
225.00000000000011
 31
0.0
  0
TEXT
  5
4D
  8
SPEC
 62
     7
 10
-162.5
 20
242.78654000000009
 30
0.0
 40
4.8865234375000002
  1
仕様
 41
0.7
 11
-162.5
 21
247.67306343749999
 31
0.0
 73
     3
  0
LINE
  5
4E
  8
SPEC
  6
CONTINUOUS
 62
     7
 10
-100.0
 20
240.00000000000011
 30
0.0
 11
-100.0
 21
225.00000000000011
 31
0.0
  0
LINE
  5
4F
  8
SPEC
  6
CONTINUOUS
 62
     7
 10
130.0
 20
240.00000000000011
 30
0.0
 11
130.0
 21
225.00000000000011
 31
0.0
  0
TEXT
  5
50
  8
SPEC
 62
     7
 10
-163.19999999999999
 20
234.07583555555561
 30
0.0
 40
3.8006293402777769
  1
寸法(W\U+00D7H\U+00D7D)
 41
0.7
 11
-163.19999999999999
 21
237.87646489583341
 31
0.0
 73
     3
  0
TEXT
  5
51
  8
SPEC
 62
     7
 10
-98.200000000000003
 20
234.07583555555561
 30
0.0
 40
3.8006293402777769
  1
144\U+00D744.0\U+00D750.0mm(除突起部)
 41
0.7
 11
-98.200000000000003
 21
237.87646489583341
 31
0.0
 73
     3
  0
LINE
  5
52
  8
SPEC
  6
CONTINUOUS
 62
     7
 10
-164.99999999999989
 20
225.00000000000011
 30
0.0
 11
130.0
 21
225.00000000000011
 31
0.0
  0
TEXT
  5
53
  8
SPEC
 62
     7
 10
-163.19999999999999
 20
226.57583555555561
 30
0.0
 40
3.8006293402777769
  1
質量
 41
0.7
 11
-163.19999999999999
 21
230.37646489583329
 31
0.0
 73
     3
  0
TEXT
  5
54
  8
SPEC
 62
     7
 10
-98.200000000000003
 20
226.57583555555561
 30
0.0
 40
3.8006293402777769
  1
260g
 41
0.7
 11
-98.200000000000003
 21
230.37646489583329
 31
0.0
 73
     3
  0
TEXT
  5
55
  8
DIMNSIONS
 62
     7
 10
-40.0
 20
-235.46101999999991
 30
0.0
 40
4.8865234375000011
  1
(単位：mm)
 41
0.7
 11
-40.0
 21
-230.57449656249989
 31
0.0
 73
     3
  0
LINE
  5
56
  8
DIMNSIONS
  6
CONTINUOUS
 62
     7
 10
-100.0
 20
-41.0
 30
0.0
 11
-100.0
 21
-74.0
 31
0.0
  0
LINE
  5
57
  8
DIMNSIONS
  6
CONTINUOUS
 62
     7
 10
43.5
 20
-44.0
 30
0.0
 11
43.5
 21
-74.0
 31
0.0
  0
LINE
  5
58
  8
DIMNSIONS
  6
CONTINUOUS
 62
     7
 10
-100.0
 20
-70.0
 30
0.0
 11
43.5
 21
-70.0
 31
0.0
  0
LINE
  5
59
  8
DIMNSIONS
  6
CONTINUOUS
 62
     7
 10
-100.0
 20
-70.0
 30
0.0
 11
-94.998754882812506
 21
-68.659920409699509
 31
0.0
  0
LINE
  5
5A
  8
DIMNSIONS
  6
CONTINUOUS
 62
     7
 10
-100.0
 20
-70.0
 30
0.0
 11
-94.998754882812506
 21
-71.340079590300491
 31
0.0
  0
LINE
  5
5B
  8
DIMNSIONS
  6
CONTINUOUS
 62
     7
 10
43.5
 20
-70.0
 30
0.0
 11
38.498754882812491
 21
-71.340079590300491
 31
0.0
  0
LINE
  5
5C
  8
DIMNSIONS
  6
CONTINUOUS
 62
     7
 10
43.5
 20
-70.0
 30
0.0
 11
38.498754882812491
 21
-68.659920409699509
 31
0.0
  0
TEXT
  5
5D
  8
DIMNSIONS
 62
     7
 10
-33.541666666666657
 20
-68.012222222222221
 30
0.0
 40
5.4294704861111107
  1
144
 41
0.7
 11
-33.541666666666657
 21
-62.582751736111099
 31
0.0
 73
     3
  0
LINE
  5
5E
  8
DIMNSIONS
  6
CONTINUOUS
 62
     7
 10
-101.0
 20
4.0
 30
0.0
 11
-134.0
 21
4.0
 31
0.0
  0
LINE
  5
5F
  8
DIMNSIONS
  6
CONTINUOUS
 62
     7
 10
-101.0
 20
-40.0
 30
0.0
 11
-134.0
 21
-40.0
 31
0.0
  0
LINE
  5
60
  8
DIMNSIONS
  6
CONTINUOUS
 62
     7
 10
-130.0
 20
4.0
 30
0.0
 11
-130.0
 21
-40.0
 31
0.0
  0
LINE
  5
61
  8
DIMNSIONS
  6
CONTINUOUS
 62
     7
 10
-130.0
 20
4.0
 30
0.0
 11
-128.65992040969951
 21
-1.001245117187499
 31
0.0
  0
LINE
  5
62
  8
DIMNSIONS
  6
CONTINUOUS
 62
     7
 10
-130.0
 20
4.0
 30
0.0
 11
-131.34007959030049
 21
-1.001245117187499
 31
0.0
  0
LINE
  5
63
  8
DIMNSIONS
  6
CONTINUOUS
 62
     7
 10
-130.0
 20
-40.0
 30
0.0
 11
-131.34007959030049
 21
-34.998754882812499
 31
0.0
  0
LINE
  5
64
  8
DIMNSIONS
  6
CONTINUOUS
 62
     7
 10
-130.0
 20
-40.0
 30
0.0
 11
-128.65992040969951
 21
-34.998754882812499
 31
0.0
  0
TEXT
  5
65
  8
DIMNSIONS
 62
     7
 10
-133.48777777777769
 20
-25.055555555555561
 30
0.0
 40
5.4294704861111107
  1
44.0
 50
90.0
 41
0.7
 11
-138.91724826388881
 21
-25.055555555555561
 31
0.0
 73
     3
  0
LINE
  5
66
  8
DIMNSIONS
  6
CONTINUOUS
 62
     7
 10
-104.0
 20
40.0
 30
0.0
 11
-134.0
 21
40.0
 31
0.0
  0
LINE
  5
67
  8
DIMNSIONS
  6
CONTINUOUS
 62
     7
 10
37.5
 20
90.0
 30
0.0
 11
-134.0
 21
90.0
 31
0.0
  0
LINE
  5
68
  8
DIMNSIONS
  6
CONTINUOUS
 62
     7
 10
-130.0
 20
40.0
 30
0.0
 11
-130.0
 21
90.0
 31
0.0
  0
LINE
  5
69
  8
DIMNSIONS
  6
CONTINUOUS
 62
     7
 10
-130.0
 20
40.0
 30
0.0
 11
-131.34007959030049
 21
45.001245117187509
 31
0.0
  0
LINE
  5
6A
  8
DIMNSIONS
  6
CONTINUOUS
 62
     7
 10
-130.0
 20
40.0
 30
0.0
 11
-128.65992040969951
 21
45.001245117187509
 31
0.0
  0
LINE
  5
6B
  8
DIMNSIONS
  6
CONTINUOUS
 62
     7
 10
-130.0
 20
90.0
 30
0.0
 11
-128.65992040969951
 21
84.998754882812506
 31
0.0
  0
LINE
  5
6C
  8
DIMNSIONS
  6
CONTINUOUS
 62
     7
 10
-130.0
 20
90.0
 30
0.0
 11
-131.34007959030049
 21
84.998754882812506
 31
0.0
  0
TEXT
  5
6D
  8
DIMNSIONS
 62
     7
 10
-133.48777777777769
 20
57.944444444444443
 30
0.0
 40
5.4294704861111107
  1
50.0
 50
90.0
 41
0.7
 11
-138.91724826388881
 21
57.944444444444443
 31
0.0
 73
     3
  0
TEXT
  5
6E
  8
DATA
 62
     7
 10
100.0
 20
-237.04696615502439
 30
0.0
 40
4.2679868847194253
  1
MW-05/19
 41
0.7
 11
100.0
 21
-232.778979270305
 31
0.0
 73
     3
  0
TEXT
  5
6F
  8
DATA
 62
     7
 10
100.0
 20
-222.54696615502439
 30
0.0
 40
4.2679868847194253
  1
MUTAC
 41
0.7
 11
100.0
 21
-218.278979270305
 31
0.0
 73
     3
  0
TEXT
  5
70
  8
DATA
 62
     7
 10
94.999999999999986
 20
-230.19213239999999
 30
0.0
 40
3.257687421875
  1
MC-3+ ラックマウントオプション
 41
0.7
 11
94.999999999999986
 21
-226.93444497812499
 31
0.0
 73
     3
  0
TEXT
  5
71
  8
DATA
 62
     7
 10
-175.0
 20
-244.2474444444444
 30
0.0
 40
3.8006293402777791
  1
※仕様及び外観は予告なく変更されることがあります。
 41
0.7
 11
-175.0
 21
-240.4468151041666
 31
0.0
 73
     3
  0
TEXT
  5
72
  8
DATA
 62
     7
 10
-175.0
 20
-249.18633333333341
 30
0.0
 40
3.8006293402777791
  1
　また、同一商品でも若干の個体差があることがあります。ご了承ください。
 41
0.7
 11
-175.0
 21
-245.38570399305561
 31
0.0
 73
     3
  0
LINE
  5
73
  8
DATA
  6
CONTINUOUS
 62
     7
 10
-100.0
 20
-37.0
 30
0.0
 11
-100.0
 21
1.0
 31
0.0
  0
LINE
  5
74
  8
DATA
  6
CONTINUOUS
 62
     7
 10
43.5
 20
-40.0
 30
0.0
 11
-97.0
 21
-40.0
 31
0.0
  0
LINE
  5
75
  8
DATA
  6
CONTINUOUS
 62
     7
 10
43.5
 20
4.0
 30
0.0
 11
43.5
 21
-40.0
 31
0.0
  0
LINE
  5
76
  8
DATA
  6
CONTINUOUS
 62
     7
 10
-97.0
 20
4.0
 30
0.0
 11
43.5
 21
4.0
 31
0.0
  0
LINE
  5
77
  8
DATA
  6
STYLE_01
 62
     7
 10
41.5
 20
4.0
 30
0.0
 11
41.5
 21
-40.0
 31
0.0
  0
POLYLINE
  5
78
  8
DATA
  6
CONTINUOUS
 62
     7
 66
     1
 10
0.0
 20
0.0
 30
0.0
  0
VERTEX
  5
13E
  8
DATA
  6
CONTINUOUS
 62
     7
 10
41.5
 20
40.0
 30
0.0
  0
VERTEX
  5
13F
  8
DATA
  6
CONTINUOUS
 62
     7
 10
-100.0
 20
40.0
 30
0.0
  0
VERTEX
  5
140
  8
DATA
  6
CONTINUOUS
 62
     7
 10
-100.0
 20
42.0
 30
0.0
  0
VERTEX
  5
141
  8
DATA
  6
CONTINUOUS
 62
     7
 10
39.5
 20
42.0
 30
0.0
  0
SEQEND
  5
142
  8
DATA
  6
CONTINUOUS
 62
     7
  0
POLYLINE
  5
7F
  8
DATA
  6
CONTINUOUS
 62
     7
 66
     1
 10
0.0
 20
0.0
 30
0.0
  0
VERTEX
  5
143
  8
DATA
  6
CONTINUOUS
 62
     7
 10
41.5
 20
44.0
 30
0.0
  0
VERTEX
  5
144
  8
DATA
  6
CONTINUOUS
 62
     7
 10
41.5
 20
90.0
 30
0.0
  0
VERTEX
  5
145
  8
DATA
  6
CONTINUOUS
 62
     7
 10
43.5
 20
90.0
 30
0.0
  0
VERTEX
  5
146
  8
DATA
  6
CONTINUOUS
 62
     7
 10
43.5
 20
42.0
 30
0.0
  0
SEQEND
  5
147
  8
DATA
  6
CONTINUOUS
 62
     7
  0
ARC
  5
86
  8
DATA
  6
CONTINUOUS
 62
     7
 10
41.5
 20
42.0
 30
0.0
 40
2.0
 50
270.0
 51
0.0
  0
ARC
  5
87
  8
DATA
  6
CONTINUOUS
 62
     7
 10
39.5
 20
44.0
 30
0.0
 40
2.0
 50
270.0
 51
0.0
  0
LINE
  5
88
  8
DATA
  6
CONTINUOUS
 62
     7
 10
-92.5
 20
1.504999999999995
 30
0.0
 11
-89.0
 21
1.504999999999995
 31
0.0
  0
LINE
  5
89
  8
DATA
  6
CONTINUOUS
 62
     7
 10
-89.0
 20
-5.4950000000000037
 30
0.0
 11
-92.5
 21
-5.4950000000000037
 31
0.0
  0
ARC
  5
8A
  8
DATA
  6
CONTINUOUS
 62
     7
 10
-92.5
 20
-1.9950000000000041
 30
0.0
 40
3.5
 50
90.0
 51
270.0
  0
ARC
  5
8B
  8
DATA
  6
CONTINUOUS
 62
     7
 10
-89.0
 20
-1.9950000000000041
 30
0.0
 40
3.5
 50
270.0
 51
90.0
  0
LINE
  5
8C
  8
DATA
  6
CONTINUOUS
 62
     7
 10
130.0
 20
-37.0
 30
0.0
 11
130.0
 21
1.0
 31
0.0
  0
LINE
  5
8D
  8
DATA
  6
CONTINUOUS
 62
     7
 10
80.0
 20
-40.0
 30
0.0
 11
127.0
 21
-40.0
 31
0.0
  0
LINE
  5
8E
  8
DATA
  6
CONTINUOUS
 62
     7
 10
80.0
 20
4.0
 30
0.0
 11
80.0
 21
-40.0
 31
0.0
  0
LINE
  5
8F
  8
DATA
  6
CONTINUOUS
 62
     7
 10
127.0
 20
4.0
 30
0.0
 11
80.0
 21
4.0
 31
0.0
  0
CIRCLE
  5
90
  8
DATA
  6
CONTINUOUS
 62
     7
 10
127.0
 20
-18.0
 30
0.0
 40
1.5
  0
CIRCLE
  5
91
  8
DATA
  6
CONTINUOUS
 62
     7
 10
95.0
 20
-18.0
 30
0.0
 40
1.5
  0
LINE
  5
92
  8
DATA
  6
STYLE_01
 62
     7
 10
82.0
 20
4.0
 30
0.0
 11
82.0
 21
-40.0
 31
0.0
  0
ARC
  5
93
  8
DATA
  6
CONTINUOUS
 62
     7
 10
127.0
 20
-37.0
 30
0.0
 40
3.0
 50
270.0
 51
0.0
  0
ARC
  5
94
  8
DATA
  6
CONTINUOUS
 62
     7
 10
-97.0
 20
-37.0
 30
0.0
 40
3.0
 50
180.0
 51
270.0
  0
ARC
  5
95
  8
DATA
  6
CONTINUOUS
 62
     7
 10
-97.0
 20
1.0
 30
0.0
 40
3.0
 50
90.0
 51
180.0
  0
ARC
  5
96
  8
DATA
  6
CONTINUOUS
 62
     7
 10
127.0
 20
1.0
 30
0.0
 40
3.0
 50
0.0
 51
90.0
  0
LINE
  5
97
  8
DATA
  6
CONTINUOUS
 62
     7
 10
-92.5
 20
-30.504999999999988
 30
0.0
 11
-89.0
 21
-30.504999999999988
 31
0.0
  0
LINE
  5
98
  8
DATA
  6
CONTINUOUS
 62
     7
 10
-89.0
 20
-37.50500000000001
 30
0.0
 11
-92.5
 21
-37.50500000000001
 31
0.0
  0
ARC
  5
99
  8
DATA
  6
CONTINUOUS
 62
     7
 10
-92.5
 20
-34.005000000000003
 30
0.0
 40
3.5
 50
90.0
 51
270.0
  0
ARC
  5
9A
  8
DATA
  6
CONTINUOUS
 62
     7
 10
-89.0
 20
-34.005000000000003
 30
0.0
 40
3.5
 50
270.0
 51
90.0
  0
TEXT
  5
9B
  8
DATA
 62
     7
 10
-37.449233506944452
 20
-103.2576822916666
 30
0.0
 40
6.5153645833333318
  1
\U+00D72個
 41
0.7
 72
     1
 11
-30.0
 21
-100.0
 31
0.0
 73
     2
  0
ENDSEC
  0
EOF
