  0
SECTION
  2
HEADER
  9
$ACADVER
  1
AC1009
  9
$INSBASE
 10
0.0
 20
0.0
 30
0.0
  9
$EXTMIN
 10
-170.0164782349211
 20
-265.74833863455001
 30
-0.0015258207003583
  9
$EXTMAX
 10
372.5708020415284
 20
537.09174839639525
 30
0.0000000349246037
  9
$LIMMIN
 10
0.0
 20
0.0
  9
$LIMMAX
 10
0.0
 20
0.0
  9
$ORTHOMODE
 70
     0
  9
$REGENMODE
 70
     1
  9
$FILLMODE
 70
     1
  9
$QTEXTMODE
 70
     0
  9
$MIRRTEXT
 70
     1
  9
$DRAGMODE
 70
     2
  9
$LTSCALE
 40
15.24
  9
$OSMODE
 70
   231
  9
$ATTMODE
 70
     1
  9
$TEXTSIZE
 40
0.0
  9
$TRACEWID
 40
1.0
  9
$TEXTSTYLE
  7
STANDARD
  9
$CLAYER
  8
DATA
  9
$CELTYPE
  6
BYLAYER
  9
$CECOLOR
 62
   256
  9
$DIMSCALE
 40
1.0
  9
$DIMASZ
 40
0.18
  9
$DIMEXO
 40
0.0625
  9
$DIMDLI
 40
0.38
  9
$DIMRND
 40
0.0
  9
$DIMDLE
 40
0.0
  9
$DIMEXE
 40
0.18
  9
$DIMTP
 40
0.0
  9
$DIMTM
 40
0.0
  9
$DIMTXT
 40
0.18
  9
$DIMCEN
 40
0.09
  9
$DIMTSZ
 40
0.0
  9
$DIMTOL
 70
     0
  9
$DIMLIM
 70
     0
  9
$DIMTIH
 70
     1
  9
$DIMTOH
 70
     1
  9
$DIMSE1
 70
     0
  9
$DIMSE2
 70
     0
  9
$DIMTAD
 70
     0
  9
$DIMZIN
 70
     0
  9
$DIMBLK
  1

  9
$DIMASO
 70
     1
  9
$DIMSHO
 70
     1
  9
$DIMPOST
  1

  9
$DIMAPOST
  1

  9
$DIMALT
 70
     0
  9
$DIMALTD
 70
     2
  9
$DIMALTF
 40
25.399999999999999
  9
$DIMLFAC
 40
1.0
  9
$DIMTOFL
 70
     0
  9
$DIMTVP
 40
0.0
  9
$DIMTIX
 70
     0
  9
$DIMSOXD
 70
     0
  9
$DIMSAH
 70
     0
  9
$DIMBLK1
  1

  9
$DIMBLK2
  1

  9
$DIMSTYLE
  2
STANDARD
  9
$DIMCLRD
 70
     0
  9
$DIMCLRE
 70
     0
  9
$DIMCLRT
 70
     0
  9
$DIMTFAC
 40
1.0
  9
$DIMGAP
 40
0.09
  9
$LUNITS
 70
     2
  9
$LUPREC
 70
     4
  9
$SKETCHINC
 40
0.1
  9
$FILLETRAD
 40
0.0
  9
$AUNITS
 70
     0
  9
$AUPREC
 70
     0
  9
$MENU
  1
acad
  9
$ELEVATION
 40
0.0
  9
$PELEVATION
 40
0.0
  9
$THICKNESS
 40
0.0
  9
$LIMCHECK
 70
     0
  9
$BLIPMODE
 70
     0
  9
$CHAMFERA
 40
0.0
  9
$CHAMFERB
 40
0.0
  9
$SKPOLY
 70
     0
  9
$TDCREATE
 40
2455615.6591550931
  9
$TDUPDATE
 40
2455615.662475741
  9
$TDINDWG
 40
0.0002584954
  9
$TDUSRTIMER
 40
0.0002584954
  9
$USRTIMER
 70
     1
  9
$ANGBASE
 50
0.0
  9
$ANGDIR
 70
     0
  9
$PDMODE
 70
     1
  9
$PDSIZE
 40
-2.0
  9
$PLINEWID
 40
0.0
  9
$COORDS
 70
     1
  9
$SPLFRAME
 70
     0
  9
$SPLINETYPE
 70
     6
  9
$SPLINESEGS
 70
     8
  9
$ATTDIA
 70
     0
  9
$ATTREQ
 70
     1
  9
$HANDLING
 70
     1
  9
$HANDSEED
  5
4B6
  9
$SURFTAB1
 70
     6
  9
$SURFTAB2
 70
     6
  9
$SURFTYPE
 70
     6
  9
$SURFU
 70
     6
  9
$SURFV
 70
     6
  9
$UCSNAME
  2

  9
$UCSORG
 10
0.0
 20
0.0
 30
0.0
  9
$UCSXDIR
 10
1.0
 20
0.0
 30
0.0
  9
$UCSYDIR
 10
0.0
 20
1.0
 30
0.0
  9
$PUCSNAME
  2

  9
$PUCSORG
 10
0.0
 20
0.0
 30
0.0
  9
$PUCSXDIR
 10
1.0
 20
0.0
 30
0.0
  9
$PUCSYDIR
 10
0.0
 20
1.0
 30
0.0
  9
$USERI1
 70
     0
  9
$USERI2
 70
     0
  9
$USERI3
 70
     0
  9
$USERI4
 70
     0
  9
$USERI5
 70
     0
  9
$USERR1
 40
0.0
  9
$USERR2
 40
0.0
  9
$USERR3
 40
0.0
  9
$USERR4
 40
0.0
  9
$USERR5
 40
0.0
  9
$WORLDVIEW
 70
     1
  9
$SHADEDGE
 70
     3
  9
$SHADEDIF
 70
    70
  9
$TILEMODE
 70
     1
  9
$MAXACTVP
 70
    64
  9
$PLIMCHECK
 70
     0
  9
$PEXTMIN
 10
1.0000000000000000E+020
 20
1.0000000000000000E+020
 30
1.0000000000000000E+020
  9
$PEXTMAX
 10
-1.0000000000000000E+020
 20
-1.0000000000000000E+020
 30
-1.0000000000000000E+020
  9
$PLIMMIN
 10
0.0
 20
0.0
  9
$PLIMMAX
 10
12.0
 20
9.0
  9
$UNITMODE
 70
     0
  9
$VISRETAIN
 70
     0
  9
$PLINEGEN
 70
     1
  9
$PSLTSCALE
 70
     0
  0
ENDSEC
  0
SECTION
  2
TABLES
  0
TABLE
  2
VPORT
 70
     1
  0
VPORT
  2
*ACTIVE
 70
     0
 10
0.0
 20
0.0
 11
1.0
 21
1.0
 12
101.27716190330359
 22
135.6717048809227
 13
0.0
 23
0.0
 14
1.0
 24
1.0
 15
0.0
 25
0.0
 16
0.0
 26
0.0
 36
1.0
 17
0.0
 27
0.0
 37
0.0
 40
808.75056619927125
 41
1.9619164619164611
 42
50.0
 43
0.0
 44
0.0
 50
0.0
 51
0.0
 71
     0
 72
  2000
 73
     1
 74
     1
 75
     0
 76
     0
 77
     0
 78
     0
  0
ENDTAB
  0
TABLE
  2
LTYPE
 70
    11
  0
LTYPE
  2
CONTINUOUS
 70
     0
  3
Solid line
 72
    65
 73
     0
 40
0.0
  0
ENDTAB
  0
TABLE
  2
LAYER
 70
     6
  0
LAYER
  2
0
 70
     0
 62
     7
  6
CONTINUOUS
  0
LAYER
  2
DATA
 70
     0
 62
     7
  6
CONTINUOUS
  0
LAYER
  2
HIBINO-BASE
 70
     0
 62
     7
  6
CONTINUOUS
  0
LAYER
  2
SPEC
 70
     0
 62
     7
  6
CONTINUOUS
  0
LAYER
  2
DIMNSIONS
 70
     0
 62
     7
  6
CONTINUOUS
  0
ENDTAB
  0
TABLE
  2
STYLE
 70
     3
  0
STYLE
  2
STANDARD
 70
     0
 40
0.0
 41
1.0
 50
0.0
 71
     0
 42
0.0
  3
txt
  4
BIGFONT.SHX
  0
ENDTAB
  0
TABLE
  2
VIEW
 70
     0
  0
ENDTAB
  0
TABLE
  2
UCS
 70
     0
  0
ENDTAB
  0
TABLE
  2
APPID
 70
     3
  0
APPID
  2
ACAD
 70
     0
  0
APPID
  2
ACADANNOTATIVE
 70
     0
  0
APPID
  2
ACAD_MLEADERVER
 70
     0
  0
ENDTAB
  0
TABLE
  2
DIMSTYLE
 70
     2
  0
DIMSTYLE
  2
STANDARD
 70
     0
  3

  4

  5

  6

  7

 40
1.0
 41
0.18
 42
0.0625
 43
0.38
 44
0.18
 45
0.0
 46
0.0
 47
0.0
 48
0.0
140
0.18
141
0.09
142
0.0
143
25.399999999999999
144
1.0
145
0.0
146
1.0
147
0.09
 71
     0
 72
     0
 73
     1
 74
     1
 75
     0
 76
     0
 77
     0
 78
     0
170
     0
171
     2
172
     0
173
     0
174
     0
175
     0
176
     0
177
     0
178
     0
  0
ENDTAB
  0
ENDSEC
  0
SECTION
  2
BLOCKS
  0
BLOCK
  8
0
  2
$MODEL_SPACE
 70
     0
 10
0.0
 20
0.0
 30
0.0
  3
$MODEL_SPACE
  1

  0
ENDBLK
  5
2E2
  8
0
  0
BLOCK
 67
     1
  8
0
  2
$PAPER_SPACE
 70
     0
 10
0.0
 20
0.0
 30
0.0
  3
$PAPER_SPACE
  1

  0
ENDBLK
  5
2DE
 67
     1
  8
0
  0
ENDSEC
  0
SECTION
  2
ENTITIES
  0
LINE
  5
2D
  8
HIBINO-BASE
  6
CONTINUOUS
 62
     7
 10
-169.99999999999989
 20
537.06729578973182
 30
0.0
 11
370.0
 21
537.06729578973182
 31
0.0
  0
LINE
  5
2E
  8
HIBINO-BASE
  6
CONTINUOUS
 62
     7
 10
370.0
 20
-242.93270421026821
 30
0.0
 11
-169.99999999999989
 21
-242.93270421026821
 31
0.0
  0
LINE
  5
2F
  8
HIBINO-BASE
  6
CONTINUOUS
 62
     7
 10
-169.99999999999989
 20
-242.93270421026821
 30
0.0
 11
-169.99999999999989
 21
537.06729578973182
 31
0.0
  0
LINE
  5
30
  8
HIBINO-BASE
  6
CONTINUOUS
 62
     7
 10
370.0
 20
537.06729578973182
 30
0.0
 11
370.0
 21
-242.93270421026821
 31
0.0
  0
LINE
  5
31
  8
HIBINO-BASE
  6
CONTINUOUS
 62
     7
 10
100.0
 20
-175.4327042102681
 30
0.0
 11
370.0
 21
-175.4327042102681
 31
0.0
  0
LINE
  5
32
  8
HIBINO-BASE
  6
CONTINUOUS
 62
     7
 10
100.0
 20
-242.93270421026821
 30
0.0
 11
100.0
 21
-175.4327042102681
 31
0.0
  0
TEXT
  5
33
  8
HIBINO-BASE
 62
     7
 10
102.7
 20
-182.95878421026811
 30
0.0
 40
4.8865234374999993
  1
NOTE
 41
0.7
 11
102.7
 21
-178.0722607727682
 31
0.0
 73
     3
1001
ACADANNOTATIVE
1000
AnnotativeData
1002
{
1070
     1
1070
     0
1002
}
  0
LINE
  5
34
  8
HIBINO-BASE
  6
CONTINUOUS
 62
     7
 10
205.0
 20
-242.93270421026821
 30
0.0
 11
205.0
 21
-175.4327042102681
 31
0.0
  0
TEXT
  5
35
  8
HIBINO-BASE
 62
     7
 10
207.69999999999999
 20
-182.95878421026811
 30
0.0
 40
4.8865234374999993
  1
TITLE
 41
0.7
 11
207.69999999999999
 21
-178.0722607727682
 31
0.0
 73
     3
1001
ACADANNOTATIVE
1000
AnnotativeData
1002
{
1070
     1
1070
     0
1002
}
  0
LINE
  5
36
  8
HIBINO-BASE
  6
CONTINUOUS
 62
     7
 10
100.0
 20
-212.9327042102681
 30
0.0
 11
370.0
 21
-212.9327042102681
 31
0.0
  0
TEXT
  5
37
  8
HIBINO-BASE
 62
     7
 10
245.19999999999999
 20
-220.28982421026819
 30
0.0
 40
4.8865234374999993
  1
DRAWN
 41
0.7
 11
245.19999999999999
 21
-215.4033007727682
 31
0.0
 73
     3
1001
ACADANNOTATIVE
1000
AnnotativeData
1002
{
1070
     1
1070
     0
1002
}
  0
TEXT
  5
38
  8
HIBINO-BASE
 62
     7
 10
170.19999999999999
 20
-220.28982421026819
 30
0.0
 40
4.8865234374999993
  1
DATE
 41
0.7
 11
170.19999999999999
 21
-215.4033007727682
 31
0.0
 73
     3
1001
ACADANNOTATIVE
1000
AnnotativeData
1002
{
1070
     1
1070
     0
1002
}
  0
TEXT
  5
39
  8
HIBINO-BASE
 62
     7
 10
140.19999999999999
 20
-220.28982421026819
 30
0.0
 40
4.8865234374999993
  1
SCALE
 41
0.7
 11
140.19999999999999
 21
-215.4033007727682
 31
0.0
 73
     3
1001
ACADANNOTATIVE
1000
AnnotativeData
1002
{
1070
     1
1070
     0
1002
}
  0
TEXT
  5
3A
  8
HIBINO-BASE
 62
     7
 10
207.69999999999999
 20
-220.28982421026819
 30
0.0
 40
4.8865234374999993
  1
DESIGN
 41
0.7
 11
207.69999999999999
 21
-215.4033007727682
 31
0.0
 73
     3
1001
ACADANNOTATIVE
1000
AnnotativeData
1002
{
1070
     1
1070
     0
1002
}
  0
TEXT
  5
3B
  8
HIBINO-BASE
 62
     7
 10
320.19999999999999
 20
-220.28982421026819
 30
0.0
 40
4.8865234374999993
  1
DRAWING NO.
 41
0.7
 11
320.19999999999999
 21
-215.4033007727682
 31
0.0
 73
     3
1001
ACADANNOTATIVE
1000
AnnotativeData
1002
{
1070
     1
1070
     0
1002
}
  0
TEXT
  5
3C
  8
HIBINO-BASE
 62
     7
 10
282.69999999999999
 20
-220.28982421026819
 30
0.0
 40
4.8865234374999993
  1
CHECK
 41
0.7
 11
282.69999999999999
 21
-215.4033007727682
 31
0.0
 73
     3
1001
ACADANNOTATIVE
1000
AnnotativeData
1002
{
1070
     1
1070
     0
1002
}
  0
LINE
  5
3D
  8
HIBINO-BASE
  6
CONTINUOUS
 62
     7
 10
143.12499999999989
 20
-239.18270421026821
 30
0.0
 11
154.375
 21
-227.9327042102681
 31
0.0
  0
TEXT
  5
3E
  8
HIBINO-BASE
 62
     7
 10
141.24999999999989
 20
-231.25953421026821
 30
0.0
 40
4.8865234374999993
  1
1
 41
0.7
 11
141.24999999999989
 21
-226.3730107727682
 31
0.0
 73
     3
1001
ACADANNOTATIVE
1000
AnnotativeData
1002
{
1070
     1
1070
     0
1002
}
  0
LINE
  5
3F
  8
HIBINO-BASE
  6
CONTINUOUS
 62
     7
 10
137.5
 20
-242.93270421026821
 30
0.0
 11
137.5
 21
-212.9327042102681
 31
0.0
  0
LINE
  5
40
  8
HIBINO-BASE
  6
CONTINUOUS
 62
     7
 10
167.5
 20
-242.93270421026821
 30
0.0
 11
167.5
 21
-212.9327042102681
 31
0.0
  0
LINE
  5
41
  8
HIBINO-BASE
  6
CONTINUOUS
 62
     7
 10
242.5
 20
-212.9327042102681
 30
0.0
 11
242.5
 21
-242.93270421026821
 31
0.0
  0
LINE
  5
42
  8
HIBINO-BASE
  6
CONTINUOUS
 62
     7
 10
317.5
 20
-212.9327042102681
 30
0.0
 11
317.5
 21
-242.93270421026821
 31
0.0
  0
LINE
  5
43
  8
HIBINO-BASE
  6
CONTINUOUS
 62
     7
 10
279.99999999999989
 20
-242.93270421026821
 30
0.0
 11
279.99999999999989
 21
-212.9327042102681
 31
0.0
  0
TEXT
  5
44
  8
HIBINO-BASE
 62
     7
 10
170.06961999999999
 20
-234.3417642102682
 30
0.0
 40
4.8865234374999993
  1
'11.02.
 41
0.7
 11
170.06961999999999
 21
-229.45524077276821
 31
0.0
 73
     3
1001
ACADANNOTATIVE
1000
AnnotativeData
1002
{
1070
     1
1070
     0
1002
}
  0
TEXT
  5
45
  8
HIBINO-BASE
 62
     7
 10
152.5
 20
-236.88453421026821
 30
0.0
 40
4.8865234374999993
  1
3
 41
0.7
 11
152.5
 21
-231.9980107727682
 31
0.0
 73
     3
1001
ACADANNOTATIVE
1000
AnnotativeData
1002
{
1070
     1
1070
     0
1002
}
  0
TEXT
  5
46
  8
HIBINO-BASE
 62
     7
 10
247.01743003310389
 20
-234.3417642102682
 30
0.0
 40
4.8865234374999993
  1
T.Ootake
 41
0.7
 11
247.01743003310389
 21
-229.45524077276821
 31
0.0
 73
     3
1001
ACADANNOTATIVE
1000
AnnotativeData
1002
{
1070
     1
1070
     0
1002
}
  0
TEXT
  5
47
  8
HIBINO-BASE
 62
     7
 10
111.65000000000001
 20
-237.0047042102681
 30
0.0
 40
9.7730468749999986
  1
A4
 41
0.7
 11
111.65000000000001
 21
-227.2316573352681
 31
0.0
 73
     3
1001
ACADANNOTATIVE
1000
AnnotativeData
1002
{
1070
     1
1070
     0
1002
}
  0
TEXT
  5
48
  8
HIBINO-BASE
 62
     7
 10
102.875
 20
-220.79106921026809
 30
0.0
 40
4.8865234374999993
  1
PAPER SIZE
 41
0.7
 11
102.875
 21
-215.9045457727681
 31
0.0
 73
     3
1001
ACADANNOTATIVE
1000
AnnotativeData
1002
{
1070
     1
1070
     0
1002
}
  0
TEXT
  5
49
  8
HIBINO-BASE
 62
     7
 10
-161.7210942293294
 20
-262.20842491279689
 30
0.0
 40
10.58746744791666
  1
Hibino-Intersound Corporation
 41
0.7
 11
-161.7210942293294
 21
-251.62095746488029
 31
0.0
 73
     3
1001
ACADANNOTATIVE
1000
AnnotativeData
1002
{
1070
     1
1070
     0
1002
}
  0
TEXT
  5
4A
  8
HIBINO-BASE
 62
     7
 10
160.54182904064169
 20
-261.15516015292872
 30
0.0
 40
10.58746744791666
  1
ヒビノインターサウンド株式会社
 41
0.7
 11
160.54182904064169
 21
-250.56769270501201
 31
0.0
 73
     3
1001
ACADANNOTATIVE
1000
AnnotativeData
1002
{
1070
     1
1070
     0
1002
}
  0
LINE
  5
4B
  8
SPEC
  6
CONTINUOUS
 62
     7
 10
-147.49999999999989
 20
507.0672957897317
 30
0.0
 11
295.0
 21
507.0672957897317
 31
0.0
  0
LINE
  5
4C
  8
SPEC
  6
CONTINUOUS
 62
     7
 10
-147.49999999999989
 20
495.8172957897317
 30
0.0
 11
295.0
 21
495.8172957897317
 31
0.0
  0
LINE
  5
4D
  8
SPEC
  6
CONTINUOUS
 62
     7
 10
-147.49999999999989
 20
473.3172957897317
 30
0.0
 11
295.0
 21
473.3172957897317
 31
0.0
  0
LINE
  5
4E
  8
SPEC
  6
CONTINUOUS
 62
     7
 10
-147.49999999999989
 20
484.5672957897317
 30
0.0
 11
295.0
 21
484.5672957897317
 31
0.0
  0
LINE
  5
4F
  8
SPEC
  6
CONTINUOUS
 62
     7
 10
-147.49999999999989
 20
507.0672957897317
 30
0.0
 11
-147.49999999999989
 21
372.0672957897317
 31
0.0
  0
TEXT
  5
50
  8
SPEC
 62
     7
 10
-143.74999999999989
 20
511.24710578973179
 30
0.0
 40
7.3297851562499989
  1
仕様
 41
0.7
 11
-143.74999999999989
 21
518.57689094598175
 31
0.0
 73
     3
1001
ACADANNOTATIVE
1000
AnnotativeData
1002
{
1070
     1
1070
     0
1002
}
  0
LINE
  5
51
  8
SPEC
  6
CONTINUOUS
 62
     7
 10
-50.0
 20
507.0672957897317
 30
0.0
 11
-50.000000000000021
 21
372.0672957897317
 31
0.0
  0
LINE
  5
52
  8
SPEC
  6
CONTINUOUS
 62
     7
 10
295.0
 20
507.0672957897317
 30
0.0
 11
295.0
 21
372.0672957897317
 31
0.0
  0
LINE
  5
53
  8
SPEC
  6
CONTINUOUS
 62
     7
 10
-147.49999999999989
 20
462.0672957897317
 30
0.0
 11
295.0
 21
462.0672957897317
 31
0.0
  0
LINE
  5
54
  8
SPEC
  6
CONTINUOUS
 62
     7
 10
-147.49999999999989
 20
450.8172957897317
 30
0.0
 11
295.0
 21
450.8172957897317
 31
0.0
  0
LINE
  5
55
  8
SPEC
  6
CONTINUOUS
 62
     7
 10
-147.49999999999989
 20
439.5672957897317
 30
0.0
 11
295.0
 21
439.5672957897317
 31
0.0
  0
LINE
  5
56
  8
SPEC
  6
CONTINUOUS
 62
     7
 10
-147.49999999999989
 20
428.3172957897317
 30
0.0
 11
295.0
 21
428.3172957897317
 31
0.0
  0
LINE
  5
57
  8
SPEC
  6
CONTINUOUS
 62
     7
 10
-147.49999999999989
 20
417.0672957897317
 30
0.0
 11
295.0
 21
417.0672957897317
 31
0.0
  0
LINE
  5
58
  8
SPEC
  6
CONTINUOUS
 62
     7
 10
-147.49999999999989
 20
405.8172957897317
 30
0.0
 11
295.0
 21
405.8172957897317
 31
0.0
  0
LINE
  5
59
  8
SPEC
  6
CONTINUOUS
 62
     7
 10
-147.49999999999989
 20
394.5672957897317
 30
0.0
 11
295.0
 21
394.5672957897317
 31
0.0
  0
LINE
  5
5A
  8
SPEC
  6
CONTINUOUS
 62
     7
 10
-147.49999999999989
 20
383.31729578973182
 30
0.0
 11
295.0
 21
383.31729578973182
 31
0.0
  0
LINE
  5
5B
  8
SPEC
  6
CONTINUOUS
 62
     7
 10
-147.49999999999989
 20
372.0672957897317
 30
0.0
 11
295.0
 21
372.0672957897317
 31
0.0
  0
TEXT
  5
5C
  8
SPEC
 62
     7
 10
-145.11105820327441
 20
386.23511194497252
 30
0.0
 40
5.7009440104166673
  1
寸法
 41
0.7
 11
-145.11105820327441
 21
391.93605595538912
 31
0.0
 73
     3
1001
ACADANNOTATIVE
1000
AnnotativeData
1002
{
1070
     1
1070
     0
1002
}
  0
TEXT
  5
5D
  8
SPEC
 62
     7
 10
-47.282287197434123
 20
385.90923314365119
 30
0.0
 40
5.7009440104166673
  1
85(W)\U+00D727(H)\U+00D7111(D)mm(突起部含まず）、（センダー、レシーバー共に)
 41
0.7
 11
-47.282287197434123
 21
391.61017715406791
 31
0.0
 73
     3
1001
ACADANNOTATIVE
1000
AnnotativeData
1002
{
1070
     1
1070
     0
1002
}
  0
TEXT
  5
5E
  8
SPEC
 62
     7
 10
-47.56601127464652
 20
375.75395367492439
 30
0.0
 40
5.7009440104166673
  1
センダー：約160g、レシーバー：約170g
 41
0.7
 11
-47.56601127464652
 21
381.454897685341
 31
0.0
 73
     3
1001
ACADANNOTATIVE
1000
AnnotativeData
1002
{
1070
     1
1070
     0
1002
}
  0
TEXT
  5
5F
  8
SPEC
 62
     7
 10
-144.9448906564381
 20
375.13142795289627
 30
0.0
 40
5.7009440104166673
  1
重量
 41
0.7
 11
-144.9448906564381
 21
380.83237196331299
 31
0.0
 73
     3
1001
ACADANNOTATIVE
1000
AnnotativeData
1002
{
1070
     1
1070
     0
1002
}
  0
TEXT
  5
60
  8
SPEC
 62
     7
 10
-144.93438386724449
 20
408.79745744729212
 30
0.0
 40
5.7009440104166673
  1
消費電力
 41
0.7
 11
-144.93438386724449
 21
414.49840145770878
 31
0.0
 73
     3
1001
ACADANNOTATIVE
1000
AnnotativeData
1002
{
1070
     1
1070
     0
1002
}
  0
TEXT
  5
61
  8
SPEC
 62
     7
 10
-47.653054676440703
 20
408.65119400488732
 30
0.0
 40
5.7009440104166673
  1
10W(最大)
 41
0.7
 11
-47.653054676440703
 21
414.35213801530392
 31
0.0
 73
     3
1001
ACADANNOTATIVE
1000
AnnotativeData
1002
{
1070
     1
1070
     0
1002
}
  0
TEXT
  5
62
  8
SPEC
 62
     7
 10
-145.0004423904094
 20
419.96952176158379
 30
0.0
 40
5.7009440104166673
  1
電源
 41
0.7
 11
-145.0004423904094
 21
425.67046577200051
 31
0.0
 73
     3
1001
ACADANNOTATIVE
1000
AnnotativeData
1002
{
1070
     1
1070
     0
1002
}
  0
TEXT
  5
63
  8
SPEC
 62
     7
 10
-47.282661521641991
 20
419.70971401363221
 30
0.0
 40
5.7009440104166673
  1
5V DC
 41
0.7
 11
-47.282661521641991
 21
425.41065802404881
 31
0.0
 73
     3
1001
ACADANNOTATIVE
1000
AnnotativeData
1002
{
1070
     1
1070
     0
1002
}
  0
TEXT
  5
64
  8
SPEC
 62
     7
 10
-145.084607793619
 20
431.57557852537889
 30
0.0
 40
5.7009440104166673
  1
電源LEDインジケータ ー
 41
0.7
 11
-145.084607793619
 21
437.27652253579561
 31
0.0
 73
     3
1001
ACADANNOTATIVE
1000
AnnotativeData
1002
{
1070
     1
1070
     0
1002
}
  0
TEXT
  5
65
  8
SPEC
 62
     7
 10
-48.707321973267661
 20
431.37487581071991
 30
0.0
 40
5.7009440104166673
  1
(1)Red
 41
0.7
 11
-48.707321973267661
 21
437.07581982113658
 31
0.0
 73
     3
1001
ACADANNOTATIVE
1000
AnnotativeData
1002
{
1070
     1
1070
     0
1002
}
  0
TEXT
  5
66
  8
SPEC
 62
     7
 10
-146.2878473177181
 20
442.46612172245091
 30
0.0
 40
5.7009440104166673
  1
リンクコネクター
 41
0.7
 11
-146.2878473177181
 21
448.16706573286768
 31
0.0
 73
     3
1001
ACADANNOTATIVE
1000
AnnotativeData
1002
{
1070
     1
1070
     0
1002
}
  0
TEXT
  5
67
  8
SPEC
 62
     7
 10
-47.244527500430998
 20
442.32977935480892
 30
0.0
 40
5.7009440104166673
  1
RJ-45シールド付き
 41
0.7
 11
-47.244527500430998
 21
448.03072336522553
 31
0.0
 73
     3
1001
ACADANNOTATIVE
1000
AnnotativeData
1002
{
1070
     1
1070
     0
1002
}
  0
TEXT
  5
68
  8
SPEC
 62
     7
 10
-144.82839051479019
 20
453.64394562111619
 30
0.0
 40
5.7009440104166673
  1
HDMI入力端子
 41
0.7
 11
-144.82839051479019
 21
459.34488963153291
 31
0.0
 73
     3
1001
ACADANNOTATIVE
1000
AnnotativeData
1002
{
1070
     1
1070
     0
1002
}
  0
TEXT
  5
69
  8
SPEC
 62
     7
 10
-47.343907882919467
 20
453.66647193057941
 30
0.0
 40
5.7009440104166673
  1
Type A 19-pin(F)
 41
0.7
 11
-47.343907882919467
 21
459.36741594099601
 31
0.0
 73
     3
1001
ACADANNOTATIVE
1000
AnnotativeData
1002
{
1070
     1
1070
     0
1002
}
  0
TEXT
  5
6A
  8
SPEC
 62
     7
 10
-145.00042424575031
 20
464.9655522409526
 30
0.0
 40
5.7009440104166673
  1
入力ビデオ信号
 41
0.7
 11
-145.00042424575031
 21
470.66649625136921
 31
0.0
 73
     3
1001
ACADANNOTATIVE
1000
AnnotativeData
1002
{
1070
     1
1070
     0
1002
}
  0
TEXT
  5
6B
  8
SPEC
 62
     7
 10
-47.643631741129973
 20
464.84626831941159
 30
0.0
 40
5.7009440104166673
  1
1.2Vp-p 
 41
0.7
 11
-47.643631741129973
 21
470.54721232982831
 31
0.0
 73
     3
1001
ACADANNOTATIVE
1000
AnnotativeData
1002
{
1070
     1
1070
     0
1002
}
  0
TEXT
  5
6C
  8
SPEC
 62
     7
 10
-145.0005668980688
 20
476.1430905530371
 30
0.0
 40
5.7009440104166673
  1
入力DDC信号
 41
0.7
 11
-145.0005668980688
 21
481.84403456345382
 31
0.0
 73
     3
1001
ACADANNOTATIVE
1000
AnnotativeData
1002
{
1070
     1
1070
     0
1002
}
  0
TEXT
  5
6D
  8
SPEC
 62
     7
 10
-47.303194931415931
 20
476.02575897907582
 30
0.0
 40
5.7009440104166673
  1
5Vp-p(TTL)
 41
0.7
 11
-47.303194931415931
 21
481.72670298949242
 31
0.0
 73
     3
1001
ACADANNOTATIVE
1000
AnnotativeData
1002
{
1070
     1
1070
     0
1002
}
  0
TEXT
  5
6E
  8
SPEC
 62
     7
 10
-146.03885988069041
 20
487.68094073612872
 30
0.0
 40
5.7009440104166673
  1
ビデオ最大対応解像度
 41
0.7
 11
-146.03885988069041
 21
493.38188474654538
 31
0.0
 73
     3
1001
ACADANNOTATIVE
1000
AnnotativeData
1002
{
1070
     1
1070
     0
1002
}
  0
TEXT
  5
6F
  8
SPEC
 62
     7
 10
-47.575826148271638
 20
487.48612325816811
 30
0.0
 40
5.7009440104166673
  1
1080p、supports 3D HDMI signals
 41
0.7
 11
-47.575826148271638
 21
493.18706726858471
 31
0.0
 73
     3
1001
ACADANNOTATIVE
1000
AnnotativeData
1002
{
1070
     1
1070
     0
1002
}
  0
TEXT
  5
70
  8
SPEC
 62
     7
 10
-146.14251219167059
 20
498.38674219505742
 30
0.0
 40
5.7009440104166673
  1
ビデオアンプ帯域
 41
0.7
 11
-146.14251219167059
 21
504.08768620547397
 31
0.0
 73
     3
1001
ACADANNOTATIVE
1000
AnnotativeData
1002
{
1070
     1
1070
     0
1002
}
  0
TEXT
  5
71
  8
SPEC
 62
     7
 10
-47.218949647970419
 20
498.1037806333938
 30
0.0
 40
5.7009440104166673
  1
225MHz
 41
0.7
 11
-47.218949647970419
 21
503.80472464381057
 31
0.0
 73
     3
1001
ACADANNOTATIVE
1000
AnnotativeData
1002
{
1070
     1
1070
     0
1002
}
  0
TEXT
  5
72
  8
SPEC
 62
     7
 10
-144.96771607402891
 20
397.40704801899068
 30
0.0
 40
5.7009440104166673
  1
動作温度
 41
0.7
 11
-144.96771607402891
 21
403.10799202940728
 31
0.0
 73
     3
1001
ACADANNOTATIVE
1000
AnnotativeData
1002
{
1070
     1
1070
     0
1002
}
  0
TEXT
  5
73
  8
SPEC
 62
     7
 10
-47.212188236578058
 20
397.44951269401952
 30
0.0
 40
5.7009440104166673
  1
0～40℃
 41
0.7
 11
-47.212188236578058
 21
403.15045670443612
 31
0.0
 73
     3
1001
ACADANNOTATIVE
1000
AnnotativeData
1002
{
1070
     1
1070
     0
1002
}
  0
TEXT
  5
74
  8
DIMNSIONS
 62
     7
 10
40.0
 20
-206.12423421026821
 30
0.0
 40
7.3297851562499989
  1
(単位：mm)
 41
0.7
 11
40.0
 21
-198.79444905401809
 31
0.0
 73
     3
1001
ACADANNOTATIVE
1000
AnnotativeData
1002
{
1070
     1
1070
     0
1002
}
  0
LINE
  5
75
  8
DIMNSIONS
  6
CONTINUOUS
 62
     7
 10
19.0
 20
141.75
 30
0.0
 11
0.25
 21
141.75
 31
0.0
  0
LINE
  5
76
  8
DIMNSIONS
  6
CONTINUOUS
 62
     7
 10
19.0
 20
231.75
 30
0.0
 11
0.25
 21
231.75
 31
0.0
  0
LINE
  5
77
  8
DIMNSIONS
  6
CONTINUOUS
 62
     7
 10
6.25
 20
141.75
 30
0.0
 11
6.25
 21
231.75
 31
0.0
  0
LINE
  5
78
  8
DIMNSIONS
  6
CONTINUOUS
 62
     7
 10
6.25
 20
141.75
 30
0.0
 11
4.2398806145492642
 21
149.2518676757812
 31
0.0
  0
LINE
  5
79
  8
DIMNSIONS
  6
CONTINUOUS
 62
     7
 10
6.25
 20
141.75
 30
0.0
 11
8.2601193854507216
 21
149.2518676757812
 31
0.0
  0
LINE
  5
7A
  8
DIMNSIONS
  6
CONTINUOUS
 62
     7
 10
6.25
 20
231.75
 30
0.0
 11
8.2601193854507216
 21
224.24813232421869
 31
0.0
  0
LINE
  5
7B
  8
DIMNSIONS
  6
CONTINUOUS
 62
     7
 10
6.25
 20
231.75
 30
0.0
 11
4.2398806145492642
 21
224.24813232421869
 31
0.0
  0
TEXT
  5
7C
  8
DIMNSIONS
 62
     7
 10
3.2683333333333251
 20
181.45833333333329
 30
0.0
 40
8.1442057291666661
  1
90
 50
90.0
 41
0.7
 11
-4.8758723958333396
 21
181.45833333333329
 31
0.0
 73
     3
1001
ACADANNOTATIVE
1000
AnnotativeData
1002
{
1070
     1
1070
     0
1002
}
  0
LINE
  5
7D
  8
DIMNSIONS
  6
CONTINUOUS
 62
     7
 10
39.499999999999993
 20
136.75
 30
0.0
 11
-18.5
 21
136.75
 31
0.0
  0
LINE
  5
7E
  8
DIMNSIONS
  6
CONTINUOUS
 62
     7
 10
39.499999999999993
 20
236.75
 30
0.0
 11
-18.5
 21
236.75
 31
0.0
  0
LINE
  5
7F
  8
DIMNSIONS
  6
CONTINUOUS
 62
     7
 10
-12.5
 20
136.75
 30
0.0
 11
-12.5
 21
236.75
 31
0.0
  0
LINE
  5
80
  8
DIMNSIONS
  6
CONTINUOUS
 62
     7
 10
-12.5
 20
136.75
 30
0.0
 11
-14.51011938545073
 21
144.2518676757812
 31
0.0
  0
LINE
  5
81
  8
DIMNSIONS
  6
CONTINUOUS
 62
     7
 10
-12.5
 20
136.75
 30
0.0
 11
-10.48988061454927
 21
144.2518676757812
 31
0.0
  0
LINE
  5
82
  8
DIMNSIONS
  6
CONTINUOUS
 62
     7
 10
-12.5
 20
236.75
 30
0.0
 11
-10.48988061454927
 21
229.2481323242188
 31
0.0
  0
LINE
  5
83
  8
DIMNSIONS
  6
CONTINUOUS
 62
     7
 10
-12.5
 20
236.75
 30
0.0
 11
-14.51011938545073
 21
229.2481323242188
 31
0.0
  0
TEXT
  5
84
  8
DIMNSIONS
 62
     7
 10
-15.481666666666669
 20
178.8125
 30
0.0
 40
8.1442057291666661
  1
100
 50
90.0
 41
0.7
 11
-23.625872395833341
 21
178.8125
 31
0.0
 73
     3
1001
ACADANNOTATIVE
1000
AnnotativeData
1002
{
1070
     1
1070
     0
1002
}
  0
LINE
  5
85
  8
DIMNSIONS
  6
CONTINUOUS
 62
     7
 10
19.0
 20
131.25
 30
0.0
 11
-37.250000000000007
 21
131.25
 31
0.0
  0
LINE
  5
86
  8
DIMNSIONS
  6
CONTINUOUS
 62
     7
 10
19.0
 20
242.25
 30
0.0
 11
-37.250000000000007
 21
242.25
 31
0.0
  0
LINE
  5
87
  8
DIMNSIONS
  6
CONTINUOUS
 62
     7
 10
-31.250000000000011
 20
131.25
 30
0.0
 11
-31.250000000000011
 21
242.25
 31
0.0
  0
LINE
  5
88
  8
DIMNSIONS
  6
CONTINUOUS
 62
     7
 10
-31.250000000000011
 20
131.25
 30
0.0
 11
-33.26011938545075
 21
138.7518676757812
 31
0.0
  0
LINE
  5
89
  8
DIMNSIONS
  6
CONTINUOUS
 62
     7
 10
-31.250000000000011
 20
131.25
 30
0.0
 11
-29.239880614549278
 21
138.7518676757812
 31
0.0
  0
LINE
  5
8A
  8
DIMNSIONS
  6
CONTINUOUS
 62
     7
 10
-31.250000000000011
 20
242.25
 30
0.0
 11
-29.239880614549278
 21
234.74813232421869
 31
0.0
  0
LINE
  5
8B
  8
DIMNSIONS
  6
CONTINUOUS
 62
     7
 10
-31.250000000000011
 20
242.25
 30
0.0
 11
-33.26011938545075
 21
234.74813232421869
 31
0.0
  0
TEXT
  5
8C
  8
DIMNSIONS
 62
     7
 10
-34.231666666666669
 20
178.8125
 30
0.0
 40
8.1442057291666661
  1
111
 50
90.0
 41
0.7
 11
-42.375872395833333
 21
178.8125
 31
0.0
 73
     3
1001
ACADANNOTATIVE
1000
AnnotativeData
1002
{
1070
     1
1070
     0
1002
}
  0
LINE
  5
8D
  8
DIMNSIONS
  6
CONTINUOUS
 62
     7
 10
42.499999999999993
 20
132.5
 30
0.0
 11
42.499999999999993
 21
106.5
 31
0.0
  0
LINE
  5
8E
  8
DIMNSIONS
  6
CONTINUOUS
 62
     7
 10
67.499999999999986
 20
132.5
 30
0.0
 11
67.499999999999986
 21
106.5
 31
0.0
  0
LINE
  5
8F
  8
DIMNSIONS
  6
CONTINUOUS
 62
     7
 10
42.499999999999993
 20
112.5
 30
0.0
 11
67.499999999999986
 21
112.5
 31
0.0
  0
LINE
  5
90
  8
DIMNSIONS
  6
CONTINUOUS
 62
     7
 10
42.499999999999993
 20
112.5
 30
0.0
 11
50.001867675781227
 21
114.51011938545069
 31
0.0
  0
LINE
  5
91
  8
DIMNSIONS
  6
CONTINUOUS
 62
     7
 10
42.499999999999993
 20
112.5
 30
0.0
 11
50.001867675781227
 21
110.48988061454919
 31
0.0
  0
LINE
  5
92
  8
DIMNSIONS
  6
CONTINUOUS
 62
     7
 10
67.499999999999986
 20
112.5
 30
0.0
 11
59.998132324218737
 21
110.48988061454919
 31
0.0
  0
LINE
  5
93
  8
DIMNSIONS
  6
CONTINUOUS
 62
     7
 10
67.499999999999986
 20
112.5
 30
0.0
 11
59.998132324218737
 21
114.51011938545069
 31
0.0
  0
TEXT
  5
94
  8
DIMNSIONS
 62
     7
 10
49.708333333333321
 20
115.4816666666667
 30
0.0
 40
8.1442057291666661
  1
25
 41
0.7
 11
49.708333333333321
 21
123.6258723958333
 31
0.0
 73
     3
1001
ACADANNOTATIVE
1000
AnnotativeData
1002
{
1070
     1
1070
     0
1002
}
  0
LINE
  5
95
  8
DIMNSIONS
  6
CONTINUOUS
 62
     7
 10
67.499999999999986
 20
132.5
 30
0.0
 11
67.499999999999986
 21
106.5
 31
0.0
  0
LINE
  5
96
  8
DIMNSIONS
  6
CONTINUOUS
 62
     7
 10
92.499999999999986
 20
132.5
 30
0.0
 11
92.499999999999986
 21
106.5
 31
0.0
  0
LINE
  5
97
  8
DIMNSIONS
  6
CONTINUOUS
 62
     7
 10
67.499999999999986
 20
112.5
 30
0.0
 11
92.499999999999986
 21
112.5
 31
0.0
  0
LINE
  5
98
  8
DIMNSIONS
  6
CONTINUOUS
 62
     7
 10
67.499999999999986
 20
112.5
 30
0.0
 11
75.001867675781227
 21
114.51011938545069
 31
0.0
  0
LINE
  5
99
  8
DIMNSIONS
  6
CONTINUOUS
 62
     7
 10
67.499999999999986
 20
112.5
 30
0.0
 11
75.001867675781227
 21
110.48988061454919
 31
0.0
  0
LINE
  5
9A
  8
DIMNSIONS
  6
CONTINUOUS
 62
     7
 10
92.499999999999986
 20
112.5
 30
0.0
 11
84.99813232421873
 21
110.48988061454919
 31
0.0
  0
LINE
  5
9B
  8
DIMNSIONS
  6
CONTINUOUS
 62
     7
 10
92.499999999999986
 20
112.5
 30
0.0
 11
84.99813232421873
 21
114.51011938545069
 31
0.0
  0
TEXT
  5
9C
  8
DIMNSIONS
 62
     7
 10
74.708333333333314
 20
115.4816666666667
 30
0.0
 40
8.1442057291666661
  1
25
 41
0.7
 11
74.708333333333314
 21
123.6258723958333
 31
0.0
 73
     3
1001
ACADANNOTATIVE
1000
AnnotativeData
1002
{
1070
     1
1070
     0
1002
}
  0
LINE
  5
9D
  8
DIMNSIONS
  6
CONTINUOUS
 62
     7
 10
-87.500000000000014
 20
125.25
 30
0.0
 11
-87.500000000000014
 21
106.5
 31
0.0
  0
LINE
  5
9E
  8
DIMNSIONS
  6
CONTINUOUS
 62
     7
 10
-60.500000000000021
 20
137.72840909090911
 30
0.0
 11
-60.500000000000021
 21
106.5
 31
0.0
  0
LINE
  5
9F
  8
DIMNSIONS
  6
CONTINUOUS
 62
     7
 10
-87.500000000000014
 20
112.5
 30
0.0
 11
-60.500000000000021
 21
112.5
 31
0.0
  0
LINE
  5
A0
  8
DIMNSIONS
  6
CONTINUOUS
 62
     7
 10
-87.500000000000014
 20
112.5
 30
0.0
 11
-79.998132324218773
 21
114.51011938545069
 31
0.0
  0
LINE
  5
A1
  8
DIMNSIONS
  6
CONTINUOUS
 62
     7
 10
-87.500000000000014
 20
112.5
 30
0.0
 11
-79.998132324218773
 21
110.48988061454919
 31
0.0
  0
LINE
  5
A2
  8
DIMNSIONS
  6
CONTINUOUS
 62
     7
 10
-60.500000000000021
 20
112.5
 30
0.0
 11
-68.00186767578127
 21
110.48988061454919
 31
0.0
  0
LINE
  5
A3
  8
DIMNSIONS
  6
CONTINUOUS
 62
     7
 10
-60.500000000000021
 20
112.5
 30
0.0
 11
-68.00186767578127
 21
114.51011938545069
 31
0.0
  0
TEXT
  5
A4
  8
DIMNSIONS
 62
     7
 10
-79.291666666666671
 20
115.4816666666667
 30
0.0
 40
8.1442057291666661
  1
27
 41
0.7
 11
-79.291666666666671
 21
123.6258723958333
 31
0.0
 73
     3
1001
ACADANNOTATIVE
1000
AnnotativeData
1002
{
1070
     1
1070
     0
1002
}
  0
LINE
  5
A5
  8
DIMNSIONS
  6
CONTINUOUS
 62
     7
 10
25.0
 20
128.25
 30
0.0
 11
25.0
 21
87.75
 31
0.0
  0
LINE
  5
A6
  8
DIMNSIONS
  6
CONTINUOUS
 62
     7
 10
110.0
 20
128.25
 30
0.0
 11
110.0
 21
87.75
 31
0.0
  0
LINE
  5
A7
  8
DIMNSIONS
  6
CONTINUOUS
 62
     7
 10
25.0
 20
93.75
 30
0.0
 11
110.0
 21
93.75
 31
0.0
  0
LINE
  5
A8
  8
DIMNSIONS
  6
CONTINUOUS
 62
     7
 10
25.0
 20
93.75
 30
0.0
 11
32.501867675781241
 21
95.760119385450722
 31
0.0
  0
LINE
  5
A9
  8
DIMNSIONS
  6
CONTINUOUS
 62
     7
 10
25.0
 20
93.75
 30
0.0
 11
32.501867675781241
 21
91.739880614549264
 31
0.0
  0
LINE
  5
AA
  8
DIMNSIONS
  6
CONTINUOUS
 62
     7
 10
110.0
 20
93.75
 30
0.0
 11
102.4981323242187
 21
91.739880614549264
 31
0.0
  0
LINE
  5
AB
  8
DIMNSIONS
  6
CONTINUOUS
 62
     7
 10
110.0
 20
93.75
 30
0.0
 11
102.4981323242187
 21
95.760119385450722
 31
0.0
  0
TEXT
  5
AC
  8
DIMNSIONS
 62
     7
 10
62.208333333333343
 20
96.731666666666655
 30
0.0
 40
8.1442057291666661
  1
85
 41
0.7
 11
62.208333333333343
 21
104.8758723958333
 31
0.0
 73
     3
1001
ACADANNOTATIVE
1000
AnnotativeData
1002
{
1070
     1
1070
     0
1002
}
  0
LINE
  5
AD
  8
DIMNSIONS
  6
CONTINUOUS
 62
     7
 10
110.0
 20
128.25
 30
0.0
 11
110.0
 21
87.75
 31
0.0
  0
LINE
  5
AE
  8
DIMNSIONS
  6
CONTINUOUS
 62
     7
 10
115.9999999998635
 20
151.72443486308001
 30
0.0
 11
115.9999999998635
 21
87.75
 31
0.0
  0
LINE
  5
AF
  8
DIMNSIONS
  6
CONTINUOUS
 62
     7
 10
115.9999999998635
 20
93.75
 30
0.0
 11
110.0
 21
93.75
 31
0.0
  0
LINE
  5
B0
  8
DIMNSIONS
  6
CONTINUOUS
 62
     7
 10
110.0
 20
93.75
 30
0.0
 11
95.0
 21
93.75
 31
0.0
  0
LINE
  5
B1
  8
DIMNSIONS
  6
CONTINUOUS
 62
     7
 10
110.0
 20
93.75
 30
0.0
 11
102.4981323242187
 21
91.739880614549264
 31
0.0
  0
LINE
  5
B2
  8
DIMNSIONS
  6
CONTINUOUS
 62
     7
 10
110.0
 20
93.75
 30
0.0
 11
102.4981323242187
 21
95.760119385450722
 31
0.0
  0
LINE
  5
B3
  8
DIMNSIONS
  6
CONTINUOUS
 62
     7
 10
115.9999999998635
 20
93.75
 30
0.0
 11
130.2916666666666
 21
93.75
 31
0.0
  0
LINE
  5
B4
  8
DIMNSIONS
  6
CONTINUOUS
 62
     7
 10
115.9999999998635
 20
93.75
 30
0.0
 11
123.5018676756447
 21
95.760119385450722
 31
0.0
  0
LINE
  5
B5
  8
DIMNSIONS
  6
CONTINUOUS
 62
     7
 10
115.9999999998635
 20
93.75
 30
0.0
 11
123.5018676756447
 21
91.739880614549264
 31
0.0
  0
TEXT
  5
B6
  8
DIMNSIONS
 62
     7
 10
125.0
 20
96.731666666666655
 30
0.0
 40
8.1442057291666661
  1
6
 41
0.7
 11
125.0
 21
104.8758723958333
 31
0.0
 73
     3
1001
ACADANNOTATIVE
1000
AnnotativeData
1002
{
1070
     1
1070
     0
1002
}
  0
LINE
  5
B7
  8
DIMNSIONS
  6
CONTINUOUS
 62
     7
 10
19.0
 20
-108.25
 30
0.0
 11
0.25
 21
-108.25
 31
0.0
  0
LINE
  5
B8
  8
DIMNSIONS
  6
CONTINUOUS
 62
     7
 10
19.0
 20
-18.25
 30
0.0
 11
0.25
 21
-18.25
 31
0.0
  0
LINE
  5
B9
  8
DIMNSIONS
  6
CONTINUOUS
 62
     7
 10
6.25
 20
-108.25
 30
0.0
 11
6.25
 21
-18.25
 31
0.0
  0
LINE
  5
BA
  8
DIMNSIONS
  6
CONTINUOUS
 62
     7
 10
6.25
 20
-108.25
 30
0.0
 11
4.2398806145492642
 21
-100.7481323242187
 31
0.0
  0
LINE
  5
BB
  8
DIMNSIONS
  6
CONTINUOUS
 62
     7
 10
6.25
 20
-108.25
 30
0.0
 11
8.2601193854507216
 21
-100.7481323242187
 31
0.0
  0
LINE
  5
BC
  8
DIMNSIONS
  6
CONTINUOUS
 62
     7
 10
6.25
 20
-18.25
 30
0.0
 11
8.2601193854507216
 21
-25.751867675781259
 31
0.0
  0
LINE
  5
BD
  8
DIMNSIONS
  6
CONTINUOUS
 62
     7
 10
6.25
 20
-18.25
 30
0.0
 11
4.2398806145492642
 21
-25.751867675781259
 31
0.0
  0
TEXT
  5
BE
  8
DIMNSIONS
 62
     7
 10
3.2683333333333251
 20
-68.541666666666657
 30
0.0
 40
8.1442057291666661
  1
90
 50
90.0
 41
0.7
 11
-4.8758723958333396
 21
-68.541666666666657
 31
0.0
 73
     3
1001
ACADANNOTATIVE
1000
AnnotativeData
1002
{
1070
     1
1070
     0
1002
}
  0
LINE
  5
BF
  8
DIMNSIONS
  6
CONTINUOUS
 62
     7
 10
39.499999999999993
 20
-113.25
 30
0.0
 11
-18.5
 21
-113.25
 31
0.0
  0
LINE
  5
C0
  8
DIMNSIONS
  6
CONTINUOUS
 62
     7
 10
39.499999999999993
 20
-13.25
 30
0.0
 11
-18.5
 21
-13.25
 31
0.0
  0
LINE
  5
C1
  8
DIMNSIONS
  6
CONTINUOUS
 62
     7
 10
-12.5
 20
-113.25
 30
0.0
 11
-12.5
 21
-13.25
 31
0.0
  0
LINE
  5
C2
  8
DIMNSIONS
  6
CONTINUOUS
 62
     7
 10
-12.5
 20
-113.25
 30
0.0
 11
-14.51011938545073
 21
-105.7481323242187
 31
0.0
  0
LINE
  5
C3
  8
DIMNSIONS
  6
CONTINUOUS
 62
     7
 10
-12.5
 20
-113.25
 30
0.0
 11
-10.48988061454927
 21
-105.7481323242187
 31
0.0
  0
LINE
  5
C4
  8
DIMNSIONS
  6
CONTINUOUS
 62
     7
 10
-12.5
 20
-13.25
 30
0.0
 11
-10.48988061454927
 21
-20.751867675781249
 31
0.0
  0
LINE
  5
C5
  8
DIMNSIONS
  6
CONTINUOUS
 62
     7
 10
-12.5
 20
-13.25
 30
0.0
 11
-14.51011938545073
 21
-20.751867675781249
 31
0.0
  0
TEXT
  5
C6
  8
DIMNSIONS
 62
     7
 10
-15.481666666666669
 20
-71.1875
 30
0.0
 40
8.1442057291666661
  1
100
 50
90.0
 41
0.7
 11
-23.625872395833341
 21
-71.1875
 31
0.0
 73
     3
1001
ACADANNOTATIVE
1000
AnnotativeData
1002
{
1070
     1
1070
     0
1002
}
  0
LINE
  5
C7
  8
DIMNSIONS
  6
CONTINUOUS
 62
     7
 10
19.0
 20
-118.75
 30
0.0
 11
-37.250000000000007
 21
-118.75
 31
0.0
  0
LINE
  5
C8
  8
DIMNSIONS
  6
CONTINUOUS
 62
     7
 10
19.0
 20
-7.75
 30
0.0
 11
-37.250000000000007
 21
-7.75
 31
0.0
  0
LINE
  5
C9
  8
DIMNSIONS
  6
CONTINUOUS
 62
     7
 10
-31.250000000000011
 20
-118.75
 30
0.0
 11
-31.250000000000011
 21
-7.75
 31
0.0
  0
LINE
  5
CA
  8
DIMNSIONS
  6
CONTINUOUS
 62
     7
 10
-31.250000000000011
 20
-118.75
 30
0.0
 11
-33.26011938545075
 21
-111.2481323242187
 31
0.0
  0
LINE
  5
CB
  8
DIMNSIONS
  6
CONTINUOUS
 62
     7
 10
-31.250000000000011
 20
-118.75
 30
0.0
 11
-29.239880614549278
 21
-111.2481323242187
 31
0.0
  0
LINE
  5
CC
  8
DIMNSIONS
  6
CONTINUOUS
 62
     7
 10
-31.250000000000011
 20
-7.75
 30
0.0
 11
-29.239880614549278
 21
-15.25186767578125
 31
0.0
  0
LINE
  5
CD
  8
DIMNSIONS
  6
CONTINUOUS
 62
     7
 10
-31.250000000000011
 20
-7.75
 30
0.0
 11
-33.26011938545075
 21
-15.25186767578125
 31
0.0
  0
TEXT
  5
CE
  8
DIMNSIONS
 62
     7
 10
-34.231666666666669
 20
-71.1875
 30
0.0
 40
8.1442057291666661
  1
111
 50
90.0
 41
0.7
 11
-42.375872395833333
 21
-71.1875
 31
0.0
 73
     3
1001
ACADANNOTATIVE
1000
AnnotativeData
1002
{
1070
     1
1070
     0
1002
}
  0
LINE
  5
CF
  8
DIMNSIONS
  6
CONTINUOUS
 62
     7
 10
42.499999999999993
 20
-117.5
 30
0.0
 11
42.499999999999993
 21
-143.5
 31
0.0
  0
LINE
  5
D0
  8
DIMNSIONS
  6
CONTINUOUS
 62
     7
 10
67.499999999999986
 20
-117.5
 30
0.0
 11
67.499999999999986
 21
-143.5
 31
0.0
  0
LINE
  5
D1
  8
DIMNSIONS
  6
CONTINUOUS
 62
     7
 10
42.499999999999993
 20
-137.5
 30
0.0
 11
67.499999999999986
 21
-137.5
 31
0.0
  0
LINE
  5
D2
  8
DIMNSIONS
  6
CONTINUOUS
 62
     7
 10
42.499999999999993
 20
-137.5
 30
0.0
 11
50.001867675781227
 21
-135.48988061454921
 31
0.0
  0
LINE
  5
D3
  8
DIMNSIONS
  6
CONTINUOUS
 62
     7
 10
42.499999999999993
 20
-137.5
 30
0.0
 11
50.001867675781227
 21
-139.51011938545071
 31
0.0
  0
LINE
  5
D4
  8
DIMNSIONS
  6
CONTINUOUS
 62
     7
 10
67.499999999999986
 20
-137.5
 30
0.0
 11
59.998132324218737
 21
-139.51011938545071
 31
0.0
  0
LINE
  5
D5
  8
DIMNSIONS
  6
CONTINUOUS
 62
     7
 10
67.499999999999986
 20
-137.5
 30
0.0
 11
59.998132324218737
 21
-135.48988061454921
 31
0.0
  0
TEXT
  5
D6
  8
DIMNSIONS
 62
     7
 10
49.708333333333321
 20
-134.51833333333329
 30
0.0
 40
8.1442057291666661
  1
25
 41
0.7
 11
49.708333333333321
 21
-126.3741276041667
 31
0.0
 73
     3
1001
ACADANNOTATIVE
1000
AnnotativeData
1002
{
1070
     1
1070
     0
1002
}
  0
LINE
  5
D7
  8
DIMNSIONS
  6
CONTINUOUS
 62
     7
 10
67.499999999999986
 20
-117.5
 30
0.0
 11
67.499999999999986
 21
-143.5
 31
0.0
  0
LINE
  5
D8
  8
DIMNSIONS
  6
CONTINUOUS
 62
     7
 10
92.499999999999986
 20
-117.5
 30
0.0
 11
92.499999999999986
 21
-143.5
 31
0.0
  0
LINE
  5
D9
  8
DIMNSIONS
  6
CONTINUOUS
 62
     7
 10
67.499999999999986
 20
-137.5
 30
0.0
 11
92.499999999999986
 21
-137.5
 31
0.0
  0
LINE
  5
DA
  8
DIMNSIONS
  6
CONTINUOUS
 62
     7
 10
67.499999999999986
 20
-137.5
 30
0.0
 11
75.001867675781227
 21
-135.48988061454921
 31
0.0
  0
LINE
  5
DB
  8
DIMNSIONS
  6
CONTINUOUS
 62
     7
 10
67.499999999999986
 20
-137.5
 30
0.0
 11
75.001867675781227
 21
-139.51011938545071
 31
0.0
  0
LINE
  5
DC
  8
DIMNSIONS
  6
CONTINUOUS
 62
     7
 10
92.499999999999986
 20
-137.5
 30
0.0
 11
84.99813232421873
 21
-139.51011938545071
 31
0.0
  0
LINE
  5
DD
  8
DIMNSIONS
  6
CONTINUOUS
 62
     7
 10
92.499999999999986
 20
-137.5
 30
0.0
 11
84.99813232421873
 21
-135.48988061454921
 31
0.0
  0
TEXT
  5
DE
  8
DIMNSIONS
 62
     7
 10
74.708333333333314
 20
-134.51833333333329
 30
0.0
 40
8.1442057291666661
  1
25
 41
0.7
 11
74.708333333333314
 21
-126.3741276041667
 31
0.0
 73
     3
1001
ACADANNOTATIVE
1000
AnnotativeData
1002
{
1070
     1
1070
     0
1002
}
  0
LINE
  5
DF
  8
DIMNSIONS
  6
CONTINUOUS
 62
     7
 10
-87.500000000000014
 20
-124.75
 30
0.0
 11
-87.500000000000014
 21
-143.5
 31
0.0
  0
LINE
  5
E0
  8
DIMNSIONS
  6
CONTINUOUS
 62
     7
 10
-60.500000000000021
 20
-112.2715909090908
 30
0.0
 11
-60.500000000000021
 21
-143.5
 31
0.0
  0
LINE
  5
E1
  8
DIMNSIONS
  6
CONTINUOUS
 62
     7
 10
-87.500000000000014
 20
-137.5
 30
0.0
 11
-60.500000000000021
 21
-137.5
 31
0.0
  0
LINE
  5
E2
  8
DIMNSIONS
  6
CONTINUOUS
 62
     7
 10
-87.500000000000014
 20
-137.5
 30
0.0
 11
-79.998132324218773
 21
-135.48988061454921
 31
0.0
  0
LINE
  5
E3
  8
DIMNSIONS
  6
CONTINUOUS
 62
     7
 10
-87.500000000000014
 20
-137.5
 30
0.0
 11
-79.998132324218773
 21
-139.51011938545071
 31
0.0
  0
LINE
  5
E4
  8
DIMNSIONS
  6
CONTINUOUS
 62
     7
 10
-60.500000000000021
 20
-137.5
 30
0.0
 11
-68.00186767578127
 21
-139.51011938545071
 31
0.0
  0
LINE
  5
E5
  8
DIMNSIONS
  6
CONTINUOUS
 62
     7
 10
-60.500000000000021
 20
-137.5
 30
0.0
 11
-68.00186767578127
 21
-135.48988061454921
 31
0.0
  0
TEXT
  5
E6
  8
DIMNSIONS
 62
     7
 10
-79.291666666666671
 20
-134.51833333333329
 30
0.0
 40
8.1442057291666661
  1
27
 41
0.7
 11
-79.291666666666671
 21
-126.3741276041667
 31
0.0
 73
     3
1001
ACADANNOTATIVE
1000
AnnotativeData
1002
{
1070
     1
1070
     0
1002
}
  0
LINE
  5
E7
  8
DIMNSIONS
  6
CONTINUOUS
 62
     7
 10
25.0
 20
-121.75
 30
0.0
 11
25.0
 21
-162.25
 31
0.0
  0
LINE
  5
E8
  8
DIMNSIONS
  6
CONTINUOUS
 62
     7
 10
110.0
 20
-121.75
 30
0.0
 11
110.0
 21
-162.25
 31
0.0
  0
LINE
  5
E9
  8
DIMNSIONS
  6
CONTINUOUS
 62
     7
 10
25.0
 20
-156.25
 30
0.0
 11
110.0
 21
-156.25
 31
0.0
  0
LINE
  5
EA
  8
DIMNSIONS
  6
CONTINUOUS
 62
     7
 10
25.0
 20
-156.25
 30
0.0
 11
32.501867675781241
 21
-154.23988061454921
 31
0.0
  0
LINE
  5
EB
  8
DIMNSIONS
  6
CONTINUOUS
 62
     7
 10
25.0
 20
-156.25
 30
0.0
 11
32.501867675781241
 21
-158.26011938545071
 31
0.0
  0
LINE
  5
EC
  8
DIMNSIONS
  6
CONTINUOUS
 62
     7
 10
110.0
 20
-156.25
 30
0.0
 11
102.4981323242187
 21
-158.26011938545071
 31
0.0
  0
LINE
  5
ED
  8
DIMNSIONS
  6
CONTINUOUS
 62
     7
 10
110.0
 20
-156.25
 30
0.0
 11
102.4981323242187
 21
-154.23988061454921
 31
0.0
  0
TEXT
  5
EE
  8
DIMNSIONS
 62
     7
 10
62.208333333333343
 20
-153.26833333333329
 30
0.0
 40
8.1442057291666661
  1
85
 41
0.7
 11
62.208333333333343
 21
-145.12412760416669
 31
0.0
 73
     3
1001
ACADANNOTATIVE
1000
AnnotativeData
1002
{
1070
     1
1070
     0
1002
}
  0
LINE
  5
EF
  8
DIMNSIONS
  6
CONTINUOUS
 62
     7
 10
110.0
 20
-121.26523437488881
 30
0.0
 11
110.0
 21
-162.25
 31
0.0
  0
LINE
  5
F0
  8
DIMNSIONS
  6
CONTINUOUS
 62
     7
 10
115.9999999998635
 20
-48.275565136919937
 30
0.0
 11
115.9999999998635
 21
-162.25
 31
0.0
  0
LINE
  5
F1
  8
DIMNSIONS
  6
CONTINUOUS
 62
     7
 10
115.9999999998635
 20
-156.25
 30
0.0
 11
110.0
 21
-156.25
 31
0.0
  0
LINE
  5
F2
  8
DIMNSIONS
  6
CONTINUOUS
 62
     7
 10
110.0
 20
-156.25
 30
0.0
 11
95.0
 21
-156.25
 31
0.0
  0
LINE
  5
F3
  8
DIMNSIONS
  6
CONTINUOUS
 62
     7
 10
110.0
 20
-156.25
 30
0.0
 11
102.4981323242187
 21
-158.26011938545071
 31
0.0
  0
LINE
  5
F4
  8
DIMNSIONS
  6
CONTINUOUS
 62
     7
 10
110.0
 20
-156.25
 30
0.0
 11
102.4981323242187
 21
-154.23988061454921
 31
0.0
  0
LINE
  5
F5
  8
DIMNSIONS
  6
CONTINUOUS
 62
     7
 10
115.9999999998635
 20
-156.25
 30
0.0
 11
130.2916666666666
 21
-156.25
 31
0.0
  0
LINE
  5
F6
  8
DIMNSIONS
  6
CONTINUOUS
 62
     7
 10
115.9999999998635
 20
-156.25
 30
0.0
 11
123.5018676756447
 21
-154.23988061454921
 31
0.0
  0
LINE
  5
F7
  8
DIMNSIONS
  6
CONTINUOUS
 62
     7
 10
115.9999999998635
 20
-156.25
 30
0.0
 11
123.5018676756447
 21
-158.26011938545071
 31
0.0
  0
TEXT
  5
F8
  8
DIMNSIONS
 62
     7
 10
125.0
 20
-153.26833333333329
 30
0.0
 40
8.1442057291666661
  1
6
 41
0.7
 11
125.0
 21
-145.12412760416669
 31
0.0
 73
     3
1001
ACADANNOTATIVE
1000
AnnotativeData
1002
{
1070
     1
1070
     0
1002
}
  0
TEXT
  5
F9
  8
DATA
 62
     7
 10
215.20448516074811
 20
-209.64360737757889
 30
0.0
 40
7.3297851562499989
  1
GTB-HDMI-3DTV-BLK/GTB-HDMI-3DTV
 41
0.7
 11
215.20448516074811
 21
-202.31382222132891
 31
0.0
 73
     3
1001
ACADANNOTATIVE
1000
AnnotativeData
1002
{
1070
     1
1070
     0
1002
}
  0
TEXT
  5
FA
  8
DATA
 62
     7
 10
250.0
 20
-187.7900342102682
 30
0.0
 40
7.3297851562499989
  1
Gefen
 41
0.7
 11
250.0
 21
-180.46024905401811
 31
0.0
 73
     3
1001
ACADANNOTATIVE
1000
AnnotativeData
1002
{
1070
     1
1070
     0
1002
}
  0
TEXT
  5
FB
  8
DATA
 62
     7
 10
244.22905720941159
 20
-198.23085730500119
 30
0.0
 40
4.8865311328124994
  1
HDMI 3DTV延長機
 41
0.7
 11
244.22905720941159
 21
-193.3443261721888
 31
0.0
 73
     3
1001
ACADANNOTATIVE
1000
AnnotativeData
1002
{
1070
     1
1070
     0
1002
}
  0
TEXT
  5
FC
  8
DATA
 62
     7
 10
-139.99999999999989
 20
-230.21870421026821
 30
0.0
 40
4.8865234374999993
  1
仕様および外観は予告なく変更されることがありますので、ご了承ください。
 41
0.7
 11
-139.99999999999989
 21
-225.3321807727682
 31
0.0
 73
     3
1001
ACADANNOTATIVE
1000
AnnotativeData
1002
{
1070
     1
1070
     0
1002
}
  0
LINE
  5
FD
  8
DATA
  6
CONTINUOUS
 62
     7
 10
25.0
 20
134.25
 30
0.0
 11
25.0
 21
239.25
 31
0.0
  0
LINE
  5
FE
  8
DATA
  6
CONTINUOUS
 62
     7
 10
107.0
 20
131.25
 30
0.0
 11
28.0
 21
131.25
 31
0.0
  0
LINE
  5
FF
  8
DATA
  6
CONTINUOUS
 62
     7
 10
110.0
 20
239.25
 30
0.0
 11
110.0
 21
134.25
 31
0.0
  0
LINE
  5
100
  8
DATA
  6
CONTINUOUS
 62
     7
 10
28.0
 20
242.25
 30
0.0
 11
107.0
 21
242.25
 31
0.0
  0
LINE
  5
101
  8
DATA
  6
CONTINUOUS
 62
     7
 10
110.0
 20
141.75
 30
0.0
 11
25.0
 21
141.75
 31
0.0
  0
LINE
  5
102
  8
DATA
  6
CONTINUOUS
 62
     7
 10
25.0
 20
231.75
 30
0.0
 11
110.0
 21
231.75
 31
0.0
  0
LINE
  5
103
  8
DATA
  6
CONTINUOUS
 62
     7
 10
-87.500000000000014
 20
231.75
 30
0.0
 11
-87.500000000000014
 21
242.25
 31
0.0
  0
LINE
  5
104
  8
DATA
  6
CONTINUOUS
 62
     7
 10
-85.800000000000026
 20
131.25
 30
0.0
 11
-87.500000000000014
 21
131.25
 31
0.0
  0
LINE
  5
105
  8
DATA
  6
CONTINUOUS
 62
     7
 10
-60.500000000000021
 20
230.05000000000001
 30
0.0
 11
-60.500000000000021
 21
143.44999999999999
 31
0.0
  0
LINE
  5
106
  8
DATA
  6
CONTINUOUS
 62
     7
 10
-87.500000000000014
 20
242.25
 30
0.0
 11
-85.800000000000026
 21
242.25
 31
0.0
  0
LINE
  5
107
  8
DATA
  6
CONTINUOUS
 62
     7
 10
-62.200000000000003
 20
141.75
 30
0.0
 11
-84.100000000000009
 21
141.75
 31
0.0
  0
LINE
  5
108
  8
DATA
  6
CONTINUOUS
 62
     7
 10
-62.200000000000003
 20
231.75
 30
0.0
 11
-84.100000000000009
 21
231.75
 31
0.0
  0
LINE
  5
109
  8
DATA
  6
CONTINUOUS
 62
     7
 10
-85.800000000000026
 20
233.44999999999999
 30
0.0
 11
-85.800000000000026
 21
242.25
 31
0.0
  0
TEXT
  5
10A
  8
DATA
 62
     7
 10
41.84516492778927
 20
158.1230933037084
 30
0.0
 40
6.5153645833333318
  1
Extender for
 41
0.7
 11
41.84516492778927
 21
164.63845788704171
 31
0.0
 73
     3
1001
ACADANNOTATIVE
1000
AnnotativeData
1002
{
1070
     1
1070
     0
1002
}
  0
TEXT
  5
10B
  8
DATA
 62
     7
 10
47.5
 20
147.05506000740621
 30
0.0
 40
6.5153645833333318
  1
HDMI 3DTV S
 41
0.7
 11
47.5
 21
153.57042459073949
 31
0.0
 73
     3
1001
ACADANNOTATIVE
1000
AnnotativeData
1002
{
1070
     1
1070
     0
1002
}
  0
LINE
  5
10C
  8
DATA
  6
CONTINUOUS
 62
     7
 10
68.749999999999986
 20
235.0
 30
0.0
 11
66.249999999999986
 21
235.0
 31
0.0
  0
LINE
  5
10D
  8
DATA
  6
CONTINUOUS
 62
     7
 10
66.249999999999986
 20
238.5
 30
0.0
 11
68.749999999999986
 21
238.5
 31
0.0
  0
ARC
  5
10E
  8
DATA
  6
CONTINUOUS
 62
     7
 10
66.249999999999986
 20
236.75
 30
0.0
 40
1.75
 50
90.0
 51
270.0
  0
ARC
  5
10F
  8
DATA
  6
CONTINUOUS
 62
     7
 10
68.749999999999986
 20
236.75
 30
0.0
 40
1.75
 50
270.0
 51
90.0
  0
LINE
  5
110
  8
DATA
  6
CONTINUOUS
 62
     7
 10
93.749999999999986
 20
235.0
 30
0.0
 11
91.249999999999986
 21
235.0
 31
0.0
  0
LINE
  5
111
  8
DATA
  6
CONTINUOUS
 62
     7
 10
91.249999999999986
 20
238.5
 30
0.0
 11
93.749999999999986
 21
238.5
 31
0.0
  0
ARC
  5
112
  8
DATA
  6
CONTINUOUS
 62
     7
 10
91.249999999999986
 20
236.75
 30
0.0
 40
1.75
 50
90.0
 51
270.0
  0
ARC
  5
113
  8
DATA
  6
CONTINUOUS
 62
     7
 10
93.749999999999986
 20
236.75
 30
0.0
 40
1.75
 50
270.0
 51
90.0
  0
LINE
  5
114
  8
DATA
  6
CONTINUOUS
 62
     7
 10
43.749999999999993
 20
235.0
 30
0.0
 11
41.249999999999993
 21
235.0
 31
0.0
  0
LINE
  5
115
  8
DATA
  6
CONTINUOUS
 62
     7
 10
41.249999999999993
 20
238.5
 30
0.0
 11
43.749999999999993
 21
238.5
 31
0.0
  0
ARC
  5
116
  8
DATA
  6
CONTINUOUS
 62
     7
 10
41.249999999999993
 20
236.75
 30
0.0
 40
1.75
 50
90.0
 51
270.0
  0
ARC
  5
117
  8
DATA
  6
CONTINUOUS
 62
     7
 10
43.749999999999993
 20
236.75
 30
0.0
 40
1.75
 50
270.0
 51
90.0
  0
LINE
  5
118
  8
DATA
  6
CONTINUOUS
 62
     7
 10
68.749999999999986
 20
138.5
 30
0.0
 11
66.249999999999986
 21
138.5
 31
0.0
  0
LINE
  5
119
  8
DATA
  6
CONTINUOUS
 62
     7
 10
66.249999999999986
 20
135.0
 30
0.0
 11
68.749999999999986
 21
135.0
 31
0.0
  0
ARC
  5
11A
  8
DATA
  6
CONTINUOUS
 62
     7
 10
66.249999999999986
 20
136.75
 30
0.0
 40
1.75
 50
90.0
 51
270.0
  0
ARC
  5
11B
  8
DATA
  6
CONTINUOUS
 62
     7
 10
68.749999999999986
 20
136.75
 30
0.0
 40
1.75
 50
270.0
 51
90.0
  0
LINE
  5
11C
  8
DATA
  6
CONTINUOUS
 62
     7
 10
93.749999999999986
 20
138.5
 30
0.0
 11
91.249999999999986
 21
138.5
 31
0.0
  0
LINE
  5
11D
  8
DATA
  6
CONTINUOUS
 62
     7
 10
91.249999999999986
 20
135.0
 30
0.0
 11
93.749999999999986
 21
135.0
 31
0.0
  0
ARC
  5
11E
  8
DATA
  6
CONTINUOUS
 62
     7
 10
91.249999999999986
 20
136.75
 30
0.0
 40
1.75
 50
90.0
 51
270.0
  0
ARC
  5
11F
  8
DATA
  6
CONTINUOUS
 62
     7
 10
93.749999999999986
 20
136.75
 30
0.0
 40
1.75
 50
270.0
 51
90.0
  0
LINE
  5
120
  8
DATA
  6
CONTINUOUS
 62
     7
 10
43.749999999999993
 20
138.5
 30
0.0
 11
41.249999999999993
 21
138.5
 31
0.0
  0
LINE
  5
121
  8
DATA
  6
CONTINUOUS
 62
     7
 10
41.249999999999993
 20
135.0
 30
0.0
 11
43.749999999999993
 21
135.0
 31
0.0
  0
ARC
  5
122
  8
DATA
  6
CONTINUOUS
 62
     7
 10
41.249999999999993
 20
136.75
 30
0.0
 40
1.75
 50
90.0
 51
270.0
  0
ARC
  5
123
  8
DATA
  6
CONTINUOUS
 62
     7
 10
43.749999999999993
 20
136.75
 30
0.0
 40
1.75
 50
270.0
 51
90.0
  0
TEXT
  5
124
  8
DATA
 62
     7
 10
139.2366316970548
 20
264.93515281630488
 30
0.0
 40
8.1442057291666661
  1
6-\U+03A66\U+00D73.5
 41
0.7
 11
139.2366316970548
 21
269.00725568088819
 31
0.0
 73
     2
1001
ACADANNOTATIVE
1000
AnnotativeData
1002
{
1070
     1
1070
     0
1002
}
  0
LINE
  5
125
  8
DATA
  6
CONTINUOUS
 62
     7
 10
-63.899999999999991
 20
230.05000000000001
 30
0.0
 11
-87.500000000000014
 21
230.05000000000001
 31
0.0
  0
LINE
  5
126
  8
DATA
  6
CONTINUOUS
 62
     7
 10
-63.899999999999991
 20
143.44999999999999
 30
0.0
 11
-87.500000000000014
 21
143.44999999999999
 31
0.0
  0
LINE
  5
127
  8
DATA
  6
CONTINUOUS
 62
     7
 10
-62.200000000000003
 20
228.34999999999999
 30
0.0
 11
-62.200000000000003
 21
145.14999999999989
 31
0.0
  0
ARC
  5
128
  8
DATA
  6
CONTINUOUS
 62
     7
 10
-63.899999999999991
 20
228.34999999999999
 30
0.0
 40
1.699999999999988
 50
0.0
 51
90.0
  0
ARC
  5
129
  8
DATA
  6
CONTINUOUS
 62
     7
 10
-62.200000000000003
 20
230.05000000000001
 30
0.0
 40
1.699999999999988
 50
0.0
 51
90.0
  0
ARC
  5
12A
  8
DATA
  6
CONTINUOUS
 62
     7
 10
-63.899999999999991
 20
145.14999999999989
 30
0.0
 40
1.699999999999988
 50
270.0
 51
0.0
  0
ARC
  5
12B
  8
DATA
  6
CONTINUOUS
 62
     7
 10
-62.200000000000003
 20
143.44999999999999
 30
0.0
 40
1.699999999999988
 50
270.0
 51
0.0
  0
ARC
  5
12C
  8
DATA
  6
CONTINUOUS
 62
     7
 10
-84.100000000000009
 20
233.44999999999999
 30
0.0
 40
1.699999999999988
 50
180.0
 51
270.0
  0
ARC
  5
12D
  8
DATA
  6
CONTINUOUS
 62
     7
 10
-85.800000000000026
 20
231.75
 30
0.0
 40
1.699999999999988
 50
180.0
 51
270.0
  0
LINE
  5
12E
  8
DATA
  6
CONTINUOUS
 62
     7
 10
-87.500000000000014
 20
131.25
 30
0.0
 11
-87.500000000000014
 21
141.75
 31
0.0
  0
LINE
  5
12F
  8
DATA
  6
CONTINUOUS
 62
     7
 10
-85.800000000000026
 20
131.25
 30
0.0
 11
-85.800000000000026
 21
140.05000000000001
 31
0.0
  0
ARC
  5
130
  8
DATA
  6
CONTINUOUS
 62
     7
 10
-84.100000000000009
 20
140.05000000000001
 30
0.0
 40
1.699999999999988
 50
90.0
 51
180.0
  0
ARC
  5
131
  8
DATA
  6
CONTINUOUS
 62
     7
 10
-85.800000000000026
 20
141.75
 30
0.0
 40
1.699999999999988
 50
90.0
 51
180.0
  0
LINE
  5
132
  8
DATA
  6
CONTINUOUS
 62
     7
 10
-87.500000000000014
 20
143.44999999999999
 30
0.0
 11
-87.500000000000014
 21
230.05000000000001
 31
0.0
  0
LINE
  5
133
  8
DATA
  6
CONTINUOUS
 62
     7
 10
-87.500000000000014
 20
231.75
 30
0.0
 11
-87.500000000000014
 21
231.84999999999999
 31
0.0
  0
ARC
  5
134
  8
DATA
  6
CONTINUOUS
 62
     7
 10
28.0
 20
239.25
 30
0.0
 40
3.0
 50
90.0
 51
180.0
  0
ARC
  5
135
  8
DATA
  6
CONTINUOUS
 62
     7
 10
107.0
 20
239.25
 30
0.0
 40
3.0
 50
0.0
 51
90.0
  0
ARC
  5
136
  8
DATA
  6
CONTINUOUS
 62
     7
 10
28.0
 20
134.25
 30
0.0
 40
3.0
 50
180.0
 51
270.0
  0
ARC
  5
137
  8
DATA
  6
CONTINUOUS
 62
     7
 10
107.0
 20
134.25
 30
0.0
 40
3.0
 50
270.0
 51
0.0
  0
LINE
  5
138
  8
DATA
  6
CONTINUOUS
 62
     7
 10
-81.503643411788602
 20
212.7440298884091
 30
0.0
 11
-68.203643411788661
 21
212.7440298884091
 31
0.0
  0
LINE
  5
139
  8
DATA
  6
CONTINUOUS
 62
     7
 10
-81.503643411788602
 20
197.0440298884092
 30
0.0
 11
-68.203643411788661
 21
197.0440298884092
 31
0.0
  0
LINE
  5
13A
  8
DATA
  6
CONTINUOUS
 62
     7
 10
-78.503643411788673
 20
198.74402988840899
 30
0.0
 11
-71.203643411788661
 21
198.74402988840899
 31
0.0
  0
LINE
  5
13B
  8
DATA
  6
CONTINUOUS
 62
     7
 10
-78.503643411788673
 20
211.0440298884092
 30
0.0
 11
-71.203643411788661
 21
211.0440298884092
 31
0.0
  0
LINE
  5
13C
  8
DATA
  6
CONTINUOUS
 62
     7
 10
-68.203643411788661
 20
197.0440298884092
 30
0.0
 11
-68.203643411788661
 21
212.7440298884091
 31
0.0
  0
LINE
  5
13D
  8
DATA
  6
CONTINUOUS
 62
     7
 10
-81.503643411788602
 20
197.0440298884092
 30
0.0
 11
-81.503643411788602
 21
212.7440298884091
 31
0.0
  0
LINE
  5
13E
  8
DATA
  6
CONTINUOUS
 62
     7
 10
-78.503643411788673
 20
198.74402988840899
 30
0.0
 11
-78.503643411788673
 21
211.0440298884092
 31
0.0
  0
LINE
  5
13F
  8
DATA
  6
CONTINUOUS
 62
     7
 10
-71.203643411788661
 20
198.74402988840899
 30
0.0
 11
-71.203643411788661
 21
201.64402988840911
 31
0.0
  0
LINE
  5
140
  8
DATA
  6
CONTINUOUS
 62
     7
 10
-71.203643411788661
 20
208.14402988840919
 30
0.0
 11
-71.203643411788661
 21
211.0440298884092
 31
0.0
  0
LINE
  5
141
  8
DATA
  6
CONTINUOUS
 62
     7
 10
-68.203643411788661
 20
208.14402988840919
 30
0.0
 11
-71.203643411788661
 21
208.14402988840919
 31
0.0
  0
LINE
  5
142
  8
DATA
  6
CONTINUOUS
 62
     7
 10
-68.203643411788661
 20
201.64402988840911
 30
0.0
 11
-71.203643411788661
 21
201.64402988840911
 31
0.0
  0
CIRCLE
  5
143
  8
DATA
  6
CONTINUOUS
 62
     7
 10
-78.500000000000014
 20
163.75
 30
0.0
 40
3.0
  0
CIRCLE
  5
144
  8
DATA
  6
CONTINUOUS
 62
     7
 10
-78.500000000000014
 20
163.75
 30
0.0
 40
1.75
  0
LINE
  5
145
  8
DATA
  6
CONTINUOUS
 62
     7
 10
24.800000000000001
 20
166.75
 30
0.0
 11
25.0
 21
166.75
 31
0.0
  0
LINE
  5
146
  8
DATA
  6
CONTINUOUS
 62
     7
 10
24.800000000000001
 20
160.75
 30
0.0
 11
25.0
 21
160.75
 31
0.0
  0
LINE
  5
147
  8
DATA
  6
CONTINUOUS
 62
     7
 10
24.800000000000001
 20
160.75
 30
0.0
 11
24.800000000000001
 21
166.75
 31
0.0
  0
LINE
  5
148
  8
DATA
  6
CONTINUOUS
 62
     7
 10
177.00000000004721
 20
231.75
 30
0.0
 11
177.00000000004721
 21
242.25
 31
0.0
  0
LINE
  5
149
  8
DATA
  6
CONTINUOUS
 62
     7
 10
175.30000000004719
 20
131.25
 30
0.0
 11
177.00000000004721
 21
131.25
 31
0.0
  0
LINE
  5
14A
  8
DATA
  6
CONTINUOUS
 62
     7
 10
150.00000000004721
 20
230.05000000000001
 30
0.0
 11
150.00000000004721
 21
143.44999999999999
 31
0.0
  0
LINE
  5
14B
  8
DATA
  6
CONTINUOUS
 62
     7
 10
177.00000000004721
 20
242.25
 30
0.0
 11
175.30000000004719
 21
242.25
 31
0.0
  0
LINE
  5
14C
  8
DATA
  6
CONTINUOUS
 62
     7
 10
151.7000000000472
 20
141.75
 30
0.0
 11
173.6000000000472
 21
141.75
 31
0.0
  0
LINE
  5
14D
  8
DATA
  6
CONTINUOUS
 62
     7
 10
151.7000000000472
 20
231.75
 30
0.0
 11
173.6000000000472
 21
231.75
 31
0.0
  0
LINE
  5
14E
  8
DATA
  6
CONTINUOUS
 62
     7
 10
175.30000000004719
 20
233.44999999999999
 30
0.0
 11
175.30000000004719
 21
242.25
 31
0.0
  0
LINE
  5
14F
  8
DATA
  6
CONTINUOUS
 62
     7
 10
153.40000000004721
 20
230.05000000000001
 30
0.0
 11
177.00000000004721
 21
230.05000000000001
 31
0.0
  0
LINE
  5
150
  8
DATA
  6
CONTINUOUS
 62
     7
 10
153.40000000004721
 20
143.44999999999999
 30
0.0
 11
177.00000000004721
 21
143.44999999999999
 31
0.0
  0
LINE
  5
151
  8
DATA
  6
CONTINUOUS
 62
     7
 10
151.7000000000472
 20
228.34999999999999
 30
0.0
 11
151.7000000000472
 21
145.14999999999989
 31
0.0
  0
ARC
  5
152
  8
DATA
  6
CONTINUOUS
 62
     7
 10
153.40000000004721
 20
228.34999999999999
 30
0.0
 40
1.7000000000000171
 50
90.0
 51
180.0
  0
ARC
  5
153
  8
DATA
  6
CONTINUOUS
 62
     7
 10
151.7000000000472
 20
230.05000000000001
 30
0.0
 40
1.699999999999988
 50
90.0
 51
180.0
  0
ARC
  5
154
  8
DATA
  6
CONTINUOUS
 62
     7
 10
153.40000000004721
 20
145.14999999999989
 30
0.0
 40
1.699999999999988
 50
180.0
 51
270.0
  0
ARC
  5
155
  8
DATA
  6
CONTINUOUS
 62
     7
 10
151.7000000000472
 20
143.44999999999999
 30
0.0
 40
1.699999999999988
 50
180.0
 51
270.0
  0
ARC
  5
156
  8
DATA
  6
CONTINUOUS
 62
     7
 10
173.6000000000472
 20
233.44999999999999
 30
0.0
 40
1.699999999999988
 50
270.0
 51
0.0
  0
ARC
  5
157
  8
DATA
  6
CONTINUOUS
 62
     7
 10
175.30000000004719
 20
231.75
 30
0.0
 40
1.699999999999988
 50
270.0
 51
0.0
  0
LINE
  5
158
  8
DATA
  6
CONTINUOUS
 62
     7
 10
177.00000000004721
 20
131.25
 30
0.0
 11
177.00000000004721
 21
141.75
 31
0.0
  0
LINE
  5
159
  8
DATA
  6
CONTINUOUS
 62
     7
 10
175.30000000004719
 20
131.25
 30
0.0
 11
175.30000000004719
 21
140.05000000000001
 31
0.0
  0
ARC
  5
15A
  8
DATA
  6
CONTINUOUS
 62
     7
 10
173.6000000000472
 20
140.05000000000001
 30
0.0
 40
1.699999999999988
 50
0.0
 51
90.0
  0
ARC
  5
15B
  8
DATA
  6
CONTINUOUS
 62
     7
 10
175.30000000004719
 20
141.75
 30
0.0
 40
1.699999999999988
 50
0.0
 51
90.0
  0
LINE
  5
15C
  8
DATA
  6
CONTINUOUS
 62
     7
 10
177.00000000004721
 20
143.44999999999999
 30
0.0
 11
177.00000000004721
 21
230.05000000000001
 31
0.0
  0
LINE
  5
15D
  8
DATA
  6
CONTINUOUS
 62
     7
 10
177.00000000004721
 20
231.75
 30
0.0
 11
177.00000000004721
 21
231.84999999999999
 31
0.0
  0
LINE
  5
15E
  8
DATA
  6
CONTINUOUS
 62
     7
 10
110.0
 20
268.75
 30
0.0
 11
25.0
 21
268.75
 31
0.0
  0
LINE
  5
15F
  8
DATA
  6
CONTINUOUS
 62
     7
 10
25.0
 20
268.75
 30
0.0
 11
25.0
 21
295.75
 31
0.0
  0
LINE
  5
160
  8
DATA
  6
CONTINUOUS
 62
     7
 10
110.0
 20
268.75
 30
0.0
 11
110.0
 21
295.75
 31
0.0
  0
LINE
  5
161
  8
DATA
  6
CONTINUOUS
 62
     7
 10
110.0
 20
270.44999999999999
 30
0.0
 11
25.0
 21
270.44999999999999
 31
0.0
  0
CIRCLE
  5
162
  8
DATA
  6
CONTINUOUS
 62
     7
 10
45.75
 20
276.44999999999999
 30
0.0
 40
2.3999999999999981
  0
LINE
  5
163
  8
DATA
  6
CONTINUOUS
 62
     7
 10
46.900000000000013
 20
276.44999999999999
 30
0.0
 11
44.599999999999987
 21
276.44999999999999
 31
0.0
  0
LINE
  5
164
  8
DATA
  6
CONTINUOUS
 62
     7
 10
45.75
 20
275.30000000000001
 30
0.0
 11
45.75
 21
277.60000000000002
 31
0.0
  0
CIRCLE
  5
165
  8
DATA
  6
CONTINUOUS
 62
     7
 10
89.25
 20
276.44999999999999
 30
0.0
 40
2.3999999999999981
  0
LINE
  5
166
  8
DATA
  6
CONTINUOUS
 62
     7
 10
90.400000000000006
 20
276.44999999999999
 30
0.0
 11
88.09999999999998
 21
276.44999999999999
 31
0.0
  0
LINE
  5
167
  8
DATA
  6
CONTINUOUS
 62
     7
 10
89.25
 20
275.30000000000001
 30
0.0
 11
89.25
 21
277.60000000000002
 31
0.0
  0
LINE
  5
168
  8
DATA
  6
CONTINUOUS
 62
     7
 10
24.800000000000001
 20
274.75
 30
0.0
 11
24.800000000000001
 21
280.75
 31
0.0
  0
LINE
  5
169
  8
DATA
  6
CONTINUOUS
 62
     7
 10
24.800000000000001
 20
280.75
 30
0.0
 11
25.0
 21
280.75
 31
0.0
  0
LINE
  5
16A
  8
DATA
  6
CONTINUOUS
 62
     7
 10
25.0
 20
274.75
 30
0.0
 11
24.800000000000001
 21
274.75
 31
0.0
  0
TEXT
  5
16B
  8
DATA
 62
     7
 10
27.286458634519899
 20
208.44499999999999
 30
0.0
 40
2.6061458333333318
  1
LINK
 50
270.0
 41
0.7
 11
29.892604467853229
 21
208.44499999999999
 31
0.0
 73
     3
1001
ACADANNOTATIVE
1000
AnnotativeData
1002
{
1070
     1
1070
     0
1002
}
  0
TEXT
  5
16C
  8
DATA
 62
     7
 10
27.286458634519899
 20
168.72261056347881
 30
0.0
 40
2.6061458333333318
  1
Ext IR
 50
270.0
 41
0.7
 11
29.892604467853229
 21
168.72261056347881
 31
0.0
 73
     3
1001
ACADANNOTATIVE
1000
AnnotativeData
1002
{
1070
     1
1070
     0
1002
}
  0
POLYLINE
  5
16D
  8
DATA
  6
CONTINUOUS
 62
     7
 66
     1
 10
0.0
 20
0.0
 30
0.0
 70
     1
  0
VERTEX
  5
453
  8
DATA
  6
CONTINUOUS
 62
     7
 10
159.82995232046659
 20
196.00663243849451
 30
0.0
  0
VERTEX
  5
454
  8
DATA
  6
CONTINUOUS
 62
     7
 10
159.08280609365991
 20
198.7950201176206
 30
0.0
  0
VERTEX
  5
455
  8
DATA
  6
CONTINUOUS
 62
     7
 10
156.29441841453391
 20
199.5421663444273
 30
0.0
  0
VERTEX
  5
456
  8
DATA
  6
CONTINUOUS
 62
     7
 10
154.25317696221461
 20
197.500924892108
 30
0.0
  0
VERTEX
  5
457
  8
DATA
  6
CONTINUOUS
 62
     7
 10
155.00032318902129
 20
194.712537212982
 30
0.0
  0
VERTEX
  5
458
  8
DATA
  6
CONTINUOUS
 62
     7
 10
157.7887108681474
 20
193.96539098617521
 30
0.0
  0
SEQEND
  5
459
  8
DATA
  6
CONTINUOUS
 62
     7
  0
CIRCLE
  5
176
  8
DATA
  6
CONTINUOUS
 62
     7
 10
157.04156464134061
 20
196.7537786653013
 30
0.0
 40
1.2750000000000341
  0
LINE
  5
177
  8
DATA
  6
CONTINUOUS
 62
     7
 10
164.104415310105
 20
204.60377866530129
 30
0.0
 11
164.104415310105
 21
188.9037786653013
 31
0.0
  0
LINE
  5
178
  8
DATA
  6
CONTINUOUS
 62
     7
 10
164.104415310105
 20
204.60377866530129
 30
0.0
 11
168.40441531010521
 21
204.60377866530129
 31
0.0
  0
LINE
  5
179
  8
DATA
  6
CONTINUOUS
 62
     7
 10
164.104415310105
 20
188.9037786653013
 30
0.0
 11
168.40441531010521
 21
188.9037786653013
 31
0.0
  0
LINE
  5
17A
  8
DATA
  6
CONTINUOUS
 62
     7
 10
168.40441531010521
 20
204.60377866530129
 30
0.0
 11
170.1044153101052
 21
202.0037786653013
 31
0.0
  0
LINE
  5
17B
  8
DATA
  6
CONTINUOUS
 62
     7
 10
168.40441531010521
 20
188.9037786653013
 30
0.0
 11
170.1044153101052
 21
191.5037786653013
 31
0.0
  0
LINE
  5
17C
  8
DATA
  6
CONTINUOUS
 62
     7
 10
170.1044153101052
 20
202.0037786653013
 30
0.0
 11
170.1044153101052
 21
191.5037786653013
 31
0.0
  0
POLYLINE
  5
17D
  8
DATA
  6
CONTINUOUS
 62
     7
 66
     1
 10
0.0
 20
0.0
 30
0.0
 70
     1
  0
VERTEX
  5
45A
  8
DATA
  6
CONTINUOUS
 62
     7
 10
166.39057848459791
 20
201.7537786653013
 30
0.0
  0
VERTEX
  5
45B
  8
DATA
  6
CONTINUOUS
 62
     7
 10
166.89057848459791
 20
201.7537786653013
 30
0.0
  0
VERTEX
  5
45C
  8
DATA
  6
CONTINUOUS
 62
     7
 10
166.89057848459791
 20
191.7537786653013
 30
0.0
  0
VERTEX
  5
45D
  8
DATA
  6
CONTINUOUS
 62
     7
 10
166.39057848459791
 20
191.7537786653013
 30
0.0
  0
SEQEND
  5
45E
  8
DATA
  6
CONTINUOUS
 62
     7
  0
CIRCLE
  5
184
  8
DATA
  6
CONTINUOUS
 62
     7
 10
162.00000000004709
 20
161.75
 30
0.0
 40
3.9000000000000048
  0
CIRCLE
  5
185
  8
DATA
  6
CONTINUOUS
 62
     7
 10
162.00000000004709
 20
161.75
 30
0.0
 40
2.8499999999999939
  0
CIRCLE
  5
186
  8
DATA
  6
CONTINUOUS
 62
     7
 10
162.00000000004709
 20
161.75
 30
0.0
 40
0.75
  0
POLYLINE
  5
187
  8
DATA
  6
CONTINUOUS
 62
     7
 66
     1
 10
0.0
 20
0.0
 30
0.0
 70
     1
  0
VERTEX
  5
45F
  8
DATA
  6
CONTINUOUS
 62
     7
 10
159.3153212483154
 20
166.40000000000001
 30
0.0
  0
VERTEX
  5
460
  8
DATA
  6
CONTINUOUS
 62
     7
 10
156.6306424965837
 20
161.75
 30
0.0
  0
VERTEX
  5
461
  8
DATA
  6
CONTINUOUS
 62
     7
 10
159.3153212483154
 20
157.09999999999999
 30
0.0
  0
VERTEX
  5
462
  8
DATA
  6
CONTINUOUS
 62
     7
 10
164.6846787517789
 20
157.09999999999999
 30
0.0
  0
VERTEX
  5
463
  8
DATA
  6
CONTINUOUS
 62
     7
 10
167.36935750351071
 20
161.75
 30
0.0
  0
VERTEX
  5
464
  8
DATA
  6
CONTINUOUS
 62
     7
 10
164.6846787517789
 20
166.40000000000001
 30
0.0
  0
SEQEND
  5
465
  8
DATA
  6
CONTINUOUS
 62
     7
  0
LINE
  5
190
  8
DATA
  6
CONTINUOUS
 62
     7
 10
115.8693575034635
 20
157.72443486308001
 30
0.0
 11
111.9999999998635
 21
157.72443486308001
 31
0.0
  0
LINE
  5
191
  8
DATA
  6
CONTINUOUS
 62
     7
 10
115.8693575034635
 20
165.52443486307999
 30
0.0
 11
111.9999999998635
 21
165.52443486307999
 31
0.0
  0
LINE
  5
192
  8
DATA
  6
CONTINUOUS
 62
     7
 10
111.8693575034635
 20
161.62443486308001
 30
0.0
 11
110.0
 21
161.62443486308001
 31
0.0
  0
LINE
  5
193
  8
DATA
  6
CONTINUOUS
 62
     7
 10
111.8693575034635
 20
156.25507735961651
 30
0.0
 11
110.0
 21
156.25507735961651
 31
0.0
  0
LINE
  5
194
  8
DATA
  6
CONTINUOUS
 62
     7
 10
111.8693575034635
 20
166.99379236654349
 30
0.0
 11
110.0
 21
166.99379236654349
 31
0.0
  0
LINE
  5
195
  8
DATA
  6
CONTINUOUS
 62
     7
 10
115.9999999998635
 20
165.52443486307999
 30
0.0
 11
115.9999999998635
 21
157.72443486308001
 31
0.0
  0
LINE
  5
196
  8
DATA
  6
CONTINUOUS
 62
     7
 10
115.9999999998635
 20
157.72443486308001
 30
0.0
 11
111.9999999998635
 21
157.72443486308001
 31
0.0
  0
LINE
  5
197
  8
DATA
  6
CONTINUOUS
 62
     7
 10
115.9999999998635
 20
165.52443486307999
 30
0.0
 11
111.9999999998635
 21
165.52443486307999
 31
0.0
  0
LINE
  5
198
  8
DATA
  6
CONTINUOUS
 62
     7
 10
111.9999999998635
 20
161.62443486308001
 30
0.0
 11
109.9999999998635
 21
161.62443486308001
 31
0.0
  0
LINE
  5
199
  8
DATA
  6
CONTINUOUS
 62
     7
 10
111.9999999998635
 20
156.25507735961651
 30
0.0
 11
109.9999999998635
 21
156.25507735961651
 31
0.0
  0
LINE
  5
19A
  8
DATA
  6
CONTINUOUS
 62
     7
 10
111.9999999998635
 20
166.99379236654349
 30
0.0
 11
109.9999999998635
 21
166.99379236654349
 31
0.0
  0
LINE
  5
19B
  8
DATA
  6
CONTINUOUS
 62
     7
 10
111.9999999998635
 20
156.25507735961651
 30
0.0
 11
111.9999999998635
 21
166.99379236654349
 31
0.0
  0
LINE
  5
19C
  8
DATA
  6
CONTINUOUS
 62
     7
 10
115.0
 20
193.96539098617521
 30
0.0
 11
115.0
 21
199.5421663444273
 31
0.0
  0
LINE
  5
19D
  8
DATA
  6
CONTINUOUS
 62
     7
 10
115.0
 20
199.5421663444273
 30
0.0
 11
110.0
 21
199.5421663444273
 31
0.0
  0
LINE
  5
19E
  8
DATA
  6
CONTINUOUS
 62
     7
 10
115.0
 20
193.96539098617521
 30
0.0
 11
110.0
 21
193.96539098617521
 31
0.0
  0
CIRCLE
  5
19F
  8
DATA
  6
CONTINUOUS
 62
     7
 10
165.00000000004709
 20
181.75
 30
0.0
 40
1.5
  0
TEXT
  5
1A0
  8
DATA
 62
     7
 10
107.4283434605529
 20
193.5004861202635
 30
0.0
 40
2.6061458333333318
  1
HDMI
 50
90.0
 41
0.7
 11
104.8221976272195
 21
193.5004861202635
 31
0.0
 73
     3
1001
ACADANNOTATIVE
1000
AnnotativeData
1002
{
1070
     1
1070
     0
1002
}
  0
TEXT
  5
1A1
  8
DATA
 62
     7
 10
107.4283434605529
 20
157.76391175359649
 30
0.0
 40
2.6061458333333318
  1
5V DC
 50
90.0
 41
0.7
 11
104.8221976272195
 21
157.76391175359649
 31
0.0
 73
     3
1001
ACADANNOTATIVE
1000
AnnotativeData
1002
{
1070
     1
1070
     0
1002
}
  0
TEXT
  5
1A2
  8
DATA
 62
     7
 10
107.4283434605529
 20
178.63265453241061
 30
0.0
 40
2.6061458333333318
  1
Power
 50
90.0
 41
0.7
 11
104.8221976272195
 21
178.63265453241061
 31
0.0
 73
     3
1001
ACADANNOTATIVE
1000
AnnotativeData
1002
{
1070
     1
1070
     0
1002
}
  0
LINE
  5
1A3
  8
DATA
  6
CONTINUOUS
 62
     7
 10
115.8693575034635
 20
279.85812955014927
 30
0.0
 11
111.9999999998635
 21
279.85812955014927
 31
0.0
  0
LINE
  5
1A4
  8
DATA
  6
CONTINUOUS
 62
     7
 10
115.8693575034635
 20
287.65812955014923
 30
0.0
 11
111.9999999998635
 21
287.65812955014923
 31
0.0
  0
LINE
  5
1A5
  8
DATA
  6
CONTINUOUS
 62
     7
 10
111.8693575034635
 20
283.75812955014931
 30
0.0
 11
110.0
 21
283.75812955014931
 31
0.0
  0
LINE
  5
1A6
  8
DATA
  6
CONTINUOUS
 62
     7
 10
111.8693575034635
 20
278.3887720466858
 30
0.0
 11
110.0
 21
278.3887720466858
 31
0.0
  0
LINE
  5
1A7
  8
DATA
  6
CONTINUOUS
 62
     7
 10
111.8693575034635
 20
289.12748705361281
 30
0.0
 11
110.0
 21
289.12748705361281
 31
0.0
  0
LINE
  5
1A8
  8
DATA
  6
CONTINUOUS
 62
     7
 10
115.9999999998635
 20
287.65812955014923
 30
0.0
 11
115.9999999998635
 21
279.85812955014927
 31
0.0
  0
LINE
  5
1A9
  8
DATA
  6
CONTINUOUS
 62
     7
 10
115.9999999998635
 20
279.85812955014927
 30
0.0
 11
111.9999999998635
 21
279.85812955014927
 31
0.0
  0
LINE
  5
1AA
  8
DATA
  6
CONTINUOUS
 62
     7
 10
115.9999999998635
 20
287.65812955014923
 30
0.0
 11
111.9999999998635
 21
287.65812955014923
 31
0.0
  0
LINE
  5
1AB
  8
DATA
  6
CONTINUOUS
 62
     7
 10
111.9999999998635
 20
283.75812955014931
 30
0.0
 11
109.9999999998635
 21
283.75812955014931
 31
0.0
  0
LINE
  5
1AC
  8
DATA
  6
CONTINUOUS
 62
     7
 10
111.9999999998635
 20
278.3887720466858
 30
0.0
 11
109.9999999998635
 21
278.3887720466858
 31
0.0
  0
LINE
  5
1AD
  8
DATA
  6
CONTINUOUS
 62
     7
 10
111.9999999998635
 20
289.12748705361281
 30
0.0
 11
109.9999999998635
 21
289.12748705361281
 31
0.0
  0
LINE
  5
1AE
  8
DATA
  6
CONTINUOUS
 62
     7
 10
111.9999999998635
 20
278.3887720466858
 30
0.0
 11
111.9999999998635
 21
289.12748705361281
 31
0.0
  0
LINE
  5
1AF
  8
DATA
  6
CONTINUOUS
 62
     7
 10
110.0
 20
295.75
 30
0.0
 11
25.0
 21
295.75
 31
0.0
  0
LINE
  5
1B0
  8
DATA
  6
CONTINUOUS
 62
     7
 10
115.0
 20
287.65812955014923
 30
0.0
 11
115.0
 21
291.64465923606161
 31
0.0
  0
LINE
  5
1B1
  8
DATA
  6
CONTINUOUS
 62
     7
 10
115.0
 20
291.64465923606161
 30
0.0
 11
110.0
 21
291.64465923606161
 31
0.0
  0
LINE
  5
1B2
  8
DATA
  6
CONTINUOUS
 62
     7
 10
131.25
 20
262.5
 30
0.0
 11
95.499285568453558
 21
236.69999999999999
 31
0.0
  0
LINE
  5
1B3
  8
DATA
  6
CONTINUOUS
 62
     7
 10
95.499285568453558
 20
236.69999999999999
 30
0.0
 11
101.8378177990143
 21
244.25396855754499
 31
0.0
  0
LINE
  5
1B4
  8
DATA
  6
CONTINUOUS
 62
     7
 10
95.499285568453558
 20
236.69999999999999
 30
0.0
 11
104.7655997815981
 21
240.0726625549425
 31
0.0
  0
LINE
  5
1B5
  8
DATA
  6
CONTINUOUS
 62
     7
 10
131.25
 20
262.5
 30
0.0
 11
200.40000000000001
 21
262.5
 31
0.0
  0
LINE
  5
1B6
  8
DATA
  6
CONTINUOUS
 62
     7
 10
25.0
 20
-115.75
 30
0.0
 11
25.0
 21
-10.75
 31
0.0
  0
LINE
  5
1B7
  8
DATA
  6
CONTINUOUS
 62
     7
 10
107.0
 20
-118.75
 30
0.0
 11
28.0
 21
-118.75
 31
0.0
  0
LINE
  5
1B8
  8
DATA
  6
CONTINUOUS
 62
     7
 10
110.0
 20
-10.75
 30
0.0
 11
110.0
 21
-115.75
 31
0.0
  0
LINE
  5
1B9
  8
DATA
  6
CONTINUOUS
 62
     7
 10
28.0
 20
-7.75
 30
0.0
 11
107.0
 21
-7.75
 31
0.0
  0
LINE
  5
1BA
  8
DATA
  6
CONTINUOUS
 62
     7
 10
110.0
 20
-108.25
 30
0.0
 11
25.0
 21
-108.25
 31
0.0
  0
LINE
  5
1BB
  8
DATA
  6
CONTINUOUS
 62
     7
 10
25.0
 20
-18.25
 30
0.0
 11
110.0
 21
-18.25
 31
0.0
  0
LINE
  5
1BC
  8
DATA
  6
CONTINUOUS
 62
     7
 10
-87.500000000000014
 20
-18.25
 30
0.0
 11
-87.500000000000014
 21
-7.75
 31
0.0
  0
LINE
  5
1BD
  8
DATA
  6
CONTINUOUS
 62
     7
 10
-85.800000000000026
 20
-118.75
 30
0.0
 11
-87.500000000000014
 21
-118.75
 31
0.0
  0
LINE
  5
1BE
  8
DATA
  6
CONTINUOUS
 62
     7
 10
-60.500000000000021
 20
-19.949999999999989
 30
0.0
 11
-60.500000000000021
 21
-106.55
 31
0.0
  0
LINE
  5
1BF
  8
DATA
  6
CONTINUOUS
 62
     7
 10
-87.500000000000014
 20
-7.75
 30
0.0
 11
-85.800000000000026
 21
-7.75
 31
0.0
  0
LINE
  5
1C0
  8
DATA
  6
CONTINUOUS
 62
     7
 10
-62.200000000000003
 20
-108.25
 30
0.0
 11
-84.100000000000009
 21
-108.25
 31
0.0
  0
LINE
  5
1C1
  8
DATA
  6
CONTINUOUS
 62
     7
 10
-62.200000000000003
 20
-18.25
 30
0.0
 11
-84.100000000000009
 21
-18.25
 31
0.0
  0
LINE
  5
1C2
  8
DATA
  6
CONTINUOUS
 62
     7
 10
-85.800000000000026
 20
-16.550000000000011
 30
0.0
 11
-85.800000000000026
 21
-7.75
 31
0.0
  0
TEXT
  5
1C3
  8
DATA
 62
     7
 10
41.84516492778927
 20
-91.876906696291641
 30
0.0
 40
6.5153645833333318
  1
Extender for
 41
0.7
 11
41.84516492778927
 21
-85.361542112958304
 31
0.0
 73
     3
1001
ACADANNOTATIVE
1000
AnnotativeData
1002
{
1070
     1
1070
     0
1002
}
  0
TEXT
  5
1C4
  8
DATA
 62
     7
 10
47.5
 20
-102.9449399925938
 30
0.0
 40
6.5153645833333318
  1
HDMI 3DTV R
 41
0.7
 11
47.5
 21
-96.429575409260465
 31
0.0
 73
     3
1001
ACADANNOTATIVE
1000
AnnotativeData
1002
{
1070
     1
1070
     0
1002
}
  0
LINE
  5
1C5
  8
DATA
  6
CONTINUOUS
 62
     7
 10
68.749999999999986
 20
-15.0
 30
0.0
 11
66.249999999999986
 21
-15.0
 31
0.0
  0
LINE
  5
1C6
  8
DATA
  6
CONTINUOUS
 62
     7
 10
66.249999999999986
 20
-11.5
 30
0.0
 11
68.749999999999986
 21
-11.5
 31
0.0
  0
ARC
  5
1C7
  8
DATA
  6
CONTINUOUS
 62
     7
 10
66.249999999999986
 20
-13.25
 30
0.0
 40
1.75
 50
90.0
 51
270.0
  0
ARC
  5
1C8
  8
DATA
  6
CONTINUOUS
 62
     7
 10
68.749999999999986
 20
-13.25
 30
0.0
 40
1.75
 50
270.0
 51
90.0
  0
LINE
  5
1C9
  8
DATA
  6
CONTINUOUS
 62
     7
 10
93.749999999999986
 20
-15.0
 30
0.0
 11
91.249999999999986
 21
-15.0
 31
0.0
  0
LINE
  5
1CA
  8
DATA
  6
CONTINUOUS
 62
     7
 10
91.249999999999986
 20
-11.5
 30
0.0
 11
93.749999999999986
 21
-11.5
 31
0.0
  0
ARC
  5
1CB
  8
DATA
  6
CONTINUOUS
 62
     7
 10
91.249999999999986
 20
-13.25
 30
0.0
 40
1.75
 50
90.0
 51
270.0
  0
ARC
  5
1CC
  8
DATA
  6
CONTINUOUS
 62
     7
 10
93.749999999999986
 20
-13.25
 30
0.0
 40
1.75
 50
270.0
 51
90.0
  0
LINE
  5
1CD
  8
DATA
  6
CONTINUOUS
 62
     7
 10
43.749999999999993
 20
-15.0
 30
0.0
 11
41.249999999999993
 21
-15.0
 31
0.0
  0
LINE
  5
1CE
  8
DATA
  6
CONTINUOUS
 62
     7
 10
41.249999999999993
 20
-11.5
 30
0.0
 11
43.749999999999993
 21
-11.5
 31
0.0
  0
ARC
  5
1CF
  8
DATA
  6
CONTINUOUS
 62
     7
 10
41.249999999999993
 20
-13.25
 30
0.0
 40
1.75
 50
90.0
 51
270.0
  0
ARC
  5
1D0
  8
DATA
  6
CONTINUOUS
 62
     7
 10
43.749999999999993
 20
-13.25
 30
0.0
 40
1.75
 50
270.0
 51
90.0
  0
LINE
  5
1D1
  8
DATA
  6
CONTINUOUS
 62
     7
 10
68.749999999999986
 20
-111.5
 30
0.0
 11
66.249999999999986
 21
-111.5
 31
0.0
  0
LINE
  5
1D2
  8
DATA
  6
CONTINUOUS
 62
     7
 10
66.249999999999986
 20
-115.0
 30
0.0
 11
68.749999999999986
 21
-115.0
 31
0.0
  0
ARC
  5
1D3
  8
DATA
  6
CONTINUOUS
 62
     7
 10
66.249999999999986
 20
-113.25
 30
0.0
 40
1.75
 50
90.0
 51
270.0
  0
ARC
  5
1D4
  8
DATA
  6
CONTINUOUS
 62
     7
 10
68.749999999999986
 20
-113.25
 30
0.0
 40
1.75
 50
270.0
 51
90.0
  0
LINE
  5
1D5
  8
DATA
  6
CONTINUOUS
 62
     7
 10
93.749999999999986
 20
-111.5
 30
0.0
 11
91.249999999999986
 21
-111.5
 31
0.0
  0
LINE
  5
1D6
  8
DATA
  6
CONTINUOUS
 62
     7
 10
91.249999999999986
 20
-115.0
 30
0.0
 11
93.749999999999986
 21
-115.0
 31
0.0
  0
ARC
  5
1D7
  8
DATA
  6
CONTINUOUS
 62
     7
 10
91.249999999999986
 20
-113.25
 30
0.0
 40
1.75
 50
90.0
 51
270.0
  0
ARC
  5
1D8
  8
DATA
  6
CONTINUOUS
 62
     7
 10
93.749999999999986
 20
-113.25
 30
0.0
 40
1.75
 50
270.0
 51
90.0
  0
LINE
  5
1D9
  8
DATA
  6
CONTINUOUS
 62
     7
 10
43.749999999999993
 20
-111.5
 30
0.0
 11
41.249999999999993
 21
-111.5
 31
0.0
  0
LINE
  5
1DA
  8
DATA
  6
CONTINUOUS
 62
     7
 10
41.249999999999993
 20
-115.0
 30
0.0
 11
43.749999999999993
 21
-115.0
 31
0.0
  0
ARC
  5
1DB
  8
DATA
  6
CONTINUOUS
 62
     7
 10
41.249999999999993
 20
-113.25
 30
0.0
 40
1.75
 50
90.0
 51
270.0
  0
ARC
  5
1DC
  8
DATA
  6
CONTINUOUS
 62
     7
 10
43.749999999999993
 20
-113.25
 30
0.0
 40
1.75
 50
270.0
 51
90.0
  0
TEXT
  5
1DD
  8
DATA
 62
     7
 10
139.2366316970548
 20
14.93515281630491
 30
0.0
 40
8.1442057291666661
  1
6-\U+03A66\U+00D73.5
 41
0.7
 11
139.2366316970548
 21
19.00725568088825
 31
0.0
 73
     2
1001
ACADANNOTATIVE
1000
AnnotativeData
1002
{
1070
     1
1070
     0
1002
}
  0
LINE
  5
1DE
  8
DATA
  6
CONTINUOUS
 62
     7
 10
-63.899999999999991
 20
-19.949999999999989
 30
0.0
 11
-87.500000000000014
 21
-19.949999999999989
 31
0.0
  0
LINE
  5
1DF
  8
DATA
  6
CONTINUOUS
 62
     7
 10
-63.899999999999991
 20
-106.55
 30
0.0
 11
-87.500000000000014
 21
-106.55
 31
0.0
  0
LINE
  5
1E0
  8
DATA
  6
CONTINUOUS
 62
     7
 10
-62.200000000000003
 20
-21.650000000000009
 30
0.0
 11
-62.200000000000003
 21
-104.84999999999999
 31
0.0
  0
ARC
  5
1E1
  8
DATA
  6
CONTINUOUS
 62
     7
 10
-63.899999999999991
 20
-21.650000000000009
 30
0.0
 40
1.699999999999988
 50
0.0
 51
90.0
  0
ARC
  5
1E2
  8
DATA
  6
CONTINUOUS
 62
     7
 10
-62.200000000000003
 20
-19.949999999999989
 30
0.0
 40
1.699999999999988
 50
0.0
 51
90.0
  0
ARC
  5
1E3
  8
DATA
  6
CONTINUOUS
 62
     7
 10
-63.899999999999991
 20
-104.84999999999999
 30
0.0
 40
1.699999999999988
 50
270.0
 51
0.0
  0
ARC
  5
1E4
  8
DATA
  6
CONTINUOUS
 62
     7
 10
-62.200000000000003
 20
-106.55
 30
0.0
 40
1.699999999999988
 50
270.0
 51
0.0
  0
ARC
  5
1E5
  8
DATA
  6
CONTINUOUS
 62
     7
 10
-84.100000000000009
 20
-16.550000000000011
 30
0.0
 40
1.699999999999988
 50
180.0
 51
270.0
  0
ARC
  5
1E6
  8
DATA
  6
CONTINUOUS
 62
     7
 10
-85.800000000000026
 20
-18.25
 30
0.0
 40
1.699999999999988
 50
180.0
 51
270.0
  0
LINE
  5
1E7
  8
DATA
  6
CONTINUOUS
 62
     7
 10
-87.500000000000014
 20
-118.75
 30
0.0
 11
-87.500000000000014
 21
-108.25
 31
0.0
  0
LINE
  5
1E8
  8
DATA
  6
CONTINUOUS
 62
     7
 10
-85.800000000000026
 20
-118.75
 30
0.0
 11
-85.800000000000026
 21
-109.95
 31
0.0
  0
ARC
  5
1E9
  8
DATA
  6
CONTINUOUS
 62
     7
 10
-84.100000000000009
 20
-109.95
 30
0.0
 40
1.699999999999988
 50
90.0
 51
180.0
  0
ARC
  5
1EA
  8
DATA
  6
CONTINUOUS
 62
     7
 10
-85.800000000000026
 20
-108.25
 30
0.0
 40
1.699999999999988
 50
90.0
 51
180.0
  0
LINE
  5
1EB
  8
DATA
  6
CONTINUOUS
 62
     7
 10
-87.500000000000014
 20
-106.55
 30
0.0
 11
-87.500000000000014
 21
-19.949999999999989
 31
0.0
  0
LINE
  5
1EC
  8
DATA
  6
CONTINUOUS
 62
     7
 10
-87.500000000000014
 20
-18.25
 30
0.0
 11
-87.500000000000014
 21
-18.14999999999997
 31
0.0
  0
ARC
  5
1ED
  8
DATA
  6
CONTINUOUS
 62
     7
 10
28.0
 20
-10.75
 30
0.0
 40
3.0
 50
90.0
 51
180.0
  0
ARC
  5
1EE
  8
DATA
  6
CONTINUOUS
 62
     7
 10
107.0
 20
-10.75
 30
0.0
 40
3.0
 50
0.0
 51
90.0
  0
ARC
  5
1EF
  8
DATA
  6
CONTINUOUS
 62
     7
 10
28.0
 20
-115.75
 30
0.0
 40
3.0
 50
180.0
 51
270.0
  0
ARC
  5
1F0
  8
DATA
  6
CONTINUOUS
 62
     7
 10
107.0
 20
-115.75
 30
0.0
 40
3.0
 50
270.0
 51
0.0
  0
LINE
  5
1F1
  8
DATA
  6
CONTINUOUS
 62
     7
 10
-81.503643411788602
 20
-71.22157307634086
 30
0.0
 11
-68.203643411788661
 21
-71.22157307634086
 31
0.0
  0
LINE
  5
1F2
  8
DATA
  6
CONTINUOUS
 62
     7
 10
-81.503643411788602
 20
-86.921573076340792
 30
0.0
 11
-68.203643411788661
 21
-86.921573076340792
 31
0.0
  0
LINE
  5
1F3
  8
DATA
  6
CONTINUOUS
 62
     7
 10
-78.503643411788673
 20
-85.221573076340874
 30
0.0
 11
-71.203643411788661
 21
-85.221573076340874
 31
0.0
  0
LINE
  5
1F4
  8
DATA
  6
CONTINUOUS
 62
     7
 10
-78.503643411788673
 20
-72.921573076340763
 30
0.0
 11
-71.203643411788661
 21
-72.921573076340763
 31
0.0
  0
LINE
  5
1F5
  8
DATA
  6
CONTINUOUS
 62
     7
 10
-68.203643411788661
 20
-86.921573076340792
 30
0.0
 11
-68.203643411788661
 21
-71.22157307634086
 31
0.0
  0
LINE
  5
1F6
  8
DATA
  6
CONTINUOUS
 62
     7
 10
-81.503643411788602
 20
-86.921573076340792
 30
0.0
 11
-81.503643411788602
 21
-71.22157307634086
 31
0.0
  0
LINE
  5
1F7
  8
DATA
  6
CONTINUOUS
 62
     7
 10
-78.503643411788673
 20
-85.221573076340874
 30
0.0
 11
-78.503643411788673
 21
-72.921573076340763
 31
0.0
  0
LINE
  5
1F8
  8
DATA
  6
CONTINUOUS
 62
     7
 10
-71.203643411788661
 20
-85.221573076340874
 30
0.0
 11
-71.203643411788661
 21
-82.321573076340798
 31
0.0
  0
LINE
  5
1F9
  8
DATA
  6
CONTINUOUS
 62
     7
 10
-71.203643411788661
 20
-75.821573076340812
 30
0.0
 11
-71.203643411788661
 21
-72.921573076340763
 31
0.0
  0
LINE
  5
1FA
  8
DATA
  6
CONTINUOUS
 62
     7
 10
-68.203643411788661
 20
-75.821573076340812
 30
0.0
 11
-71.203643411788661
 21
-75.821573076340812
 31
0.0
  0
LINE
  5
1FB
  8
DATA
  6
CONTINUOUS
 62
     7
 10
-68.203643411788661
 20
-82.321573076340798
 30
0.0
 11
-71.203643411788661
 21
-82.321573076340798
 31
0.0
  0
CIRCLE
  5
1FC
  8
DATA
  6
CONTINUOUS
 62
     7
 10
-78.500000000000014
 20
-40.401527543108273
 30
0.0
 40
3.0
  0
CIRCLE
  5
1FD
  8
DATA
  6
CONTINUOUS
 62
     7
 10
-78.500000000000014
 20
-40.401527543108273
 30
0.0
 40
1.75
  0
LINE
  5
1FE
  8
DATA
  6
CONTINUOUS
 62
     7
 10
24.800000000000001
 20
-37.45145062988616
 30
0.0
 11
25.0
 21
-37.45145062988616
 31
0.0
  0
LINE
  5
1FF
  8
DATA
  6
CONTINUOUS
 62
     7
 10
24.800000000000001
 20
-43.451450629886153
 30
0.0
 11
25.0
 21
-43.451450629886153
 31
0.0
  0
LINE
  5
200
  8
DATA
  6
CONTINUOUS
 62
     7
 10
24.800000000000001
 20
-43.451450629886153
 30
0.0
 11
24.800000000000001
 21
-37.45145062988616
 31
0.0
  0
LINE
  5
201
  8
DATA
  6
CONTINUOUS
 62
     7
 10
177.00000000004721
 20
-18.25
 30
0.0
 11
177.00000000004721
 21
-7.75
 31
0.0
  0
LINE
  5
202
  8
DATA
  6
CONTINUOUS
 62
     7
 10
175.30000000004719
 20
-118.75
 30
0.0
 11
177.00000000004721
 21
-118.75
 31
0.0
  0
LINE
  5
203
  8
DATA
  6
CONTINUOUS
 62
     7
 10
150.00000000004721
 20
-19.949999999999989
 30
0.0
 11
150.00000000004721
 21
-106.55
 31
0.0
  0
LINE
  5
204
  8
DATA
  6
CONTINUOUS
 62
     7
 10
177.00000000004721
 20
-7.75
 30
0.0
 11
175.30000000004719
 21
-7.75
 31
0.0
  0
LINE
  5
205
  8
DATA
  6
CONTINUOUS
 62
     7
 10
151.7000000000472
 20
-108.25
 30
0.0
 11
173.6000000000472
 21
-108.25
 31
0.0
  0
LINE
  5
206
  8
DATA
  6
CONTINUOUS
 62
     7
 10
151.7000000000472
 20
-18.25
 30
0.0
 11
173.6000000000472
 21
-18.25
 31
0.0
  0
LINE
  5
207
  8
DATA
  6
CONTINUOUS
 62
     7
 10
175.30000000004719
 20
-16.550000000000011
 30
0.0
 11
175.30000000004719
 21
-7.75
 31
0.0
  0
LINE
  5
208
  8
DATA
  6
CONTINUOUS
 62
     7
 10
153.40000000004721
 20
-19.949999999999989
 30
0.0
 11
177.00000000004721
 21
-19.949999999999989
 31
0.0
  0
LINE
  5
209
  8
DATA
  6
CONTINUOUS
 62
     7
 10
153.40000000004721
 20
-106.55
 30
0.0
 11
177.00000000004721
 21
-106.55
 31
0.0
  0
LINE
  5
20A
  8
DATA
  6
CONTINUOUS
 62
     7
 10
151.7000000000472
 20
-21.650000000000009
 30
0.0
 11
151.7000000000472
 21
-104.84999999999999
 31
0.0
  0
ARC
  5
20B
  8
DATA
  6
CONTINUOUS
 62
     7
 10
153.40000000004721
 20
-21.650000000000009
 30
0.0
 40
1.7000000000000171
 50
90.0
 51
180.0
  0
ARC
  5
20C
  8
DATA
  6
CONTINUOUS
 62
     7
 10
151.7000000000472
 20
-19.949999999999989
 30
0.0
 40
1.699999999999988
 50
90.0
 51
180.0
  0
ARC
  5
20D
  8
DATA
  6
CONTINUOUS
 62
     7
 10
153.40000000004721
 20
-104.84999999999999
 30
0.0
 40
1.699999999999988
 50
180.0
 51
270.0
  0
ARC
  5
20E
  8
DATA
  6
CONTINUOUS
 62
     7
 10
151.7000000000472
 20
-106.55
 30
0.0
 40
1.699999999999988
 50
180.0
 51
270.0
  0
ARC
  5
20F
  8
DATA
  6
CONTINUOUS
 62
     7
 10
173.6000000000472
 20
-16.550000000000011
 30
0.0
 40
1.699999999999988
 50
270.0
 51
0.0
  0
ARC
  5
210
  8
DATA
  6
CONTINUOUS
 62
     7
 10
175.30000000004719
 20
-18.25
 30
0.0
 40
1.699999999999988
 50
270.0
 51
0.0
  0
LINE
  5
211
  8
DATA
  6
CONTINUOUS
 62
     7
 10
177.00000000004721
 20
-118.75
 30
0.0
 11
177.00000000004721
 21
-108.25
 31
0.0
  0
LINE
  5
212
  8
DATA
  6
CONTINUOUS
 62
     7
 10
175.30000000004719
 20
-118.75
 30
0.0
 11
175.30000000004719
 21
-109.95
 31
0.0
  0
ARC
  5
213
  8
DATA
  6
CONTINUOUS
 62
     7
 10
173.6000000000472
 20
-109.95
 30
0.0
 40
1.699999999999988
 50
0.0
 51
90.0
  0
ARC
  5
214
  8
DATA
  6
CONTINUOUS
 62
     7
 10
175.30000000004719
 20
-108.25
 30
0.0
 40
1.699999999999988
 50
0.0
 51
90.0
  0
LINE
  5
215
  8
DATA
  6
CONTINUOUS
 62
     7
 10
177.00000000004721
 20
-106.55
 30
0.0
 11
177.00000000004721
 21
-19.949999999999989
 31
0.0
  0
LINE
  5
216
  8
DATA
  6
CONTINUOUS
 62
     7
 10
177.00000000004721
 20
-18.25
 30
0.0
 11
177.00000000004721
 21
-18.14999999999997
 31
0.0
  0
LINE
  5
217
  8
DATA
  6
CONTINUOUS
 62
     7
 10
110.0
 20
18.75
 30
0.0
 11
25.0
 21
18.75
 31
0.0
  0
LINE
  5
218
  8
DATA
  6
CONTINUOUS
 62
     7
 10
25.0
 20
18.75
 30
0.0
 11
25.0
 21
45.75
 31
0.0
  0
LINE
  5
219
  8
DATA
  6
CONTINUOUS
 62
     7
 10
110.0
 20
18.75
 30
0.0
 11
110.0
 21
45.75
 31
0.0
  0
LINE
  5
21A
  8
DATA
  6
CONTINUOUS
 62
     7
 10
110.0
 20
20.449999999999989
 30
0.0
 11
25.0
 21
20.449999999999989
 31
0.0
  0
CIRCLE
  5
21B
  8
DATA
  6
CONTINUOUS
 62
     7
 10
45.75
 20
26.449999999999999
 30
0.0
 40
2.3999999999999981
  0
LINE
  5
21C
  8
DATA
  6
CONTINUOUS
 62
     7
 10
46.900000000000013
 20
26.449999999999999
 30
0.0
 11
44.599999999999987
 21
26.449999999999999
 31
0.0
  0
LINE
  5
21D
  8
DATA
  6
CONTINUOUS
 62
     7
 10
45.75
 20
25.29999999999999
 30
0.0
 11
45.75
 21
27.600000000000001
 31
0.0
  0
CIRCLE
  5
21E
  8
DATA
  6
CONTINUOUS
 62
     7
 10
89.25
 20
26.449999999999999
 30
0.0
 40
2.3999999999999981
  0
LINE
  5
21F
  8
DATA
  6
CONTINUOUS
 62
     7
 10
90.400000000000006
 20
26.449999999999999
 30
0.0
 11
88.09999999999998
 21
26.449999999999999
 31
0.0
  0
LINE
  5
220
  8
DATA
  6
CONTINUOUS
 62
     7
 10
89.25
 20
25.29999999999999
 30
0.0
 11
89.25
 21
27.600000000000001
 31
0.0
  0
LINE
  5
221
  8
DATA
  6
CONTINUOUS
 62
     7
 10
24.800000000000001
 20
24.75
 30
0.0
 11
24.800000000000001
 21
30.75
 31
0.0
  0
LINE
  5
222
  8
DATA
  6
CONTINUOUS
 62
     7
 10
24.800000000000001
 20
30.75
 30
0.0
 11
25.0
 21
30.75
 31
0.0
  0
LINE
  5
223
  8
DATA
  6
CONTINUOUS
 62
     7
 10
25.0
 20
24.75
 30
0.0
 11
24.800000000000001
 21
24.75
 31
0.0
  0
TEXT
  5
224
  8
DATA
 62
     7
 10
27.286458634519899
 20
-76.704947887429412
 30
0.0
 40
2.6061458333333318
  1
LINK
 50
270.0
 41
0.7
 11
29.892604467853229
 21
-76.704947887429412
 31
0.0
 73
     3
1001
ACADANNOTATIVE
1000
AnnotativeData
1002
{
1070
     1
1070
     0
1002
}
  0
TEXT
  5
225
  8
DATA
 62
     7
 10
27.286458634519899
 20
-35.659951672855023
 30
0.0
 40
2.6061458333333318
  1
Ext IR
 50
270.0
 41
0.7
 11
29.892604467853229
 21
-35.659951672855023
 31
0.0
 73
     3
1001
ACADANNOTATIVE
1000
AnnotativeData
1002
{
1070
     1
1070
     0
1002
}
  0
POLYLINE
  5
226
  8
DATA
  6
CONTINUOUS
 62
     7
 66
     1
 10
0.0
 20
0.0
 30
0.0
 70
     1
  0
VERTEX
  5
466
  8
DATA
  6
CONTINUOUS
 62
     7
 10
159.82995232046659
 20
-73.986396335177588
 30
0.0
  0
VERTEX
  5
467
  8
DATA
  6
CONTINUOUS
 62
     7
 10
159.08280609365991
 20
-71.198008656051599
 30
0.0
  0
VERTEX
  5
468
  8
DATA
  6
CONTINUOUS
 62
     7
 10
156.29441841453391
 20
-70.450862429244893
 30
0.0
  0
VERTEX
  5
469
  8
DATA
  6
CONTINUOUS
 62
     7
 10
154.25317696221461
 20
-72.492103881564191
 30
0.0
  0
VERTEX
  5
46A
  8
DATA
  6
CONTINUOUS
 62
     7
 10
155.00032318902129
 20
-75.28049156069018
 30
0.0
  0
VERTEX
  5
46B
  8
DATA
  6
CONTINUOUS
 62
     7
 10
157.7887108681474
 20
-76.027637787496943
 30
0.0
  0
SEQEND
  5
46C
  8
DATA
  6
CONTINUOUS
 62
     7
  0
CIRCLE
  5
22F
  8
DATA
  6
CONTINUOUS
 62
     7
 10
157.04156464134061
 20
-73.239250108370911
 30
0.0
 40
1.2750000000000341
  0
LINE
  5
230
  8
DATA
  6
CONTINUOUS
 62
     7
 10
164.104415310105
 20
-65.389250108370931
 30
0.0
 11
164.104415310105
 21
-81.089250108370862
 31
0.0
  0
LINE
  5
231
  8
DATA
  6
CONTINUOUS
 62
     7
 10
164.104415310105
 20
-65.389250108370931
 30
0.0
 11
168.40441531010521
 21
-65.389250108370931
 31
0.0
  0
LINE
  5
232
  8
DATA
  6
CONTINUOUS
 62
     7
 10
164.104415310105
 20
-81.089250108370862
 30
0.0
 11
168.40441531010521
 21
-81.089250108370862
 31
0.0
  0
LINE
  5
233
  8
DATA
  6
CONTINUOUS
 62
     7
 10
168.40441531010521
 20
-65.389250108370931
 30
0.0
 11
170.1044153101052
 21
-67.989250108370896
 31
0.0
  0
LINE
  5
234
  8
DATA
  6
CONTINUOUS
 62
     7
 10
168.40441531010521
 20
-81.089250108370862
 30
0.0
 11
170.1044153101052
 21
-78.489250108370911
 31
0.0
  0
LINE
  5
235
  8
DATA
  6
CONTINUOUS
 62
     7
 10
170.1044153101052
 20
-67.989250108370896
 30
0.0
 11
170.1044153101052
 21
-78.489250108370911
 31
0.0
  0
POLYLINE
  5
236
  8
DATA
  6
CONTINUOUS
 62
     7
 66
     1
 10
0.0
 20
0.0
 30
0.0
 70
     1
  0
VERTEX
  5
46D
  8
DATA
  6
CONTINUOUS
 62
     7
 10
166.39057848459791
 20
-68.239250108370896
 30
0.0
  0
VERTEX
  5
46E
  8
DATA
  6
CONTINUOUS
 62
     7
 10
166.89057848459791
 20
-68.239250108370896
 30
0.0
  0
VERTEX
  5
46F
  8
DATA
  6
CONTINUOUS
 62
     7
 10
166.89057848459791
 20
-78.239250108370911
 30
0.0
  0
VERTEX
  5
470
  8
DATA
  6
CONTINUOUS
 62
     7
 10
166.39057848459791
 20
-78.239250108370911
 30
0.0
  0
SEQEND
  5
471
  8
DATA
  6
CONTINUOUS
 62
     7
  0
CIRCLE
  5
23D
  8
DATA
  6
CONTINUOUS
 62
     7
 10
162.00000000004709
 20
-38.170885438147756
 30
0.0
 40
3.9000000000000048
  0
CIRCLE
  5
23E
  8
DATA
  6
CONTINUOUS
 62
     7
 10
162.00000000004709
 20
-38.170885438147756
 30
0.0
 40
2.8499999999999939
  0
CIRCLE
  5
23F
  8
DATA
  6
CONTINUOUS
 62
     7
 10
162.00000000004709
 20
-38.170885438147756
 30
0.0
 40
0.75
  0
POLYLINE
  5
240
  8
DATA
  6
CONTINUOUS
 62
     7
 66
     1
 10
0.0
 20
0.0
 30
0.0
 70
     1
  0
VERTEX
  5
472
  8
DATA
  6
CONTINUOUS
 62
     7
 10
159.3153212483154
 20
-33.520885438147758
 30
0.0
  0
VERTEX
  5
473
  8
DATA
  6
CONTINUOUS
 62
     7
 10
156.6306424965837
 20
-38.170885438147756
 30
0.0
  0
VERTEX
  5
474
  8
DATA
  6
CONTINUOUS
 62
     7
 10
159.3153212483154
 20
-42.820885438147769
 30
0.0
  0
VERTEX
  5
475
  8
DATA
  6
CONTINUOUS
 62
     7
 10
164.6846787517789
 20
-42.820885438147769
 30
0.0
  0
VERTEX
  5
476
  8
DATA
  6
CONTINUOUS
 62
     7
 10
167.36935750351071
 20
-38.170885438147756
 30
0.0
  0
VERTEX
  5
477
  8
DATA
  6
CONTINUOUS
 62
     7
 10
164.6846787517789
 20
-33.520885438147758
 30
0.0
  0
SEQEND
  5
478
  8
DATA
  6
CONTINUOUS
 62
     7
  0
LINE
  5
249
  8
DATA
  6
CONTINUOUS
 62
     7
 10
115.8693575034635
 20
-42.27556513691993
 30
0.0
 11
111.9999999998635
 21
-42.27556513691993
 31
0.0
  0
LINE
  5
24A
  8
DATA
  6
CONTINUOUS
 62
     7
 10
115.8693575034635
 20
-34.475565136919982
 30
0.0
 11
111.9999999998635
 21
-34.475565136919982
 31
0.0
  0
LINE
  5
24B
  8
DATA
  6
CONTINUOUS
 62
     7
 10
111.8693575034635
 20
-38.37556513691996
 30
0.0
 11
110.0
 21
-38.37556513691996
 31
0.0
  0
LINE
  5
24C
  8
DATA
  6
CONTINUOUS
 62
     7
 10
111.8693575034635
 20
-43.74492264038345
 30
0.0
 11
110.0
 21
-43.74492264038345
 31
0.0
  0
LINE
  5
24D
  8
DATA
  6
CONTINUOUS
 62
     7
 10
111.8693575034635
 20
-33.006207633456448
 30
0.0
 11
110.0
 21
-33.006207633456448
 31
0.0
  0
LINE
  5
24E
  8
DATA
  6
CONTINUOUS
 62
     7
 10
115.9999999998635
 20
-34.475565136919982
 30
0.0
 11
115.9999999998635
 21
-42.27556513691993
 31
0.0
  0
LINE
  5
24F
  8
DATA
  6
CONTINUOUS
 62
     7
 10
115.9999999998635
 20
-42.27556513691993
 30
0.0
 11
111.9999999998635
 21
-42.27556513691993
 31
0.0
  0
LINE
  5
250
  8
DATA
  6
CONTINUOUS
 62
     7
 10
115.9999999998635
 20
-34.475565136919982
 30
0.0
 11
111.9999999998635
 21
-34.475565136919982
 31
0.0
  0
LINE
  5
251
  8
DATA
  6
CONTINUOUS
 62
     7
 10
111.9999999998635
 20
-38.37556513691996
 30
0.0
 11
109.9999999998635
 21
-38.37556513691996
 31
0.0
  0
LINE
  5
252
  8
DATA
  6
CONTINUOUS
 62
     7
 10
111.9999999998635
 20
-43.74492264038345
 30
0.0
 11
109.9999999998635
 21
-43.74492264038345
 31
0.0
  0
LINE
  5
253
  8
DATA
  6
CONTINUOUS
 62
     7
 10
111.9999999998635
 20
-33.006207633456448
 30
0.0
 11
109.9999999998635
 21
-33.006207633456448
 31
0.0
  0
LINE
  5
254
  8
DATA
  6
CONTINUOUS
 62
     7
 10
111.9999999998635
 20
-43.74492264038345
 30
0.0
 11
111.9999999998635
 21
-33.006207633456448
 31
0.0
  0
LINE
  5
255
  8
DATA
  6
CONTINUOUS
 62
     7
 10
115.0
 20
-75.891924316501047
 30
0.0
 11
115.0
 21
-70.315148958248983
 31
0.0
  0
LINE
  5
256
  8
DATA
  6
CONTINUOUS
 62
     7
 10
115.0
 20
-70.315148958248983
 30
0.0
 11
110.0
 21
-70.315148958248983
 31
0.0
  0
LINE
  5
257
  8
DATA
  6
CONTINUOUS
 62
     7
 10
115.0
 20
-75.891924316501047
 30
0.0
 11
110.0
 21
-75.891924316501047
 31
0.0
  0
CIRCLE
  5
258
  8
DATA
  6
CONTINUOUS
 62
     7
 10
165.00000000004709
 20
-57.10849624490389
 30
0.0
 40
1.5
  0
TEXT
  5
259
  8
DATA
 62
     7
 10
107.4283434605529
 20
-76.356829182412724
 30
0.0
 40
2.6061458333333318
  1
HDMI
 50
90.0
 41
0.7
 11
104.8221976272195
 21
-76.356829182412724
 31
0.0
 73
     3
1001
ACADANNOTATIVE
1000
AnnotativeData
1002
{
1070
     1
1070
     0
1002
}
  0
TEXT
  5
25A
  8
DATA
 62
     7
 10
107.4283434605529
 20
-42.23608824640344
 30
0.0
 40
2.6061458333333318
  1
5V DC
 50
90.0
 41
0.7
 11
104.8221976272195
 21
-42.23608824640344
 31
0.0
 73
     3
1001
ACADANNOTATIVE
1000
AnnotativeData
1002
{
1070
     1
1070
     0
1002
}
  0
TEXT
  5
25B
  8
DATA
 62
     7
 10
107.4283434605529
 20
-61.324511595281372
 30
0.0
 40
2.6061458333333318
  1
Power
 50
90.0
 41
0.7
 11
104.8221976272195
 21
-61.324511595281372
 31
0.0
 73
     3
1001
ACADANNOTATIVE
1000
AnnotativeData
1002
{
1070
     1
1070
     0
1002
}
  0
LINE
  5
25C
  8
DATA
  6
CONTINUOUS
 62
     7
 10
115.8693575034635
 20
29.858129550149329
 30
0.0
 11
111.9999999998635
 21
29.858129550149329
 31
0.0
  0
LINE
  5
25D
  8
DATA
  6
CONTINUOUS
 62
     7
 10
115.8693575034635
 20
37.658129550149312
 30
0.0
 11
115.0
 21
37.658129550149312
 31
0.0
  0
LINE
  5
25E
  8
DATA
  6
CONTINUOUS
 62
     7
 10
111.8693575034635
 20
33.758129550149313
 30
0.0
 11
110.0
 21
33.758129550149313
 31
0.0
  0
LINE
  5
25F
  8
DATA
  6
CONTINUOUS
 62
     7
 10
111.8693575034635
 20
28.388772046685801
 30
0.0
 11
110.0
 21
28.388772046685801
 31
0.0
  0
LINE
  5
260
  8
DATA
  6
CONTINUOUS
 62
     7
 10
115.9999999998635
 20
37.658129550149312
 30
0.0
 11
115.9999999998635
 21
29.858129550149329
 31
0.0
  0
LINE
  5
261
  8
DATA
  6
CONTINUOUS
 62
     7
 10
115.9999999998635
 20
29.858129550149329
 30
0.0
 11
111.9999999998635
 21
29.858129550149329
 31
0.0
  0
LINE
  5
262
  8
DATA
  6
CONTINUOUS
 62
     7
 10
115.9999999998635
 20
37.658129550149312
 30
0.0
 11
115.0
 21
37.658129550149312
 31
0.0
  0
LINE
  5
263
  8
DATA
  6
CONTINUOUS
 62
     7
 10
111.9999999998635
 20
33.758129550149313
 30
0.0
 11
109.9999999998635
 21
33.758129550149313
 31
0.0
  0
LINE
  5
264
  8
DATA
  6
CONTINUOUS
 62
     7
 10
111.9999999998635
 20
28.388772046685801
 30
0.0
 11
109.9999999998635
 21
28.388772046685801
 31
0.0
  0
LINE
  5
265
  8
DATA
  6
CONTINUOUS
 62
     7
 10
111.9999999998635
 20
28.388772046685801
 30
0.0
 11
111.9999999998635
 21
35.744659236061551
 31
0.0
  0
LINE
  5
266
  8
DATA
  6
CONTINUOUS
 62
     7
 10
110.0
 20
45.75
 30
0.0
 11
25.0
 21
45.75
 31
0.0
  0
LINE
  5
267
  8
DATA
  6
CONTINUOUS
 62
     7
 10
115.0
 20
35.744659236061551
 30
0.0
 11
115.0
 21
41.644659236061557
 31
0.0
  0
LINE
  5
268
  8
DATA
  6
CONTINUOUS
 62
     7
 10
115.0
 20
41.644659236061557
 30
0.0
 11
110.0
 21
41.644659236061557
 31
0.0
  0
LINE
  5
269
  8
DATA
  6
CONTINUOUS
 62
     7
 10
131.25
 20
12.5
 30
0.0
 11
95.499285568453558
 21
-13.299999999999979
 31
0.0
  0
LINE
  5
26A
  8
DATA
  6
CONTINUOUS
 62
     7
 10
95.499285568453558
 20
-13.299999999999979
 30
0.0
 11
101.8378177990143
 21
-5.7460314424550063
 31
0.0
  0
LINE
  5
26B
  8
DATA
  6
CONTINUOUS
 62
     7
 10
95.499285568453558
 20
-13.299999999999979
 30
0.0
 11
104.7655997815981
 21
-9.9273374450575336
 31
0.0
  0
LINE
  5
26C
  8
DATA
  6
CONTINUOUS
 62
     7
 10
131.25
 20
12.5
 30
0.0
 11
200.40000000000001
 21
12.5
 31
0.0
  0
TEXT
  5
26D
  8
DATA
 62
     7
 10
217.67856023004731
 20
191.37692992123931
 30
0.0
 40
8.1442057291666661
  1
センダー
 41
0.7
 11
217.67856023004731
 21
199.52113565040591
 31
0.0
 73
     3
1001
ACADANNOTATIVE
1000
AnnotativeData
1002
{
1070
     1
1070
     0
1002
}
  0
LINE
  5
26E
  8
DATA
  6
CONTINUOUS
 62
     7
 10
206.25
 20
187.5
 30
0.0
 11
268.75
 21
187.5
 31
0.0
  0
TEXT
  5
26F
  8
DATA
 62
     7
 10
210.8056912071319
 20
-58.132150862838188
 30
0.0
 40
8.1442057291666661
  1
レシーバー
 41
0.7
 11
210.8056912071319
 21
-49.987945133671531
 31
0.0
 73
     3
1001
ACADANNOTATIVE
1000
AnnotativeData
1002
{
1070
     1
1070
     0
1002
}
  0
LINE
  5
270
  8
DATA
  6
CONTINUOUS
 62
     7
 10
206.25
 20
-62.5
 30
0.0
 11
268.75
 21
-62.5
 31
0.0
  0
CIRCLE
  5
271
  8
DATA
  6
CONTINUOUS
 62
     7
 10
165.0
 20
-93.250000000000014
 30
0.0
 40
5.0
  0
TEXT
  5
272
  8
DATA
 62
     7
 10
107.4283434605529
 20
-95.267289027348696
 30
0.0
 40
2.6061458333333318
  1
IR
 50
90.0
 41
0.7
 11
104.8221976272195
 21
-95.267289027348696
 31
0.0
 73
     3
1001
ACADANNOTATIVE
1000
AnnotativeData
1002
{
1070
     1
1070
     0
1002
}
  0
LINE
  5
273
  8
DATA
  6
CONTINUOUS
 62
     7
 10
115.0
 20
35.744659236061551
 30
0.0
 11
110.0
 21
35.744659236061551
 31
0.0
  0
ENDSEC
  0
EOF
