  0
SECTION
  2
HEADER
  9
$ACADVER
  1
AC1015
  9
$ACADMAINTVER
 70
    20
  9
$DWGCODEPAGE
  3
ANSI_932
  9
$INSBASE
 10
0.0
 20
0.0
 30
0.0
  9
$EXTMIN
 10
-1350.082391174606
 20
-2014.20779740283
 30
-0.0015258207003583
  9
$EXTMAX
 10
1350.08240374746
 20
1999.245234158065
 30
0.0000000349246037
  9
$LIMMIN
 10
0.0
 20
0.0
  9
$LIMMAX
 10
0.0
 20
0.0
  9
$ORTHOMODE
 70
     0
  9
$REGENMODE
 70
     1
  9
$FILLMODE
 70
     1
  9
$QTEXTMODE
 70
     0
  9
$MIRRTEXT
 70
     1
  9
$LTSCALE
 40
76.2
  9
$ATTMODE
 70
     1
  9
$TEXTSIZE
 40
0.0
  9
$TRACEWID
 40
1.0
  9
$TEXTSTYLE
  7
STANDARD
  9
$CLAYER
  8
DATA
  9
$CELTYPE
  6
ByLayer
  9
$CECOLOR
 62
   256
  9
$CELTSCALE
 40
1.0
  9
$DISPSILH
 70
     0
  9
$DIMSCALE
 40
1.0
  9
$DIMASZ
 40
0.18
  9
$DIMEXO
 40
0.0625
  9
$DIMDLI
 40
0.38
  9
$DIMRND
 40
0.0
  9
$DIMDLE
 40
0.0
  9
$DIMEXE
 40
0.18
  9
$DIMTP
 40
0.0
  9
$DIMTM
 40
0.0
  9
$DIMTXT
 40
0.18
  9
$DIMCEN
 40
0.09
  9
$DIMTSZ
 40
0.0
  9
$DIMTOL
 70
     0
  9
$DIMLIM
 70
     0
  9
$DIMTIH
 70
     1
  9
$DIMTOH
 70
     1
  9
$DIMSE1
 70
     0
  9
$DIMSE2
 70
     0
  9
$DIMTAD
 70
     0
  9
$DIMZIN
 70
     0
  9
$DIMBLK
  1

  9
$DIMASO
 70
     1
  9
$DIMSHO
 70
     1
  9
$DIMPOST
  1

  9
$DIMAPOST
  1

  9
$DIMALT
 70
     0
  9
$DIMALTD
 70
     2
  9
$DIMALTF
 40
25.4
  9
$DIMLFAC
 40
1.0
  9
$DIMTOFL
 70
     0
  9
$DIMTVP
 40
0.0
  9
$DIMTIX
 70
     0
  9
$DIMSOXD
 70
     0
  9
$DIMSAH
 70
     0
  9
$DIMBLK1
  1

  9
$DIMBLK2
  1

  9
$DIMSTYLE
  2
STANDARD
  9
$DIMCLRD
 70
     0
  9
$DIMCLRE
 70
     0
  9
$DIMCLRT
 70
     0
  9
$DIMTFAC
 40
1.0
  9
$DIMGAP
 40
0.09
  9
$DIMJUST
 70
     0
  9
$DIMSD1
 70
     0
  9
$DIMSD2
 70
     0
  9
$DIMTOLJ
 70
     1
  9
$DIMTZIN
 70
     0
  9
$DIMALTZ
 70
     0
  9
$DIMALTTZ
 70
     0
  9
$DIMUPT
 70
     0
  9
$DIMDEC
 70
     4
  9
$DIMTDEC
 70
     4
  9
$DIMALTU
 70
     2
  9
$DIMALTTD
 70
     2
  9
$DIMTXSTY
  7
STANDARD
  9
$DIMAUNIT
 70
     0
  9
$DIMADEC
 70
     0
  9
$DIMALTRND
 40
0.0
  9
$DIMAZIN
 70
     0
  9
$DIMDSEP
 70
    46
  9
$DIMATFIT
 70
     3
  9
$DIMFRAC
 70
     0
  9
$DIMLDRBLK
  1

  9
$DIMLUNIT
 70
     2
  9
$DIMLWD
 70
    -2
  9
$DIMLWE
 70
    -2
  9
$DIMTMOVE
 70
     0
  9
$LUNITS
 70
     2
  9
$LUPREC
 70
     4
  9
$SKETCHINC
 40
0.1
  9
$FILLETRAD
 40
0.0
  9
$AUNITS
 70
     0
  9
$AUPREC
 70
     0
  9
$MENU
  1
acad
  9
$ELEVATION
 40
0.0
  9
$PELEVATION
 40
0.0
  9
$THICKNESS
 40
0.0
  9
$LIMCHECK
 70
     0
  9
$CHAMFERA
 40
0.0
  9
$CHAMFERB
 40
0.0
  9
$CHAMFERC
 40
0.0
  9
$CHAMFERD
 40
0.0
  9
$SKPOLY
 70
     0
  9
$TDCREATE
 40
2457907.737488426
  9
$TDUCREATE
 40
2457907.362488426
  9
$TDUPDATE
 40
2457907.741921296
  9
$TDUUPDATE
 40
2457907.366921296
  9
$TDINDWG
 40
0.0005092593
  9
$TDUSRTIMER
 40
0.0005092593
  9
$USRTIMER
 70
     1
  9
$ANGBASE
 50
0.0
  9
$ANGDIR
 70
     0
  9
$PDMODE
 70
     1
  9
$PDSIZE
 40
-2.0
  9
$PLINEWID
 40
0.0
  9
$SPLFRAME
 70
     0
  9
$SPLINETYPE
 70
     6
  9
$SPLINESEGS
 70
     8
  9
$HANDSEED
  5
437
  9
$SURFTAB1
 70
     6
  9
$SURFTAB2
 70
     6
  9
$SURFTYPE
 70
     6
  9
$SURFU
 70
     6
  9
$SURFV
 70
     6
  9
$UCSBASE
  2

  9
$UCSNAME
  2

  9
$UCSORG
 10
0.0
 20
0.0
 30
0.0
  9
$UCSXDIR
 10
1.0
 20
0.0
 30
0.0
  9
$UCSYDIR
 10
0.0
 20
1.0
 30
0.0
  9
$UCSORTHOREF
  2

  9
$UCSORTHOVIEW
 70
     0
  9
$UCSORGTOP
 10
0.0
 20
0.0
 30
0.0
  9
$UCSORGBOTTOM
 10
0.0
 20
0.0
 30
0.0
  9
$UCSORGLEFT
 10
0.0
 20
0.0
 30
0.0
  9
$UCSORGRIGHT
 10
0.0
 20
0.0
 30
0.0
  9
$UCSORGFRONT
 10
0.0
 20
0.0
 30
0.0
  9
$UCSORGBACK
 10
0.0
 20
0.0
 30
0.0
  9
$PUCSBASE
  2

  9
$PUCSNAME
  2

  9
$PUCSORG
 10
0.0
 20
0.0
 30
0.0
  9
$PUCSXDIR
 10
1.0
 20
0.0
 30
0.0
  9
$PUCSYDIR
 10
0.0
 20
1.0
 30
0.0
  9
$PUCSORTHOREF
  2

  9
$PUCSORTHOVIEW
 70
     0
  9
$PUCSORGTOP
 10
0.0
 20
0.0
 30
0.0
  9
$PUCSORGBOTTOM
 10
0.0
 20
0.0
 30
0.0
  9
$PUCSORGLEFT
 10
0.0
 20
0.0
 30
0.0
  9
$PUCSORGRIGHT
 10
0.0
 20
0.0
 30
0.0
  9
$PUCSORGFRONT
 10
0.0
 20
0.0
 30
0.0
  9
$PUCSORGBACK
 10
0.0
 20
0.0
 30
0.0
  9
$USERI1
 70
     0
  9
$USERI2
 70
     0
  9
$USERI3
 70
     0
  9
$USERI4
 70
     0
  9
$USERI5
 70
     0
  9
$USERR1
 40
0.0
  9
$USERR2
 40
0.0
  9
$USERR3
 40
0.0
  9
$USERR4
 40
0.0
  9
$USERR5
 40
0.0
  9
$WORLDVIEW
 70
     1
  9
$SHADEDGE
 70
     3
  9
$SHADEDIF
 70
    70
  9
$TILEMODE
 70
     1
  9
$MAXACTVP
 70
    64
  9
$PINSBASE
 10
0.0
 20
0.0
 30
0.0
  9
$PLIMCHECK
 70
     0
  9
$PEXTMIN
 10
1.000000000000000E+20
 20
1.000000000000000E+20
 30
1.000000000000000E+20
  9
$PEXTMAX
 10
-1.000000000000000E+20
 20
-1.000000000000000E+20
 30
-1.000000000000000E+20
  9
$PLIMMIN
 10
0.0
 20
0.0
  9
$PLIMMAX
 10
12.0
 20
9.0
  9
$UNITMODE
 70
     0
  9
$VISRETAIN
 70
     0
  9
$PLINEGEN
 70
     1
  9
$PSLTSCALE
 70
     0
  9
$TREEDEPTH
 70
  3020
  9
$CMLSTYLE
  2
Standard
  9
$CMLJUST
 70
     0
  9
$CMLSCALE
 40
1.0
  9
$PROXYGRAPHICS
 70
     1
  9
$MEASUREMENT
 70
     0
  9
$CELWEIGHT
370
    -1
  9
$ENDCAPS
280
     0
  9
$JOINSTYLE
280
     0
  9
$LWDISPLAY
290
     0
  9
$INSUNITS
 70
     0
  9
$HYPERLINKBASE
  1

  9
$STYLESHEET
  1

  9
$XEDIT
290
     1
  9
$CEPSNTYPE
380
     0
  9
$PSTYLEMODE
290
     1
  9
$FINGERPRINTGUID
  2
{000AEFDC-F9E4-DD45-9EC4-4F0F5E54A9FB}
  9
$VERSIONGUID
  2
{2940C8B8-0E3F-7D47-AF33-3A90DDB75D58}
  9
$EXTNAMES
290
     1
  9
$PSVPSCALE
 40
0.0
  9
$OLESTARTUP
290
     0
  0
ENDSEC
  0
SECTION
  2
CLASSES
  0
CLASS
  1
ACDBDICTIONARYWDFLT
  2
AcDbDictionaryWithDefault
  3
ObjectDBX Classes
 90
        0
280
     0
281
     0
  0
CLASS
  1
MATERIAL
  2
AcDbMaterial
  3
ObjectDBX Classes
 90
     1153
280
     0
281
     0
  0
CLASS
  1
VISUALSTYLE
  2
AcDbVisualStyle
  3
ObjectDBX Classes
 90
     4095
280
     0
281
     0
  0
CLASS
  1
SCALE
  2
AcDbScale
  3
ObjectDBX Classes
 90
     1153
280
     0
281
     0
  0
CLASS
  1
TABLESTYLE
  2
AcDbTableStyle
  3
ObjectDBX Classes
 90
     4095
280
     0
281
     0
  0
CLASS
  1
MLEADERSTYLE
  2
AcDbMLeaderStyle
  3
ACDB_MLEADERSTYLE_CLASS
 90
     4095
280
     0
281
     0
  0
CLASS
  1
ACDBSECTIONVIEWSTYLE
  2
AcDbSectionViewStyle
  3
ObjectDBX Classes
 90
     1025
280
     0
281
     0
  0
CLASS
  1
ACDBDETAILVIEWSTYLE
  2
AcDbDetailViewStyle
  3
ObjectDBX Classes
 90
     1025
280
     0
281
     0
  0
CLASS
  1
DICTIONARYVAR
  2
AcDbDictionaryVar
  3
ObjectDBX Classes
 90
        0
280
     0
281
     0
  0
CLASS
  1
CELLSTYLEMAP
  2
AcDbCellStyleMap
  3
ObjectDBX Classes
 90
     1152
280
     0
281
     0
  0
CLASS
  1
ACDBPLACEHOLDER
  2
AcDbPlaceHolder
  3
ObjectDBX Classes
 90
        0
280
     0
281
     0
  0
CLASS
  1
LAYOUT
  2
AcDbLayout
  3
ObjectDBX Classes
 90
        0
280
     0
281
     0
  0
ENDSEC
  0
SECTION
  2
TABLES
  0
TABLE
  2
VPORT
  5
360
330
0
100
AcDbSymbolTable
 70
     1
  0
VPORT
  5
3CC
330
360
100
AcDbSymbolTableRecord
100
AcDbViewportTableRecord
  2
*ACTIVE
 70
     0
 10
0.0
 20
0.0
 11
1.0
 21
1.0
 12
0.0000062864273787
 22
-7.481281622382539
 13
0.0
 23
0.0
 14
1.0
 24
1.0
 15
0.0
 25
0.0
 16
0.0
 26
0.0
 36
1.0
 17
0.0
 27
0.0
 37
0.0
 40
4043.072611129609
 41
2.497536945812807
 42
50.0
 43
0.0
 44
0.0
 50
0.0
 51
0.0
 71
     0
 72
  2000
 73
     1
 74
     1
 75
     0
 76
     0
 77
     0
 78
     0
281
     0
 65
     1
110
0.0
120
0.0
130
0.0
111
1.0
121
0.0
131
0.0
112
0.0
122
1.0
132
0.0
 79
     0
146
0.0
1001
ACAD_NAV_VCDISPLAY
1070
     3
  0
ENDTAB
  0
TABLE
  2
LTYPE
  5
35D
330
0
100
AcDbSymbolTable
 70
    11
  0
LTYPE
  5
3B2
330
35D
100
AcDbSymbolTableRecord
100
AcDbLinetypeTableRecord
  2
ByBlock
 70
     0
  3

 72
    65
 73
     0
 40
0.0
  0
LTYPE
  5
3B3
330
35D
100
AcDbSymbolTableRecord
100
AcDbLinetypeTableRecord
  2
ByLayer
 70
     0
  3

 72
    65
 73
     0
 40
0.0
  0
LTYPE
  5
3B4
330
35D
100
AcDbSymbolTableRecord
100
AcDbLinetypeTableRecord
  2
CONTINUOUS
 70
     0
  3
Solid line
 72
    65
 73
     0
 40
0.0
  0
LTYPE
  5
3D2
330
35D
100
AcDbSymbolTableRecord
100
AcDbLinetypeTableRecord
  2
STYLE_06
 70
     0
  3

 72
    65
 73
     4
 40
1.041641235351562
 49
0.625
 74
     0
 49
-0.208282470703125
 74
     0
 49
0.069427490234375
 74
     0
 49
-0.1389312744140625
 74
     0
  0
ENDTAB
  0
TABLE
  2
LAYER
  5
35A
330
0
100
AcDbSymbolTable
 70
     6
  0
LAYER
  5
3AC
102
{ACAD_XDICTIONARY
360
3E1
102
}
330
35A
100
AcDbSymbolTableRecord
100
AcDbLayerTableRecord
  2
0
 70
     0
 62
     7
  6
CONTINUOUS
370
    -3
390
367
  0
LAYER
  5
3CB
102
{ACAD_XDICTIONARY
360
3E3
102
}
330
35A
100
AcDbSymbolTableRecord
100
AcDbLayerTableRecord
  2
DATA
 70
     0
 62
     7
  6
CONTINUOUS
370
    -3
390
367
  0
LAYER
  5
3D7
102
{ACAD_XDICTIONARY
360
3E5
102
}
330
35A
100
AcDbSymbolTableRecord
100
AcDbLayerTableRecord
  2
HIBINO-BASE
 70
     0
 62
     7
  6
CONTINUOUS
370
    -3
390
367
  0
LAYER
  5
3D9
102
{ACAD_XDICTIONARY
360
3E7
102
}
330
35A
100
AcDbSymbolTableRecord
100
AcDbLayerTableRecord
  2
SPEC
 70
     0
 62
     7
  6
CONTINUOUS
370
    -3
390
367
  0
LAYER
  5
3DA
102
{ACAD_XDICTIONARY
360
3E9
102
}
330
35A
100
AcDbSymbolTableRecord
100
AcDbLayerTableRecord
  2
DIMNSIONS
 70
     0
 62
     7
  6
CONTINUOUS
370
    -3
390
367
  0
ENDTAB
  0
TABLE
  2
STYLE
  5
35B
330
0
100
AcDbSymbolTable
 70
     3
  0
STYLE
  5
3AD
330
35B
100
AcDbSymbolTableRecord
100
AcDbTextStyleTableRecord
  2
STANDARD
 70
     0
 40
0.0
 41
1.0
 50
0.0
 71
     0
 42
0.0
  3
txt
  4
BIGFONT.SHX
  0
ENDTAB
  0
TABLE
  2
VIEW
  5
35E
330
0
100
AcDbSymbolTable
 70
     0
  0
ENDTAB
  0
TABLE
  2
UCS
  5
35F
330
0
100
AcDbSymbolTable
 70
     0
  0
ENDTAB
  0
TABLE
  2
APPID
  5
361
330
0
100
AcDbSymbolTable
 70
     4
  0
APPID
  5
3AE
330
361
100
AcDbSymbolTableRecord
100
AcDbRegAppTableRecord
  2
ACAD
 70
     0
  0
APPID
  5
3B5
330
361
100
AcDbSymbolTableRecord
100
AcDbRegAppTableRecord
  2
AcadAnnotative
 70
     0
  0
APPID
  5
3F5
330
361
100
AcDbSymbolTableRecord
100
AcDbRegAppTableRecord
  2
ACAD_NAV_VCDISPLAY
 70
     0
  0
APPID
  5
42E
330
361
100
AcDbSymbolTableRecord
100
AcDbRegAppTableRecord
  2
ACAD_MLEADERVER
 70
     0
  0
ENDTAB
  0
TABLE
  2
DIMSTYLE
  5
362
330
0
100
AcDbSymbolTable
 70
     2
100
AcDbDimStyleTable
 71
     0
  0
DIMSTYLE
105
3AF
330
362
100
AcDbSymbolTableRecord
100
AcDbDimStyleTableRecord
  2
STANDARD
 70
     0
279
     2
340
3AD
  0
ENDTAB
  0
TABLE
  2
BLOCK_RECORD
  5
359
330
0
100
AcDbSymbolTable
 70
     0
  0
BLOCK_RECORD
  5
3C7
330
359
100
AcDbSymbolTableRecord
100
AcDbBlockTableRecord
  2
*Model_Space
340
3CA
  0
BLOCK_RECORD
  5
3C3
330
359
100
AcDbSymbolTableRecord
100
AcDbBlockTableRecord
  2
*Paper_Space
340
3C6
  0
ENDTAB
  0
ENDSEC
  0
SECTION
  2
BLOCKS
  0
BLOCK
  5
3C8
330
3C7
100
AcDbEntity
  8
0
100
AcDbBlockBegin
  2
*Model_Space
 70
     0
 10
0.0
 20
0.0
 30
0.0
  3
*Model_Space
  1

  0
ENDBLK
  5
3C9
330
3C7
100
AcDbEntity
  8
0
100
AcDbBlockEnd
  0
BLOCK
  5
3C4
330
3C3
100
AcDbEntity
 67
     1
  8
0
100
AcDbBlockBegin
  2
*Paper_Space
 70
     0
 10
0.0
 20
0.0
 30
0.0
  3
*Paper_Space
  1

  0
ENDBLK
  5
3C5
330
3C3
100
AcDbEntity
 67
     1
  8
0
100
AcDbBlockEnd
  0
ENDSEC
  0
SECTION
  2
ENTITIES
  0
LINE
  5
2D
330
3C7
100
AcDbEntity
  8
HIBINO-BASE
  6
Continuous
 62
     7
100
AcDbLine
 10
-1350.0
 20
1999.122993888889
 30
0.0
 11
1350.0
 21
1999.122993888889
 31
0.0
  0
LINE
  5
2E
330
3C7
100
AcDbEntity
  8
HIBINO-BASE
  6
Continuous
 62
     7
100
AcDbLine
 10
1350.0
 20
-1900.877006111111
 30
0.0
 11
-1350.0
 21
-1900.877006111111
 31
0.0
  0
LINE
  5
2F
330
3C7
100
AcDbEntity
  8
HIBINO-BASE
  6
Continuous
 62
     7
100
AcDbLine
 10
-1350.0
 20
-1900.877006111111
 30
0.0
 11
-1350.0
 21
1999.122993888889
 31
0.0
  0
LINE
  5
30
330
3C7
100
AcDbEntity
  8
HIBINO-BASE
  6
Continuous
 62
     7
100
AcDbLine
 10
1350.0
 20
1999.122993888889
 30
0.0
 11
1350.0
 21
-1900.877006111111
 31
0.0
  0
LINE
  5
31
330
3C7
100
AcDbEntity
  8
HIBINO-BASE
  6
Continuous
 62
     7
100
AcDbLine
 10
0.0
 20
-1563.377006111111
 30
0.0
 11
1350.0
 21
-1563.377006111111
 31
0.0
  0
LINE
  5
32
330
3C7
100
AcDbEntity
  8
HIBINO-BASE
  6
Continuous
 62
     7
100
AcDbLine
 10
0.0
 20
-1900.877006111111
 30
0.0
 11
0.0
 21
-1563.377006111111
 31
0.0
  0
TEXT
  5
33
330
3C7
100
AcDbEntity
  8
HIBINO-BASE
 62
     7
100
AcDbText
 10
13.50000000000051
 20
-1601.00740611111
 30
0.0
 40
24.4326171875
  1
NOTE
 41
0.7
 11
13.50000000000051
 21
-1576.57478892361
 31
0.0
100
AcDbText
 73
     3
  0
LINE
  5
34
330
3C7
100
AcDbEntity
  8
HIBINO-BASE
  6
Continuous
 62
     7
100
AcDbLine
 10
525.0
 20
-1900.877006111111
 30
0.0
 11
525.0
 21
-1563.377006111111
 31
0.0
  0
TEXT
  5
35
330
3C7
100
AcDbEntity
  8
HIBINO-BASE
 62
     7
100
AcDbText
 10
538.4999999999997
 20
-1601.00740611111
 30
0.0
 40
24.4326171875
  1
TITLE
 41
0.7
 11
538.4999999999997
 21
-1576.57478892361
 31
0.0
100
AcDbText
 73
     3
  0
LINE
  5
36
330
3C7
100
AcDbEntity
  8
HIBINO-BASE
  6
Continuous
 62
     7
100
AcDbLine
 10
0.0
 20
-1750.877006111111
 30
0.0
 11
1350.0
 21
-1750.877006111111
 31
0.0
  0
TEXT
  5
37
330
3C7
100
AcDbEntity
  8
HIBINO-BASE
 62
     7
100
AcDbText
 10
725.9999999999997
 20
-1787.66260611111
 30
0.0
 40
24.4326171875
  1
DRAWN
 41
0.7
 11
725.9999999999997
 21
-1763.229988923611
 31
0.0
100
AcDbText
 73
     3
  0
TEXT
  5
38
330
3C7
100
AcDbEntity
  8
HIBINO-BASE
 62
     7
100
AcDbText
 10
350.9999999999997
 20
-1787.66260611111
 30
0.0
 40
24.4326171875
  1
DATE
 41
0.7
 11
350.9999999999997
 21
-1763.229988923611
 31
0.0
100
AcDbText
 73
     3
  0
TEXT
  5
39
330
3C7
100
AcDbEntity
  8
HIBINO-BASE
 62
     7
100
AcDbText
 10
200.9999999999997
 20
-1787.66260611111
 30
0.0
 40
24.4326171875
  1
SCALE
 41
0.7
 11
200.9999999999997
 21
-1763.229988923611
 31
0.0
100
AcDbText
 73
     3
  0
TEXT
  5
3A
330
3C7
100
AcDbEntity
  8
HIBINO-BASE
 62
     7
100
AcDbText
 10
538.4999999999997
 20
-1787.66260611111
 30
0.0
 40
24.4326171875
  1
DESIGN
 41
0.7
 11
538.4999999999997
 21
-1763.229988923611
 31
0.0
100
AcDbText
 73
     3
  0
TEXT
  5
3B
330
3C7
100
AcDbEntity
  8
HIBINO-BASE
 62
     7
100
AcDbText
 10
1100.999999999999
 20
-1787.66260611111
 30
0.0
 40
24.4326171875
  1
DRAWING NO.
 41
0.7
 11
1100.999999999999
 21
-1763.229988923611
 31
0.0
100
AcDbText
 73
     3
  0
TEXT
  5
3C
330
3C7
100
AcDbEntity
  8
HIBINO-BASE
 62
     7
100
AcDbText
 10
913.4999999999996
 20
-1787.66260611111
 30
0.0
 40
24.4326171875
  1
CHECK
 41
0.7
 11
913.4999999999996
 21
-1763.229988923611
 31
0.0
100
AcDbText
 73
     3
  0
LINE
  5
3D
330
3C7
100
AcDbEntity
  8
HIBINO-BASE
  6
Continuous
 62
     7
100
AcDbLine
 10
215.625
 20
-1882.127006111111
 30
0.0
 11
271.875
 21
-1825.877006111111
 31
0.0
  0
TEXT
  5
3E
330
3C7
100
AcDbEntity
  8
HIBINO-BASE
 62
     7
100
AcDbText
 10
206.25
 20
-1842.511156111111
 30
0.0
 40
24.4326171875
  1
1
 41
0.7
 11
206.25
 21
-1818.078538923611
 31
0.0
100
AcDbText
 73
     3
  0
LINE
  5
3F
330
3C7
100
AcDbEntity
  8
HIBINO-BASE
  6
Continuous
 62
     7
100
AcDbLine
 10
187.5
 20
-1900.877006111111
 30
0.0
 11
187.5
 21
-1750.877006111111
 31
0.0
  0
LINE
  5
40
330
3C7
100
AcDbEntity
  8
HIBINO-BASE
  6
Continuous
 62
     7
100
AcDbLine
 10
337.5
 20
-1900.877006111111
 30
0.0
 11
337.5
 21
-1750.877006111111
 31
0.0
  0
LINE
  5
41
330
3C7
100
AcDbEntity
  8
HIBINO-BASE
  6
Continuous
 62
     7
100
AcDbLine
 10
712.5
 20
-1750.877006111111
 30
0.0
 11
712.5
 21
-1900.877006111111
 31
0.0
  0
LINE
  5
42
330
3C7
100
AcDbEntity
  8
HIBINO-BASE
  6
Continuous
 62
     7
100
AcDbLine
 10
1087.5
 20
-1750.877006111111
 30
0.0
 11
1087.5
 21
-1900.877006111111
 31
0.0
  0
LINE
  5
43
330
3C7
100
AcDbEntity
  8
HIBINO-BASE
  6
Continuous
 62
     7
100
AcDbLine
 10
900.0
 20
-1900.877006111111
 30
0.0
 11
900.0
 21
-1750.877006111111
 31
0.0
  0
TEXT
  5
44
330
3C7
100
AcDbEntity
  8
HIBINO-BASE
 62
     7
100
AcDbText
 10
350.3480999999999
 20
-1857.922306111111
 30
0.0
 40
24.4326171875
  1
'17.04.
 41
0.7
 11
350.3480999999999
 21
-1833.489688923611
 31
0.0
100
AcDbText
 73
     3
  0
TEXT
  5
45
330
3C7
100
AcDbEntity
  8
HIBINO-BASE
 62
     7
100
AcDbText
 10
262.5
 20
-1870.636156111111
 30
0.0
 40
24.4326171875
  1
15
 41
0.7
 11
262.5
 21
-1846.203538923611
 31
0.0
100
AcDbText
 73
     3
  0
TEXT
  5
46
330
3C7
100
AcDbEntity
  8
HIBINO-BASE
 62
     7
100
AcDbText
 10
735.0871501655192
 20
-1857.922306111111
 30
0.0
 40
24.4326171875
  1
N.Sasaki
 41
0.7
 11
735.0871501655192
 21
-1833.489688923611
 31
0.0
100
AcDbText
 73
     3
  0
TEXT
  5
47
330
3C7
100
AcDbEntity
  8
HIBINO-BASE
 62
     7
100
AcDbText
 10
58.25000000000074
 20
-1871.237006111111
 30
0.0
 40
48.865234375
  1
A4
 41
0.7
 11
58.25000000000074
 21
-1822.371771736111
 31
0.0
100
AcDbText
 73
     3
  0
TEXT
  5
48
330
3C7
100
AcDbEntity
  8
HIBINO-BASE
 62
     7
100
AcDbText
 10
14.37499999999971
 20
-1790.168831111111
 30
0.0
 40
24.4326171875
  1
PAPER SIZE
 41
0.7
 11
14.37499999999971
 21
-1765.736213923611
 31
0.0
100
AcDbText
 73
     3
  0
TEXT
  5
49
330
3C7
100
AcDbEntity
  8
HIBINO-BASE
 62
     7
100
AcDbText
 10
-1242.24
 20
-1996.50973111111
 30
0.0
 40
52.93733723958332
  1
Hibino-Intersound Corporation
 41
0.7
 11
-1242.24
 21
-1943.572393871527
 31
0.0
100
AcDbText
 73
     3
  0
TEXT
  5
4A
330
3C7
100
AcDbEntity
  8
HIBINO-BASE
 62
     7
100
AcDbText
 10
210.3650125086469
 20
-1996.50973111111
 30
0.0
 40
52.93733723958332
  1
ヒビノインターサウンド株式会社
 41
0.7
 11
210.3650125086469
 21
-1943.572393871527
 31
0.0
100
AcDbText
 73
     3
  0
LINE
  5
4B
330
3C7
100
AcDbEntity
  8
SPEC
  6
Continuous
 62
     7
100
AcDbLine
 10
-1237.5
 20
1849.122993888889
 30
0.0
 11
1237.5
 21
1849.122993888889
 31
0.0
  0
LINE
  5
4C
330
3C7
100
AcDbEntity
  8
SPEC
  6
Continuous
 62
     7
100
AcDbLine
 10
-1237.5
 20
1792.872993888889
 30
0.0
 11
1237.5
 21
1792.872993888889
 31
0.0
  0
LINE
  5
4D
330
3C7
100
AcDbEntity
  8
SPEC
  6
Continuous
 62
     7
100
AcDbLine
 10
-1237.5
 20
1849.122993888889
 30
0.0
 11
-1237.5
 21
1061.622993888889
 31
0.0
  0
TEXT
  5
4E
330
3C7
100
AcDbEntity
  8
SPEC
 62
     7
100
AcDbText
 10
-1218.75
 20
1870.022043888889
 30
0.0
 40
36.64892578125
  1
仕様
 41
0.7
 11
-1218.75
 21
1906.670969670139
 31
0.0
100
AcDbText
 73
     3
  0
LINE
  5
4F
330
3C7
100
AcDbEntity
  8
SPEC
  6
Continuous
 62
     7
100
AcDbLine
 10
-749.9999999999996
 20
1849.122993888889
 30
0.0
 11
-749.9999999999996
 21
1061.622993888889
 31
0.0
  0
LINE
  5
50
330
3C7
100
AcDbEntity
  8
SPEC
  6
Continuous
 62
     7
100
AcDbLine
 10
1237.5
 20
1849.122993888889
 30
0.0
 11
1237.5
 21
1061.622993888889
 31
0.0
  0
TEXT
  5
51
330
3C7
100
AcDbEntity
  8
SPEC
 62
     7
100
AcDbText
 10
-1224.0
 20
1129.691760555555
 30
0.0
 40
28.50472005208334
  1
寸法(W×H×D)
 41
0.7
 11
-1224.0
 21
1158.196480607638
 31
0.0
100
AcDbText
 73
     3
  0
TEXT
  5
52
330
3C7
100
AcDbEntity
  8
SPEC
 62
     7
100
AcDbText
 10
-1224.0
 20
1073.441760555555
 30
0.0
 40
28.50472005208334
  1
質量
 41
0.7
 11
-1224.0
 21
1101.946480607638
 31
0.0
100
AcDbText
 73
     3
  0
TEXT
  5
53
330
3C7
100
AcDbEntity
  8
SPEC
 62
     7
100
AcDbText
 10
-736.4999999999996
 20
1129.691760555555
 30
0.0
 40
28.50472005208334
  1
342×452×425mm
 41
0.7
 11
-736.4999999999996
 21
1158.196480607638
 31
0.0
100
AcDbText
 73
     3
  0
TEXT
  5
54
330
3C7
100
AcDbEntity
  8
SPEC
 62
     7
100
AcDbText
 10
-736.4999999999996
 20
1073.441760555555
 30
0.0
 40
28.50472005208334
  1
19kg
 41
0.7
 11
-736.4999999999996
 21
1101.946480607638
 31
0.0
100
AcDbText
 73
     3
  0
LINE
  5
55
330
3C7
100
AcDbEntity
  8
SPEC
  6
Continuous
 62
     7
100
AcDbLine
 10
-1237.5
 20
1736.622993888889
 30
0.0
 11
1237.5
 21
1736.622993888889
 31
0.0
  0
LINE
  5
56
330
3C7
100
AcDbEntity
  8
SPEC
  6
Continuous
 62
     7
100
AcDbLine
 10
-1237.5
 20
1680.372993888889
 30
0.0
 11
1237.5
 21
1680.372993888889
 31
0.0
  0
LINE
  5
57
330
3C7
100
AcDbEntity
  8
SPEC
  6
Continuous
 62
     7
100
AcDbLine
 10
-1237.5
 20
1624.122993888889
 30
0.0
 11
1237.5
 21
1624.122993888889
 31
0.0
  0
LINE
  5
58
330
3C7
100
AcDbEntity
  8
SPEC
  6
Continuous
 62
     7
100
AcDbLine
 10
-1237.5
 20
1567.872993888889
 30
0.0
 11
1237.5
 21
1567.872993888889
 31
0.0
  0
LINE
  5
59
330
3C7
100
AcDbEntity
  8
SPEC
  6
Continuous
 62
     7
100
AcDbLine
 10
-1237.5
 20
1511.622993888889
 30
0.0
 11
1237.5
 21
1511.622993888889
 31
0.0
  0
LINE
  5
5A
330
3C7
100
AcDbEntity
  8
SPEC
  6
Continuous
 62
     7
100
AcDbLine
 10
-1237.5
 20
1455.372993888889
 30
0.0
 11
1237.5
 21
1455.372993888889
 31
0.0
  0
LINE
  5
5B
330
3C7
100
AcDbEntity
  8
SPEC
  6
Continuous
 62
     7
100
AcDbLine
 10
-1237.5
 20
1399.122993888889
 30
0.0
 11
1237.5
 21
1399.122993888889
 31
0.0
  0
LINE
  5
5C
330
3C7
100
AcDbEntity
  8
SPEC
  6
Continuous
 62
     7
100
AcDbLine
 10
-1237.5
 20
1342.872993888889
 30
0.0
 11
1237.5
 21
1342.872993888889
 31
0.0
  0
LINE
  5
5D
330
3C7
100
AcDbEntity
  8
SPEC
  6
Continuous
 62
     7
100
AcDbLine
 10
-1237.5
 20
1286.622993888889
 30
0.0
 11
1237.5
 21
1286.622993888889
 31
0.0
  0
LINE
  5
5E
330
3C7
100
AcDbEntity
  8
SPEC
  6
Continuous
 62
     7
100
AcDbLine
 10
-1237.5
 20
1230.372993888888
 30
0.0
 11
1237.5
 21
1230.372993888888
 31
0.0
  0
LINE
  5
5F
330
3C7
100
AcDbEntity
  8
SPEC
  6
Continuous
 62
     7
100
AcDbLine
 10
-1237.5
 20
1174.122993888889
 30
0.0
 11
1237.5
 21
1174.122993888889
 31
0.0
  0
LINE
  5
60
330
3C7
100
AcDbEntity
  8
SPEC
  6
Continuous
 62
     7
100
AcDbLine
 10
-1237.5
 20
1117.872993888888
 30
0.0
 11
1237.5
 21
1117.872993888888
 31
0.0
  0
LINE
  5
61
330
3C7
100
AcDbEntity
  8
SPEC
  6
Continuous
 62
     7
100
AcDbLine
 10
-1237.5
 20
1061.622993888889
 30
0.0
 11
1237.5
 21
1061.622993888889
 31
0.0
  0
TEXT
  5
62
330
3C7
100
AcDbEntity
  8
SPEC
 62
     7
100
AcDbText
 10
-1224.0
 20
1635.941760555555
 30
0.0
 40
28.50472005208334
  1
感度
 41
0.7
 11
-1224.0
 21
1664.446480607638
 31
0.0
100
AcDbText
 73
     3
  0
TEXT
  5
63
330
3C7
100
AcDbEntity
  8
SPEC
 62
     7
100
AcDbText
 10
-1224.0
 20
1804.691760555555
 30
0.0
 40
28.50472005208334
  1
形式
 41
0.7
 11
-1224.0
 21
1833.196480607638
 31
0.0
100
AcDbText
 73
     3
  0
TEXT
  5
64
330
3C7
100
AcDbEntity
  8
SPEC
 62
     7
100
AcDbText
 10
-1200.0
 20
1000.919392638888
 30
0.0
 40
28.50472005208334
  1
※1.半空間　※2.ピンクノイズ、クレストファクター6dB 
 41
0.7
 11
-1200.0
 21
1029.424112690972
 31
0.0
100
AcDbText
 73
     3
  0
TEXT
  5
65
330
3C7
100
AcDbEntity
  8
SPEC
 62
     7
100
AcDbText
 10
-736.5
 20
1804.691760555555
 30
0.0
 40
28.50472005208334
  1
2-Wayフルレンジ･スピーカーシステム
 41
0.7
 11
-736.5
 21
1833.196480607638
 31
0.0
100
AcDbText
 73
     3
  0
TEXT
  5
66
330
3C7
100
AcDbEntity
  8
SPEC
 62
     7
100
AcDbText
 10
-1224.0
 20
1748.441760555555
 30
0.0
 40
28.50472005208334
  1
周波数特性
 41
0.7
 11
-1224.0
 21
1776.946480607638
 31
0.0
100
AcDbText
 73
     3
  0
TEXT
  5
67
330
3C7
100
AcDbEntity
  8
SPEC
 62
     7
100
AcDbText
 10
-736.4999999999996
 20
1748.441760555555
 30
0.0
 40
28.50472005208334
  1
60Hz～20kHz(-3dB)
 41
0.7
 11
-736.4999999999996
 21
1776.946480607638
 31
0.0
100
AcDbText
 73
     3
  0
TEXT
  5
68
330
3C7
100
AcDbEntity
  8
SPEC
 62
     7
100
AcDbText
 10
-1224.0
 20
1692.191760555555
 30
0.0
 40
28.50472005208334
  1
許容入力(AES/ピーク)
 41
0.7
 11
-1224.0
 21
1720.696480607638
 31
0.0
100
AcDbText
 73
     3
  0
TEXT
  5
69
330
3C7
100
AcDbEntity
  8
SPEC
 62
     7
100
AcDbText
 10
-736.4999999999996
 20
1692.191760555555
 30
0.0
 40
28.50472005208334
  1
600W/2400W
 41
0.7
 11
-736.4999999999996
 21
1720.696480607638
 31
0.0
100
AcDbText
 73
     3
  0
TEXT
  5
6A
330
3C7
100
AcDbEntity
  8
SPEC
 62
     7
100
AcDbText
 10
-1224.0
 20
1523.441760555555
 30
0.0
 40
28.50472005208334
  1
カバレージ角
 41
0.7
 11
-1224.0
 21
1551.946480607638
 31
0.0
100
AcDbText
 73
     3
  0
TEXT
  5
6B
330
3C7
100
AcDbEntity
  8
SPEC
 62
     7
100
AcDbText
 10
-736.4999999999996
 20
1635.941760555555
 30
0.0
 40
28.50472005208334
  1
98dB(※1)
 41
0.7
 11
-736.4999999999996
 21
1664.446480607638
 31
0.0
100
AcDbText
 73
     3
  0
TEXT
  5
6C
330
3C7
100
AcDbEntity
  8
SPEC
 62
     7
100
AcDbText
 10
-1224.0
 20
1579.691760555555
 30
0.0
 40
28.50472005208334
  1
最大音圧
 41
0.7
 11
-1224.0
 21
1608.196480607638
 31
0.0
100
AcDbText
 73
     3
  0
TEXT
  5
6D
330
3C7
100
AcDbEntity
  8
SPEC
 62
     7
100
AcDbText
 10
-736.5
 20
1467.191760555555
 30
0.0
 40
28.50472005208334
  1
低域1×12"+中高域1×1.75"コアキシャルドライバー、アニュラーダイアフラム搭載のコンプレッションドライバー
 41
0.7
 11
-736.5
 21
1495.696480607638
 31
0.0
100
AcDbText
 73
     3
  0
TEXT
  5
6E
330
3C7
100
AcDbEntity
  8
SPEC
 62
     7
100
AcDbText
 10
-736.4999999999996
 20
1523.441760555555
 30
0.0
 40
28.50472005208334
  1
90°円錐
 41
0.7
 11
-736.4999999999996
 21
1551.946480607638
 31
0.0
100
AcDbText
 73
     3
  0
TEXT
  5
6F
330
3C7
100
AcDbEntity
  8
SPEC
 62
     7
100
AcDbText
 10
-736.4999999999996
 20
1579.691760555555
 30
0.0
 40
28.50472005208334
  1
132dB SPL(※2)
 41
0.7
 11
-736.4999999999996
 21
1608.196480607638
 31
0.0
100
AcDbText
 73
     3
  0
TEXT
  5
70
330
3C7
100
AcDbEntity
  8
SPEC
 62
     7
100
AcDbText
 10
-1224.0
 20
1467.191760555555
 30
0.0
 40
28.50472005208334
  1
ドライバー構成
 41
0.7
 11
-1224.0
 21
1495.696480607638
 31
0.0
100
AcDbText
 73
     3
  0
TEXT
  5
71
330
3C7
100
AcDbEntity
  8
SPEC
 62
     7
100
AcDbText
 10
-1224.0
 20
1410.941760555555
 30
0.0
 40
28.50472005208334
  1
クロスオーバー
 41
0.7
 11
-1224.0
 21
1439.446480607638
 31
0.0
100
AcDbText
 73
     3
  0
TEXT
  5
72
330
3C7
100
AcDbEntity
  8
SPEC
 62
     7
100
AcDbText
 10
-1224.0
 20
1354.691760555555
 30
0.0
 40
28.50472005208334
  1
入力コネクター
 41
0.7
 11
-1224.0
 21
1383.196480607638
 31
0.0
100
AcDbText
 73
     3
  0
TEXT
  5
73
330
3C7
100
AcDbEntity
  8
SPEC
 62
     7
100
AcDbText
 10
-736.5
 20
1410.941760555555
 30
0.0
 40
28.50472005208334
  1
パッシブ:1.2kHz
 41
0.7
 11
-736.5
 21
1439.446480607638
 31
0.0
100
AcDbText
 73
     3
  0
TEXT
  5
74
330
3C7
100
AcDbEntity
  8
SPEC
 62
     7
100
AcDbText
 10
-736.5
 20
1354.691760555555
 30
0.0
 40
28.50472005208334
  1
2×Neutrik NL4MP
 41
0.7
 11
-736.5
 21
1383.196480607638
 31
0.0
100
AcDbText
 73
     3
  0
TEXT
  5
75
330
3C7
100
AcDbEntity
  8
SPEC
 62
     7
100
AcDbText
 10
-1224.0
 20
1298.441760555555
 30
0.0
 40
28.50472005208334
  1
公称インピーダンス
 41
0.7
 11
-1224.0
 21
1326.946480607638
 31
0.0
100
AcDbText
 73
     3
  0
TEXT
  5
76
330
3C7
100
AcDbEntity
  8
SPEC
 62
     7
100
AcDbText
 10
-1224.0
 20
1242.191760555555
 30
0.0
 40
28.50472005208334
  1
エンクロージャー
 41
0.7
 11
-1224.0
 21
1270.696480607638
 31
0.0
100
AcDbText
 73
     3
  0
TEXT
  5
77
330
3C7
100
AcDbEntity
  8
SPEC
 62
     7
100
AcDbText
 10
-1224.0
 20
1185.941760555555
 30
0.0
 40
28.50472005208334
  1
仕上げ
 41
0.7
 11
-1224.0
 21
1214.446480607638
 31
0.0
100
AcDbText
 73
     3
  0
TEXT
  5
78
330
3C7
100
AcDbEntity
  8
SPEC
 62
     7
100
AcDbText
 10
-736.4999999999996
 20
1298.441760555555
 30
0.0
 40
28.50472005208334
  1
4Ω
 41
0.7
 11
-736.4999999999996
 21
1326.946480607638
 31
0.0
100
AcDbText
 73
     3
  0
TEXT
  5
79
330
3C7
100
AcDbEntity
  8
SPEC
 62
     7
100
AcDbText
 10
-736.4999999999996
 20
1242.191760555555
 30
0.0
 40
28.50472005208334
  1
合板
 41
0.7
 11
-736.4999999999996
 21
1270.696480607638
 31
0.0
100
AcDbText
 73
     3
  0
TEXT
  5
7A
330
3C7
100
AcDbEntity
  8
SPEC
 62
     7
100
AcDbText
 10
-736.5
 20
1185.941760555555
 30
0.0
 40
28.50472005208334
  1
黒(D12)、白(D12 White:RAL9016)、ポリウレア樹脂塗装
 41
0.7
 11
-736.5
 21
1214.446480607638
 31
0.0
100
AcDbText
 73
     3
  0
TEXT
  5
7B
330
3C7
100
AcDbEntity
  8
DIMNSIONS
 62
     7
100
AcDbText
 10
-299.9999999999999
 20
-1716.834656111111
 30
0.0
 40
36.64892578125
  1
(単位：mm)
 41
0.7
 11
-299.9999999999999
 21
-1680.185730329861
 31
0.0
100
AcDbText
 73
     3
  0
LINE
  5
7C
330
3C7
100
AcDbEntity
  8
DIMNSIONS
  6
Continuous
 62
     7
100
AcDbLine
 10
-667.8507497224067
 20
161.3603815783791
 30
0.0
 11
-597.7670298373083
 21
173.7179911242255
 31
0.0
  0
LINE
  5
7D
330
3C7
100
AcDbEntity
  8
DIMNSIONS
  6
Continuous
 62
     7
100
AcDbLine
 10
-626.5226169996367
 20
-73.02388718906614
 30
0.0
 11
-556.438897114538
 21
-60.66627764321982
 31
0.0
  0
LINE
  5
7E
330
3C7
100
AcDbEntity
  8
DIMNSIONS
  6
Continuous
 62
     7
100
AcDbLine
 10
-612.5391476167688
 20
171.1132768769921
 30
0.0
 11
-571.2110148939987
 21
-63.2709918904532
 31
0.0
  0
LINE
  5
7F
330
3C7
100
AcDbEntity
  8
DIMNSIONS
  6
Continuous
 62
     7
100
AcDbLine
 10
-612.5391476167688
 20
171.1132768769921
 30
0.0
 11
-599.4141501583433
 21
142.9666289957277
 31
0.0
  0
LINE
  5
80
330
3C7
100
AcDbEntity
  8
DIMNSIONS
  6
Continuous
 62
     7
100
AcDbLine
 10
-612.5391476167688
 20
171.1132768769921
 30
0.0
 11
-615.2458903337982
 21
140.1750660512288
 31
0.0
  0
LINE
  5
81
330
3C7
100
AcDbEntity
  8
DIMNSIONS
  6
Continuous
 62
     7
100
AcDbLine
 10
-571.2110148939987
 20
-63.2709918904532
 30
0.0
 11
-583.8427866130683
 21
-34.89956808985975
 31
0.0
  0
LINE
  5
82
330
3C7
100
AcDbEntity
  8
DIMNSIONS
  6
Continuous
 62
     7
100
AcDbLine
 10
-571.2110148939987
 20
-63.2709918904532
 30
0.0
 11
-567.9647381972221
 21
-32.38473227807005
 31
0.0
  0
TEXT
  5
83
330
3C7
100
AcDbEntity
  8
DIMNSIONS
 62
     7
100
AcDbText
 10
-597.2032655726994
 20
12.68190336059601
 30
0.0
 40
40.72102864583334
  1
238
 50
99.99996735046673
 41
0.7
 11
-637.305654323169
 21
5.610793795542631
 31
0.0
100
AcDbText
 73
     3
  0
LINE
  5
84
330
3C7
100
AcDbEntity
  8
DIMNSIONS
  6
Continuous
 62
     7
100
AcDbLine
 10
-777.5
 20
-152.5466883790184
 30
0.0
 11
-485.0
 21
-152.5466883790184
 31
0.0
  0
LINE
  5
85
330
3C7
100
AcDbEntity
  8
DIMNSIONS
  6
Continuous
 62
     7
100
AcDbLine
 10
-777.5
 20
-72.5466883790184
 30
0.0
 11
-485.0
 21
-72.5466883790184
 31
0.0
  0
LINE
  5
86
330
3C7
100
AcDbEntity
  8
DIMNSIONS
  6
Continuous
 62
     7
100
AcDbLine
 10
-500.0
 20
-72.5466883790184
 30
0.0
 11
-500.0
 21
55.83333333333334
 31
0.0
  0
LINE
  5
87
330
3C7
100
AcDbEntity
  8
DIMNSIONS
  6
Continuous
 62
     7
100
AcDbLine
 10
-500.0
 20
-152.5466883790184
 30
0.0
 11
-500.0
 21
-72.5466883790184
 31
0.0
  0
LINE
  5
88
330
3C7
100
AcDbEntity
  8
DIMNSIONS
  6
Continuous
 62
     7
100
AcDbLine
 10
-500.0
 20
-152.5466883790184
 30
0.0
 11
-508.0379851433088
 21
-122.5485194337059
 31
0.0
  0
LINE
  5
89
330
3C7
100
AcDbEntity
  8
DIMNSIONS
  6
Continuous
 62
     7
100
AcDbLine
 10
-500.0
 20
-152.5466883790184
 30
0.0
 11
-491.9620148566912
 21
-122.5485194337059
 31
0.0
  0
LINE
  5
8A
330
3C7
100
AcDbEntity
  8
DIMNSIONS
  6
Continuous
 62
     7
100
AcDbLine
 10
-500.0
 20
-72.5466883790184
 30
0.0
 11
-491.9620148566912
 21
-102.5448573243309
 31
0.0
  0
LINE
  5
8B
330
3C7
100
AcDbEntity
  8
DIMNSIONS
  6
Continuous
 62
     7
100
AcDbLine
 10
-500.0
 20
-72.5466883790184
 30
0.0
 11
-508.0379851433088
 21
-102.5448573243309
 31
0.0
  0
TEXT
  5
8C
330
3C7
100
AcDbEntity
  8
DIMNSIONS
 62
     7
100
AcDbText
 10
-512.4083333333333
 20
-50.0
 30
0.0
 40
40.72102864583334
  1
80.0
 50
90.0
 41
0.7
 11
-553.1293619791666
 21
-50.0
 31
0.0
100
AcDbText
 73
     3
  0
LINE
  5
8D
330
3C7
100
AcDbEntity
  8
DIMNSIONS
  6
Continuous
 62
     7
100
AcDbLine
 10
-777.5
 20
-152.5466883790184
 30
0.0
 11
-485.0
 21
-152.5466883790184
 31
0.0
  0
LINE
  5
8E
330
3C7
100
AcDbEntity
  8
DIMNSIONS
  6
Continuous
 62
     7
100
AcDbLine
 10
-777.5
 20
-250.0
 30
0.0
 11
-485.0
 21
-250.0
 31
0.0
  0
LINE
  5
8F
330
3C7
100
AcDbEntity
  8
DIMNSIONS
  6
Continuous
 62
     7
100
AcDbLine
 10
-500.0
 20
-250.0
 30
0.0
 11
-500.0
 21
-380.8333333333333
 31
0.0
  0
LINE
  5
90
330
3C7
100
AcDbEntity
  8
DIMNSIONS
  6
Continuous
 62
     7
100
AcDbLine
 10
-500.0
 20
-152.5466883790184
 30
0.0
 11
-500.0
 21
-250.0
 31
0.0
  0
LINE
  5
91
330
3C7
100
AcDbEntity
  8
DIMNSIONS
  6
Continuous
 62
     7
100
AcDbLine
 10
-500.0
 20
-152.5466883790184
 30
0.0
 11
-491.9620148566912
 21
-182.5448573243308
 31
0.0
  0
LINE
  5
92
330
3C7
100
AcDbEntity
  8
DIMNSIONS
  6
Continuous
 62
     7
100
AcDbLine
 10
-500.0
 20
-152.5466883790184
 30
0.0
 11
-508.0379851433088
 21
-182.5448573243308
 31
0.0
  0
LINE
  5
93
330
3C7
100
AcDbEntity
  8
DIMNSIONS
  6
Continuous
 62
     7
100
AcDbLine
 10
-500.0
 20
-250.0
 30
0.0
 11
-508.0379851433088
 21
-220.0018310546875
 31
0.0
  0
LINE
  5
94
330
3C7
100
AcDbEntity
  8
DIMNSIONS
  6
Continuous
 62
     7
100
AcDbLine
 10
-500.0
 20
-250.0
 30
0.0
 11
-491.9620148566912
 21
-220.0018310546875
 31
0.0
  0
TEXT
  5
95
330
3C7
100
AcDbEntity
  8
DIMNSIONS
 62
     7
100
AcDbText
 10
-512.4083333333333
 20
-380.8333333333333
 30
0.0
 40
40.72102864583334
  1
97.5
 50
90.0
 41
0.7
 11
-553.1293619791666
 21
-380.8333333333333
 31
0.0
100
AcDbText
 73
     3
  0
TEXT
  5
96
330
3C7
100
AcDbEntity
  8
DIMNSIONS
 62
     7
100
AcDbText
 10
150.0
 20
-1442.29560736111
 30
0.0
 40
40.72102864583334
  1
※1 センター振り分け
 41
0.7
 11
150.0
 21
-1401.574578715277
 31
0.0
100
AcDbText
 73
     3
  0
TEXT
  5
97
330
3C7
100
AcDbEntity
  8
DIMNSIONS
 62
     7
100
AcDbText
 10
150.0
 20
-1517.29560736111
 30
0.0
 40
40.72102864583334
  1
※2 側面M6寸法
 41
0.7
 11
150.0
 21
-1476.574578715277
 31
0.0
100
AcDbText
 73
     3
  0
LINE
  5
98
330
3C7
100
AcDbEntity
  8
DIMNSIONS
  6
Continuous
 62
     7
100
AcDbLine
 10
-991.0568690063737
 20
-900.0
 30
0.0
 11
-1090.0
 21
-900.0
 31
0.0
  0
LINE
  5
99
330
3C7
100
AcDbEntity
  8
DIMNSIONS
  6
Continuous
 62
     7
100
AcDbLine
 10
-991.0568690063737
 20
-447.9999892413616
 30
0.0
 11
-1090.0
 21
-447.9999892413616
 31
0.0
  0
LINE
  5
9A
330
3C7
100
AcDbEntity
  8
DIMNSIONS
  6
Continuous
 62
     7
100
AcDbLine
 10
-1075.0
 20
-900.0
 30
0.0
 11
-1075.0
 21
-447.9999892413616
 31
0.0
  0
LINE
  5
9B
330
3C7
100
AcDbEntity
  8
DIMNSIONS
  6
Continuous
 62
     7
100
AcDbLine
 10
-1075.0
 20
-900.0
 30
0.0
 11
-1083.037985143309
 21
-870.0018310546875
 31
0.0
  0
LINE
  5
9C
330
3C7
100
AcDbEntity
  8
DIMNSIONS
  6
Continuous
 62
     7
100
AcDbLine
 10
-1075.0
 20
-900.0
 30
0.0
 11
-1066.962014856691
 21
-870.0018310546875
 31
0.0
  0
LINE
  5
9D
330
3C7
100
AcDbEntity
  8
DIMNSIONS
  6
Continuous
 62
     7
100
AcDbLine
 10
-1075.0
 20
-447.9999892413616
 30
0.0
 11
-1066.962014856691
 21
-477.998158186674
 31
0.0
  0
LINE
  5
9E
330
3C7
100
AcDbEntity
  8
DIMNSIONS
  6
Continuous
 62
     7
100
AcDbLine
 10
-1075.0
 20
-447.9999892413616
 30
0.0
 11
-1083.037985143309
 21
-477.998158186674
 31
0.0
  0
TEXT
  5
9F
330
3C7
100
AcDbEntity
  8
DIMNSIONS
 62
     7
100
AcDbText
 10
-1087.408333333333
 20
-713.6874946206806
 30
0.0
 40
40.72102864583334
  1
452
 50
90.0
 41
0.7
 11
-1128.129361979167
 21
-713.6874946206806
 31
0.0
100
AcDbText
 73
     3
  0
LINE
  5
A0
330
3C7
100
AcDbEntity
  8
DIMNSIONS
  6
Continuous
 62
     7
100
AcDbLine
 10
-822.4999024835886
 20
-250.0
 30
0.0
 11
-1015.0
 21
-250.0
 31
0.0
  0
LINE
  5
A1
330
3C7
100
AcDbEntity
  8
DIMNSIONS
  6
Continuous
 62
     7
100
AcDbLine
 10
-932.4908351898157
 20
157.453310207529
 30
0.0
 11
-1015.0
 21
157.453310207529
 31
0.0
  0
LINE
  5
A2
330
3C7
100
AcDbEntity
  8
DIMNSIONS
  6
Continuous
 62
     7
100
AcDbLine
 10
-1000.0
 20
-250.0
 30
0.0
 11
-1000.0
 21
157.453310207529
 31
0.0
  0
LINE
  5
A3
330
3C7
100
AcDbEntity
  8
DIMNSIONS
  6
Continuous
 62
     7
100
AcDbLine
 10
-1000.0
 20
-250.0
 30
0.0
 11
-1008.037985143309
 21
-220.0018310546875
 31
0.0
  0
LINE
  5
A4
330
3C7
100
AcDbEntity
  8
DIMNSIONS
  6
Continuous
 62
     7
100
AcDbLine
 10
-1000.0
 20
-250.0
 30
0.0
 11
-991.9620148566913
 21
-220.0018310546875
 31
0.0
  0
LINE
  5
A5
330
3C7
100
AcDbEntity
  8
DIMNSIONS
  6
Continuous
 62
     7
100
AcDbLine
 10
-1000.0
 20
157.453310207529
 30
0.0
 11
-991.9620148566913
 21
127.4551412622165
 31
0.0
  0
LINE
  5
A6
330
3C7
100
AcDbEntity
  8
DIMNSIONS
  6
Continuous
 62
     7
100
AcDbLine
 10
-1000.0
 20
157.453310207529
 30
0.0
 11
-1008.037985143309
 21
127.4551412622165
 31
0.0
  0
TEXT
  5
A7
330
3C7
100
AcDbEntity
  8
DIMNSIONS
 62
     7
100
AcDbText
 10
-1012.408333333333
 20
-85.96084489623548
 30
0.0
 40
40.72102864583334
  1
407
 50
90.0
 41
0.7
 11
-1053.129361979166
 21
-85.96084489623548
 31
0.0
100
AcDbText
 73
     3
  0
LINE
  5
A8
330
3C7
100
AcDbEntity
  8
DIMNSIONS
  6
Continuous
 62
     7
100
AcDbLine
 10
-971.0000038146972
 20
-922.4999999999999
 30
0.0
 11
-971.0000038146972
 21
-1015.0
 31
0.0
  0
LINE
  5
A9
330
3C7
100
AcDbEntity
  8
DIMNSIONS
  6
Continuous
 62
     7
100
AcDbLine
 10
-628.9999961853027
 20
-922.4999999999999
 30
0.0
 11
-628.9999961853027
 21
-1015.0
 31
0.0
  0
LINE
  5
AA
330
3C7
100
AcDbEntity
  8
DIMNSIONS
  6
Continuous
 62
     7
100
AcDbLine
 10
-971.0000038146972
 20
-1000.0
 30
0.0
 11
-628.9999961853027
 21
-1000.0
 31
0.0
  0
LINE
  5
AB
330
3C7
100
AcDbEntity
  8
DIMNSIONS
  6
Continuous
 62
     7
100
AcDbLine
 10
-971.0000038146972
 20
-1000.0
 30
0.0
 11
-941.0018348693848
 21
-991.9620148566913
 31
0.0
  0
LINE
  5
AC
330
3C7
100
AcDbEntity
  8
DIMNSIONS
  6
Continuous
 62
     7
100
AcDbLine
 10
-971.0000038146972
 20
-1000.0
 30
0.0
 11
-941.0018348693848
 21
-1008.037985143309
 31
0.0
  0
LINE
  5
AD
330
3C7
100
AcDbEntity
  8
DIMNSIONS
  6
Continuous
 62
     7
100
AcDbLine
 10
-628.9999961853027
 20
-1000.0
 30
0.0
 11
-658.9981651306152
 21
-1008.037985143309
 31
0.0
  0
LINE
  5
AE
330
3C7
100
AcDbEntity
  8
DIMNSIONS
  6
Continuous
 62
     7
100
AcDbLine
 10
-628.9999961853027
 20
-1000.0
 30
0.0
 11
-658.9981651306152
 21
-991.9620148566913
 31
0.0
  0
TEXT
  5
AF
330
3C7
100
AcDbEntity
  8
DIMNSIONS
 62
     7
100
AcDbText
 10
-839.6874999999999
 20
-987.5916666666666
 30
0.0
 40
40.72102864583334
  1
342
 41
0.7
 11
-839.6874999999999
 21
-946.8706380208333
 31
0.0
100
AcDbText
 73
     3
  0
LINE
  5
B0
330
3C7
100
AcDbEntity
  8
DIMNSIONS
  6
Continuous
 62
     7
100
AcDbLine
 10
-822.4999024835886
 20
-250.0
 30
0.0
 11
-1090.0
 21
-250.0
 31
0.0
  0
LINE
  5
B1
330
3C7
100
AcDbEntity
  8
DIMNSIONS
  6
Continuous
 62
     7
100
AcDbLine
 10
-822.4999024835886
 20
175.0
 30
0.0
 11
-1090.0
 21
175.0
 31
0.0
  0
LINE
  5
B2
330
3C7
100
AcDbEntity
  8
DIMNSIONS
  6
Continuous
 62
     7
100
AcDbLine
 10
-1075.0
 20
-250.0
 30
0.0
 11
-1075.0
 21
175.0
 31
0.0
  0
LINE
  5
B3
330
3C7
100
AcDbEntity
  8
DIMNSIONS
  6
Continuous
 62
     7
100
AcDbLine
 10
-1075.0
 20
-250.0
 30
0.0
 11
-1083.037985143309
 21
-220.0018310546875
 31
0.0
  0
LINE
  5
B4
330
3C7
100
AcDbEntity
  8
DIMNSIONS
  6
Continuous
 62
     7
100
AcDbLine
 10
-1075.0
 20
-250.0
 30
0.0
 11
-1066.962014856691
 21
-220.0018310546875
 31
0.0
  0
LINE
  5
B5
330
3C7
100
AcDbEntity
  8
DIMNSIONS
  6
Continuous
 62
     7
100
AcDbLine
 10
-1075.0
 20
175.0
 30
0.0
 11
-1066.962014856691
 21
145.0018310546875
 31
0.0
  0
LINE
  5
B6
330
3C7
100
AcDbEntity
  8
DIMNSIONS
  6
Continuous
 62
     7
100
AcDbLine
 10
-1075.0
 20
175.0
 30
0.0
 11
-1083.037985143309
 21
145.0018310546875
 31
0.0
  0
TEXT
  5
B7
330
3C7
100
AcDbEntity
  8
DIMNSIONS
 62
     7
100
AcDbText
 10
-1087.408333333333
 20
-77.1875
 30
0.0
 40
40.72102864583334
  1
425
 50
90.0
 41
0.7
 11
-1128.129361979167
 21
-77.1875
 31
0.0
100
AcDbText
 73
     3
  0
LINE
  5
B8
330
3C7
100
AcDbEntity
  8
DIMNSIONS
  6
Continuous
 62
     7
100
AcDbLine
 10
-376.4765381735638
 20
-635.9893216447216
 30
0.0
 11
-60.0
 21
-635.9893216447216
 31
0.0
  0
LINE
  5
B9
330
3C7
100
AcDbEntity
  8
DIMNSIONS
  6
Continuous
 62
     7
100
AcDbLine
 10
-376.4765381735638
 20
-711.9893216447216
 30
0.0
 11
-60.0
 21
-711.9893216447216
 31
0.0
  0
LINE
  5
BA
330
3C7
100
AcDbEntity
  8
DIMNSIONS
  6
Continuous
 62
     7
100
AcDbLine
 10
-75.0
 20
-635.9893216447216
 30
0.0
 11
-75.0
 21
-519.1666666666665
 31
0.0
  0
LINE
  5
BB
330
3C7
100
AcDbEntity
  8
DIMNSIONS
  6
Continuous
 62
     7
100
AcDbLine
 10
-75.0
 20
-635.9893216447216
 30
0.0
 11
-75.0
 21
-711.9893216447216
 31
0.0
  0
LINE
  5
BC
330
3C7
100
AcDbEntity
  8
DIMNSIONS
  6
Continuous
 62
     7
100
AcDbLine
 10
-75.0
 20
-635.9893216447216
 30
0.0
 11
-66.96201485669113
 21
-665.9874905900342
 31
0.0
  0
LINE
  5
BD
330
3C7
100
AcDbEntity
  8
DIMNSIONS
  6
Continuous
 62
     7
100
AcDbLine
 10
-75.0
 20
-635.9893216447216
 30
0.0
 11
-83.03798514330885
 21
-665.9874905900342
 31
0.0
  0
LINE
  5
BE
330
3C7
100
AcDbEntity
  8
DIMNSIONS
  6
Continuous
 62
     7
100
AcDbLine
 10
-75.0
 20
-711.9893216447216
 30
0.0
 11
-83.03798514330885
 21
-681.9911526994092
 31
0.0
  0
LINE
  5
BF
330
3C7
100
AcDbEntity
  8
DIMNSIONS
  6
Continuous
 62
     7
100
AcDbLine
 10
-75.0
 20
-711.9893216447216
 30
0.0
 11
-66.96201485669113
 21
-681.9911526994092
 31
0.0
  0
TEXT
  5
C0
330
3C7
100
AcDbEntity
  8
DIMNSIONS
 62
     7
100
AcDbText
 10
-87.40833333333336
 20
-625.0
 30
0.0
 40
40.72102864583334
  1
76.0
 50
90.0
 41
0.7
 11
-128.1293619791667
 21
-625.0
 31
0.0
100
AcDbText
 73
     3
  0
LINE
  5
C1
330
3C7
100
AcDbEntity
  8
DIMNSIONS
  6
Continuous
 62
     7
100
AcDbLine
 10
172.4999024836324
 20
-599.4999959170817
 30
0.0
 11
415.0
 21
-599.4999959170817
 31
0.0
  0
LINE
  5
C2
330
3C7
100
AcDbEntity
  8
DIMNSIONS
  6
Continuous
 62
     7
100
AcDbLine
 10
172.4999024836324
 20
-675.4999959170817
 30
0.0
 11
415.0
 21
-675.4999959170817
 31
0.0
  0
LINE
  5
C3
330
3C7
100
AcDbEntity
  8
DIMNSIONS
  6
Continuous
 62
     7
100
AcDbLine
 10
400.0
 20
-675.4999959170817
 30
0.0
 11
400.0
 21
-805.8333333333333
 31
0.0
  0
LINE
  5
C4
330
3C7
100
AcDbEntity
  8
DIMNSIONS
  6
Continuous
 62
     7
100
AcDbLine
 10
400.0
 20
-599.4999959170817
 30
0.0
 11
400.0
 21
-675.4999959170817
 31
0.0
  0
LINE
  5
C5
330
3C7
100
AcDbEntity
  8
DIMNSIONS
  6
Continuous
 62
     7
100
AcDbLine
 10
400.0
 20
-599.4999959170817
 30
0.0
 11
408.0379851433088
 21
-629.4981648623944
 31
0.0
  0
LINE
  5
C6
330
3C7
100
AcDbEntity
  8
DIMNSIONS
  6
Continuous
 62
     7
100
AcDbLine
 10
400.0
 20
-599.4999959170817
 30
0.0
 11
391.9620148566912
 21
-629.4981648623944
 31
0.0
  0
LINE
  5
C7
330
3C7
100
AcDbEntity
  8
DIMNSIONS
  6
Continuous
 62
     7
100
AcDbLine
 10
400.0
 20
-675.4999959170817
 30
0.0
 11
391.9620148566912
 21
-645.5018269717692
 31
0.0
  0
LINE
  5
C8
330
3C7
100
AcDbEntity
  8
DIMNSIONS
  6
Continuous
 62
     7
100
AcDbLine
 10
400.0
 20
-675.4999959170817
 30
0.0
 11
408.0379851433088
 21
-645.5018269717692
 31
0.0
  0
TEXT
  5
C9
330
3C7
100
AcDbEntity
  8
DIMNSIONS
 62
     7
100
AcDbText
 10
387.5916666666666
 20
-805.8333333333333
 30
0.0
 40
40.72102864583334
  1
76.0
 50
90.0
 41
0.7
 11
346.8706380208333
 21
-805.8333333333333
 31
0.0
100
AcDbText
 73
     3
  0
LINE
  5
CA
330
3C7
100
AcDbEntity
  8
DIMNSIONS
  6
Continuous
 62
     7
100
AcDbLine
 10
343.5000038146973
 20
-447.9999892413616
 30
0.0
 11
415.0
 21
-447.9999892413616
 31
0.0
  0
LINE
  5
CB
330
3C7
100
AcDbEntity
  8
DIMNSIONS
  6
Continuous
 62
     7
100
AcDbLine
 10
172.4999024836324
 20
-599.4999959170817
 30
0.0
 11
415.0
 21
-599.4999959170817
 31
0.0
  0
LINE
  5
CC
330
3C7
100
AcDbEntity
  8
DIMNSIONS
  6
Continuous
 62
     7
100
AcDbLine
 10
400.0
 20
-447.9999892413616
 30
0.0
 11
400.0
 21
-599.4999959170817
 31
0.0
  0
LINE
  5
CD
330
3C7
100
AcDbEntity
  8
DIMNSIONS
  6
Continuous
 62
     7
100
AcDbLine
 10
400.0
 20
-447.9999892413616
 30
0.0
 11
408.0379851433088
 21
-477.998158186674
 31
0.0
  0
LINE
  5
CE
330
3C7
100
AcDbEntity
  8
DIMNSIONS
  6
Continuous
 62
     7
100
AcDbLine
 10
400.0
 20
-447.9999892413616
 30
0.0
 11
391.9620148566912
 21
-477.998158186674
 31
0.0
  0
LINE
  5
CF
330
3C7
100
AcDbEntity
  8
DIMNSIONS
  6
Continuous
 62
     7
100
AcDbLine
 10
400.0
 20
-599.4999959170817
 30
0.0
 11
391.9620148566912
 21
-569.5018269717691
 31
0.0
  0
LINE
  5
D0
330
3C7
100
AcDbEntity
  8
DIMNSIONS
  6
Continuous
 62
     7
100
AcDbLine
 10
400.0
 20
-599.4999959170817
 30
0.0
 11
408.0379851433088
 21
-569.5018269717691
 31
0.0
  0
TEXT
  5
D1
330
3C7
100
AcDbEntity
  8
DIMNSIONS
 62
     7
100
AcDbText
 10
387.5916666666667
 20
-563.4374925792216
 30
0.0
 40
40.72102864583334
  1
152
 50
90.0
 41
0.7
 11
346.8706380208334
 21
-563.4374925792216
 31
0.0
100
AcDbText
 73
     3
  0
LINE
  5
D2
330
3C7
100
AcDbEntity
  8
DIMNSIONS
  6
Continuous
 62
     7
100
AcDbLine
 10
-401.5955698242187
 20
-633.0082332287409
 30
0.0
 11
-374.9999999999997
 21
-400.0
 31
0.0
  0
LINE
  5
D3
330
3C7
100
AcDbEntity
  8
DIMNSIONS
  6
Continuous
 62
     7
100
AcDbLine
 10
-401.5955698242187
 20
-633.0082332287409
 30
0.0
 11
-405.917783892438
 21
-602.2540821140692
 31
0.0
  0
LINE
  5
D4
330
3C7
100
AcDbEntity
  8
DIMNSIONS
  6
Continuous
 62
     7
100
AcDbLine
 10
-401.5955698242187
 20
-633.0082332287409
 30
0.0
 11
-389.9616414505554
 21
-604.2132500575002
 31
0.0
  0
LINE
  5
D5
330
3C7
100
AcDbEntity
  8
DIMNSIONS
  6
Continuous
 62
     7
100
AcDbLine
 10
-374.9999999999997
 20
-400.0
 30
0.0
 11
-344.9999999999997
 21
-400.0
 31
0.0
  0
TEXT
  5
D6
330
3C7
100
AcDbEntity
  8
DIMNSIONS
 62
     7
100
AcDbText
 10
-344.9999999999997
 20
-419.0499999999999
 30
0.0
 40
40.72102864583334
  1
M6(4ヵ所)
 41
0.7
 11
-344.9999999999997
 21
-378.3289713541666
 31
0.0
100
AcDbText
 73
     3
  0
TEXT
  5
D7
330
3C7
100
AcDbEntity
  8
DIMNSIONS
 62
     7
100
AcDbText
 10
-119.5816666666666
 20
-519.1666666666667
 30
0.0
 40
28.50472005208333
  1
※1
 50
90.0
 41
0.7
 11
-148.08638671875
 21
-519.1666666666667
 31
0.0
100
AcDbText
 73
     3
  0
TEXT
  5
D8
330
3C7
100
AcDbEntity
  8
DIMNSIONS
 62
     7
100
AcDbText
 10
-642.6710977410222
 20
85.26421144601881
 30
0.0
 40
28.50472005208333
  1
※2
 50
100.0
 41
0.7
 11
-670.7427670457564
 21
80.31441875406853
 31
0.0
100
AcDbText
 73
     3
  0
LINE
  5
D9
330
3C7
100
AcDbEntity
  8
DIMNSIONS
  6
Continuous
 62
     7
100
AcDbLine
 10
150.3729263187656
 20
-596.5232773847901
 30
0.0
 11
174.9999999999998
 21
-400.0
 31
0.0
  0
LINE
  5
DA
330
3C7
100
AcDbEntity
  8
DIMNSIONS
  6
Continuous
 62
     7
100
AcDbLine
 10
150.3729263187656
 20
-596.5232773847901
 30
0.0
 11
146.5881044895708
 21
-565.698377239667
 31
0.0
  0
LINE
  5
DB
330
3C7
100
AcDbEntity
  8
DIMNSIONS
  6
Continuous
 62
     7
100
AcDbLine
 10
150.3729263187656
 20
-596.5232773847901
 30
0.0
 11
162.5076245384466
 21
-567.9357198753974
 31
0.0
  0
LINE
  5
DC
330
3C7
100
AcDbEntity
  8
DIMNSIONS
  6
Continuous
 62
     7
100
AcDbLine
 10
174.9999999999998
 20
-400.0
 30
0.0
 11
204.9999999999998
 21
-400.0
 31
0.0
  0
TEXT
  5
DD
330
3C7
100
AcDbEntity
  8
DIMNSIONS
 62
     7
100
AcDbText
 10
204.9999999999998
 20
-412.7
 30
0.0
 40
27.14735243055556
  1
M6(2ヵ所)
 41
0.7
 11
204.9999999999998
 21
-385.5526475694445
 31
0.0
100
AcDbText
 73
     3
  0
LINE
  5
DE
330
3C7
100
AcDbEntity
  8
DIMNSIONS
  6
Continuous
 62
     7
100
AcDbLine
 10
-799.5028477948214
 20
-69.5881685335944
 30
0.0
 11
-750.0
 21
225.0
 31
0.0
  0
LINE
  5
DF
330
3C7
100
AcDbEntity
  8
DIMNSIONS
  6
Continuous
 62
     7
100
AcDbLine
 10
-799.5028477948214
 20
-69.5881685335944
 30
0.0
 11
-802.2095905118506
 21
-38.64995770783115
 31
0.0
  0
LINE
  5
E0
330
3C7
100
AcDbEntity
  8
DIMNSIONS
  6
Continuous
 62
     7
100
AcDbLine
 10
-799.5028477948214
 20
-69.5881685335944
 30
0.0
 11
-786.3778503363955
 21
-41.44152065233003
 31
0.0
  0
LINE
  5
E1
330
3C7
100
AcDbEntity
  8
DIMNSIONS
  6
Continuous
 62
     7
100
AcDbLine
 10
-750.0
 20
225.0
 30
0.0
 11
-719.9999999999999
 21
225.0
 31
0.0
  0
TEXT
  5
E2
330
3C7
100
AcDbEntity
  8
DIMNSIONS
 62
     7
100
AcDbText
 10
-719.9999999999999
 20
205.9499999999999
 30
0.0
 40
40.72102864583334
  1
M6(4ヵ所)
 41
0.7
 11
-719.9999999999999
 21
246.6710286458333
 31
0.0
100
AcDbText
 73
     3
  0
LINE
  5
E3
330
3C7
100
AcDbEntity
  8
DATA
  6
Continuous
 62
     7
100
AcDbLine
 10
725.0
 20
-1100.0
 30
0.0
 11
1075.0
 21
-1100.0
 31
0.0
  0
TEXT
  5
E4
330
3C7
100
AcDbEntity
  8
DATA
 62
     7
100
AcDbText
 10
-1312.5
 20
-1782.732839444445
 30
0.0
 40
28.50472005208334
  1
※仕様及び外観は予告なく変更されることがあります。
 41
0.7
 11
-1312.5
 21
-1754.228119392361
 31
0.0
100
AcDbText
 73
     3
  0
TEXT
  5
E5
330
3C7
100
AcDbEntity
  8
DATA
 62
     7
100
AcDbText
 10
-1312.5
 20
-1819.774506111111
 30
0.0
 40
28.50472005208334
  1
　また、同一商品でも若干の個体差があることがあります。ご了承ください。
 41
0.7
 11
-1312.5
 21
-1791.269786059028
 31
0.0
100
AcDbText
 73
     3
  0
TEXT
  5
E6
330
3C7
100
AcDbEntity
  8
DATA
 62
     7
100
AcDbText
 10
802.1337944878471
 20
-1075.360514322917
 30
0.0
 40
40.72102864583334
  1
パネル拡大図
 41
0.7
 72
     1
 11
900.0
 21
-1055.0
 31
0.0
100
AcDbText
 73
     2
  0
LINE
  5
E7
330
3C7
100
AcDbEntity
  8
DATA
  6
Continuous
 62
     7
100
AcDbLine
 10
-628.9999961853027
 20
-465.9999959170817
 30
0.0
 11
-628.9999961853027
 21
-882.0000007748605
 31
0.0
  0
LINE
  5
E8
330
3C7
100
AcDbEntity
  8
DATA
  6
Continuous
 62
     7
100
AcDbLine
 10
-632.9999446868896
 20
-849.9999992549417
 30
0.0
 11
-632.9999446868896
 21
-684.0000055730343
 31
0.0
  0
LINE
  5
E9
330
3C7
100
AcDbEntity
  8
DATA
  6
Continuous
 62
     7
100
AcDbLine
 10
-633.0001831054687
 20
-849.9999992549417
 30
0.0
 11
-633.0001831054687
 21
-684.0000055730343
 31
0.0
  0
CIRCLE
  5
EA
330
3C7
100
AcDbEntity
  8
DATA
  6
Continuous
 62
     7
100
AcDbCircle
 10
-799.9999024835962
 20
-627.0000002086162
 30
0.0
 40
142.0
  0
LINE
  5
EB
330
3C7
100
AcDbEntity
  8
DATA
  6
Continuous
 62
     7
100
AcDbLine
 10
-636.9531631469727
 20
-882.0000007748605
 30
0.0
 11
-636.9531631469727
 21
-465.9999959170817
 31
0.0
  0
CIRCLE
  5
EC
330
3C7
100
AcDbEntity
  8
DATA
  6
Continuous
 62
     7
100
AcDbCircle
 10
-799.9999024835962
 20
-627.0000002086162
 30
0.0
 40
159.0
  0
LINE
  5
ED
330
3C7
100
AcDbEntity
  8
DATA
  6
Continuous
 62
     7
100
AcDbLine
 10
-971.0000038146972
 20
-882.0000007748605
 30
0.0
 11
-971.0000038146972
 21
-465.9999959170817
 31
0.0
  0
LINE
  5
EE
330
3C7
100
AcDbEntity
  8
DATA
  6
Continuous
 62
     7
100
AcDbLine
 10
-966.9998168945312
 20
-684.0000055730343
 30
0.0
 11
-966.9998168945312
 21
-849.9999992549417
 31
0.0
  0
LINE
  5
EF
330
3C7
100
AcDbEntity
  8
DATA
  6
Continuous
 62
     7
100
AcDbLine
 10
-963.046598434448
 20
-465.9999959170817
 30
0.0
 11
-963.046598434448
 21
-882.0000007748605
 31
0.0
  0
LINE
  5
F0
330
3C7
100
AcDbEntity
  8
DATA
  6
Continuous
 62
     7
100
AcDbLine
 10
-966.9995784759519
 20
-684.0000055730343
 30
0.0
 11
-966.9995784759519
 21
-849.9999992549417
 31
0.0
  0
LINE
  5
F1
330
3C7
100
AcDbEntity
  8
DATA
  6
Continuous
 62
     7
100
AcDbLine
 10
-951.7000198364256
 20
-882.0000007748605
 30
0.0
 11
-648.2999801635742
 21
-882.0000007748605
 31
0.0
  0
LINE
  5
F2
330
3C7
100
AcDbEntity
  8
DATA
  6
Continuous
 62
     7
100
AcDbLine
 10
-647.5210666656495
 20
-900.0
 30
0.0
 11
-952.4789333343504
 21
-900.0
 31
0.0
  0
LINE
  5
F3
330
3C7
100
AcDbEntity
  8
DATA
  6
Continuous
 62
     7
100
AcDbLine
 10
-952.4789333343504
 20
-886.0000014305112
 30
0.0
 11
-647.5210666656495
 21
-886.0000014305112
 31
0.0
  0
CIRCLE
  5
F4
330
3C7
100
AcDbEntity
  8
DATA
  6
Continuous
 62
     7
100
AcDbCircle
 10
-730.0014362782675
 20
-832.000000208616
 30
0.0
 40
45.0
  0
ARC
  5
F5
330
3C7
100
AcDbEntity
  8
DATA
  6
Continuous
 62
     7
100
AcDbCircle
 10
-870.0014362782676
 20
-832.000000208616
 30
0.0
 40
45.0
100
AcDbArc
 50
270.0
 51
90.23504147495977
  0
CIRCLE
  5
F6
330
3C7
100
AcDbEntity
  8
DATA
  6
Continuous
 62
     7
100
AcDbCircle
 10
-869.9983686889245
 20
-832.000000208616
 30
0.0
 40
45.0
  0
LINE
  5
F7
330
3C7
100
AcDbEntity
  8
DATA
  6
Continuous
 62
     7
100
AcDbLine
 10
-966.9998168945312
 20
-882.0000007748605
 30
0.0
 11
-951.7000198364256
 21
-882.0000007748605
 31
0.0
  0
LINE
  5
F8
330
3C7
100
AcDbEntity
  8
DATA
  6
Continuous
 62
     7
100
AcDbLine
 10
-952.4789333343504
 20
-900.0
 30
0.0
 11
-971.0000038146972
 21
-900.0
 31
0.0
  0
LINE
  5
F9
330
3C7
100
AcDbEntity
  8
DATA
  6
Continuous
 62
     7
100
AcDbLine
 10
-971.0000038146972
 20
-886.0000014305112
 30
0.0
 11
-952.4789333343504
 21
-886.0000014305112
 31
0.0
  0
LINE
  5
FA
330
3C7
100
AcDbEntity
  8
DATA
  6
Continuous
 62
     7
100
AcDbLine
 10
-971.0000038146972
 20
-900.0
 30
0.0
 11
-971.0000038146972
 21
-886.0000014305112
 31
0.0
  0
LINE
  5
FB
330
3C7
100
AcDbEntity
  8
DATA
  6
Continuous
 62
     7
100
AcDbLine
 10
-971.0000038146972
 20
-886.0000014305112
 30
0.0
 11
-971.0000038146972
 21
-882.0000007748605
 31
0.0
  0
LINE
  5
FC
330
3C7
100
AcDbEntity
  8
DATA
  6
Continuous
 62
     7
100
AcDbLine
 10
-966.9998168945312
 20
-886.0000014305112
 30
0.0
 11
-966.9998168945312
 21
-882.0000007748605
 31
0.0
  0
LINE
  5
FD
330
3C7
100
AcDbEntity
  8
DATA
  6
Continuous
 62
     7
100
AcDbLine
 10
-971.0000038146972
 20
-882.0000007748605
 30
0.0
 11
-966.9998168945312
 21
-882.0000007748605
 31
0.0
  0
LINE
  5
FE
330
3C7
100
AcDbEntity
  8
DATA
  6
Continuous
 62
     7
100
AcDbLine
 10
-966.9998168945312
 20
-849.9999992549417
 30
0.0
 11
-966.9998168945312
 21
-869.9999988079071
 31
0.0
  0
LINE
  5
FF
330
3C7
100
AcDbEntity
  8
DATA
  6
Continuous
 62
     7
100
AcDbLine
 10
-966.9995784759519
 20
-869.9999988079071
 30
0.0
 11
-966.9998168945312
 21
-869.9999988079071
 31
0.0
  0
LINE
  5
100
330
3C7
100
AcDbEntity
  8
DATA
  6
Continuous
 62
     7
100
AcDbLine
 10
-966.9995784759519
 20
-882.0000007748605
 30
0.0
 11
-966.9998168945312
 21
-882.0000007748605
 31
0.0
  0
LINE
  5
101
330
3C7
100
AcDbEntity
  8
DATA
  6
Continuous
 62
     7
100
AcDbLine
 10
-966.9998168945312
 20
-869.9999988079071
 30
0.0
 11
-966.9998168945312
 21
-882.0000007748605
 31
0.0
  0
LINE
  5
102
330
3C7
100
AcDbEntity
  8
DATA
  6
Continuous
 62
     7
100
AcDbLine
 10
-966.9995784759519
 20
-849.9999992549417
 30
0.0
 11
-966.9998168945312
 21
-849.9999992549417
 31
0.0
  0
LINE
  5
103
330
3C7
100
AcDbEntity
  8
DATA
  6
Continuous
 62
     7
100
AcDbLine
 10
-966.9995784759519
 20
-849.9999992549417
 30
0.0
 11
-964.9999618530271
 21
-849.9999992549417
 31
0.0
  0
LINE
  5
104
330
3C7
100
AcDbEntity
  8
DATA
  6
Continuous
 62
     7
100
AcDbLine
 10
-964.9999618530271
 20
-849.9999992549417
 30
0.0
 11
-964.9999618530271
 21
-869.9999988079071
 31
0.0
  0
LINE
  5
105
330
3C7
100
AcDbEntity
  8
DATA
  6
Continuous
 62
     7
100
AcDbLine
 10
-964.9999618530271
 20
-869.9999988079071
 30
0.0
 11
-966.9995784759519
 21
-869.9999988079071
 31
0.0
  0
LINE
  5
106
330
3C7
100
AcDbEntity
  8
DATA
  6
Continuous
 62
     7
100
AcDbLine
 10
-966.9995784759519
 20
-869.9999988079071
 30
0.0
 11
-966.9995784759519
 21
-882.0000007748605
 31
0.0
  0
LINE
  5
107
330
3C7
100
AcDbEntity
  8
DATA
  6
Continuous
 62
     7
100
AcDbLine
 10
-952.4789333343504
 20
-886.0000014305112
 30
0.0
 11
-952.4789333343504
 21
-900.0
 31
0.0
  0
LINE
  5
108
330
3C7
100
AcDbEntity
  8
DATA
  6
Continuous
 62
     7
100
AcDbLine
 10
-951.7000198364256
 20
-886.0000014305112
 30
0.0
 11
-951.7000198364256
 21
-882.0000007748605
 31
0.0
  0
LINE
  5
109
330
3C7
100
AcDbEntity
  8
DATA
  6
Continuous
 62
     7
100
AcDbLine
 10
-628.9999961853027
 20
-886.0000014305112
 30
0.0
 11
-628.9999961853027
 21
-900.0
 31
0.0
  0
LINE
  5
10A
330
3C7
100
AcDbEntity
  8
DATA
  6
Continuous
 62
     7
100
AcDbLine
 10
-647.5210666656495
 20
-886.0000014305112
 30
0.0
 11
-647.5210666656495
 21
-900.0
 31
0.0
  0
LINE
  5
10B
330
3C7
100
AcDbEntity
  8
DATA
  6
Continuous
 62
     7
100
AcDbLine
 10
-628.9999961853027
 20
-900.0
 30
0.0
 11
-647.5210666656495
 21
-900.0
 31
0.0
  0
LINE
  5
10C
330
3C7
100
AcDbEntity
  8
DATA
  6
Continuous
 62
     7
100
AcDbLine
 10
-648.2999801635742
 20
-882.0000007748605
 30
0.0
 11
-632.9999446868896
 21
-882.0000007748605
 31
0.0
  0
LINE
  5
10D
330
3C7
100
AcDbEntity
  8
DATA
  6
Continuous
 62
     7
100
AcDbLine
 10
-647.5210666656495
 20
-886.0000014305112
 30
0.0
 11
-628.9999961853027
 21
-886.0000014305112
 31
0.0
  0
LINE
  5
10E
330
3C7
100
AcDbEntity
  8
DATA
  6
Continuous
 62
     7
100
AcDbLine
 10
-634.9997997283936
 20
-849.9999992549417
 30
0.0
 11
-633.0001831054687
 21
-849.9999992549417
 31
0.0
  0
LINE
  5
10F
330
3C7
100
AcDbEntity
  8
DATA
  6
Continuous
 62
     7
100
AcDbLine
 10
-633.0001831054687
 20
-869.9999988079071
 30
0.0
 11
-634.9997997283936
 21
-869.9999988079071
 31
0.0
  0
LINE
  5
110
330
3C7
100
AcDbEntity
  8
DATA
  6
Continuous
 62
     7
100
AcDbLine
 10
-648.2999801635742
 20
-886.0000014305112
 30
0.0
 11
-648.2999801635742
 21
-882.0000007748605
 31
0.0
  0
LINE
  5
111
330
3C7
100
AcDbEntity
  8
DATA
  6
Continuous
 62
     7
100
AcDbLine
 10
-634.9997997283936
 20
-869.9999988079071
 30
0.0
 11
-634.9997997283936
 21
-849.9999992549417
 31
0.0
  0
LINE
  5
112
330
3C7
100
AcDbEntity
  8
DATA
  6
Continuous
 62
     7
100
AcDbLine
 10
-628.9999961853027
 20
-882.0000007748605
 30
0.0
 11
-628.9999961853027
 21
-886.0000014305112
 31
0.0
  0
LINE
  5
113
330
3C7
100
AcDbEntity
  8
DATA
  6
Continuous
 62
     7
100
AcDbLine
 10
-632.9999446868896
 20
-886.0000014305112
 30
0.0
 11
-632.9999446868896
 21
-882.0000007748605
 31
0.0
  0
LINE
  5
114
330
3C7
100
AcDbEntity
  8
DATA
  6
Continuous
 62
     7
100
AcDbLine
 10
-632.9999446868896
 20
-882.0000007748605
 30
0.0
 11
-628.9999961853027
 21
-882.0000007748605
 31
0.0
  0
LINE
  5
115
330
3C7
100
AcDbEntity
  8
DATA
  6
Continuous
 62
     7
100
AcDbLine
 10
-632.9999446868896
 20
-869.9999988079071
 30
0.0
 11
-632.9999446868896
 21
-849.9999992549417
 31
0.0
  0
LINE
  5
116
330
3C7
100
AcDbEntity
  8
DATA
  6
Continuous
 62
     7
100
AcDbLine
 10
-632.9999446868896
 20
-869.9999988079071
 30
0.0
 11
-633.0001831054687
 21
-869.9999988079071
 31
0.0
  0
LINE
  5
117
330
3C7
100
AcDbEntity
  8
DATA
  6
Continuous
 62
     7
100
AcDbLine
 10
-632.9999446868896
 20
-882.0000007748605
 30
0.0
 11
-633.0001831054687
 21
-882.0000007748605
 31
0.0
  0
LINE
  5
118
330
3C7
100
AcDbEntity
  8
DATA
  6
Continuous
 62
     7
100
AcDbLine
 10
-632.9999446868896
 20
-882.0000007748605
 30
0.0
 11
-632.9999446868896
 21
-869.9999988079071
 31
0.0
  0
LINE
  5
119
330
3C7
100
AcDbEntity
  8
DATA
  6
Continuous
 62
     7
100
AcDbLine
 10
-633.0001831054687
 20
-849.9999992549417
 30
0.0
 11
-632.9999446868896
 21
-849.9999992549417
 31
0.0
  0
LINE
  5
11A
330
3C7
100
AcDbEntity
  8
DATA
  6
Continuous
 62
     7
100
AcDbLine
 10
-633.0001831054687
 20
-882.0000007748605
 30
0.0
 11
-633.0001831054687
 21
-869.9999988079071
 31
0.0
  0
LINE
  5
11B
330
3C7
100
AcDbEntity
  8
DATA
  6
Continuous
 62
     7
100
AcDbLine
 10
-648.2999801635742
 20
-465.9999959170817
 30
0.0
 11
-951.7000198364256
 21
-465.9999959170817
 31
0.0
  0
LINE
  5
11C
330
3C7
100
AcDbEntity
  8
DATA
  6
Continuous
 62
     7
100
AcDbLine
 10
-952.4789333343504
 20
-447.9999892413616
 30
0.0
 11
-647.5210666656495
 21
-447.9999892413616
 31
0.0
  0
LINE
  5
11D
330
3C7
100
AcDbEntity
  8
DATA
  6
Continuous
 62
     7
100
AcDbLine
 10
-647.5210666656495
 20
-461.99998781085
 30
0.0
 11
-952.4789333343504
 21
-461.99998781085
 31
0.0
  0
LINE
  5
11E
330
3C7
100
AcDbEntity
  8
DATA
  6
Continuous
 62
     7
100
AcDbLine
 10
-966.9998168945312
 20
-498.0000011622905
 30
0.0
 11
-966.9998168945312
 21
-664.0000097453593
 31
0.0
  0
LINE
  5
11F
330
3C7
100
AcDbEntity
  8
DATA
  6
Continuous
 62
     7
100
AcDbLine
 10
-966.9995784759519
 20
-498.0000011622905
 30
0.0
 11
-966.9995784759519
 21
-664.0000097453593
 31
0.0
  0
LINE
  5
120
330
3C7
100
AcDbEntity
  8
DATA
  6
Continuous
 62
     7
100
AcDbLine
 10
-966.9998168945312
 20
-664.0000097453593
 30
0.0
 11
-966.9998168945312
 21
-684.0000055730343
 31
0.0
  0
LINE
  5
121
330
3C7
100
AcDbEntity
  8
DATA
  6
Continuous
 62
     7
100
AcDbLine
 10
-964.9999618530271
 20
-664.0000097453593
 30
0.0
 11
-964.9999618530271
 21
-684.0000055730343
 31
0.0
  0
LINE
  5
122
330
3C7
100
AcDbEntity
  8
DATA
  6
Continuous
 62
     7
100
AcDbLine
 10
-966.9995784759519
 20
-684.0000055730343
 30
0.0
 11
-966.9998168945312
 21
-684.0000055730343
 31
0.0
  0
LINE
  5
123
330
3C7
100
AcDbEntity
  8
DATA
  6
Continuous
 62
     7
100
AcDbLine
 10
-964.9999618530271
 20
-684.0000055730343
 30
0.0
 11
-966.9995784759519
 21
-684.0000055730343
 31
0.0
  0
LINE
  5
124
330
3C7
100
AcDbEntity
  8
DATA
  6
Continuous
 62
     7
100
AcDbLine
 10
-966.9995784759519
 20
-664.0000097453593
 30
0.0
 11
-966.9998168945312
 21
-664.0000097453593
 31
0.0
  0
LINE
  5
125
330
3C7
100
AcDbEntity
  8
DATA
  6
Continuous
 62
     7
100
AcDbLine
 10
-966.9995784759519
 20
-664.0000097453593
 30
0.0
 11
-964.9999618530271
 21
-664.0000097453593
 31
0.0
  0
LINE
  5
126
330
3C7
100
AcDbEntity
  8
DATA
  6
Continuous
 62
     7
100
AcDbLine
 10
-966.9998168945312
 20
-477.9999904334545
 30
0.0
 11
-966.9998168945312
 21
-498.0000011622905
 31
0.0
  0
LINE
  5
127
330
3C7
100
AcDbEntity
  8
DATA
  6
Continuous
 62
     7
100
AcDbLine
 10
-964.9999618530271
 20
-477.9999904334545
 30
0.0
 11
-964.9999618530271
 21
-498.0000011622905
 31
0.0
  0
LINE
  5
128
330
3C7
100
AcDbEntity
  8
DATA
  6
Continuous
 62
     7
100
AcDbLine
 10
-966.9995784759519
 20
-498.0000011622905
 30
0.0
 11
-966.9998168945312
 21
-498.0000011622905
 31
0.0
  0
LINE
  5
129
330
3C7
100
AcDbEntity
  8
DATA
  6
Continuous
 62
     7
100
AcDbLine
 10
-964.9999618530271
 20
-498.0000011622905
 30
0.0
 11
-966.9995784759519
 21
-498.0000011622905
 31
0.0
  0
LINE
  5
12A
330
3C7
100
AcDbEntity
  8
DATA
  6
Continuous
 62
     7
100
AcDbLine
 10
-951.7000198364256
 20
-465.9999959170817
 30
0.0
 11
-966.9998168945312
 21
-465.9999959170817
 31
0.0
  0
LINE
  5
12B
330
3C7
100
AcDbEntity
  8
DATA
  6
Continuous
 62
     7
100
AcDbLine
 10
-971.0000038146972
 20
-447.9999892413616
 30
0.0
 11
-952.4789333343504
 21
-447.9999892413616
 31
0.0
  0
LINE
  5
12C
330
3C7
100
AcDbEntity
  8
DATA
  6
Continuous
 62
     7
100
AcDbLine
 10
-952.4789333343504
 20
-461.99998781085
 30
0.0
 11
-971.0000038146972
 21
-461.99998781085
 31
0.0
  0
LINE
  5
12D
330
3C7
100
AcDbEntity
  8
DATA
  6
Continuous
 62
     7
100
AcDbLine
 10
-971.0000038146972
 20
-461.99998781085
 30
0.0
 11
-971.0000038146972
 21
-447.9999892413616
 31
0.0
  0
LINE
  5
12E
330
3C7
100
AcDbEntity
  8
DATA
  6
Continuous
 62
     7
100
AcDbLine
 10
-971.0000038146972
 20
-465.9999959170817
 30
0.0
 11
-971.0000038146972
 21
-461.99998781085
 31
0.0
  0
LINE
  5
12F
330
3C7
100
AcDbEntity
  8
DATA
  6
Continuous
 62
     7
100
AcDbLine
 10
-966.9998168945312
 20
-461.99998781085
 30
0.0
 11
-966.9998168945312
 21
-465.9999959170817
 31
0.0
  0
LINE
  5
130
330
3C7
100
AcDbEntity
  8
DATA
  6
Continuous
 62
     7
100
AcDbLine
 10
-971.0000038146972
 20
-465.9999959170817
 30
0.0
 11
-966.9998168945312
 21
-465.9999959170817
 31
0.0
  0
LINE
  5
131
330
3C7
100
AcDbEntity
  8
DATA
  6
Continuous
 62
     7
100
AcDbLine
 10
-966.9995784759519
 20
-477.9999904334545
 30
0.0
 11
-966.9998168945312
 21
-477.9999904334545
 31
0.0
  0
LINE
  5
132
330
3C7
100
AcDbEntity
  8
DATA
  6
Continuous
 62
     7
100
AcDbLine
 10
-966.9995784759519
 20
-465.9999959170817
 30
0.0
 11
-966.9998168945312
 21
-465.9999959170817
 31
0.0
  0
LINE
  5
133
330
3C7
100
AcDbEntity
  8
DATA
  6
Continuous
 62
     7
100
AcDbLine
 10
-966.9998168945312
 20
-465.9999959170817
 30
0.0
 11
-966.9998168945312
 21
-477.9999904334545
 31
0.0
  0
LINE
  5
134
330
3C7
100
AcDbEntity
  8
DATA
  6
Continuous
 62
     7
100
AcDbLine
 10
-966.9995784759519
 20
-477.9999904334545
 30
0.0
 11
-964.9999618530271
 21
-477.9999904334545
 31
0.0
  0
LINE
  5
135
330
3C7
100
AcDbEntity
  8
DATA
  6
Continuous
 62
     7
100
AcDbLine
 10
-966.9995784759519
 20
-465.9999959170817
 30
0.0
 11
-966.9995784759519
 21
-477.9999904334545
 31
0.0
  0
LINE
  5
136
330
3C7
100
AcDbEntity
  8
DATA
  6
Continuous
 62
     7
100
AcDbLine
 10
-952.4789333343504
 20
-461.99998781085
 30
0.0
 11
-952.4789333343504
 21
-447.9999892413616
 31
0.0
  0
LINE
  5
137
330
3C7
100
AcDbEntity
  8
DATA
  6
Continuous
 62
     7
100
AcDbLine
 10
-951.7000198364256
 20
-461.99998781085
 30
0.0
 11
-951.7000198364256
 21
-465.9999959170817
 31
0.0
  0
LINE
  5
138
330
3C7
100
AcDbEntity
  8
DATA
  6
Continuous
 62
     7
100
AcDbLine
 10
-632.9999446868896
 20
-664.0000097453593
 30
0.0
 11
-632.9999446868896
 21
-498.0000011622905
 31
0.0
  0
LINE
  5
139
330
3C7
100
AcDbEntity
  8
DATA
  6
Continuous
 62
     7
100
AcDbLine
 10
-633.0001831054687
 20
-664.0000097453593
 30
0.0
 11
-633.0001831054687
 21
-498.0000011622905
 31
0.0
  0
LINE
  5
13A
330
3C7
100
AcDbEntity
  8
DATA
  6
Continuous
 62
     7
100
AcDbLine
 10
-632.9999446868896
 20
-684.0000055730343
 30
0.0
 11
-632.9999446868896
 21
-664.0000097453593
 31
0.0
  0
LINE
  5
13B
330
3C7
100
AcDbEntity
  8
DATA
  6
Continuous
 62
     7
100
AcDbLine
 10
-634.9997997283936
 20
-684.0000055730343
 30
0.0
 11
-634.9997997283936
 21
-664.0000097453593
 31
0.0
  0
LINE
  5
13C
330
3C7
100
AcDbEntity
  8
DATA
  6
Continuous
 62
     7
100
AcDbLine
 10
-633.0001831054687
 20
-684.0000055730343
 30
0.0
 11
-634.9997997283936
 21
-684.0000055730343
 31
0.0
  0
LINE
  5
13D
330
3C7
100
AcDbEntity
  8
DATA
  6
Continuous
 62
     7
100
AcDbLine
 10
-633.0001831054687
 20
-684.0000055730343
 30
0.0
 11
-632.9999446868896
 21
-684.0000055730343
 31
0.0
  0
LINE
  5
13E
330
3C7
100
AcDbEntity
  8
DATA
  6
Continuous
 62
     7
100
AcDbLine
 10
-634.9997997283936
 20
-664.0000097453593
 30
0.0
 11
-633.0001831054687
 21
-664.0000097453593
 31
0.0
  0
LINE
  5
13F
330
3C7
100
AcDbEntity
  8
DATA
  6
Continuous
 62
     7
100
AcDbLine
 10
-633.0001831054687
 20
-664.0000097453593
 30
0.0
 11
-632.9999446868896
 21
-664.0000097453593
 31
0.0
  0
LINE
  5
140
330
3C7
100
AcDbEntity
  8
DATA
  6
Continuous
 62
     7
100
AcDbLine
 10
-632.9999446868896
 20
-498.0000011622905
 30
0.0
 11
-632.9999446868896
 21
-477.9999904334545
 31
0.0
  0
LINE
  5
141
330
3C7
100
AcDbEntity
  8
DATA
  6
Continuous
 62
     7
100
AcDbLine
 10
-634.9997997283936
 20
-498.0000011622905
 30
0.0
 11
-634.9997997283936
 21
-477.9999904334545
 31
0.0
  0
LINE
  5
142
330
3C7
100
AcDbEntity
  8
DATA
  6
Continuous
 62
     7
100
AcDbLine
 10
-633.0001831054687
 20
-498.0000011622905
 30
0.0
 11
-634.9997997283936
 21
-498.0000011622905
 31
0.0
  0
LINE
  5
143
330
3C7
100
AcDbEntity
  8
DATA
  6
Continuous
 62
     7
100
AcDbLine
 10
-633.0001831054687
 20
-498.0000011622905
 30
0.0
 11
-632.9999446868896
 21
-498.0000011622905
 31
0.0
  0
LINE
  5
144
330
3C7
100
AcDbEntity
  8
DATA
  6
Continuous
 62
     7
100
AcDbLine
 10
-628.9999961853027
 20
-447.9999892413616
 30
0.0
 11
-628.9999961853027
 21
-461.99998781085
 31
0.0
  0
LINE
  5
145
330
3C7
100
AcDbEntity
  8
DATA
  6
Continuous
 62
     7
100
AcDbLine
 10
-647.5210666656495
 20
-461.99998781085
 30
0.0
 11
-647.5210666656495
 21
-447.9999892413616
 31
0.0
  0
LINE
  5
146
330
3C7
100
AcDbEntity
  8
DATA
  6
Continuous
 62
     7
100
AcDbLine
 10
-632.9999446868896
 20
-465.9999959170817
 30
0.0
 11
-648.2999801635742
 21
-465.9999959170817
 31
0.0
  0
LINE
  5
147
330
3C7
100
AcDbEntity
  8
DATA
  6
Continuous
 62
     7
100
AcDbLine
 10
-628.9999961853027
 20
-461.99998781085
 30
0.0
 11
-647.5210666656495
 21
-461.99998781085
 31
0.0
  0
LINE
  5
148
330
3C7
100
AcDbEntity
  8
DATA
  6
Continuous
 62
     7
100
AcDbLine
 10
-634.9997997283936
 20
-477.9999904334545
 30
0.0
 11
-633.0001831054687
 21
-477.9999904334545
 31
0.0
  0
LINE
  5
149
330
3C7
100
AcDbEntity
  8
DATA
  6
Continuous
 62
     7
100
AcDbLine
 10
-648.2999801635742
 20
-461.99998781085
 30
0.0
 11
-648.2999801635742
 21
-465.9999959170817
 31
0.0
  0
LINE
  5
14A
330
3C7
100
AcDbEntity
  8
DATA
  6
Continuous
 62
     7
100
AcDbLine
 10
-628.9999961853027
 20
-461.99998781085
 30
0.0
 11
-628.9999961853027
 21
-465.9999959170817
 31
0.0
  0
LINE
  5
14B
330
3C7
100
AcDbEntity
  8
DATA
  6
Continuous
 62
     7
100
AcDbLine
 10
-632.9999446868896
 20
-461.99998781085
 30
0.0
 11
-632.9999446868896
 21
-465.9999959170817
 31
0.0
  0
LINE
  5
14C
330
3C7
100
AcDbEntity
  8
DATA
  6
Continuous
 62
     7
100
AcDbLine
 10
-632.9999446868896
 20
-465.9999959170817
 30
0.0
 11
-628.9999961853027
 21
-465.9999959170817
 31
0.0
  0
LINE
  5
14D
330
3C7
100
AcDbEntity
  8
DATA
  6
Continuous
 62
     7
100
AcDbLine
 10
-633.0001831054687
 20
-477.9999904334545
 30
0.0
 11
-632.9999446868896
 21
-477.9999904334545
 31
0.0
  0
LINE
  5
14E
330
3C7
100
AcDbEntity
  8
DATA
  6
Continuous
 62
     7
100
AcDbLine
 10
-632.9999446868896
 20
-465.9999959170817
 30
0.0
 11
-633.0001831054687
 21
-465.9999959170817
 31
0.0
  0
LINE
  5
14F
330
3C7
100
AcDbEntity
  8
DATA
  6
Continuous
 62
     7
100
AcDbLine
 10
-632.9999446868896
 20
-477.9999904334545
 30
0.0
 11
-632.9999446868896
 21
-465.9999959170817
 31
0.0
  0
LINE
  5
150
330
3C7
100
AcDbEntity
  8
DATA
  6
Continuous
 62
     7
100
AcDbLine
 10
-633.0001831054687
 20
-477.9999904334545
 30
0.0
 11
-633.0001831054687
 21
-465.9999959170817
 31
0.0
  0
LINE
  5
151
330
3C7
100
AcDbEntity
  8
DATA
  6
Continuous
 62
     7
100
AcDbLine
 10
-647.5210666656495
 20
-447.9999892413616
 30
0.0
 11
-628.9999961853027
 21
-447.9999892413616
 31
0.0
  0
CIRCLE
  5
152
330
3C7
100
AcDbEntity
  8
DATA
  6
Continuous
 62
     7
100
AcDbCircle
 10
-799.9999024835962
 20
-627.0000002086162
 30
0.0
 40
139.0114972072551
  0
CIRCLE
  5
153
330
3C7
100
AcDbEntity
  8
DATA
  6
Continuous
 62
     7
100
AcDbCircle
 10
-799.9999024835962
 20
-627.0000002086162
 30
0.0
 40
140.5921818377646
  0
CIRCLE
  5
154
330
3C7
100
AcDbEntity
  8
DATA
  6
Continuous
 62
     7
100
AcDbCircle
 10
-799.9999024835962
 20
-627.0000002086162
 30
0.0
 40
142.4433756729741
  0
CIRCLE
  5
155
330
3C7
100
AcDbEntity
  8
DATA
  6
Continuous
 62
     7
100
AcDbCircle
 10
-799.9999024835962
 20
-627.0000002086162
 30
0.0
 40
155.0
  0
CIRCLE
  5
156
330
3C7
100
AcDbEntity
  8
DATA
  6
Continuous
 62
     7
100
AcDbCircle
 10
-799.9999024835962
 20
-627.0000002086162
 30
0.0
 40
157.5
  0
CIRCLE
  5
157
330
3C7
100
AcDbEntity
  8
DATA
  6
Continuous
 62
     7
100
AcDbCircle
 10
-799.9999024835962
 20
-627.0000002086162
 30
0.0
 40
160.0
  0
LINE
  5
158
330
3C7
100
AcDbEntity
  8
DATA
  6
Continuous
 62
     7
100
AcDbLine
 10
-855.6166554884912
 20
-767.9452051631332
 30
0.0
 11
-854.4686051913959
 21
-765.1735665655987
 31
0.0
  0
LINE
  5
159
330
3C7
100
AcDbEntity
  8
DATA
  6
Continuous
 62
     7
100
AcDbLine
 10
-858.5909900726145
 20
-768.3367837397926
 30
0.0
 11
-855.6166554884912
 21
-767.9452051631332
 31
0.0
  0
LINE
  5
15A
330
3C7
100
AcDbEntity
  8
DATA
  6
Continuous
 62
     7
100
AcDbLine
 10
-860.4172743596389
 20
-765.9567237189194
 30
0.0
 11
-858.5909900726145
 21
-768.3367837397926
 31
0.0
  0
LINE
  5
15B
330
3C7
100
AcDbEntity
  8
DATA
  6
Continuous
 62
     7
100
AcDbLine
 10
-859.2692240625437
 20
-763.1850851213857
 30
0.0
 11
-860.4172743596389
 21
-765.9567237189194
 31
0.0
  0
LINE
  5
15C
330
3C7
100
AcDbEntity
  8
DATA
  6
Continuous
 62
     7
100
AcDbLine
 10
-856.2948894784204
 20
-762.7935065447254
 30
0.0
 11
-859.2692240625437
 21
-763.1850851213857
 31
0.0
  0
LINE
  5
15D
330
3C7
100
AcDbEntity
  8
DATA
  6
Continuous
 62
     7
100
AcDbLine
 10
-854.4686051913959
 20
-765.1735665655987
 30
0.0
 11
-856.2948894784204
 21
-762.7935065447254
 31
0.0
  0
CIRCLE
  5
15E
330
3C7
100
AcDbEntity
  8
DATA
  6
Continuous
 62
     7
100
AcDbCircle
 10
-857.4429397755157
 20
-765.5651451422583
 30
0.0
 40
5.0
  0
LINE
  5
15F
330
3C7
100
AcDbEntity
  8
DATA
  6
Continuous
 62
     7
100
AcDbLine
 10
-739.6635754818709
 20
-765.990293605021
 30
0.0
 11
-740.8116257789661
 21
-763.2186550074875
 31
0.0
  0
LINE
  5
160
330
3C7
100
AcDbEntity
  8
DATA
  6
Continuous
 62
     7
100
AcDbLine
 10
-741.4898597688952
 20
-768.3703536258945
 30
0.0
 11
-739.6635754818709
 21
-765.990293605021
 31
0.0
  0
LINE
  5
161
330
3C7
100
AcDbEntity
  8
DATA
  6
Continuous
 62
     7
100
AcDbLine
 10
-744.4641943530184
 20
-767.9787750492351
 30
0.0
 11
-741.4898597688952
 21
-768.3703536258945
 31
0.0
  0
LINE
  5
162
330
3C7
100
AcDbEntity
  8
DATA
  6
Continuous
 62
     7
100
AcDbLine
 10
-745.6122446501137
 20
-765.2071364517004
 30
0.0
 11
-744.4641943530184
 21
-767.9787750492351
 31
0.0
  0
LINE
  5
163
330
3C7
100
AcDbEntity
  8
DATA
  6
Continuous
 62
     7
100
AcDbLine
 10
-743.7859603630859
 20
-762.8270764308272
 30
0.0
 11
-745.6122446501137
 21
-765.2071364517004
 31
0.0
  0
LINE
  5
164
330
3C7
100
AcDbEntity
  8
DATA
  6
Continuous
 62
     7
100
AcDbLine
 10
-740.8116257789661
 20
-763.2186550074875
 30
0.0
 11
-743.7859603630859
 21
-762.8270764308272
 31
0.0
  0
CIRCLE
  5
165
330
3C7
100
AcDbEntity
  8
DATA
  6
Continuous
 62
     7
100
AcDbCircle
 10
-742.6379100659907
 20
-765.5987150283607
 30
0.0
 40
5.0
  0
CIRCLE
  5
166
330
3C7
100
AcDbEntity
  8
DATA
  6
Continuous
 62
     7
100
AcDbCircle
 10
-799.9999024835962
 20
-627.0000002086162
 30
0.0
 40
54.25
  0
LINE
  5
167
330
3C7
100
AcDbEntity
  8
DATA
  6
Continuous
 62
     7
100
AcDbLine
 10
-938.9901958799999
 20
-687.3363272103452
 30
0.0
 11
-936.2185572824671
 21
-686.1882769132498
 31
0.0
  0
LINE
  5
168
330
3C7
100
AcDbEntity
  8
DATA
  6
Continuous
 62
     7
100
AcDbLine
 10
-935.8269787058087
 20
-683.2139423291282
 30
0.0
 11
-938.2070387266793
 21
-681.387658042102
 31
0.0
  0
CIRCLE
  5
169
330
3C7
100
AcDbEntity
  8
DATA
  6
Continuous
 62
     7
100
AcDbCircle
 10
-938.5986173033417
 20
-684.3619926262225
 30
0.0
 40
5.0
  0
LINE
  5
16A
330
3C7
100
AcDbEntity
  8
DATA
  6
Continuous
 62
     7
100
AcDbLine
 10
-941.3702559008743
 20
-685.5100429233189
 30
0.0
 11
-938.9901958799999
 21
-687.3363272103452
 31
0.0
  0
LINE
  5
16B
330
3C7
100
AcDbEntity
  8
DATA
  6
Continuous
 62
     7
100
AcDbLine
 10
-940.9786773242158
 20
-682.5357083391971
 30
0.0
 11
-941.3702559008743
 21
-685.5100429233189
 31
0.0
  0
LINE
  5
16C
330
3C7
100
AcDbEntity
  8
DATA
  6
Continuous
 62
     7
100
AcDbLine
 10
-938.2070387266793
 20
-681.387658042102
 30
0.0
 11
-940.9786773242158
 21
-682.5357083391971
 31
0.0
  0
LINE
  5
16D
330
3C7
100
AcDbEntity
  8
DATA
  6
Continuous
 62
     7
100
AcDbLine
 10
-936.2185572824671
 20
-686.1882769132498
 30
0.0
 11
-935.8269787058087
 21
-683.2139423291282
 31
0.0
  0
LINE
  5
16E
330
3C7
100
AcDbEntity
  8
DATA
  6
Continuous
 62
     7
100
AcDbLine
 10
-936.1849873963656
 20
-567.7306786296703
 30
0.0
 11
-938.9566259938984
 21
-566.582628332575
 31
0.0
  0
LINE
  5
16F
330
3C7
100
AcDbEntity
  8
DATA
  6
Continuous
 62
     7
100
AcDbLine
 10
-938.1734688405776
 20
-572.5312975008173
 30
0.0
 11
-935.7934088197072
 21
-570.7050132137911
 31
0.0
  0
CIRCLE
  5
170
330
3C7
100
AcDbEntity
  8
DATA
  6
Continuous
 62
     7
100
AcDbCircle
 10
-938.5650474172399
 20
-569.5569629166956
 30
0.0
 40
5.0
  0
LINE
  5
171
330
3C7
100
AcDbEntity
  8
DATA
  6
Continuous
 62
     7
100
AcDbLine
 10
-940.9451074381138
 20
-571.383247203722
 30
0.0
 11
-938.1734688405776
 21
-572.5312975008173
 31
0.0
  0
LINE
  5
172
330
3C7
100
AcDbEntity
  8
DATA
  6
Continuous
 62
     7
100
AcDbLine
 10
-941.3366860147725
 20
-568.4089126196004
 30
0.0
 11
-940.9451074381138
 21
-571.383247203722
 31
0.0
  0
LINE
  5
173
330
3C7
100
AcDbEntity
  8
DATA
  6
Continuous
 62
     7
100
AcDbLine
 10
-938.9566259938984
 20
-566.582628332575
 30
0.0
 11
-941.3366860147725
 21
-568.4089126196004
 31
0.0
  0
LINE
  5
174
330
3C7
100
AcDbEntity
  8
DATA
  6
Continuous
 62
     7
100
AcDbLine
 10
-935.7934088197072
 20
-570.7050132137911
 30
0.0
 11
-936.1849873963656
 21
-567.7306786296703
 31
0.0
  0
LINE
  5
175
330
3C7
100
AcDbEntity
  8
DATA
  6
Continuous
 62
     7
100
AcDbLine
 10
-860.3362294853249
 20
-488.0097068122132
 30
0.0
 11
-859.1881791882297
 21
-490.7813454097468
 31
0.0
  0
LINE
  5
176
330
3C7
100
AcDbEntity
  8
DATA
  6
Continuous
 62
     7
100
AcDbLine
 10
-858.5099451982969
 20
-485.6296467913388
 30
0.0
 11
-860.3362294853249
 21
-488.0097068122132
 31
0.0
  0
LINE
  5
177
330
3C7
100
AcDbEntity
  8
DATA
  6
Continuous
 62
     7
100
AcDbLine
 10
-855.535610614177
 20
-486.0212253679992
 30
0.0
 11
-858.5099451982969
 21
-485.6296467913388
 31
0.0
  0
LINE
  5
178
330
3C7
100
AcDbEntity
  8
DATA
  6
Continuous
 62
     7
100
AcDbLine
 10
-854.3875603170818
 20
-488.7928639655328
 30
0.0
 11
-855.535610614177
 21
-486.0212253679992
 31
0.0
  0
LINE
  5
179
330
3C7
100
AcDbEntity
  8
DATA
  6
Continuous
 62
     7
100
AcDbLine
 10
-856.2138446041062
 20
-491.1729239864071
 30
0.0
 11
-854.3875603170818
 21
-488.7928639655328
 31
0.0
  0
LINE
  5
17A
330
3C7
100
AcDbEntity
  8
DATA
  6
Continuous
 62
     7
100
AcDbLine
 10
-859.1881791882297
 20
-490.7813454097468
 30
0.0
 11
-856.2138446041062
 21
-491.1729239864071
 31
0.0
  0
CIRCLE
  5
17B
330
3C7
100
AcDbEntity
  8
DATA
  6
Continuous
 62
     7
100
AcDbCircle
 10
-857.3618949012015
 20
-488.4012853888725
 30
0.0
 40
5.0
  0
LINE
  5
17C
330
3C7
100
AcDbEntity
  8
DATA
  6
Continuous
 62
     7
100
AcDbLine
 10
-744.383149478701
 20
-486.054795254101
 30
0.0
 11
-745.531199775796
 21
-488.8264338516346
 31
0.0
  0
LINE
  5
17D
330
3C7
100
AcDbEntity
  8
DATA
  6
Continuous
 62
     7
100
AcDbLine
 10
-741.4088148945811
 20
-485.6632166774407
 30
0.0
 11
-744.383149478701
 21
-486.054795254101
 31
0.0
  0
LINE
  5
17E
330
3C7
100
AcDbEntity
  8
DATA
  6
Continuous
 62
     7
100
AcDbLine
 10
-739.5825306075567
 20
-488.0432766983148
 30
0.0
 11
-741.4088148945811
 21
-485.6632166774407
 31
0.0
  0
LINE
  5
17F
330
3C7
100
AcDbEntity
  8
DATA
  6
Continuous
 62
     7
100
AcDbLine
 10
-740.7305809046519
 20
-490.8149152958485
 30
0.0
 11
-739.5825306075567
 21
-488.0432766983148
 31
0.0
  0
LINE
  5
180
330
3C7
100
AcDbEntity
  8
DATA
  6
Continuous
 62
     7
100
AcDbLine
 10
-743.7049154887717
 20
-491.2064938725088
 30
0.0
 11
-740.7305809046519
 21
-490.8149152958485
 31
0.0
  0
LINE
  5
181
330
3C7
100
AcDbEntity
  8
DATA
  6
Continuous
 62
     7
100
AcDbLine
 10
-745.531199775796
 20
-488.8264338516346
 30
0.0
 11
-743.7049154887717
 21
-491.2064938725088
 31
0.0
  0
CIRCLE
  5
182
330
3C7
100
AcDbEntity
  8
DATA
  6
Continuous
 62
     7
100
AcDbCircle
 10
-742.5568651916765
 20
-488.4348552749742
 30
0.0
 40
5.0
  0
LINE
  5
183
330
3C7
100
AcDbEntity
  8
DATA
  6
Continuous
 62
     7
100
AcDbLine
 10
-659.0546975290817
 20
-682.6167532135114
 30
0.0
 11
-661.8263361266144
 21
-681.4687029164161
 31
0.0
  0
LINE
  5
184
330
3C7
100
AcDbEntity
  8
DATA
  6
Continuous
 62
     7
100
AcDbLine
 10
-658.6631189524196
 20
-685.591087797633
 30
0.0
 11
-659.0546975290817
 21
-682.6167532135114
 31
0.0
  0
LINE
  5
185
330
3C7
100
AcDbEntity
  8
DATA
  6
Continuous
 62
     7
100
AcDbLine
 10
-661.0431789732936
 20
-687.4173720846592
 30
0.0
 11
-658.6631189524196
 21
-685.591087797633
 31
0.0
  0
LINE
  5
186
330
3C7
100
AcDbEntity
  8
DATA
  6
Continuous
 62
     7
100
AcDbLine
 10
-663.8148175708302
 20
-686.2693217875639
 30
0.0
 11
-661.0431789732936
 21
-687.4173720846592
 31
0.0
  0
LINE
  5
187
330
3C7
100
AcDbEntity
  8
DATA
  6
Continuous
 62
     7
100
AcDbLine
 10
-664.2063961474888
 20
-683.2949872034423
 30
0.0
 11
-663.8148175708302
 21
-686.2693217875639
 31
0.0
  0
LINE
  5
188
330
3C7
100
AcDbEntity
  8
DATA
  6
Continuous
 62
     7
100
AcDbLine
 10
-661.8263361266144
 20
-681.4687029164161
 30
0.0
 11
-664.2063961474888
 21
-683.2949872034423
 31
0.0
  0
CIRCLE
  5
189
330
3C7
100
AcDbEntity
  8
DATA
  6
Continuous
 62
     7
100
AcDbCircle
 10
-661.4347575499559
 20
-684.4430375005376
 30
0.0
 40
5.0
  0
LINE
  5
18A
330
3C7
100
AcDbEntity
  8
DATA
  6
Continuous
 62
     7
100
AcDbLine
 10
-661.0096090871921
 20
-566.6636732068891
 30
0.0
 11
-663.7812476847284
 21
-567.8117235039845
 31
0.0
  0
LINE
  5
18B
330
3C7
100
AcDbEntity
  8
DATA
  6
Continuous
 62
     7
100
AcDbLine
 10
-658.6295490663178
 20
-568.4899574939154
 30
0.0
 11
-661.0096090871921
 21
-566.6636732068891
 31
0.0
  0
LINE
  5
18C
330
3C7
100
AcDbEntity
  8
DATA
  6
Continuous
 62
     7
100
AcDbLine
 10
-659.0211276429799
 20
-571.464292078037
 30
0.0
 11
-658.6295490663178
 21
-568.4899574939154
 31
0.0
  0
LINE
  5
18D
330
3C7
100
AcDbEntity
  8
DATA
  6
Continuous
 62
     7
100
AcDbLine
 10
-661.7927662405127
 20
-572.6123423751324
 30
0.0
 11
-659.0211276429799
 21
-571.464292078037
 31
0.0
  0
LINE
  5
18E
330
3C7
100
AcDbEntity
  8
DATA
  6
Continuous
 62
     7
100
AcDbLine
 10
-664.1728262613868
 20
-570.7860580881061
 30
0.0
 11
-661.7927662405127
 21
-572.6123423751324
 31
0.0
  0
LINE
  5
18F
330
3C7
100
AcDbEntity
  8
DATA
  6
Continuous
 62
     7
100
AcDbLine
 10
-663.7812476847284
 20
-567.8117235039845
 30
0.0
 11
-664.1728262613868
 21
-570.7860580881061
 31
0.0
  0
CIRCLE
  5
190
330
3C7
100
AcDbEntity
  8
DATA
  6
Continuous
 62
     7
100
AcDbCircle
 10
-661.4011876638542
 20
-569.6380077910107
 30
0.0
 40
5.0
  0
LINE
  5
191
330
3C7
100
AcDbEntity
  8
DATA
  6
Continuous
 62
     7
100
AcDbLine
 10
-909.9908351898157
 20
157.453310207529
 30
0.0
 11
-971.0000038146937
 21
-188.5466794510651
 31
0.0
  0
LINE
  5
192
330
3C7
100
AcDbEntity
  8
DATA
  6
Continuous
 62
     7
100
AcDbLine
 10
-628.999996185299
 20
-188.5466794510651
 30
0.0
 11
-690.0089263915979
 21
157.453310207529
 31
0.0
  0
ARC
  5
193
330
3C7
100
AcDbEntity
  8
DATA
  6
Continuous
 62
     7
100
AcDbCircle
 10
-1760.677928379278
 20
-397.9223845216877
 30
0.0
 40
1150.883722357865
100
AcDbArc
 50
10.48196593708359
 51
24.78858879904244
  0
ARC
  5
194
330
3C7
100
AcDbEntity
  8
DATA
  6
Continuous
 62
     7
100
AcDbCircle
 10
160.6781234121008
 20
-397.9223845216877
 30
0.0
 40
1150.883722357865
100
AcDbArc
 50
155.2114112009576
 51
169.5180340628652
  0
LINE
  5
195
330
3C7
100
AcDbEntity
  8
DATA
  6
Continuous
 62
     7
100
AcDbLine
 10
-690.0089263915979
 20
157.453310207529
 30
0.0
 11
-762.2590541839563
 21
157.453310207529
 31
0.0
  0
ARC
  5
196
330
3C7
100
AcDbEntity
  8
DATA
  6
Continuous
 62
     7
100
AcDbCircle
 10
-963.0716904677136
 20
-21.74057323907277
 30
0.0
 40
269.1397588979966
100
AcDbArc
 50
23.27535327467352
 51
41.74390923073437
  0
ARC
  5
197
330
3C7
100
AcDbEntity
  8
DATA
  6
Continuous
 62
     7
100
AcDbCircle
 10
-799.9999024835886
 20
126.8871899441644
 30
0.0
 40
48.56612167691486
100
AcDbArc
 50
39.0037511925795
 51
140.9962488074205
  0
ARC
  5
198
330
3C7
100
AcDbEntity
  8
DATA
  6
Continuous
 62
     7
100
AcDbCircle
 10
-636.9281144994638
 20
-21.74057323907277
 30
0.0
 40
269.1397588979996
100
AcDbArc
 50
138.2560907692661
 51
156.7246467253268
  0
LINE
  5
199
330
3C7
100
AcDbEntity
  8
DATA
  6
Continuous
 62
     7
100
AcDbLine
 10
-837.7409458160364
 20
157.453310207529
 30
0.0
 11
-909.9908351898157
 21
157.453310207529
 31
0.0
  0
ARC
  5
19A
330
3C7
100
AcDbEntity
  8
DATA
  6
Continuous
 62
     7
100
AcDbCircle
 10
-799.9999024835886
 20
533.0000000000179
 30
0.0
 40
783.000000000024
100
AcDbArc
 50
258.7706489452217
 51
281.2293510547784
  0
LINE
  5
19B
330
3C7
100
AcDbEntity
  8
DATA
  6
Continuous
 62
     7
100
AcDbLine
 10
-971.0000038146937
 20
-188.5466794510651
 30
0.0
 11
-971.0000038146937
 21
-212.4501983662415
 31
0.0
  0
ARC
  5
19C
330
3C7
100
AcDbEntity
  8
DATA
  6
Continuous
 62
     7
100
AcDbCircle
 10
-947.9999024836033
 20
-212.4501995438807
 30
0.0
 40
22.99999999999636
100
AcDbArc
 50
179.9999999998957
 51
258.7706489452243
  0
LINE
  5
19D
330
3C7
100
AcDbEntity
  8
DATA
  6
Continuous
 62
     7
100
AcDbLine
 10
-628.999996185299
 20
-212.4501983662415
 30
0.0
 11
-628.999996185299
 21
-188.5466794510651
 31
0.0
  0
ARC
  5
19E
330
3C7
100
AcDbEntity
  8
DATA
  6
Continuous
 62
     7
100
AcDbCircle
 10
-651.9999024835705
 20
-212.4501995438807
 30
0.0
 40
22.99999999999454
100
AcDbArc
 50
281.229351054777
 51
0.000000000104194
  0
CIRCLE
  5
19F
330
3C7
100
AcDbEntity
  8
DATA
  6
Continuous
 62
     7
100
AcDbCircle
 10
-800.0
 20
-72.5466883790184
 30
0.0
 40
3.0
  0
CIRCLE
  5
1A0
330
3C7
100
AcDbEntity
  8
DATA
  6
Continuous
 62
     7
100
AcDbCircle
 10
-800.0
 20
-152.5466883790184
 30
0.0
 40
3.0
  0
LINE
  5
1A1
330
3C7
100
AcDbEntity
  8
DATA
  6
STYLE_06
 62
     7
100
AcDbLine
 10
-624.0605973697264
 20
-72.58976814786048
 30
0.0
 11
-673.3009899679291
 21
-81.272148971972
 31
0.0
  0
LINE
  5
1A2
330
3C7
100
AcDbEntity
  8
DATA
  6
Continuous
 62
     7
100
AcDbLine
 10
-513.5466873645783
 20
-900.0
 30
0.0
 11
-240.3899028897285
 21
-900.0
 31
0.0
  0
LINE
  5
1A3
330
3C7
100
AcDbEntity
  8
DATA
  6
Continuous
 62
     7
100
AcDbLine
 10
-167.5466977059841
 20
-891.0000003874303
 30
0.0
 11
-513.5466873645783
 21
-891.0000003874303
 31
0.0
  0
LINE
  5
1A4
330
3C7
100
AcDbEntity
  8
DATA
  6
Continuous
 62
     7
100
AcDbLine
 10
-240.3899028897285
 20
-447.9999892413616
 30
0.0
 11
-513.5466873645783
 21
-447.9999892413616
 31
0.0
  0
LINE
  5
1A5
330
3C7
100
AcDbEntity
  8
DATA
  6
Continuous
 62
     7
100
AcDbLine
 10
-513.5466873645783
 20
-456.9999925792217
 30
0.0
 11
-167.5466977059841
 21
-456.9999925792217
 31
0.0
  0
LINE
  5
1A6
330
3C7
100
AcDbEntity
  8
DATA
  6
Continuous
 62
     7
100
AcDbLine
 10
-167.5466977059841
 20
-882.0000007748605
 30
0.0
 11
-513.5466873645783
 21
-882.0000007748605
 31
0.0
  0
LINE
  5
1A7
330
3C7
100
AcDbEntity
  8
DATA
  6
Continuous
 62
     7
100
AcDbLine
 10
-167.5466977059841
 20
-465.9999959170817
 30
0.0
 11
-513.5466873645783
 21
-465.9999959170817
 31
0.0
  0
LINE
  5
1A8
330
3C7
100
AcDbEntity
  8
DATA
  6
Continuous
 62
     7
100
AcDbLine
 10
-167.5466977059841
 20
-882.0000007748605
 30
0.0
 11
-167.5466977059841
 21
-465.9999959170817
 31
0.0
  0
LINE
  5
1A9
330
3C7
100
AcDbEntity
  8
DATA
  6
Continuous
 62
     7
100
AcDbLine
 10
-149.5466947555541
 20
-882.0000007748605
 30
0.0
 11
-167.5466977059841
 21
-882.0000007748605
 31
0.0
  0
LINE
  5
1AA
330
3C7
100
AcDbEntity
  8
DATA
  6
Continuous
 62
     7
100
AcDbLine
 10
-149.5466947555541
 20
-900.0
 30
0.0
 11
-167.5466977059841
 21
-900.0
 31
0.0
  0
LINE
  5
1AB
330
3C7
100
AcDbEntity
  8
DATA
  6
Continuous
 62
     7
100
AcDbLine
 10
-149.5466947555541
 20
-882.0000007748605
 30
0.0
 11
-149.5466947555541
 21
-900.0
 31
0.0
  0
LINE
  5
1AC
330
3C7
100
AcDbEntity
  8
DATA
  6
Continuous
 62
     7
100
AcDbLine
 10
-167.5466977059841
 20
-900.0
 30
0.0
 11
-240.3899028897285
 21
-900.0
 31
0.0
  0
LINE
  5
1AD
330
3C7
100
AcDbEntity
  8
DATA
  6
Continuous
 62
     7
100
AcDbLine
 10
-167.5466977059841
 20
-882.0000007748605
 30
0.0
 11
-167.5466977059841
 21
-891.0000003874303
 31
0.0
  0
LINE
  5
1AE
330
3C7
100
AcDbEntity
  8
DATA
  6
Continuous
 62
     7
100
AcDbLine
 10
-167.5466977059841
 20
-900.0
 30
0.0
 11
-167.5466977059841
 21
-891.0000003874303
 31
0.0
  0
LINE
  5
1AF
330
3C7
100
AcDbEntity
  8
DATA
  6
Continuous
 62
     7
100
AcDbLine
 10
-240.3899028897285
 20
-900.0
 30
0.0
 11
-240.3899028897285
 21
-891.0000003874303
 31
0.0
  0
LINE
  5
1B0
330
3C7
100
AcDbEntity
  8
DATA
  6
Continuous
 62
     7
100
AcDbLine
 10
-167.5466977059841
 20
-465.9999959170817
 30
0.0
 11
-149.5466947555541
 21
-465.9999959170817
 31
0.0
  0
LINE
  5
1B1
330
3C7
100
AcDbEntity
  8
DATA
  6
Continuous
 62
     7
100
AcDbLine
 10
-167.5466977059841
 20
-447.9999892413616
 30
0.0
 11
-149.5466947555541
 21
-447.9999892413616
 31
0.0
  0
LINE
  5
1B2
330
3C7
100
AcDbEntity
  8
DATA
  6
Continuous
 62
     7
100
AcDbLine
 10
-149.5466947555541
 20
-447.9999892413616
 30
0.0
 11
-149.5466947555541
 21
-465.9999959170817
 31
0.0
  0
LINE
  5
1B3
330
3C7
100
AcDbEntity
  8
DATA
  6
Continuous
 62
     7
100
AcDbLine
 10
-167.5466977059841
 20
-447.9999892413616
 30
0.0
 11
-240.3899028897285
 21
-447.9999892413616
 31
0.0
  0
LINE
  5
1B4
330
3C7
100
AcDbEntity
  8
DATA
  6
Continuous
 62
     7
100
AcDbLine
 10
-167.5466977059841
 20
-456.9999925792217
 30
0.0
 11
-167.5466977059841
 21
-447.9999892413616
 31
0.0
  0
LINE
  5
1B5
330
3C7
100
AcDbEntity
  8
DATA
  6
Continuous
 62
     7
100
AcDbLine
 10
-167.5466977059841
 20
-465.9999959170817
 30
0.0
 11
-167.5466977059841
 21
-456.9999925792217
 31
0.0
  0
LINE
  5
1B6
330
3C7
100
AcDbEntity
  8
DATA
  6
Continuous
 62
     7
100
AcDbLine
 10
-240.3899028897285
 20
-456.9999925792217
 30
0.0
 11
-240.3899028897285
 21
-447.9999892413616
 31
0.0
  0
LINE
  5
1B7
330
3C7
100
AcDbEntity
  8
DATA
  6
Continuous
 62
     7
100
AcDbLine
 10
-537.5467061996459
 20
-684.0000055730343
 30
0.0
 11
-537.5467061996459
 21
-849.9999992549417
 31
0.0
  0
LINE
  5
1B8
330
3C7
100
AcDbEntity
  8
DATA
  6
Continuous
 62
     7
100
AcDbLine
 10
-537.4502062797545
 20
-684.0000055730343
 30
0.0
 11
-537.4502062797545
 21
-849.9999992549417
 31
0.0
  0
LINE
  5
1B9
330
3C7
100
AcDbEntity
  8
DATA
  6
Continuous
 62
     7
100
AcDbLine
 10
-514.9501979351043
 20
-882.0000007748605
 30
0.0
 11
-514.9501979351043
 21
-465.9999959170817
 31
0.0
  0
LINE
  5
1BA
330
3C7
100
AcDbEntity
  8
DATA
  6
Continuous
 62
     7
100
AcDbLine
 10
-513.5466873645783
 20
-882.0000007748605
 30
0.0
 11
-513.5466873645783
 21
-465.9999959170817
 31
0.0
  0
LINE
  5
1BB
330
3C7
100
AcDbEntity
  8
DATA
  6
Continuous
 62
     7
100
AcDbLine
 10
-537.4502062797545
 20
-882.0000007748605
 30
0.0
 11
-556.0864627361297
 21
-882.0000007748605
 31
0.0
  0
LINE
  5
1BC
330
3C7
100
AcDbEntity
  8
DATA
  6
Continuous
 62
     7
100
AcDbLine
 10
-537.4502062797545
 20
-886.0000014305112
 30
0.0
 11
-560.009878873825
 21
-886.0000014305112
 31
0.0
  0
LINE
  5
1BD
330
3C7
100
AcDbEntity
  8
DATA
  6
Continuous
 62
     7
100
AcDbLine
 10
-560.009878873825
 20
-900.0
 30
0.0
 11
-537.4502062797545
 21
-900.0
 31
0.0
  0
LINE
  5
1BE
330
3C7
100
AcDbEntity
  8
DATA
  6
Continuous
 62
     7
100
AcDbLine
 10
-513.5466873645783
 20
-891.0000003874303
 30
0.0
 11
-513.5466873645783
 21
-882.0000007748605
 31
0.0
  0
LINE
  5
1BF
330
3C7
100
AcDbEntity
  8
DATA
  6
Continuous
 62
     7
100
AcDbLine
 10
-537.4502062797545
 20
-900.0
 30
0.0
 11
-537.4502062797545
 21
-886.0000014305112
 31
0.0
  0
LINE
  5
1C0
330
3C7
100
AcDbEntity
  8
DATA
  6
Continuous
 62
     7
100
AcDbLine
 10
-513.5466873645783
 20
-900.0
 30
0.0
 11
-537.4502062797545
 21
-900.0
 31
0.0
  0
LINE
  5
1C1
330
3C7
100
AcDbEntity
  8
DATA
  6
Continuous
 62
     7
100
AcDbLine
 10
-513.5466873645783
 20
-891.0000003874303
 30
0.0
 11
-513.5466873645783
 21
-900.0
 31
0.0
  0
LINE
  5
1C2
330
3C7
100
AcDbEntity
  8
DATA
  6
Continuous
 62
     7
100
AcDbLine
 10
-514.9501979351043
 20
-886.0000014305112
 30
0.0
 11
-537.4502062797545
 21
-886.0000014305112
 31
0.0
  0
LINE
  5
1C3
330
3C7
100
AcDbEntity
  8
DATA
  6
Continuous
 62
     7
100
AcDbLine
 10
-514.9501979351043
 20
-882.0000007748605
 30
0.0
 11
-537.4502062797545
 21
-882.0000007748605
 31
0.0
  0
ARC
  5
1C4
330
3C7
100
AcDbEntity
  8
DATA
  6
Continuous
 62
     7
100
AcDbCircle
 10
-526.0000079135279
 20
-860.0000002086144
 30
0.0
 40
10.0
100
AcDbArc
 50
270.0
 51
90.0
  0
LINE
  5
1C5
330
3C7
100
AcDbEntity
  8
DATA
  6
Continuous
 62
     7
100
AcDbLine
 10
-514.9501979351043
 20
-886.0000014305112
 30
0.0
 11
-514.9501979351043
 21
-882.0000007748605
 31
0.0
  0
LINE
  5
1C6
330
3C7
100
AcDbEntity
  8
DATA
  6
Continuous
 62
     7
100
AcDbLine
 10
-513.5466873645783
 20
-882.0000007748605
 30
0.0
 11
-514.9501979351043
 21
-882.0000007748605
 31
0.0
  0
LINE
  5
1C7
330
3C7
100
AcDbEntity
  8
DATA
  6
Continuous
 62
     7
100
AcDbLine
 10
-537.4502062797545
 20
-886.0000014305112
 30
0.0
 11
-537.4502062797545
 21
-882.0000007748605
 31
0.0
  0
LINE
  5
1C8
330
3C7
100
AcDbEntity
  8
DATA
  6
Continuous
 62
     7
100
AcDbLine
 10
-537.5467061996459
 20
-849.9999992549417
 30
0.0
 11
-537.5467061996459
 21
-869.9999988079071
 31
0.0
  0
LINE
  5
1C9
330
3C7
100
AcDbEntity
  8
DATA
  6
Continuous
 62
     7
100
AcDbLine
 10
-537.4502062797545
 20
-849.9999992549417
 30
0.0
 11
-526.0000050067901
 21
-849.9999992549417
 31
0.0
  0
LINE
  5
1CA
330
3C7
100
AcDbEntity
  8
DATA
  6
Continuous
 62
     7
100
AcDbLine
 10
-526.0000050067901
 20
-869.9999988079071
 30
0.0
 11
-537.4502062797545
 21
-869.9999988079071
 31
0.0
  0
LINE
  5
1CB
330
3C7
100
AcDbEntity
  8
DATA
  6
Continuous
 62
     7
100
AcDbLine
 10
-537.4502062797545
 20
-849.9999992549417
 30
0.0
 11
-537.5467061996459
 21
-849.9999992549417
 31
0.0
  0
LINE
  5
1CC
330
3C7
100
AcDbEntity
  8
DATA
  6
Continuous
 62
     7
100
AcDbLine
 10
-537.5467061996459
 20
-882.0000007748605
 30
0.0
 11
-537.4502062797545
 21
-882.0000007748605
 31
0.0
  0
LINE
  5
1CD
330
3C7
100
AcDbEntity
  8
DATA
  6
Continuous
 62
     7
100
AcDbLine
 10
-537.4502062797545
 20
-869.9999988079071
 30
0.0
 11
-537.4502062797545
 21
-882.0000007748605
 31
0.0
  0
LINE
  5
1CE
330
3C7
100
AcDbEntity
  8
DATA
  6
Continuous
 62
     7
100
AcDbLine
 10
-537.5467061996459
 20
-869.9999988079071
 30
0.0
 11
-537.5467061996459
 21
-882.0000007748605
 31
0.0
  0
LINE
  5
1CF
330
3C7
100
AcDbEntity
  8
DATA
  6
Continuous
 62
     7
100
AcDbLine
 10
-537.4502062797545
 20
-869.9999988079071
 30
0.0
 11
-537.5467061996459
 21
-869.9999988079071
 31
0.0
  0
LINE
  5
1D0
330
3C7
100
AcDbEntity
  8
DATA
  6
Continuous
 62
     7
100
AcDbLine
 10
-560.009878873825
 20
-886.0000014305112
 30
0.0
 11
-560.009878873825
 21
-900.0
 31
0.0
  0
LINE
  5
1D1
330
3C7
100
AcDbEntity
  8
DATA
  6
Continuous
 62
     7
100
AcDbLine
 10
-575.0
 20
-900.0
 30
0.0
 11
-560.009878873825
 21
-900.0
 31
0.0
  0
LINE
  5
1D2
330
3C7
100
AcDbEntity
  8
DATA
  6
Continuous
 62
     7
100
AcDbLine
 10
-556.0864627361297
 20
-882.0000007748605
 30
0.0
 11
-571.0000216960907
 21
-882.0000007748605
 31
0.0
  0
LINE
  5
1D3
330
3C7
100
AcDbEntity
  8
DATA
  6
Continuous
 62
     7
100
AcDbLine
 10
-560.009878873825
 20
-886.0000014305112
 30
0.0
 11
-575.0
 21
-886.0000014305112
 31
0.0
  0
LINE
  5
1D4
330
3C7
100
AcDbEntity
  8
DATA
  6
Continuous
 62
     7
100
AcDbLine
 10
-556.0864627361297
 20
-886.0000014305112
 30
0.0
 11
-556.0864627361297
 21
-882.0000007748605
 31
0.0
  0
LINE
  5
1D5
330
3C7
100
AcDbEntity
  8
DATA
  6
Continuous
 62
     7
100
AcDbLine
 10
-571.0000216960907
 20
-886.0000014305112
 30
0.0
 11
-571.0000216960907
 21
-882.0000007748605
 31
0.0
  0
LINE
  5
1D6
330
3C7
100
AcDbEntity
  8
DATA
  6
Continuous
 62
     7
100
AcDbLine
 10
-537.5467061996459
 20
-498.0000011622905
 30
0.0
 11
-537.5467061996459
 21
-664.0000097453593
 31
0.0
  0
LINE
  5
1D7
330
3C7
100
AcDbEntity
  8
DATA
  6
Continuous
 62
     7
100
AcDbLine
 10
-537.4502062797545
 20
-498.0000011622905
 30
0.0
 11
-537.4502062797545
 21
-664.0000097453593
 31
0.0
  0
LINE
  5
1D8
330
3C7
100
AcDbEntity
  8
DATA
  6
Continuous
 62
     7
100
AcDbLine
 10
-537.5467061996459
 20
-664.0000097453593
 30
0.0
 11
-537.5467061996459
 21
-684.0000055730343
 31
0.0
  0
ARC
  5
1D9
330
3C7
100
AcDbEntity
  8
DATA
  6
Continuous
 62
     7
100
AcDbCircle
 10
-526.0000079135208
 20
-674.0000002086143
 30
0.0
 40
10.0
100
AcDbArc
 50
270.0
 51
90.0
  0
LINE
  5
1DA
330
3C7
100
AcDbEntity
  8
DATA
  6
Continuous
 62
     7
100
AcDbLine
 10
-526.0000050067901
 20
-684.0000055730343
 30
0.0
 11
-537.4502062797545
 21
-684.0000055730343
 31
0.0
  0
LINE
  5
1DB
330
3C7
100
AcDbEntity
  8
DATA
  6
Continuous
 62
     7
100
AcDbLine
 10
-537.4502062797545
 20
-684.0000055730343
 30
0.0
 11
-537.5467061996459
 21
-684.0000055730343
 31
0.0
  0
LINE
  5
1DC
330
3C7
100
AcDbEntity
  8
DATA
  6
Continuous
 62
     7
100
AcDbLine
 10
-537.4502062797545
 20
-664.0000097453593
 30
0.0
 11
-537.5467061996459
 21
-664.0000097453593
 31
0.0
  0
LINE
  5
1DD
330
3C7
100
AcDbEntity
  8
DATA
  6
Continuous
 62
     7
100
AcDbLine
 10
-537.4502062797545
 20
-664.0000097453593
 30
0.0
 11
-526.0000050067901
 21
-664.0000097453593
 31
0.0
  0
LINE
  5
1DE
330
3C7
100
AcDbEntity
  8
DATA
  6
Continuous
 62
     7
100
AcDbLine
 10
-537.5467061996459
 20
-477.9999904334545
 30
0.0
 11
-537.5467061996459
 21
-498.0000011622905
 31
0.0
  0
ARC
  5
1DF
330
3C7
100
AcDbEntity
  8
DATA
  6
Continuous
 62
     7
100
AcDbCircle
 10
-526.0000079135208
 20
-488.0000002086143
 30
0.0
 40
10.0
100
AcDbArc
 50
270.0
 51
90.0
  0
LINE
  5
1E0
330
3C7
100
AcDbEntity
  8
DATA
  6
Continuous
 62
     7
100
AcDbLine
 10
-537.4502062797545
 20
-498.0000011622905
 30
0.0
 11
-537.5467061996459
 21
-498.0000011622905
 31
0.0
  0
LINE
  5
1E1
330
3C7
100
AcDbEntity
  8
DATA
  6
Continuous
 62
     7
100
AcDbLine
 10
-526.0000050067901
 20
-498.0000011622905
 30
0.0
 11
-537.4502062797545
 21
-498.0000011622905
 31
0.0
  0
LINE
  5
1E2
330
3C7
100
AcDbEntity
  8
DATA
  6
Continuous
 62
     7
100
AcDbLine
 10
-556.0864627361297
 20
-465.9999959170817
 30
0.0
 11
-537.4502062797545
 21
-465.9999959170817
 31
0.0
  0
LINE
  5
1E3
330
3C7
100
AcDbEntity
  8
DATA
  6
Continuous
 62
     7
100
AcDbLine
 10
-560.009878873825
 20
-461.99998781085
 30
0.0
 11
-537.4502062797545
 21
-461.99998781085
 31
0.0
  0
LINE
  5
1E4
330
3C7
100
AcDbEntity
  8
DATA
  6
Continuous
 62
     7
100
AcDbLine
 10
-537.4502062797545
 20
-447.9999892413616
 30
0.0
 11
-560.009878873825
 21
-447.9999892413616
 31
0.0
  0
LINE
  5
1E5
330
3C7
100
AcDbEntity
  8
DATA
  6
Continuous
 62
     7
100
AcDbLine
 10
-513.5466873645783
 20
-447.9999892413616
 30
0.0
 11
-513.5466873645783
 21
-456.9999925792217
 31
0.0
  0
LINE
  5
1E6
330
3C7
100
AcDbEntity
  8
DATA
  6
Continuous
 62
     7
100
AcDbLine
 10
-537.4502062797545
 20
-461.99998781085
 30
0.0
 11
-537.4502062797545
 21
-447.9999892413616
 31
0.0
  0
LINE
  5
1E7
330
3C7
100
AcDbEntity
  8
DATA
  6
Continuous
 62
     7
100
AcDbLine
 10
-514.9501979351043
 20
-461.99998781085
 30
0.0
 11
-537.4502062797545
 21
-461.99998781085
 31
0.0
  0
LINE
  5
1E8
330
3C7
100
AcDbEntity
  8
DATA
  6
Continuous
 62
     7
100
AcDbLine
 10
-514.9501979351043
 20
-465.9999959170817
 30
0.0
 11
-537.4502062797545
 21
-465.9999959170817
 31
0.0
  0
LINE
  5
1E9
330
3C7
100
AcDbEntity
  8
DATA
  6
Continuous
 62
     7
100
AcDbLine
 10
-514.9501979351043
 20
-465.9999959170817
 30
0.0
 11
-514.9501979351043
 21
-461.99998781085
 31
0.0
  0
LINE
  5
1EA
330
3C7
100
AcDbEntity
  8
DATA
  6
Continuous
 62
     7
100
AcDbLine
 10
-513.5466873645783
 20
-465.9999959170817
 30
0.0
 11
-513.5466873645783
 21
-456.9999925792217
 31
0.0
  0
LINE
  5
1EB
330
3C7
100
AcDbEntity
  8
DATA
  6
Continuous
 62
     7
100
AcDbLine
 10
-514.9501979351043
 20
-465.9999959170817
 30
0.0
 11
-513.5466873645783
 21
-465.9999959170817
 31
0.0
  0
LINE
  5
1EC
330
3C7
100
AcDbEntity
  8
DATA
  6
Continuous
 62
     7
100
AcDbLine
 10
-537.4502062797545
 20
-461.99998781085
 30
0.0
 11
-537.4502062797545
 21
-465.9999959170817
 31
0.0
  0
LINE
  5
1ED
330
3C7
100
AcDbEntity
  8
DATA
  6
Continuous
 62
     7
100
AcDbLine
 10
-537.4502062797545
 20
-465.9999959170817
 30
0.0
 11
-537.5467061996459
 21
-465.9999959170817
 31
0.0
  0
LINE
  5
1EE
330
3C7
100
AcDbEntity
  8
DATA
  6
Continuous
 62
     7
100
AcDbLine
 10
-537.4502062797545
 20
-477.9999904334545
 30
0.0
 11
-537.5467061996459
 21
-477.9999904334545
 31
0.0
  0
LINE
  5
1EF
330
3C7
100
AcDbEntity
  8
DATA
  6
Continuous
 62
     7
100
AcDbLine
 10
-537.5467061996459
 20
-465.9999959170817
 30
0.0
 11
-537.5467061996459
 21
-477.9999904334545
 31
0.0
  0
LINE
  5
1F0
330
3C7
100
AcDbEntity
  8
DATA
  6
Continuous
 62
     7
100
AcDbLine
 10
-537.4502062797545
 20
-477.9999904334545
 30
0.0
 11
-526.0000050067901
 21
-477.9999904334545
 31
0.0
  0
LINE
  5
1F1
330
3C7
100
AcDbEntity
  8
DATA
  6
Continuous
 62
     7
100
AcDbLine
 10
-537.4502062797545
 20
-465.9999959170817
 30
0.0
 11
-537.4502062797545
 21
-477.9999904334545
 31
0.0
  0
LINE
  5
1F2
330
3C7
100
AcDbEntity
  8
DATA
  6
Continuous
 62
     7
100
AcDbLine
 10
-537.4502062797545
 20
-447.9999892413616
 30
0.0
 11
-513.5466873645783
 21
-447.9999892413616
 31
0.0
  0
LINE
  5
1F3
330
3C7
100
AcDbEntity
  8
DATA
  6
Continuous
 62
     7
100
AcDbLine
 10
-560.009878873825
 20
-461.99998781085
 30
0.0
 11
-560.009878873825
 21
-447.9999892413616
 31
0.0
  0
LINE
  5
1F4
330
3C7
100
AcDbEntity
  8
DATA
  6
Continuous
 62
     7
100
AcDbLine
 10
-575.0
 20
-900.0
 30
0.0
 11
-575.0
 21
-447.9999892413616
 31
0.0
  0
LINE
  5
1F5
330
3C7
100
AcDbEntity
  8
DATA
  6
Continuous
 62
     7
100
AcDbLine
 10
-571.0000216960907
 20
-465.9999959170817
 30
0.0
 11
-556.0864627361297
 21
-465.9999959170817
 31
0.0
  0
LINE
  5
1F6
330
3C7
100
AcDbEntity
  8
DATA
  6
Continuous
 62
     7
100
AcDbLine
 10
-575.0
 20
-461.99998781085
 30
0.0
 11
-560.009878873825
 21
-461.99998781085
 31
0.0
  0
LINE
  5
1F7
330
3C7
100
AcDbEntity
  8
DATA
  6
Continuous
 62
     7
100
AcDbLine
 10
-556.0864627361297
 20
-461.99998781085
 30
0.0
 11
-556.0864627361297
 21
-465.9999959170817
 31
0.0
  0
LINE
  5
1F8
330
3C7
100
AcDbEntity
  8
DATA
  6
Continuous
 62
     7
100
AcDbLine
 10
-571.0000216960907
 20
-465.9999959170817
 30
0.0
 11
-571.0000216960907
 21
-461.99998781085
 31
0.0
  0
LINE
  5
1F9
330
3C7
100
AcDbEntity
  8
DATA
  6
Continuous
 62
     7
100
AcDbLine
 10
-560.009878873825
 20
-447.9999892413616
 30
0.0
 11
-575.0
 21
-447.9999892413616
 31
0.0
  0
ARC
  5
1FA
330
3C7
100
AcDbEntity
  8
DATA
  6
Continuous
 62
     7
100
AcDbCircle
 10
-401.933877148705
 20
-635.9211143216783
 30
0.0
 40
2.9317941265805
100
AcDbArc
 50
89.94302312954758
 51
155.5897284255373
  0
ARC
  5
1FB
330
3C7
100
AcDbEntity
  8
DATA
  6
Continuous
 62
     7
100
AcDbCircle
 10
-401.9090359769738
 20
-635.9737133707527
 30
0.0
 40
2.976390121786449
100
AcDbArc
 50
154.8653061761865
 51
180.3004620651748
  0
ARC
  5
1FC
330
3C7
100
AcDbEntity
  8
DATA
  6
Continuous
 62
     7
100
AcDbCircle
 10
-401.9280461982225
 20
-635.9211143216783
 30
0.0
 40
2.931794126580527
100
AcDbArc
 50
24.41027157446273
 51
90.05697687044357
  0
ARC
  5
1FD
330
3C7
100
AcDbEntity
  8
DATA
  6
Continuous
 62
     7
100
AcDbCircle
 10
-401.9528873699536
 20
-635.9737133707527
 30
0.0
 40
2.976390121786351
100
AcDbArc
 50
359.6995379348251
 51
25.13469382381345
  0
ARC
  5
1FE
330
3C7
100
AcDbEntity
  8
DATA
  6
Continuous
 62
     7
100
AcDbCircle
 10
-401.933877148705
 20
-636.0575289677653
 30
0.0
 40
2.93179412658048
100
AcDbArc
 50
204.4102715744607
 51
270.0569768704525
  0
ARC
  5
1FF
330
3C7
100
AcDbEntity
  8
DATA
  6
Continuous
 62
     7
100
AcDbCircle
 10
-401.9090359769738
 20
-636.0049299186906
 30
0.0
 40
2.976390121786351
100
AcDbArc
 50
179.6995379348251
 51
205.1346938238135
  0
ARC
  5
200
330
3C7
100
AcDbEntity
  8
DATA
  6
Continuous
 62
     7
100
AcDbCircle
 10
-401.9280461982225
 20
-636.0575289677653
 30
0.0
 40
2.931794126580386
100
AcDbArc
 50
269.9430231295564
 51
335.5897284255393
  0
ARC
  5
201
330
3C7
100
AcDbEntity
  8
DATA
  6
Continuous
 62
     7
100
AcDbCircle
 10
-401.9528873699536
 20
-636.0049299186906
 30
0.0
 40
2.976390121786449
100
AcDbArc
 50
334.8653061761865
 51
0.3004620651748837
  0
ARC
  5
202
330
3C7
100
AcDbEntity
  8
DATA
  6
Continuous
 62
     7
100
AcDbCircle
 10
-401.933877148705
 20
-711.9211143216782
 30
0.0
 40
2.9317941265805
100
AcDbArc
 50
89.94302312954758
 51
155.5897284255373
  0
ARC
  5
203
330
3C7
100
AcDbEntity
  8
DATA
  6
Continuous
 62
     7
100
AcDbCircle
 10
-401.9090359769738
 20
-711.9737133707527
 30
0.0
 40
2.976390121786449
100
AcDbArc
 50
154.8653061761865
 51
180.3004620651748
  0
ARC
  5
204
330
3C7
100
AcDbEntity
  8
DATA
  6
Continuous
 62
     7
100
AcDbCircle
 10
-401.9280461982225
 20
-711.9211143216782
 30
0.0
 40
2.931794126580527
100
AcDbArc
 50
24.41027157446273
 51
90.05697687044357
  0
ARC
  5
205
330
3C7
100
AcDbEntity
  8
DATA
  6
Continuous
 62
     7
100
AcDbCircle
 10
-401.9528873699536
 20
-711.9737133707527
 30
0.0
 40
2.976390121786351
100
AcDbArc
 50
359.6995379348251
 51
25.13469382381345
  0
ARC
  5
206
330
3C7
100
AcDbEntity
  8
DATA
  6
Continuous
 62
     7
100
AcDbCircle
 10
-401.933877148705
 20
-712.0575289677652
 30
0.0
 40
2.93179412658048
100
AcDbArc
 50
204.4102715744607
 51
270.0569768704525
  0
ARC
  5
207
330
3C7
100
AcDbEntity
  8
DATA
  6
Continuous
 62
     7
100
AcDbCircle
 10
-401.9090359769738
 20
-712.0049299186907
 30
0.0
 40
2.976390121786351
100
AcDbArc
 50
179.6995379348251
 51
205.1346938238135
  0
ARC
  5
208
330
3C7
100
AcDbEntity
  8
DATA
  6
Continuous
 62
     7
100
AcDbCircle
 10
-401.9280461982225
 20
-712.0575289677652
 30
0.0
 40
2.931794126580386
100
AcDbArc
 50
269.9430231295564
 51
335.5897284255393
  0
ARC
  5
209
330
3C7
100
AcDbEntity
  8
DATA
  6
Continuous
 62
     7
100
AcDbCircle
 10
-401.9528873699536
 20
-712.0049299186907
 30
0.0
 40
2.976390121786449
100
AcDbArc
 50
334.8653061761865
 51
0.3004620651748837
  0
LINE
  5
20A
330
3C7
100
AcDbEntity
  8
DATA
  6
Continuous
 62
     7
100
AcDbLine
 10
52.19426155090332
 20
-465.9999959170817
 30
0.0
 11
52.19426155090332
 21
-882.0000007748605
 31
0.0
  0
LINE
  5
20B
330
3C7
100
AcDbEntity
  8
DATA
  6
Continuous
 62
     7
100
AcDbLine
 10
40.00892639160156
 20
-465.9999959170817
 30
0.0
 11
40.00892639160156
 21
-882.0000007748605
 31
0.0
  0
LINE
  5
20C
330
3C7
100
AcDbEntity
  8
DATA
  6
Continuous
 62
     7
100
AcDbLine
 10
-21.00000381469727
 20
-465.9999959170817
 30
0.0
 11
-21.00000381469727
 21
-882.0000007748605
 31
0.0
  0
LINE
  5
20D
330
3C7
100
AcDbEntity
  8
DATA
  6
Continuous
 62
     7
100
AcDbLine
 10
321.0000038146973
 20
-882.0000007748605
 30
0.0
 11
321.0000038146973
 21
-465.9999959170817
 31
0.0
  0
LINE
  5
20E
330
3C7
100
AcDbEntity
  8
DATA
  6
Continuous
 62
     7
100
AcDbLine
 10
259.9908351898193
 20
-882.0000007748605
 30
0.0
 11
259.9908351898193
 21
-465.9999959170817
 31
0.0
  0
LINE
  5
20F
330
3C7
100
AcDbEntity
  8
DATA
  6
Continuous
 62
     7
100
AcDbLine
 10
247.8057384490967
 20
-882.0000007748605
 30
0.0
 11
247.8057384490967
 21
-465.9999959170817
 31
0.0
  0
LINE
  5
210
330
3C7
100
AcDbEntity
  8
DATA
  6
Continuous
 62
     7
100
AcDbLine
 10
187.74094581604
 20
-882.0000007748605
 30
0.0
 11
247.8057384490967
 21
-882.0000007748605
 31
0.0
  0
LINE
  5
211
330
3C7
100
AcDbEntity
  8
DATA
  6
Continuous
 62
     7
100
AcDbLine
 10
187.74094581604
 20
-900.0
 30
0.0
 11
234.1643810272217
 21
-900.0
 31
0.0
  0
LINE
  5
212
330
3C7
100
AcDbEntity
  8
DATA
  6
Continuous
 62
     7
100
AcDbLine
 10
187.74094581604
 20
-882.0000007748605
 30
0.0
 11
259.9908351898193
 21
-882.0000007748605
 31
0.0
  0
LINE
  5
213
330
3C7
100
AcDbEntity
  8
DATA
  6
Continuous
 62
     7
100
AcDbLine
 10
187.74094581604
 20
-891.0000003874303
 30
0.0
 11
259.9908351898193
 21
-891.0000003874303
 31
0.0
  0
LINE
  5
214
330
3C7
100
AcDbEntity
  8
DATA
  6
Continuous
 62
     7
100
AcDbLine
 10
65.83538055419921
 20
-900.0
 30
0.0
 11
-21.00000381469727
 21
-900.0
 31
0.0
  0
LINE
  5
215
330
3C7
100
AcDbEntity
  8
DATA
  6
Continuous
 62
     7
100
AcDbLine
 10
-21.00000381469727
 20
-891.0000003874303
 30
0.0
 11
40.00892639160156
 21
-891.0000003874303
 31
0.0
  0
LINE
  5
216
330
3C7
100
AcDbEntity
  8
DATA
  6
Continuous
 62
     7
100
AcDbLine
 10
-21.00000381469727
 20
-882.0000007748605
 30
0.0
 11
40.00892639160156
 21
-882.0000007748605
 31
0.0
  0
LINE
  5
217
330
3C7
100
AcDbEntity
  8
DATA
  6
Continuous
 62
     7
100
AcDbLine
 10
-21.00000381469727
 20
-882.0000007748605
 30
0.0
 11
-21.00000381469727
 21
-891.0000003874303
 31
0.0
  0
LINE
  5
218
330
3C7
100
AcDbEntity
  8
DATA
  6
Continuous
 62
     7
100
AcDbLine
 10
-21.00000381469727
 20
-900.0
 30
0.0
 11
-21.00000381469727
 21
-891.0000003874303
 31
0.0
  0
LINE
  5
219
330
3C7
100
AcDbEntity
  8
DATA
  6
Continuous
 62
     7
100
AcDbLine
 10
52.19426155090332
 20
-882.0000007748605
 30
0.0
 11
112.2590541839599
 21
-882.0000007748605
 31
0.0
  0
LINE
  5
21A
330
3C7
100
AcDbEntity
  8
DATA
  6
Continuous
 62
     7
100
AcDbLine
 10
112.2590541839599
 20
-900.0
 30
0.0
 11
65.83538055419921
 21
-900.0
 31
0.0
  0
LINE
  5
21B
330
3C7
100
AcDbEntity
  8
DATA
  6
Continuous
 62
     7
100
AcDbLine
 10
40.00892639160156
 20
-882.0000007748605
 30
0.0
 11
112.2590541839599
 21
-882.0000007748605
 31
0.0
  0
LINE
  5
21C
330
3C7
100
AcDbEntity
  8
DATA
  6
Continuous
 62
     7
100
AcDbLine
 10
40.00892639160156
 20
-891.0000003874303
 30
0.0
 11
112.2590541839599
 21
-891.0000003874303
 31
0.0
  0
LINE
  5
21D
330
3C7
100
AcDbEntity
  8
DATA
  6
Continuous
 62
     7
100
AcDbLine
 10
40.00892639160156
 20
-882.0000007748605
 30
0.0
 11
40.00892639160156
 21
-891.0000003874303
 31
0.0
  0
LINE
  5
21E
330
3C7
100
AcDbEntity
  8
DATA
  6
Continuous
 62
     7
100
AcDbLine
 10
40.00892639160156
 20
-882.0000007748605
 30
0.0
 11
52.19426155090332
 21
-882.0000007748605
 31
0.0
  0
LINE
  5
21F
330
3C7
100
AcDbEntity
  8
DATA
  6
Continuous
 62
     7
100
AcDbLine
 10
65.83538055419921
 20
-891.0000003874303
 30
0.0
 11
65.83538055419921
 21
-900.0
 31
0.0
  0
LINE
  5
220
330
3C7
100
AcDbEntity
  8
DATA
  6
Continuous
 62
     7
100
AcDbLine
 10
112.2590541839599
 20
-882.0000007748605
 30
0.0
 11
187.74094581604
 21
-882.0000007748605
 31
0.0
  0
LINE
  5
221
330
3C7
100
AcDbEntity
  8
DATA
  6
Continuous
 62
     7
100
AcDbLine
 10
112.2590541839599
 20
-900.0
 30
0.0
 11
187.74094581604
 21
-900.0
 31
0.0
  0
LINE
  5
222
330
3C7
100
AcDbEntity
  8
DATA
  6
Continuous
 62
     7
100
AcDbLine
 10
112.2590541839599
 20
-891.0000003874303
 30
0.0
 11
112.2590541839599
 21
-882.0000007748605
 31
0.0
  0
LINE
  5
223
330
3C7
100
AcDbEntity
  8
DATA
  6
Continuous
 62
     7
100
AcDbLine
 10
112.2590541839599
 20
-891.0000003874303
 30
0.0
 11
112.2590541839599
 21
-900.0
 31
0.0
  0
LINE
  5
224
330
3C7
100
AcDbEntity
  8
DATA
  6
Continuous
 62
     7
100
AcDbLine
 10
187.74094581604
 20
-882.0000007748605
 30
0.0
 11
187.74094581604
 21
-891.0000003874303
 31
0.0
  0
LINE
  5
225
330
3C7
100
AcDbEntity
  8
DATA
  6
Continuous
 62
     7
100
AcDbLine
 10
187.74094581604
 20
-900.0
 30
0.0
 11
187.74094581604
 21
-891.0000003874303
 31
0.0
  0
LINE
  5
226
330
3C7
100
AcDbEntity
  8
DATA
  6
Continuous
 62
     7
100
AcDbLine
 10
321.0000038146973
 20
-900.0
 30
0.0
 11
234.1643810272217
 21
-900.0
 31
0.0
  0
LINE
  5
227
330
3C7
100
AcDbEntity
  8
DATA
  6
Continuous
 62
     7
100
AcDbLine
 10
259.9908351898193
 20
-891.0000003874303
 30
0.0
 11
321.0000038146973
 21
-891.0000003874303
 31
0.0
  0
LINE
  5
228
330
3C7
100
AcDbEntity
  8
DATA
  6
Continuous
 62
     7
100
AcDbLine
 10
259.9908351898193
 20
-882.0000007748605
 30
0.0
 11
321.0000038146973
 21
-882.0000007748605
 31
0.0
  0
LINE
  5
229
330
3C7
100
AcDbEntity
  8
DATA
  6
Continuous
 62
     7
100
AcDbLine
 10
259.9908351898193
 20
-882.0000007748605
 30
0.0
 11
259.9908351898193
 21
-891.0000003874303
 31
0.0
  0
LINE
  5
22A
330
3C7
100
AcDbEntity
  8
DATA
  6
Continuous
 62
     7
100
AcDbLine
 10
234.1643810272217
 20
-900.0
 30
0.0
 11
234.1643810272217
 21
-891.0000003874303
 31
0.0
  0
LINE
  5
22B
330
3C7
100
AcDbEntity
  8
DATA
  6
Continuous
 62
     7
100
AcDbLine
 10
247.8057384490967
 20
-882.0000007748605
 30
0.0
 11
259.9908351898193
 21
-882.0000007748605
 31
0.0
  0
LINE
  5
22C
330
3C7
100
AcDbEntity
  8
DATA
  6
Continuous
 62
     7
100
AcDbLine
 10
321.0000038146973
 20
-891.0000003874303
 30
0.0
 11
321.0000038146973
 21
-882.0000007748605
 31
0.0
  0
LINE
  5
22D
330
3C7
100
AcDbEntity
  8
DATA
  6
Continuous
 62
     7
100
AcDbLine
 10
321.0000038146973
 20
-891.0000003874303
 30
0.0
 11
321.0000038146973
 21
-900.0
 31
0.0
  0
LINE
  5
22E
330
3C7
100
AcDbEntity
  8
DATA
  6
Continuous
 62
     7
100
AcDbLine
 10
247.8057384490967
 20
-465.9999959170817
 30
0.0
 11
187.74094581604
 21
-465.9999959170817
 31
0.0
  0
LINE
  5
22F
330
3C7
100
AcDbEntity
  8
DATA
  6
Continuous
 62
     7
100
AcDbLine
 10
187.74094581604
 20
-447.9999892413616
 30
0.0
 11
234.1643810272217
 21
-447.9999892413616
 31
0.0
  0
LINE
  5
230
330
3C7
100
AcDbEntity
  8
DATA
  6
Continuous
 62
     7
100
AcDbLine
 10
259.9908351898193
 20
-465.9999959170817
 30
0.0
 11
187.74094581604
 21
-465.9999959170817
 31
0.0
  0
LINE
  5
231
330
3C7
100
AcDbEntity
  8
DATA
  6
Continuous
 62
     7
100
AcDbLine
 10
259.9908351898193
 20
-456.9999925792217
 30
0.0
 11
187.74094581604
 21
-456.9999925792217
 31
0.0
  0
LINE
  5
232
330
3C7
100
AcDbEntity
  8
DATA
  6
Continuous
 62
     7
100
AcDbLine
 10
-21.00000381469727
 20
-447.9999892413616
 30
0.0
 11
65.83538055419921
 21
-447.9999892413616
 31
0.0
  0
LINE
  5
233
330
3C7
100
AcDbEntity
  8
DATA
  6
Continuous
 62
     7
100
AcDbLine
 10
40.00892639160156
 20
-456.9999925792217
 30
0.0
 11
-21.00000381469727
 21
-456.9999925792217
 31
0.0
  0
LINE
  5
234
330
3C7
100
AcDbEntity
  8
DATA
  6
Continuous
 62
     7
100
AcDbLine
 10
-21.00000381469727
 20
-465.9999959170817
 30
0.0
 11
40.00892639160156
 21
-465.9999959170817
 31
0.0
  0
LINE
  5
235
330
3C7
100
AcDbEntity
  8
DATA
  6
Continuous
 62
     7
100
AcDbLine
 10
-21.00000381469727
 20
-456.9999925792217
 30
0.0
 11
-21.00000381469727
 21
-447.9999892413616
 31
0.0
  0
LINE
  5
236
330
3C7
100
AcDbEntity
  8
DATA
  6
Continuous
 62
     7
100
AcDbLine
 10
-21.00000381469727
 20
-456.9999925792217
 30
0.0
 11
-21.00000381469727
 21
-465.9999959170817
 31
0.0
  0
CIRCLE
  5
237
330
3C7
100
AcDbEntity
  8
DATA
  6
Continuous
 62
     7
100
AcDbCircle
 10
149.9999024836324
 20
-675.4999959170817
 30
0.0
 40
3.0
  0
CIRCLE
  5
238
330
3C7
100
AcDbEntity
  8
DATA
  6
Continuous
 62
     7
100
AcDbCircle
 10
149.9999024836324
 20
-599.4999959170817
 30
0.0
 40
3.0
  0
LINE
  5
239
330
3C7
100
AcDbEntity
  8
DATA
  6
Continuous
 62
     7
100
AcDbLine
 10
112.2590541839599
 20
-465.9999959170817
 30
0.0
 11
52.19426155090332
 21
-465.9999959170817
 31
0.0
  0
LINE
  5
23A
330
3C7
100
AcDbEntity
  8
DATA
  6
Continuous
 62
     7
100
AcDbLine
 10
112.2590541839599
 20
-447.9999892413616
 30
0.0
 11
65.83538055419921
 21
-447.9999892413616
 31
0.0
  0
LINE
  5
23B
330
3C7
100
AcDbEntity
  8
DATA
  6
Continuous
 62
     7
100
AcDbLine
 10
112.2590541839599
 20
-465.9999959170817
 30
0.0
 11
40.00892639160156
 21
-465.9999959170817
 31
0.0
  0
LINE
  5
23C
330
3C7
100
AcDbEntity
  8
DATA
  6
Continuous
 62
     7
100
AcDbLine
 10
112.2590541839599
 20
-456.9999925792217
 30
0.0
 11
40.00892639160156
 21
-456.9999925792217
 31
0.0
  0
LINE
  5
23D
330
3C7
100
AcDbEntity
  8
DATA
  6
Continuous
 62
     7
100
AcDbLine
 10
40.00892639160156
 20
-465.9999959170817
 30
0.0
 11
40.00892639160156
 21
-456.9999925792217
 31
0.0
  0
LINE
  5
23E
330
3C7
100
AcDbEntity
  8
DATA
  6
Continuous
 62
     7
100
AcDbLine
 10
40.00892639160156
 20
-465.9999959170817
 30
0.0
 11
52.19426155090332
 21
-465.9999959170817
 31
0.0
  0
LINE
  5
23F
330
3C7
100
AcDbEntity
  8
DATA
  6
Continuous
 62
     7
100
AcDbLine
 10
65.83538055419921
 20
-447.9999892413616
 30
0.0
 11
65.83538055419921
 21
-456.9999925792217
 31
0.0
  0
LINE
  5
240
330
3C7
100
AcDbEntity
  8
DATA
  6
Continuous
 62
     7
100
AcDbLine
 10
187.74094581604
 20
-447.9999892413616
 30
0.0
 11
112.2590541839599
 21
-447.9999892413616
 31
0.0
  0
LINE
  5
241
330
3C7
100
AcDbEntity
  8
DATA
  6
Continuous
 62
     7
100
AcDbLine
 10
187.74094581604
 20
-465.9999959170817
 30
0.0
 11
112.2590541839599
 21
-465.9999959170817
 31
0.0
  0
LINE
  5
242
330
3C7
100
AcDbEntity
  8
DATA
  6
Continuous
 62
     7
100
AcDbLine
 10
112.2590541839599
 20
-447.9999892413616
 30
0.0
 11
112.2590541839599
 21
-456.9999925792217
 31
0.0
  0
LINE
  5
243
330
3C7
100
AcDbEntity
  8
DATA
  6
Continuous
 62
     7
100
AcDbLine
 10
112.2590541839599
 20
-465.9999959170817
 30
0.0
 11
112.2590541839599
 21
-456.9999925792217
 31
0.0
  0
LINE
  5
244
330
3C7
100
AcDbEntity
  8
DATA
  6
Continuous
 62
     7
100
AcDbLine
 10
187.74094581604
 20
-456.9999925792217
 30
0.0
 11
187.74094581604
 21
-447.9999892413616
 31
0.0
  0
LINE
  5
245
330
3C7
100
AcDbEntity
  8
DATA
  6
Continuous
 62
     7
100
AcDbLine
 10
187.74094581604
 20
-456.9999925792217
 30
0.0
 11
187.74094581604
 21
-465.9999959170817
 31
0.0
  0
LINE
  5
246
330
3C7
100
AcDbEntity
  8
DATA
  6
Continuous
 62
     7
100
AcDbLine
 10
234.1643810272217
 20
-447.9999892413616
 30
0.0
 11
321.0000038146973
 21
-447.9999892413616
 31
0.0
  0
LINE
  5
247
330
3C7
100
AcDbEntity
  8
DATA
  6
Continuous
 62
     7
100
AcDbLine
 10
321.0000038146973
 20
-456.9999925792217
 30
0.0
 11
259.9908351898193
 21
-456.9999925792217
 31
0.0
  0
LINE
  5
248
330
3C7
100
AcDbEntity
  8
DATA
  6
Continuous
 62
     7
100
AcDbLine
 10
259.9908351898193
 20
-465.9999959170817
 30
0.0
 11
321.0000038146973
 21
-465.9999959170817
 31
0.0
  0
LINE
  5
249
330
3C7
100
AcDbEntity
  8
DATA
  6
Continuous
 62
     7
100
AcDbLine
 10
234.1643810272217
 20
-456.9999925792217
 30
0.0
 11
234.1643810272217
 21
-447.9999892413616
 31
0.0
  0
LINE
  5
24A
330
3C7
100
AcDbEntity
  8
DATA
  6
Continuous
 62
     7
100
AcDbLine
 10
247.8057384490967
 20
-465.9999959170817
 30
0.0
 11
259.9908351898193
 21
-465.9999959170817
 31
0.0
  0
LINE
  5
24B
330
3C7
100
AcDbEntity
  8
DATA
  6
Continuous
 62
     7
100
AcDbLine
 10
259.9908351898193
 20
-465.9999959170817
 30
0.0
 11
259.9908351898193
 21
-456.9999925792217
 31
0.0
  0
LINE
  5
24C
330
3C7
100
AcDbEntity
  8
DATA
  6
Continuous
 62
     7
100
AcDbLine
 10
321.0000038146973
 20
-447.9999892413616
 30
0.0
 11
321.0000038146973
 21
-456.9999925792217
 31
0.0
  0
LINE
  5
24D
330
3C7
100
AcDbEntity
  8
DATA
  6
Continuous
 62
     7
100
AcDbLine
 10
321.0000038146973
 20
-465.9999959170817
 30
0.0
 11
321.0000038146973
 21
-456.9999925792217
 31
0.0
  0
LINE
  5
24E
330
3C7
100
AcDbEntity
  8
DATA
  6
Continuous
 62
     7
100
AcDbLine
 10
115.0
 20
-824.0
 30
0.0
 11
115.0
 21
-744.0
 31
0.0
  0
LINE
  5
24F
330
3C7
100
AcDbEntity
  8
DATA
  6
Continuous
 62
     7
100
AcDbLine
 10
185.0
 20
-744.0
 30
0.0
 11
185.0
 21
-824.0
 31
0.0
  0
ARC
  5
250
330
3C7
100
AcDbEntity
  8
DATA
  6
Continuous
 62
     7
100
AcDbCircle
 10
150.0
 20
-744.0
 30
0.0
 40
35.0
100
AcDbArc
 50
0.0
 51
180.0
  0
ARC
  5
251
330
3C7
100
AcDbEntity
  8
DATA
  6
Continuous
 62
     7
100
AcDbCircle
 10
150.0
 20
-824.0
 30
0.0
 40
35.0
100
AcDbArc
 50
180.0
 51
0.0
  0
CIRCLE
  5
252
330
3C7
100
AcDbEntity
  8
DATA
  6
Continuous
 62
     7
100
AcDbCircle
 10
150.0
 20
-744.0
 30
0.0
 40
11.75
  0
ARC
  5
253
330
3C7
100
AcDbEntity
  8
DATA
  6
Continuous
 62
     7
100
AcDbCircle
 10
150.0
 20
-744.0
 30
0.0
 40
8.800002677414209
100
AcDbArc
 50
109.9322641506793
 51
257.1961668197015
  0
ARC
  5
254
330
3C7
100
AcDbEntity
  8
DATA
  6
Continuous
 62
     7
100
AcDbCircle
 10
150.0
 20
-744.0
 30
0.0
 40
8.800003504346031
100
AcDbArc
 50
282.9999995554241
 51
69.99999423796154
  0
ARC
  5
255
330
3C7
100
AcDbEntity
  8
DATA
  6
Continuous
 62
     7
100
AcDbCircle
 10
150.0
 20
-744.0
 30
0.0
 40
6.200002162064247
100
AcDbArc
 50
60.0000115355575
 51
150.0000115355601
  0
ARC
  5
256
330
3C7
100
AcDbEntity
  8
DATA
  6
Continuous
 62
     7
100
AcDbCircle
 10
150.0
 20
-744.0
 30
0.0
 40
6.20000216206399
100
AcDbArc
 50
240.0000115355659
 51
330.0000115355644
  0
ARC
  5
257
330
3C7
100
AcDbEntity
  8
DATA
  6
Continuous
 62
     7
100
AcDbCircle
 10
150.0
 20
-744.0
 30
0.0
 40
5.625003831580524
100
AcDbArc
 50
149.999669682101
 51
240.000212604301
  0
ARC
  5
258
330
3C7
100
AcDbEntity
  8
DATA
  6
Continuous
 62
     7
100
AcDbCircle
 10
150.0
 20
-744.0
 30
0.0
 40
5.624996152034259
100
AcDbArc
 50
330.0002126043024
 51
60.00071824312562
  0
ARC
  5
259
330
3C7
100
AcDbEntity
  8
DATA
  6
Continuous
 62
     7
100
AcDbCircle
 10
150.0
 20
-744.0
 30
0.0
 40
3.59999008087537
100
AcDbArc
 50
59.99990885470324
 51
149.9999088547082
  0
ARC
  5
25A
330
3C7
100
AcDbEntity
  8
DATA
  6
Continuous
 62
     7
100
AcDbCircle
 10
150.0
 20
-744.0
 30
0.0
 40
3.59999008087537
100
AcDbArc
 50
239.9999088547033
 51
329.9999088547082
  0
ARC
  5
25B
330
3C7
100
AcDbEntity
  8
DATA
  6
Continuous
 62
     7
100
AcDbCircle
 10
150.0
 20
-744.0
 30
0.0
 40
2.900001820861042
100
AcDbArc
 50
149.9997926340248
 51
240.0002336238304
  0
ARC
  5
25C
330
3C7
100
AcDbEntity
  8
DATA
  6
Continuous
 62
     7
100
AcDbCircle
 10
150.0
 20
-744.0
 30
0.0
 40
2.900000481120788
100
AcDbArc
 50
330.0002336238303
 51
59.99979263402263
  0
LINE
  5
25D
330
3C7
100
AcDbEntity
  8
DATA
  6
Continuous
 62
     7
100
AcDbLine
 10
147.0
 20
-734.0
 30
0.0
 11
153.0
 21
-734.0
 31
0.0
  0
LINE
  5
25E
330
3C7
100
AcDbEntity
  8
DATA
  6
Continuous
 62
     7
100
AcDbLine
 10
148.0
 20
-754.0
 30
0.0
 11
152.0
 21
-754.0
 31
0.0
  0
LINE
  5
25F
330
3C7
100
AcDbEntity
  8
DATA
  6
Continuous
 62
     7
100
AcDbLine
 10
148.0
 20
-754.0
 30
0.0
 11
148.0
 21
-752.7999999999998
 31
0.0
  0
LINE
  5
260
330
3C7
100
AcDbEntity
  8
DATA
  6
Continuous
 62
     7
100
AcDbLine
 10
152.0
 20
-754.0
 30
0.0
 11
152.0
 21
-752.7999999999998
 31
0.0
  0
LINE
  5
261
330
3C7
100
AcDbEntity
  8
DATA
  6
Continuous
 62
     7
100
AcDbLine
 10
147.0
 20
-734.0
 30
0.0
 11
147.0
 21
-735.7271500000002
 31
0.0
  0
LINE
  5
262
330
3C7
100
AcDbEntity
  8
DATA
  6
Continuous
 62
     7
100
AcDbLine
 10
153.0
 20
-734.0
 30
0.0
 11
153.0
 21
-735.7271500000002
 31
0.0
  0
LINE
  5
263
330
3C7
100
AcDbEntity
  8
DATA
  6
Continuous
 62
     7
100
AcDbLine
 10
144.6306599999998
 20
-740.8999699999998
 30
0.0
 11
145.1286200000004
 21
-741.1874699999999
 31
0.0
  0
LINE
  5
264
330
3C7
100
AcDbEntity
  8
DATA
  6
Continuous
 62
     7
100
AcDbLine
 10
153.0999700000002
 20
-738.6306199999998
 30
0.0
 11
152.8124699999998
 21
-739.12859
 31
0.0
  0
LINE
  5
265
330
3C7
100
AcDbEntity
  8
DATA
  6
Continuous
 62
     7
100
AcDbLine
 10
146.9000000000005
 20
-749.3693600000001
 30
0.0
 11
147.1875
 21
-748.87139
 31
0.0
  0
LINE
  5
266
330
3C7
100
AcDbEntity
  8
DATA
  6
Continuous
 62
     7
100
AcDbLine
 10
155.3693700000003
 20
-747.0999799999998
 30
0.0
 11
154.8714
 21
-746.81248
 31
0.0
  0
LINE
  5
267
330
3C7
100
AcDbEntity
  8
DATA
  6
Continuous
 62
     7
100
AcDbLine
 10
151.7999799999998
 20
-740.8823099999998
 30
0.0
 11
151.4499900000001
 21
-741.4885200000001
 31
0.0
  0
LINE
  5
268
330
3C7
100
AcDbEntity
  8
DATA
  6
Continuous
 62
     7
100
AcDbLine
 10
146.8823300000004
 20
-742.1999899999999
 30
0.0
 11
147.4885300000005
 21
-742.54999
 31
0.0
  0
LINE
  5
269
330
3C7
100
AcDbEntity
  8
DATA
  6
Continuous
 62
     7
100
AcDbLine
 10
148.1999999999998
 20
-747.1176799999999
 30
0.0
 11
148.5500000000001
 21
-746.5114699999998
 31
0.0
  0
LINE
  5
26A
330
3C7
100
AcDbEntity
  8
DATA
  6
Continuous
 62
     7
100
AcDbLine
 10
153.11769
 20
-745.79998
 30
0.0
 11
152.5114800000001
 21
-745.44999
 31
0.0
  0
CIRCLE
  5
26B
330
3C7
100
AcDbEntity
  8
DATA
  6
Continuous
 62
     7
100
AcDbCircle
 10
140.5
 20
-732.0
 30
0.0
 40
2.0
  0
CIRCLE
  5
26C
330
3C7
100
AcDbEntity
  8
DATA
  6
Continuous
 62
     7
100
AcDbCircle
 10
140.5
 20
-732.0
 30
0.0
 40
1.0
  0
CIRCLE
  5
26D
330
3C7
100
AcDbEntity
  8
DATA
  6
Continuous
 62
     7
100
AcDbCircle
 10
159.5
 20
-756.0
 30
0.0
 40
2.0
  0
CIRCLE
  5
26E
330
3C7
100
AcDbEntity
  8
DATA
  6
Continuous
 62
     7
100
AcDbCircle
 10
159.5
 20
-756.0
 30
0.0
 40
1.0
  0
CIRCLE
  5
26F
330
3C7
100
AcDbEntity
  8
DATA
  6
Continuous
 62
     7
100
AcDbCircle
 10
150.0
 20
-814.0
 30
0.0
 40
11.75
  0
ARC
  5
270
330
3C7
100
AcDbEntity
  8
DATA
  6
Continuous
 62
     7
100
AcDbCircle
 10
150.0
 20
-814.0
 30
0.0
 40
8.800002677414209
100
AcDbArc
 50
109.9322641506793
 51
257.1961668197015
  0
ARC
  5
271
330
3C7
100
AcDbEntity
  8
DATA
  6
Continuous
 62
     7
100
AcDbCircle
 10
150.0
 20
-814.0
 30
0.0
 40
8.800003504346031
100
AcDbArc
 50
282.9999995554241
 51
69.99999423796154
  0
ARC
  5
272
330
3C7
100
AcDbEntity
  8
DATA
  6
Continuous
 62
     7
100
AcDbCircle
 10
150.0
 20
-814.0
 30
0.0
 40
6.200002162064247
100
AcDbArc
 50
60.0000115355575
 51
150.0000115355601
  0
ARC
  5
273
330
3C7
100
AcDbEntity
  8
DATA
  6
Continuous
 62
     7
100
AcDbCircle
 10
150.0
 20
-814.0
 30
0.0
 40
6.20000216206399
100
AcDbArc
 50
240.0000115355659
 51
330.0000115355644
  0
ARC
  5
274
330
3C7
100
AcDbEntity
  8
DATA
  6
Continuous
 62
     7
100
AcDbCircle
 10
150.0
 20
-814.0
 30
0.0
 40
5.625003831580524
100
AcDbArc
 50
149.999669682101
 51
240.000212604301
  0
ARC
  5
275
330
3C7
100
AcDbEntity
  8
DATA
  6
Continuous
 62
     7
100
AcDbCircle
 10
150.0
 20
-814.0
 30
0.0
 40
5.624996152034259
100
AcDbArc
 50
330.0002126043024
 51
60.00071824312562
  0
ARC
  5
276
330
3C7
100
AcDbEntity
  8
DATA
  6
Continuous
 62
     7
100
AcDbCircle
 10
150.0
 20
-814.0
 30
0.0
 40
3.59999008087537
100
AcDbArc
 50
59.99990885470324
 51
149.9999088547082
  0
ARC
  5
277
330
3C7
100
AcDbEntity
  8
DATA
  6
Continuous
 62
     7
100
AcDbCircle
 10
150.0
 20
-814.0
 30
0.0
 40
3.59999008087537
100
AcDbArc
 50
239.9999088547033
 51
329.9999088547082
  0
ARC
  5
278
330
3C7
100
AcDbEntity
  8
DATA
  6
Continuous
 62
     7
100
AcDbCircle
 10
150.0
 20
-814.0
 30
0.0
 40
2.900001820861042
100
AcDbArc
 50
149.9997926340248
 51
240.0002336238304
  0
ARC
  5
279
330
3C7
100
AcDbEntity
  8
DATA
  6
Continuous
 62
     7
100
AcDbCircle
 10
150.0
 20
-814.0
 30
0.0
 40
2.900000481120788
100
AcDbArc
 50
330.0002336238303
 51
59.99979263402263
  0
LINE
  5
27A
330
3C7
100
AcDbEntity
  8
DATA
  6
Continuous
 62
     7
100
AcDbLine
 10
147.0
 20
-804.0
 30
0.0
 11
153.0
 21
-804.0
 31
0.0
  0
LINE
  5
27B
330
3C7
100
AcDbEntity
  8
DATA
  6
Continuous
 62
     7
100
AcDbLine
 10
148.0
 20
-824.0
 30
0.0
 11
152.0
 21
-824.0
 31
0.0
  0
LINE
  5
27C
330
3C7
100
AcDbEntity
  8
DATA
  6
Continuous
 62
     7
100
AcDbLine
 10
148.0
 20
-824.0
 30
0.0
 11
148.0
 21
-822.7999999999997
 31
0.0
  0
LINE
  5
27D
330
3C7
100
AcDbEntity
  8
DATA
  6
Continuous
 62
     7
100
AcDbLine
 10
152.0
 20
-824.0
 30
0.0
 11
152.0
 21
-822.7999999999997
 31
0.0
  0
LINE
  5
27E
330
3C7
100
AcDbEntity
  8
DATA
  6
Continuous
 62
     7
100
AcDbLine
 10
147.0
 20
-804.0
 30
0.0
 11
147.0
 21
-805.7271500000002
 31
0.0
  0
LINE
  5
27F
330
3C7
100
AcDbEntity
  8
DATA
  6
Continuous
 62
     7
100
AcDbLine
 10
153.0
 20
-804.0
 30
0.0
 11
153.0
 21
-805.7271500000002
 31
0.0
  0
LINE
  5
280
330
3C7
100
AcDbEntity
  8
DATA
  6
Continuous
 62
     7
100
AcDbLine
 10
144.6306599999998
 20
-810.8999699999998
 30
0.0
 11
145.1286200000004
 21
-811.1874699999999
 31
0.0
  0
LINE
  5
281
330
3C7
100
AcDbEntity
  8
DATA
  6
Continuous
 62
     7
100
AcDbLine
 10
153.0999700000002
 20
-808.6306199999997
 30
0.0
 11
152.8124699999998
 21
-809.12859
 31
0.0
  0
LINE
  5
282
330
3C7
100
AcDbEntity
  8
DATA
  6
Continuous
 62
     7
100
AcDbLine
 10
146.9000000000005
 20
-819.3693600000001
 30
0.0
 11
147.1875
 21
-818.8713899999999
 31
0.0
  0
LINE
  5
283
330
3C7
100
AcDbEntity
  8
DATA
  6
Continuous
 62
     7
100
AcDbLine
 10
155.3693700000003
 20
-817.0999799999998
 30
0.0
 11
154.8714
 21
-816.8124800000001
 31
0.0
  0
LINE
  5
284
330
3C7
100
AcDbEntity
  8
DATA
  6
Continuous
 62
     7
100
AcDbLine
 10
151.7999799999998
 20
-810.8823099999998
 30
0.0
 11
151.4499900000001
 21
-811.4885200000001
 31
0.0
  0
LINE
  5
285
330
3C7
100
AcDbEntity
  8
DATA
  6
Continuous
 62
     7
100
AcDbLine
 10
146.8823300000004
 20
-812.19999
 30
0.0
 11
147.4885300000005
 21
-812.5499899999999
 31
0.0
  0
LINE
  5
286
330
3C7
100
AcDbEntity
  8
DATA
  6
Continuous
 62
     7
100
AcDbLine
 10
148.1999999999998
 20
-817.1176799999999
 30
0.0
 11
148.5500000000001
 21
-816.5114699999998
 31
0.0
  0
LINE
  5
287
330
3C7
100
AcDbEntity
  8
DATA
  6
Continuous
 62
     7
100
AcDbLine
 10
153.11769
 20
-815.79998
 30
0.0
 11
152.5114800000001
 21
-815.4499899999999
 31
0.0
  0
CIRCLE
  5
288
330
3C7
100
AcDbEntity
  8
DATA
  6
Continuous
 62
     7
100
AcDbCircle
 10
140.5
 20
-802.0
 30
0.0
 40
2.0
  0
CIRCLE
  5
289
330
3C7
100
AcDbEntity
  8
DATA
  6
Continuous
 62
     7
100
AcDbCircle
 10
140.5
 20
-802.0
 30
0.0
 40
1.0
  0
CIRCLE
  5
28A
330
3C7
100
AcDbEntity
  8
DATA
  6
Continuous
 62
     7
100
AcDbCircle
 10
159.5
 20
-826.0
 30
0.0
 40
2.0
  0
CIRCLE
  5
28B
330
3C7
100
AcDbEntity
  8
DATA
  6
Continuous
 62
     7
100
AcDbCircle
 10
159.5
 20
-826.0
 30
0.0
 40
1.0
  0
CIRCLE
  5
28C
330
3C7
100
AcDbEntity
  8
DATA
  6
Continuous
 62
     7
100
AcDbCircle
 10
135.0
 20
-838.0
 30
0.0
 40
5.0
  0
CIRCLE
  5
28D
330
3C7
100
AcDbEntity
  8
DATA
  6
Continuous
 62
     7
100
AcDbCircle
 10
135.0
 20
-833.75
 30
0.0
 40
0.75
  0
CIRCLE
  5
28E
330
3C7
100
AcDbEntity
  8
DATA
  6
Continuous
 62
     7
100
AcDbCircle
 10
130.75
 20
-838.0
 30
0.0
 40
0.75
  0
CIRCLE
  5
28F
330
3C7
100
AcDbEntity
  8
DATA
  6
Continuous
 62
     7
100
AcDbCircle
 10
139.25
 20
-838.0
 30
0.0
 40
0.75
  0
CIRCLE
  5
290
330
3C7
100
AcDbEntity
  8
DATA
  6
Continuous
 62
     7
100
AcDbCircle
 10
135.0
 20
-842.2499999999999
 30
0.0
 40
0.75
  0
TEXT
  5
291
330
3C7
100
AcDbEntity
  8
DATA
 62
     7
100
AcDbText
 10
134.1022135416666
 20
-836.7119140625
 30
0.0
 40
1.923828125
  1
1+
 41
0.7
 72
     1
 11
135.0
 21
-835.7499999999999
 31
0.0
100
AcDbText
 73
     2
  0
TEXT
  5
292
330
3C7
100
AcDbEntity
  8
DATA
 62
     7
100
AcDbText
 10
131.8522135764359
 20
-838.9619140624999
 30
0.0
 40
1.923828125
  1
1-
 41
0.7
 72
     1
 11
132.7500000347693
 21
-838.0
 31
0.0
100
AcDbText
 73
     2
  0
TEXT
  5
293
330
3C7
100
AcDbEntity
  8
DATA
 62
     7
100
AcDbText
 10
133.8777669270833
 20
-841.2119140625
 30
0.0
 40
1.923828125
  1
2+
 41
0.7
 72
     1
 11
135.0
 21
-840.2499999999999
 31
0.0
100
AcDbText
 73
     2
  0
TEXT
  5
294
330
3C7
100
AcDbEntity
  8
DATA
 62
     7
100
AcDbText
 10
136.127766892314
 20
-838.9619140624999
 30
0.0
 40
1.923828125
  1
2-
 41
0.7
 72
     1
 11
137.2499999652307
 21
-838.0
 31
0.0
100
AcDbText
 73
     2
  0
LINE
  5
295
330
3C7
100
AcDbEntity
  8
DATA
  6
Continuous
 62
     7
100
AcDbLine
 10
135.0
 20
-832.0
 30
0.0
 11
158.75
 21
-832.0
 31
0.0
  0
LINE
  5
296
330
3C7
100
AcDbEntity
  8
DATA
  6
Continuous
 62
     7
100
AcDbLine
 10
159.25
 20
-832.0
 30
0.0
 11
170.0
 21
-832.0
 31
0.0
  0
LINE
  5
297
330
3C7
100
AcDbEntity
  8
DATA
  6
Continuous
 62
     7
100
AcDbLine
 10
129.0
 20
-829.0
 30
0.0
 11
170.0
 21
-829.0
 31
0.0
  0
LINE
  5
298
330
3C7
100
AcDbEntity
  8
DATA
  6
Continuous
 62
     7
100
AcDbLine
 10
135.0
 20
-833.0
 30
0.0
 11
135.0
 21
-832.0
 31
0.0
  0
LINE
  5
299
330
3C7
100
AcDbEntity
  8
DATA
  6
Continuous
 62
     7
100
AcDbLine
 10
130.0
 20
-838.0
 30
0.0
 11
129.0
 21
-838.0
 31
0.0
  0
LINE
  5
29A
330
3C7
100
AcDbEntity
  8
DATA
  6
Continuous
 62
     7
100
AcDbLine
 10
129.0
 20
-838.0
 30
0.0
 11
129.0
 21
-829.0
 31
0.0
  0
LINE
  5
29B
330
3C7
100
AcDbEntity
  8
DATA
  6
Continuous
 62
     7
100
AcDbLine
 10
159.0
 20
-838.0
 30
0.0
 11
159.0
 21
-829.0
 31
0.0
  0
TEXT
  5
29C
330
3C7
100
AcDbEntity
  8
DATA
 62
     7
100
AcDbText
 10
171.0
 20
-830.154296875
 30
0.0
 40
2.30859375
  1
-
 41
0.7
 11
171.0
 21
-829.0
 31
0.0
100
AcDbText
 73
     2
  0
TEXT
  5
29D
330
3C7
100
AcDbEntity
  8
DATA
 62
     7
100
AcDbText
 10
171.0
 20
-833.154296875
 30
0.0
 40
2.30859375
  1
+
 41
0.7
 11
171.0
 21
-832.0
 31
0.0
100
AcDbText
 73
     2
  0
ARC
  5
29E
330
3C7
100
AcDbEntity
  8
DATA
  6
Continuous
 62
     7
100
AcDbCircle
 10
12.94251921913337
 20
-635.9119940934065
 30
0.0
 40
8.640602347369453
100
AcDbArc
 50
165.9607515016763
 51
180.5127653484215
  0
ARC
  5
29F
330
3C7
100
AcDbEntity
  8
DATA
  6
Continuous
 62
     7
100
AcDbCircle
 10
6.319599787944753
 20
-634.2207546889008
 30
0.0
 40
1.805560992011793
100
AcDbArc
 50
142.8757106863348
 51
167.042618177393
  0
ARC
  5
2A0
330
3C7
100
AcDbEntity
  8
DATA
  6
Continuous
 62
     7
100
AcDbCircle
 10
5.220349905278453
 20
-633.405225433691
 30
0.0
 40
0.4370881355851144
100
AcDbArc
 50
116.611899950564
 51
141.1446637467125
  0
ARC
  5
2A1
330
3C7
100
AcDbEntity
  8
DATA
  6
Continuous
 62
     7
100
AcDbCircle
 10
5.135594904866593
 20
-633.2472409767825
 30
0.0
 40
0.2579234192317703
100
AcDbArc
 50
90.32255531964857
 51
115.4993743033343
  0
ARC
  5
2A2
330
3C7
100
AcDbEntity
  8
DATA
  6
Continuous
 62
     7
100
AcDbCircle
 10
-2.674233432426262
 20
-635.9119940934065
 30
0.0
 40
8.640602347369643
100
AcDbArc
 50
359.4872346515785
 51
14.03924849832299
  0
ARC
  5
2A3
330
3C7
100
AcDbEntity
  8
DATA
  6
Continuous
 62
     7
100
AcDbCircle
 10
3.948685998762357
 20
-634.2207546889008
 30
0.0
 40
1.805560992012081
100
AcDbArc
 50
12.95738182260381
 51
37.1242893136652
  0
ARC
  5
2A4
330
3C7
100
AcDbEntity
  8
DATA
  6
Continuous
 62
     7
100
AcDbCircle
 10
5.047935881428657
 20
-633.405225433691
 30
0.0
 40
0.4370881355851333
100
AcDbArc
 50
38.85533625328746
 51
63.38810004943598
  0
ARC
  5
2A5
330
3C7
100
AcDbEntity
  8
DATA
  6
Continuous
 62
     7
100
AcDbCircle
 10
5.132690881840971
 20
-633.2472409767825
 30
0.0
 40
0.2579234192315675
100
AcDbArc
 50
64.50062569675684
 51
89.67744468035144
  0
ARC
  5
2A6
330
3C7
100
AcDbEntity
  8
DATA
  6
Continuous
 62
     7
100
AcDbCircle
 10
12.94251921913337
 20
-636.0666491960367
 30
0.0
 40
8.640602347369643
100
AcDbArc
 50
179.4872346515785
 51
194.0392484983244
  0
ARC
  5
2A7
330
3C7
100
AcDbEntity
  8
DATA
  6
Continuous
 62
     7
100
AcDbCircle
 10
6.319599787944753
 20
-637.7578886005428
 30
0.0
 40
1.805560992011638
100
AcDbArc
 50
192.957381822607
 51
217.1242893136652
  0
ARC
  5
2A8
330
3C7
100
AcDbEntity
  8
DATA
  6
Continuous
 62
     7
100
AcDbCircle
 10
5.220349905278453
 20
-638.5734178557525
 30
0.0
 40
0.4370881355851333
100
AcDbArc
 50
218.8553362532874
 51
243.388100049436
  0
ARC
  5
2A9
330
3C7
100
AcDbEntity
  8
DATA
  6
Continuous
 62
     7
100
AcDbCircle
 10
5.135594904866593
 20
-638.7314023126607
 30
0.0
 40
0.2579234192318659
100
AcDbArc
 50
244.5006256966765
 51
269.6774446803514
  0
ARC
  5
2AA
330
3C7
100
AcDbEntity
  8
DATA
  6
Continuous
 62
     7
100
AcDbCircle
 10
-2.674233432426262
 20
-636.0666491960367
 30
0.0
 40
8.640602347369922
100
AcDbArc
 50
345.9607515016763
 51
0.5127653484214534
  0
ARC
  5
2AB
330
3C7
100
AcDbEntity
  8
DATA
  6
Continuous
 62
     7
100
AcDbCircle
 10
3.948685998762357
 20
-637.7578886005428
 30
0.0
 40
1.805560992011793
100
AcDbArc
 50
322.8757106863348
 51
347.0426181773961
  0
ARC
  5
2AC
330
3C7
100
AcDbEntity
  8
DATA
  6
Continuous
 62
     7
100
AcDbCircle
 10
5.047935881428657
 20
-638.5734178557525
 30
0.0
 40
0.4370881355851144
100
AcDbArc
 50
296.611899950564
 51
321.1446637467125
  0
ARC
  5
2AD
330
3C7
100
AcDbEntity
  8
DATA
  6
Continuous
 62
     7
100
AcDbCircle
 10
5.132690881840971
 20
-638.7314023126607
 30
0.0
 40
0.2579234192317703
100
AcDbArc
 50
270.3225553196485
 51
295.4993743032324
  0
ARC
  5
2AE
330
3C7
100
AcDbEntity
  8
DATA
  6
Continuous
 62
     7
100
AcDbCircle
 10
12.94251921913337
 20
-711.9119940934065
 30
0.0
 40
8.640602347369453
100
AcDbArc
 50
165.9607515016763
 51
180.5127653484215
  0
ARC
  5
2AF
330
3C7
100
AcDbEntity
  8
DATA
  6
Continuous
 62
     7
100
AcDbCircle
 10
6.319599787944753
 20
-710.2207546889007
 30
0.0
 40
1.805560992011793
100
AcDbArc
 50
142.8757106863348
 51
167.042618177393
  0
ARC
  5
2B0
330
3C7
100
AcDbEntity
  8
DATA
  6
Continuous
 62
     7
100
AcDbCircle
 10
5.220349905278453
 20
-709.4052254336909
 30
0.0
 40
0.437088135585216
100
AcDbArc
 50
116.6118999505573
 51
141.1446637467125
  0
ARC
  5
2B1
330
3C7
100
AcDbEntity
  8
DATA
  6
Continuous
 62
     7
100
AcDbCircle
 10
5.135594904866593
 20
-709.2472409767826
 30
0.0
 40
0.2579234192317703
100
AcDbArc
 50
90.32255531964857
 51
115.4993743033235
  0
ARC
  5
2B2
330
3C7
100
AcDbEntity
  8
DATA
  6
Continuous
 62
     7
100
AcDbCircle
 10
-2.674233432426262
 20
-711.9119940934065
 30
0.0
 40
8.640602347369643
100
AcDbArc
 50
359.4872346515785
 51
14.03924849832299
  0
ARC
  5
2B3
330
3C7
100
AcDbEntity
  8
DATA
  6
Continuous
 62
     7
100
AcDbCircle
 10
3.948685998762357
 20
-710.2207546889007
 30
0.0
 40
1.805560992012081
100
AcDbArc
 50
12.95738182260381
 51
37.1242893136652
  0
ARC
  5
2B4
330
3C7
100
AcDbEntity
  8
DATA
  6
Continuous
 62
     7
100
AcDbCircle
 10
5.047935881428657
 20
-709.4052254336909
 30
0.0
 40
0.4370881355851333
100
AcDbArc
 50
38.85533625328746
 51
63.38810004944265
  0
ARC
  5
2B5
330
3C7
100
AcDbEntity
  8
DATA
  6
Continuous
 62
     7
100
AcDbCircle
 10
5.132690881840971
 20
-709.2472409767826
 30
0.0
 40
0.2579234192316701
100
AcDbArc
 50
64.50062569676771
 51
89.67744468035144
  0
ARC
  5
2B6
330
3C7
100
AcDbEntity
  8
DATA
  6
Continuous
 62
     7
100
AcDbCircle
 10
12.94251921913337
 20
-712.0666491960366
 30
0.0
 40
8.640602347369643
100
AcDbArc
 50
179.4872346515785
 51
194.0392484983244
  0
ARC
  5
2B7
330
3C7
100
AcDbEntity
  8
DATA
  6
Continuous
 62
     7
100
AcDbCircle
 10
6.319599787944753
 20
-713.7578886005428
 30
0.0
 40
1.805560992011638
100
AcDbArc
 50
192.957381822607
 51
217.1242893136652
  0
ARC
  5
2B8
330
3C7
100
AcDbEntity
  8
DATA
  6
Continuous
 62
     7
100
AcDbCircle
 10
5.220349905278453
 20
-714.5734178557526
 30
0.0
 40
0.4370881355851333
100
AcDbArc
 50
218.8553362532874
 51
243.388100049436
  0
ARC
  5
2B9
330
3C7
100
AcDbEntity
  8
DATA
  6
Continuous
 62
     7
100
AcDbCircle
 10
5.135594904866593
 20
-714.7314023126606
 30
0.0
 40
0.2579234192318659
100
AcDbArc
 50
244.5006256966765
 51
269.6774446803514
  0
ARC
  5
2BA
330
3C7
100
AcDbEntity
  8
DATA
  6
Continuous
 62
     7
100
AcDbCircle
 10
-2.674233432426262
 20
-712.0666491960366
 30
0.0
 40
8.640602347369922
100
AcDbArc
 50
345.9607515016763
 51
0.5127653484214534
  0
ARC
  5
2BB
330
3C7
100
AcDbEntity
  8
DATA
  6
Continuous
 62
     7
100
AcDbCircle
 10
3.948685998762357
 20
-713.7578886005428
 30
0.0
 40
1.805560992011793
100
AcDbArc
 50
322.8757106863348
 51
347.0426181773961
  0
ARC
  5
2BC
330
3C7
100
AcDbEntity
  8
DATA
  6
Continuous
 62
     7
100
AcDbCircle
 10
5.047935881428657
 20
-714.5734178557526
 30
0.0
 40
0.4370881355851144
100
AcDbArc
 50
296.611899950564
 51
321.1446637467125
  0
ARC
  5
2BD
330
3C7
100
AcDbEntity
  8
DATA
  6
Continuous
 62
     7
100
AcDbCircle
 10
5.132690881840971
 20
-714.7314023126606
 30
0.0
 40
0.2579234192317703
100
AcDbArc
 50
270.3225553196485
 51
295.4993743032324
  0
ARC
  5
2BE
330
3C7
100
AcDbEntity
  8
DATA
  6
Continuous
 62
     7
100
AcDbCircle
 10
287.0574807808666
 20
-635.9119940934065
 30
0.0
 40
8.640602347369643
100
AcDbArc
 50
359.4872346515785
 51
14.03924849832367
  0
ARC
  5
2BF
330
3C7
100
AcDbEntity
  8
DATA
  6
Continuous
 62
     7
100
AcDbCircle
 10
293.6804002120553
 20
-634.2207546889008
 30
0.0
 40
1.805560992011638
100
AcDbArc
 50
12.95738182260704
 51
37.1242893136652
  0
ARC
  5
2C0
330
3C7
100
AcDbEntity
  8
DATA
  6
Continuous
 62
     7
100
AcDbCircle
 10
294.7796500947216
 20
-633.405225433691
 30
0.0
 40
0.4370881355851333
100
AcDbArc
 50
38.85533625328746
 51
63.38810004943598
  0
ARC
  5
2C1
330
3C7
100
AcDbEntity
  8
DATA
  6
Continuous
 62
     7
100
AcDbCircle
 10
294.8644050951333
 20
-633.2472409767825
 30
0.0
 40
0.2579234192317632
100
AcDbArc
 50
64.50062569666565
 51
89.67744468035144
  0
ARC
  5
2C2
330
3C7
100
AcDbEntity
  8
DATA
  6
Continuous
 62
     7
100
AcDbCircle
 10
302.6742334324262
 20
-635.9119940934065
 30
0.0
 40
8.640602347369897
100
AcDbArc
 50
165.960751501677
 51
180.5127653484215
  0
ARC
  5
2C3
330
3C7
100
AcDbEntity
  8
DATA
  6
Continuous
 62
     7
100
AcDbCircle
 10
296.0513140012377
 20
-634.2207546889008
 30
0.0
 40
1.805560992011793
100
AcDbArc
 50
142.8757106863348
 51
167.0426181773962
  0
ARC
  5
2C4
330
3C7
100
AcDbEntity
  8
DATA
  6
Continuous
 62
     7
100
AcDbCircle
 10
294.9520641185713
 20
-633.405225433691
 30
0.0
 40
0.4370881355851144
100
AcDbArc
 50
116.611899950564
 51
141.1446637467125
  0
ARC
  5
2C5
330
3C7
100
AcDbEntity
  8
DATA
  6
Continuous
 62
     7
100
AcDbCircle
 10
294.8673091181591
 20
-633.2472409767825
 30
0.0
 40
0.2579234192317703
100
AcDbArc
 50
90.32255531964857
 51
115.4993743032432
  0
ARC
  5
2C6
330
3C7
100
AcDbEntity
  8
DATA
  6
Continuous
 62
     7
100
AcDbCircle
 10
287.0574807808666
 20
-636.0666491960367
 30
0.0
 40
8.640602347369483
100
AcDbArc
 50
345.9607515016756
 51
0.5127653484214534
  0
ARC
  5
2C7
330
3C7
100
AcDbEntity
  8
DATA
  6
Continuous
 62
     7
100
AcDbCircle
 10
293.6804002120553
 20
-637.7578886005428
 30
0.0
 40
1.805560992011793
100
AcDbArc
 50
322.8757106863348
 51
347.042618177393
  0
ARC
  5
2C8
330
3C7
100
AcDbEntity
  8
DATA
  6
Continuous
 62
     7
100
AcDbCircle
 10
294.7796500947216
 20
-638.5734178557525
 30
0.0
 40
0.4370881355851144
100
AcDbArc
 50
296.611899950564
 51
321.1446637467125
  0
ARC
  5
2C9
330
3C7
100
AcDbEntity
  8
DATA
  6
Continuous
 62
     7
100
AcDbCircle
 10
294.8644050951333
 20
-638.7314023126607
 30
0.0
 40
0.2579234192317703
100
AcDbArc
 50
270.3225553196485
 51
295.4993743033234
  0
ARC
  5
2CA
330
3C7
100
AcDbEntity
  8
DATA
  6
Continuous
 62
     7
100
AcDbCircle
 10
302.6742334324262
 20
-636.0666491960367
 30
0.0
 40
8.640602347369643
100
AcDbArc
 50
179.4872346515785
 51
194.0392484983236
  0
ARC
  5
2CB
330
3C7
100
AcDbEntity
  8
DATA
  6
Continuous
 62
     7
100
AcDbCircle
 10
296.0513140012377
 20
-637.7578886005428
 30
0.0
 40
1.805560992012081
100
AcDbArc
 50
192.9573818226037
 51
217.1242893136652
  0
ARC
  5
2CC
330
3C7
100
AcDbEntity
  8
DATA
  6
Continuous
 62
     7
100
AcDbCircle
 10
294.9520641185713
 20
-638.5734178557525
 30
0.0
 40
0.4370881355851333
100
AcDbArc
 50
218.8553362532874
 51
243.388100049436
  0
ARC
  5
2CD
330
3C7
100
AcDbEntity
  8
DATA
  6
Continuous
 62
     7
100
AcDbCircle
 10
294.8673091181591
 20
-638.7314023126607
 30
0.0
 40
0.2579234192316701
100
AcDbArc
 50
244.5006256967677
 51
269.6774446803514
  0
ARC
  5
2CE
330
3C7
100
AcDbEntity
  8
DATA
  6
Continuous
 62
     7
100
AcDbCircle
 10
287.0574807808666
 20
-711.9119940934065
 30
0.0
 40
8.640602347369643
100
AcDbArc
 50
359.4872346515785
 51
14.03924849832367
  0
ARC
  5
2CF
330
3C7
100
AcDbEntity
  8
DATA
  6
Continuous
 62
     7
100
AcDbCircle
 10
293.6804002120553
 20
-710.2207546889007
 30
0.0
 40
1.805560992011638
100
AcDbArc
 50
12.95738182260704
 51
37.1242893136652
  0
ARC
  5
2D0
330
3C7
100
AcDbEntity
  8
DATA
  6
Continuous
 62
     7
100
AcDbCircle
 10
294.7796500947216
 20
-709.4052254336909
 30
0.0
 40
0.4370881355851333
100
AcDbArc
 50
38.85533625328746
 51
63.38810004944265
  0
ARC
  5
2D1
330
3C7
100
AcDbEntity
  8
DATA
  6
Continuous
 62
     7
100
AcDbCircle
 10
294.8644050951333
 20
-709.2472409767826
 30
0.0
 40
0.2579234192318659
100
AcDbArc
 50
64.50062569667652
 51
89.67744468035144
  0
ARC
  5
2D2
330
3C7
100
AcDbEntity
  8
DATA
  6
Continuous
 62
     7
100
AcDbCircle
 10
302.6742334324262
 20
-711.9119940934065
 30
0.0
 40
8.640602347369897
100
AcDbArc
 50
165.960751501677
 51
180.5127653484215
  0
ARC
  5
2D3
330
3C7
100
AcDbEntity
  8
DATA
  6
Continuous
 62
     7
100
AcDbCircle
 10
296.0513140012377
 20
-710.2207546889007
 30
0.0
 40
1.805560992011793
100
AcDbArc
 50
142.8757106863348
 51
167.0426181773962
  0
ARC
  5
2D4
330
3C7
100
AcDbEntity
  8
DATA
  6
Continuous
 62
     7
100
AcDbCircle
 10
294.9520641185713
 20
-709.4052254336909
 30
0.0
 40
0.437088135585216
100
AcDbArc
 50
116.6118999505573
 51
141.1446637467125
  0
ARC
  5
2D5
330
3C7
100
AcDbEntity
  8
DATA
  6
Continuous
 62
     7
100
AcDbCircle
 10
294.8673091181591
 20
-709.2472409767826
 30
0.0
 40
0.2579234192317703
100
AcDbArc
 50
90.32255531964857
 51
115.4993743032323
  0
ARC
  5
2D6
330
3C7
100
AcDbEntity
  8
DATA
  6
Continuous
 62
     7
100
AcDbCircle
 10
287.0574807808666
 20
-712.0666491960366
 30
0.0
 40
8.640602347369483
100
AcDbArc
 50
345.9607515016756
 51
0.5127653484214534
  0
ARC
  5
2D7
330
3C7
100
AcDbEntity
  8
DATA
  6
Continuous
 62
     7
100
AcDbCircle
 10
293.6804002120553
 20
-713.7578886005428
 30
0.0
 40
1.805560992011793
100
AcDbArc
 50
322.8757106863348
 51
347.042618177393
  0
ARC
  5
2D8
330
3C7
100
AcDbEntity
  8
DATA
  6
Continuous
 62
     7
100
AcDbCircle
 10
294.7796500947216
 20
-714.5734178557526
 30
0.0
 40
0.4370881355851144
100
AcDbArc
 50
296.611899950564
 51
321.1446637467125
  0
ARC
  5
2D9
330
3C7
100
AcDbEntity
  8
DATA
  6
Continuous
 62
     7
100
AcDbCircle
 10
294.8644050951333
 20
-714.7314023126606
 30
0.0
 40
0.2579234192317703
100
AcDbArc
 50
270.3225553196485
 51
295.4993743033234
  0
ARC
  5
2DA
330
3C7
100
AcDbEntity
  8
DATA
  6
Continuous
 62
     7
100
AcDbCircle
 10
302.6742334324262
 20
-712.0666491960366
 30
0.0
 40
8.640602347369643
100
AcDbArc
 50
179.4872346515785
 51
194.0392484983236
  0
ARC
  5
2DB
330
3C7
100
AcDbEntity
  8
DATA
  6
Continuous
 62
     7
100
AcDbCircle
 10
296.0513140012377
 20
-713.7578886005428
 30
0.0
 40
1.805560992012081
100
AcDbArc
 50
192.9573818226037
 51
217.1242893136652
  0
ARC
  5
2DC
330
3C7
100
AcDbEntity
  8
DATA
  6
Continuous
 62
     7
100
AcDbCircle
 10
294.9520641185713
 20
-714.5734178557526
 30
0.0
 40
0.4370881355851333
100
AcDbArc
 50
218.8553362532874
 51
243.388100049436
  0
ARC
  5
2DD
330
3C7
100
AcDbEntity
  8
DATA
  6
Continuous
 62
     7
100
AcDbCircle
 10
294.8673091181591
 20
-714.7314023126606
 30
0.0
 40
0.2579234192316701
100
AcDbArc
 50
244.5006256967677
 51
269.6774446803514
  0
TEXT
  5
2DE
330
3C7
100
AcDbEntity
  8
DATA
 62
     7
100
AcDbText
 10
749.9999999999996
 20
-1625.163656111111
 30
0.0
 40
36.64892578125
  1
CODA AUDIO
 41
0.7
 11
749.9999999999996
 21
-1588.514730329861
 31
0.0
100
AcDbText
 73
     3
  0
TEXT
  5
2DF
330
3C7
100
AcDbEntity
  8
DATA
 62
     7
100
AcDbText
 10
637.5
 20
-1679.222981111111
 30
0.0
 40
28.50472005208334
  1
2-Wayフルレンジ・スピーカーシステム
 41
0.7
 11
637.5
 21
-1650.718261059028
 31
0.0
100
AcDbText
 73
     3
  0
TEXT
  5
2E0
330
3C7
100
AcDbEntity
  8
DATA
 62
     7
100
AcDbText
 10
749.9999999999996
 20
-1733.913656111111
 30
0.0
 40
36.64892578125
  1
D12
 41
0.7
 11
749.9999999999996
 21
-1697.264730329861
 31
0.0
100
AcDbText
 73
     3
  0
LINE
  5
2E1
330
3C7
100
AcDbEntity
  8
DATA
  6
STYLE_06
 62
     7
100
AcDbLine
 10
-800.0
 20
-275.0
 30
0.0
 11
-800.0
 21
200.0
 31
0.0
  0
LINE
  5
2E2
330
3C7
100
AcDbEntity
  8
DATA
  6
STYLE_06
 62
     7
100
AcDbLine
 10
150.0
 20
-925.0
 30
0.0
 11
150.0
 21
-425.0
 31
0.0
  0
CIRCLE
  5
2E3
330
3C7
100
AcDbEntity
  8
DATA
  6
Continuous
 62
     7
100
AcDbCircle
 10
165.0
 20
-838.0
 30
0.0
 40
5.0
  0
CIRCLE
  5
2E4
330
3C7
100
AcDbEntity
  8
DATA
  6
Continuous
 62
     7
100
AcDbCircle
 10
165.0
 20
-833.75
 30
0.0
 40
0.75
  0
CIRCLE
  5
2E5
330
3C7
100
AcDbEntity
  8
DATA
  6
Continuous
 62
     7
100
AcDbCircle
 10
160.75
 20
-838.0
 30
0.0
 40
0.75
  0
CIRCLE
  5
2E6
330
3C7
100
AcDbEntity
  8
DATA
  6
Continuous
 62
     7
100
AcDbCircle
 10
169.25
 20
-838.0
 30
0.0
 40
0.75
  0
CIRCLE
  5
2E7
330
3C7
100
AcDbEntity
  8
DATA
  6
Continuous
 62
     7
100
AcDbCircle
 10
165.0
 20
-842.2499999999999
 30
0.0
 40
0.75
  0
TEXT
  5
2E8
330
3C7
100
AcDbEntity
  8
DATA
 62
     7
100
AcDbText
 10
164.1022135416666
 20
-836.7119140625
 30
0.0
 40
1.923828125
  1
1+
 41
0.7
 72
     1
 11
165.0
 21
-835.7499999999999
 31
0.0
100
AcDbText
 73
     2
  0
TEXT
  5
2E9
330
3C7
100
AcDbEntity
  8
DATA
 62
     7
100
AcDbText
 10
161.8522135764359
 20
-838.9619140624999
 30
0.0
 40
1.923828125
  1
1-
 41
0.7
 72
     1
 11
162.7500000347693
 21
-838.0
 31
0.0
100
AcDbText
 73
     2
  0
TEXT
  5
2EA
330
3C7
100
AcDbEntity
  8
DATA
 62
     7
100
AcDbText
 10
163.8777669270833
 20
-841.2119140625
 30
0.0
 40
1.923828125
  1
2+
 41
0.7
 72
     1
 11
165.0
 21
-840.2499999999999
 31
0.0
100
AcDbText
 73
     2
  0
TEXT
  5
2EB
330
3C7
100
AcDbEntity
  8
DATA
 62
     7
100
AcDbText
 10
166.127766892314
 20
-838.9619140624999
 30
0.0
 40
1.923828125
  1
2-
 41
0.7
 72
     1
 11
167.2499999652307
 21
-838.0
 31
0.0
100
AcDbText
 73
     2
  0
LINE
  5
2EC
330
3C7
100
AcDbEntity
  8
DATA
  6
Continuous
 62
     7
100
AcDbLine
 10
165.0
 20
-833.0
 30
0.0
 11
165.0
 21
-832.0
 31
0.0
  0
LINE
  5
2ED
330
3C7
100
AcDbEntity
  8
DATA
  6
Continuous
 62
     7
100
AcDbLine
 10
160.0
 20
-838.0
 30
0.0
 11
159.0
 21
-838.0
 31
0.0
  0
TEXT
  5
2EE
330
3C7
100
AcDbEntity
  8
DATA
 62
     7
100
AcDbText
 10
123.76215193669
 20
-794.1376994294759
 30
0.0
 40
3.230534939236111
  1
Ser.N:
 41
0.7
 11
123.76215193669
 21
-792.5224319598578
 31
0.0
100
AcDbText
 73
     2
  0
TEXT
  5
2EF
330
3C7
100
AcDbEntity
  8
DATA
 62
     7
100
AcDbText
 10
123.76215193669
 20
-780.6376994294759
 30
0.0
 40
3.230534939236111
  1
Power handling RMS:  600W
 41
0.7
 11
123.76215193669
 21
-779.0224319598578
 31
0.0
100
AcDbText
 73
     2
  0
TEXT
  5
2F0
330
3C7
100
AcDbEntity
  8
DATA
 62
     7
100
AcDbText
 10
123.76215193669
 20
-767.1376994294758
 30
0.0
 40
3.230534939236111
  1
Model:                D12
 41
0.7
 11
123.76215193669
 21
-765.5224319598578
 31
0.0
100
AcDbText
 73
     2
  0
TEXT
  5
2F1
330
3C7
100
AcDbEntity
  8
DATA
 62
     7
100
AcDbText
 10
123.76215193669
 20
-771.6376994294758
 30
0.0
 40
3.230534939236111
  1
Ver.:                 1.0
 41
0.7
 11
123.76215193669
 21
-770.0224319598578
 31
0.0
100
AcDbText
 73
     2
  0
TEXT
  5
2F2
330
3C7
100
AcDbEntity
  8
DATA
 62
     7
100
AcDbText
 10
123.76215193669
 20
-776.1376994294758
 30
0.0
 40
3.230534939236111
  1
Impedance:            4Ω
 41
0.7
 11
123.76215193669
 21
-774.5224319598578
 31
0.0
100
AcDbText
 73
     2
  0
TEXT
  5
2F3
330
3C7
100
AcDbEntity
  8
DATA
 62
     7
100
AcDbText
 10
123.76215193669
 20
-785.1376994294759
 30
0.0
 40
3.230534939236111
  1
Peak power:         2400W
 41
0.7
 11
123.76215193669
 21
-783.5224319598578
 31
0.0
100
AcDbText
 73
     2
  0
TEXT
  5
2F4
330
3C7
100
AcDbEntity
  8
DATA
 62
     7
100
AcDbText
 10
123.76215193669
 20
-789.6376994294759
 30
0.0
 40
3.230534939236111
  1
Weight:              19kg
 41
0.7
 11
123.76215193669
 21
-788.0224319598578
 31
0.0
100
AcDbText
 73
     2
  0
LINE
  5
2F5
330
3C7
100
AcDbEntity
  8
DATA
  6
Continuous
 62
     7
100
AcDbLine
 10
550.0
 20
-645.1324820345803
 30
0.0
 11
550.0
 21
154.8675179654197
 31
0.0
  0
LINE
  5
2F6
330
3C7
100
AcDbEntity
  8
DATA
  6
Continuous
 62
     7
100
AcDbLine
 10
1250.0
 20
154.8675179654197
 30
0.0
 11
1250.0
 21
-645.1324820345803
 31
0.0
  0
ARC
  5
2F7
330
3C7
100
AcDbEntity
  8
DATA
  6
Continuous
 62
     7
100
AcDbCircle
 10
900.0
 20
154.8675179654197
 30
0.0
 40
350.0
100
AcDbArc
 50
0.0
 51
180.0
  0
ARC
  5
2F8
330
3C7
100
AcDbEntity
  8
DATA
  6
Continuous
 62
     7
100
AcDbCircle
 10
900.0
 20
-645.1324820345803
 30
0.0
 40
350.0
100
AcDbArc
 50
180.0
 51
0.0
  0
CIRCLE
  5
2F9
330
3C7
100
AcDbEntity
  8
DATA
  6
Continuous
 62
     7
100
AcDbCircle
 10
900.0
 20
154.8675179654197
 30
0.0
 40
117.5
  0
ARC
  5
2FA
330
3C7
100
AcDbEntity
  8
DATA
  6
Continuous
 62
     7
100
AcDbCircle
 10
900.0
 20
154.8675179654197
 30
0.0
 40
88.00002677414211
100
AcDbArc
 50
109.9322641506793
 51
257.1961668197014
  0
ARC
  5
2FB
330
3C7
100
AcDbEntity
  8
DATA
  6
Continuous
 62
     7
100
AcDbCircle
 10
900.0
 20
154.8675179654197
 30
0.0
 40
88.00003504346028
100
AcDbArc
 50
282.9999995554241
 51
69.99999423796149
  0
ARC
  5
2FC
330
3C7
100
AcDbEntity
  8
DATA
  6
Continuous
 62
     7
100
AcDbCircle
 10
900.0
 20
154.8675179654197
 30
0.0
 40
62.00002162064247
100
AcDbArc
 50
60.0000115355575
 51
150.0000115355601
  0
ARC
  5
2FD
330
3C7
100
AcDbEntity
  8
DATA
  6
Continuous
 62
     7
100
AcDbCircle
 10
900.0
 20
154.8675179654197
 30
0.0
 40
62.0000216206399
100
AcDbArc
 50
240.0000115355659
 51
330.0000115355644
  0
ARC
  5
2FE
330
3C7
100
AcDbEntity
  8
DATA
  6
Continuous
 62
     7
100
AcDbCircle
 10
900.0
 20
154.8675179654197
 30
0.0
 40
56.25003831580524
100
AcDbArc
 50
149.999669682101
 51
240.000212604301
  0
ARC
  5
2FF
330
3C7
100
AcDbEntity
  8
DATA
  6
Continuous
 62
     7
100
AcDbCircle
 10
900.0
 20
154.8675179654197
 30
0.0
 40
56.2499615203426
100
AcDbArc
 50
330.0002126043024
 51
60.00071824312572
  0
ARC
  5
300
330
3C7
100
AcDbEntity
  8
DATA
  6
Continuous
 62
     7
100
AcDbCircle
 10
900.0
 20
154.8675179654197
 30
0.0
 40
35.99990080875371
100
AcDbArc
 50
59.99990885470324
 51
149.9999088547081
  0
ARC
  5
301
330
3C7
100
AcDbEntity
  8
DATA
  6
Continuous
 62
     7
100
AcDbCircle
 10
900.0
 20
154.8675179654197
 30
0.0
 40
35.99990080875371
100
AcDbArc
 50
239.9999088547033
 51
329.999908854708
  0
ARC
  5
302
330
3C7
100
AcDbEntity
  8
DATA
  6
Continuous
 62
     7
100
AcDbCircle
 10
900.0
 20
154.8675179654197
 30
0.0
 40
29.00001820861043
100
AcDbArc
 50
149.9997926340248
 51
240.00023362383
  0
ARC
  5
303
330
3C7
100
AcDbEntity
  8
DATA
  6
Continuous
 62
     7
100
AcDbCircle
 10
900.0
 20
154.8675179654197
 30
0.0
 40
29.00000481120789
100
AcDbArc
 50
330.0002336238303
 51
59.99979263402253
  0
LINE
  5
304
330
3C7
100
AcDbEntity
  8
DATA
  6
Continuous
 62
     7
100
AcDbLine
 10
870.0
 20
254.8675179654197
 30
0.0
 11
930.0
 21
254.8675179654197
 31
0.0
  0
LINE
  5
305
330
3C7
100
AcDbEntity
  8
DATA
  6
Continuous
 62
     7
100
AcDbLine
 10
880.0
 20
54.86751796541967
 30
0.0
 11
920.0
 21
54.86751796541967
 31
0.0
  0
LINE
  5
306
330
3C7
100
AcDbEntity
  8
DATA
  6
Continuous
 62
     7
100
AcDbLine
 10
880.0
 20
54.86751796541967
 30
0.0
 11
880.0
 21
66.86751796542011
 31
0.0
  0
LINE
  5
307
330
3C7
100
AcDbEntity
  8
DATA
  6
Continuous
 62
     7
100
AcDbLine
 10
920.0
 20
54.86751796541967
 30
0.0
 11
920.0
 21
66.86751796542011
 31
0.0
  0
LINE
  5
308
330
3C7
100
AcDbEntity
  8
DATA
  6
Continuous
 62
     7
100
AcDbLine
 10
870.0
 20
254.8675179654197
 30
0.0
 11
870.0
 21
237.596017965418
 31
0.0
  0
LINE
  5
309
330
3C7
100
AcDbEntity
  8
DATA
  6
Continuous
 62
     7
100
AcDbLine
 10
930.0
 20
254.8675179654197
 30
0.0
 11
930.0
 21
237.596017965418
 31
0.0
  0
LINE
  5
30A
330
3C7
100
AcDbEntity
  8
DATA
  6
Continuous
 62
     7
100
AcDbLine
 10
846.3065999999981
 20
185.8678179654202
 30
0.0
 11
851.2862000000041
 21
182.9928179654189
 31
0.0
  0
LINE
  5
30B
330
3C7
100
AcDbEntity
  8
DATA
  6
Continuous
 62
     7
100
AcDbLine
 10
930.9997000000018
 20
208.5613179654206
 30
0.0
 11
928.1246999999984
 21
203.5816179654193
 31
0.0
  0
LINE
  5
30C
330
3C7
100
AcDbEntity
  8
DATA
  6
Continuous
 62
     7
100
AcDbLine
 10
869.0000000000054
 20
101.1739179654182
 30
0.0
 11
871.875
 21
106.1536179654195
 31
0.0
  0
LINE
  5
30D
330
3C7
100
AcDbEntity
  8
DATA
  6
Continuous
 62
     7
100
AcDbLine
 10
953.6937000000033
 20
123.86771796542
 30
0.0
 11
948.714
 21
126.7427179654191
 31
0.0
  0
LINE
  5
30E
330
3C7
100
AcDbEntity
  8
DATA
  6
Continuous
 62
     7
100
AcDbLine
 10
917.9997999999976
 20
186.04441796542
 30
0.0
 11
914.4999000000007
 21
179.9823179654186
 31
0.0
  0
LINE
  5
30F
330
3C7
100
AcDbEntity
  8
DATA
  6
Continuous
 62
     7
100
AcDbLine
 10
868.8233000000035
 20
172.8676179654189
 30
0.0
 11
874.8853000000051
 21
169.3676179654199
 31
0.0
  0
LINE
  5
310
330
3C7
100
AcDbEntity
  8
DATA
  6
Continuous
 62
     7
100
AcDbLine
 10
881.9999999999982
 20
123.690717965419
 30
0.0
 11
885.5000000000016
 21
129.7528179654204
 31
0.0
  0
LINE
  5
311
330
3C7
100
AcDbEntity
  8
DATA
  6
Continuous
 62
     7
100
AcDbLine
 10
931.1769000000005
 20
136.8677179654196
 30
0.0
 11
925.1148000000013
 21
140.3676179654189
 31
0.0
  0
CIRCLE
  5
312
330
3C7
100
AcDbEntity
  8
DATA
  6
Continuous
 62
     7
100
AcDbCircle
 10
805.0
 20
274.8675179654197
 30
0.0
 40
20.0
  0
CIRCLE
  5
313
330
3C7
100
AcDbEntity
  8
DATA
  6
Continuous
 62
     7
100
AcDbCircle
 10
805.0
 20
274.8675179654197
 30
0.0
 40
10.0
  0
CIRCLE
  5
314
330
3C7
100
AcDbEntity
  8
DATA
  6
Continuous
 62
     7
100
AcDbCircle
 10
995.0
 20
34.86751796541966
 30
0.0
 40
20.0
  0
CIRCLE
  5
315
330
3C7
100
AcDbEntity
  8
DATA
  6
Continuous
 62
     7
100
AcDbCircle
 10
995.0
 20
34.86751796541966
 30
0.0
 40
10.0
  0
CIRCLE
  5
316
330
3C7
100
AcDbEntity
  8
DATA
  6
Continuous
 62
     7
100
AcDbCircle
 10
900.0
 20
-545.1324820345803
 30
0.0
 40
117.5
  0
ARC
  5
317
330
3C7
100
AcDbEntity
  8
DATA
  6
Continuous
 62
     7
100
AcDbCircle
 10
900.0
 20
-545.1324820345803
 30
0.0
 40
88.00002677414211
100
AcDbArc
 50
109.9322641506793
 51
257.1961668197014
  0
ARC
  5
318
330
3C7
100
AcDbEntity
  8
DATA
  6
Continuous
 62
     7
100
AcDbCircle
 10
900.0
 20
-545.1324820345803
 30
0.0
 40
88.00003504346028
100
AcDbArc
 50
282.9999995554241
 51
69.99999423796149
  0
ARC
  5
319
330
3C7
100
AcDbEntity
  8
DATA
  6
Continuous
 62
     7
100
AcDbCircle
 10
900.0
 20
-545.1324820345803
 30
0.0
 40
62.00002162064247
100
AcDbArc
 50
60.0000115355575
 51
150.0000115355601
  0
ARC
  5
31A
330
3C7
100
AcDbEntity
  8
DATA
  6
Continuous
 62
     7
100
AcDbCircle
 10
900.0
 20
-545.1324820345803
 30
0.0
 40
62.0000216206399
100
AcDbArc
 50
240.0000115355659
 51
330.0000115355644
  0
ARC
  5
31B
330
3C7
100
AcDbEntity
  8
DATA
  6
Continuous
 62
     7
100
AcDbCircle
 10
900.0
 20
-545.1324820345803
 30
0.0
 40
56.25003831580524
100
AcDbArc
 50
149.999669682101
 51
240.000212604301
  0
ARC
  5
31C
330
3C7
100
AcDbEntity
  8
DATA
  6
Continuous
 62
     7
100
AcDbCircle
 10
900.0
 20
-545.1324820345803
 30
0.0
 40
56.2499615203426
100
AcDbArc
 50
330.0002126043024
 51
60.00071824312572
  0
ARC
  5
31D
330
3C7
100
AcDbEntity
  8
DATA
  6
Continuous
 62
     7
100
AcDbCircle
 10
900.0
 20
-545.1324820345803
 30
0.0
 40
35.99990080875371
100
AcDbArc
 50
59.99990885470324
 51
149.9999088547081
  0
ARC
  5
31E
330
3C7
100
AcDbEntity
  8
DATA
  6
Continuous
 62
     7
100
AcDbCircle
 10
900.0
 20
-545.1324820345803
 30
0.0
 40
35.99990080875371
100
AcDbArc
 50
239.9999088547033
 51
329.999908854708
  0
ARC
  5
31F
330
3C7
100
AcDbEntity
  8
DATA
  6
Continuous
 62
     7
100
AcDbCircle
 10
900.0
 20
-545.1324820345803
 30
0.0
 40
29.00001820861043
100
AcDbArc
 50
149.9997926340248
 51
240.00023362383
  0
ARC
  5
320
330
3C7
100
AcDbEntity
  8
DATA
  6
Continuous
 62
     7
100
AcDbCircle
 10
900.0
 20
-545.1324820345803
 30
0.0
 40
29.00000481120789
100
AcDbArc
 50
330.0002336238303
 51
59.99979263402253
  0
LINE
  5
321
330
3C7
100
AcDbEntity
  8
DATA
  6
Continuous
 62
     7
100
AcDbLine
 10
870.0
 20
-445.1324820345803
 30
0.0
 11
930.0
 21
-445.1324820345803
 31
0.0
  0
LINE
  5
322
330
3C7
100
AcDbEntity
  8
DATA
  6
Continuous
 62
     7
100
AcDbLine
 10
880.0
 20
-645.1324820345803
 30
0.0
 11
920.0
 21
-645.1324820345803
 31
0.0
  0
LINE
  5
323
330
3C7
100
AcDbEntity
  8
DATA
  6
Continuous
 62
     7
100
AcDbLine
 10
880.0
 20
-645.1324820345803
 30
0.0
 11
880.0
 21
-633.1324820345798
 31
0.0
  0
LINE
  5
324
330
3C7
100
AcDbEntity
  8
DATA
  6
Continuous
 62
     7
100
AcDbLine
 10
920.0
 20
-645.1324820345803
 30
0.0
 11
920.0
 21
-633.1324820345798
 31
0.0
  0
LINE
  5
325
330
3C7
100
AcDbEntity
  8
DATA
  6
Continuous
 62
     7
100
AcDbLine
 10
870.0
 20
-445.1324820345803
 30
0.0
 11
870.0
 21
-462.403982034582
 31
0.0
  0
LINE
  5
326
330
3C7
100
AcDbEntity
  8
DATA
  6
Continuous
 62
     7
100
AcDbLine
 10
930.0
 20
-445.1324820345803
 30
0.0
 11
930.0
 21
-462.403982034582
 31
0.0
  0
LINE
  5
327
330
3C7
100
AcDbEntity
  8
DATA
  6
Continuous
 62
     7
100
AcDbLine
 10
846.3065999999981
 20
-514.1321820345797
 30
0.0
 11
851.2862000000041
 21
-517.007182034581
 31
0.0
  0
LINE
  5
328
330
3C7
100
AcDbEntity
  8
DATA
  6
Continuous
 62
     7
100
AcDbLine
 10
930.9997000000018
 20
-491.4386820345794
 30
0.0
 11
928.1246999999984
 21
-496.4183820345807
 31
0.0
  0
LINE
  5
329
330
3C7
100
AcDbEntity
  8
DATA
  6
Continuous
 62
     7
100
AcDbLine
 10
869.0000000000054
 20
-598.8260820345817
 30
0.0
 11
871.875
 21
-593.8463820345805
 31
0.0
  0
LINE
  5
32A
330
3C7
100
AcDbEntity
  8
DATA
  6
Continuous
 62
     7
100
AcDbLine
 10
953.6937000000033
 20
-576.1322820345798
 30
0.0
 11
948.714
 21
-573.2572820345807
 31
0.0
  0
LINE
  5
32B
330
3C7
100
AcDbEntity
  8
DATA
  6
Continuous
 62
     7
100
AcDbLine
 10
917.9997999999976
 20
-513.9555820345799
 30
0.0
 11
914.4999000000007
 21
-520.0176820345814
 31
0.0
  0
LINE
  5
32C
330
3C7
100
AcDbEntity
  8
DATA
  6
Continuous
 62
     7
100
AcDbLine
 10
868.8233000000035
 20
-527.1323820345809
 30
0.0
 11
874.8853000000051
 21
-530.6323820345801
 31
0.0
  0
LINE
  5
32D
330
3C7
100
AcDbEntity
  8
DATA
  6
Continuous
 62
     7
100
AcDbLine
 10
881.9999999999982
 20
-576.309282034581
 30
0.0
 11
885.5000000000016
 21
-570.2471820345794
 31
0.0
  0
LINE
  5
32E
330
3C7
100
AcDbEntity
  8
DATA
  6
Continuous
 62
     7
100
AcDbLine
 10
931.1769000000005
 20
-563.1322820345803
 30
0.0
 11
925.1148000000013
 21
-559.6323820345808
 31
0.0
  0
CIRCLE
  5
32F
330
3C7
100
AcDbEntity
  8
DATA
  6
Continuous
 62
     7
100
AcDbCircle
 10
805.0
 20
-425.1324820345803
 30
0.0
 40
20.0
  0
CIRCLE
  5
330
330
3C7
100
AcDbEntity
  8
DATA
  6
Continuous
 62
     7
100
AcDbCircle
 10
805.0
 20
-425.1324820345803
 30
0.0
 40
10.0
  0
CIRCLE
  5
331
330
3C7
100
AcDbEntity
  8
DATA
  6
Continuous
 62
     7
100
AcDbCircle
 10
995.0
 20
-665.1324820345803
 30
0.0
 40
20.0
  0
CIRCLE
  5
332
330
3C7
100
AcDbEntity
  8
DATA
  6
Continuous
 62
     7
100
AcDbCircle
 10
995.0
 20
-665.1324820345803
 30
0.0
 40
10.0
  0
CIRCLE
  5
333
330
3C7
100
AcDbEntity
  8
DATA
  6
Continuous
 62
     7
100
AcDbCircle
 10
750.0
 20
-785.1324820345803
 30
0.0
 40
50.0
  0
CIRCLE
  5
334
330
3C7
100
AcDbEntity
  8
DATA
  6
Continuous
 62
     7
100
AcDbCircle
 10
750.0
 20
-742.6324820345803
 30
0.0
 40
7.5
  0
CIRCLE
  5
335
330
3C7
100
AcDbEntity
  8
DATA
  6
Continuous
 62
     7
100
AcDbCircle
 10
707.5
 20
-785.1324820345803
 30
0.0
 40
7.5
  0
CIRCLE
  5
336
330
3C7
100
AcDbEntity
  8
DATA
  6
Continuous
 62
     7
100
AcDbCircle
 10
792.4999999999999
 20
-785.1324820345803
 30
0.0
 40
7.5
  0
CIRCLE
  5
337
330
3C7
100
AcDbEntity
  8
DATA
  6
Continuous
 62
     7
100
AcDbCircle
 10
750.0
 20
-827.6324820345802
 30
0.0
 40
7.5
  0
TEXT
  5
338
330
3C7
100
AcDbEntity
  8
DATA
 62
     7
100
AcDbText
 10
741.0221354166666
 20
-772.2516226595803
 30
0.0
 40
19.23828125
  1
1+
 41
0.7
 72
     1
 11
750.0
 21
-762.6324820345803
 31
0.0
100
AcDbText
 73
     2
  0
TEXT
  5
339
330
3C7
100
AcDbEntity
  8
DATA
 62
     7
100
AcDbText
 10
718.5221357643573
 20
-794.7516226595803
 30
0.0
 40
19.23828125
  1
1-
 41
0.7
 72
     1
 11
727.5000003476907
 21
-785.1324820345803
 31
0.0
100
AcDbText
 73
     2
  0
TEXT
  5
33A
330
3C7
100
AcDbEntity
  8
DATA
 62
     7
100
AcDbText
 10
738.7776692708333
 20
-817.2516226595803
 30
0.0
 40
19.23828125
  1
2+
 41
0.7
 72
     1
 11
750.0
 21
-807.6324820345803
 31
0.0
100
AcDbText
 73
     2
  0
TEXT
  5
33B
330
3C7
100
AcDbEntity
  8
DATA
 62
     7
100
AcDbText
 10
761.2776689231425
 20
-794.7516226595803
 30
0.0
 40
19.23828125
  1
2-
 41
0.7
 72
     1
 11
772.4999996523091
 21
-785.1324820345803
 31
0.0
100
AcDbText
 73
     2
  0
LINE
  5
33C
330
3C7
100
AcDbEntity
  8
DATA
  6
Continuous
 62
     7
100
AcDbLine
 10
750.0
 20
-725.1324820345803
 30
0.0
 11
987.5
 21
-725.1324820345803
 31
0.0
  0
LINE
  5
33D
330
3C7
100
AcDbEntity
  8
DATA
  6
Continuous
 62
     7
100
AcDbLine
 10
992.5
 20
-725.1324820345803
 30
0.0
 11
1100.0
 21
-725.1324820345803
 31
0.0
  0
LINE
  5
33E
330
3C7
100
AcDbEntity
  8
DATA
  6
Continuous
 62
     7
100
AcDbLine
 10
690.0
 20
-695.1324820345803
 30
0.0
 11
1100.0
 21
-695.1324820345803
 31
0.0
  0
LINE
  5
33F
330
3C7
100
AcDbEntity
  8
DATA
  6
Continuous
 62
     7
100
AcDbLine
 10
750.0
 20
-735.1324820345803
 30
0.0
 11
750.0
 21
-725.1324820345803
 31
0.0
  0
LINE
  5
340
330
3C7
100
AcDbEntity
  8
DATA
  6
Continuous
 62
     7
100
AcDbLine
 10
700.0
 20
-785.1324820345803
 30
0.0
 11
690.0
 21
-785.1324820345803
 31
0.0
  0
LINE
  5
341
330
3C7
100
AcDbEntity
  8
DATA
  6
Continuous
 62
     7
100
AcDbLine
 10
690.0
 20
-785.1324820345803
 30
0.0
 11
690.0
 21
-695.1324820345803
 31
0.0
  0
LINE
  5
342
330
3C7
100
AcDbEntity
  8
DATA
  6
Continuous
 62
     7
100
AcDbLine
 10
990.0
 20
-785.1324820345803
 30
0.0
 11
990.0
 21
-695.1324820345803
 31
0.0
  0
TEXT
  5
343
330
3C7
100
AcDbEntity
  8
DATA
 62
     7
100
AcDbText
 10
1110.0
 20
-706.6754507845803
 30
0.0
 40
23.0859375
  1
-
 41
0.7
 11
1110.0
 21
-695.1324820345803
 31
0.0
100
AcDbText
 73
     2
  0
TEXT
  5
344
330
3C7
100
AcDbEntity
  8
DATA
 62
     7
100
AcDbText
 10
1110.0
 20
-736.6754507845803
 30
0.0
 40
23.0859375
  1
+
 41
0.7
 11
1110.0
 21
-725.1324820345803
 31
0.0
100
AcDbText
 73
     2
  0
CIRCLE
  5
345
330
3C7
100
AcDbEntity
  8
DATA
  6
Continuous
 62
     7
100
AcDbCircle
 10
1050.0
 20
-785.1324820345803
 30
0.0
 40
50.0
  0
CIRCLE
  5
346
330
3C7
100
AcDbEntity
  8
DATA
  6
Continuous
 62
     7
100
AcDbCircle
 10
1050.0
 20
-742.6324820345803
 30
0.0
 40
7.5
  0
CIRCLE
  5
347
330
3C7
100
AcDbEntity
  8
DATA
  6
Continuous
 62
     7
100
AcDbCircle
 10
1007.5
 20
-785.1324820345803
 30
0.0
 40
7.5
  0
CIRCLE
  5
348
330
3C7
100
AcDbEntity
  8
DATA
  6
Continuous
 62
     7
100
AcDbCircle
 10
1092.5
 20
-785.1324820345803
 30
0.0
 40
7.5
  0
CIRCLE
  5
349
330
3C7
100
AcDbEntity
  8
DATA
  6
Continuous
 62
     7
100
AcDbCircle
 10
1050.0
 20
-827.6324820345802
 30
0.0
 40
7.5
  0
TEXT
  5
34A
330
3C7
100
AcDbEntity
  8
DATA
 62
     7
100
AcDbText
 10
1041.022135416667
 20
-772.2516226595803
 30
0.0
 40
19.23828125
  1
1+
 41
0.7
 72
     1
 11
1050.0
 21
-762.6324820345803
 31
0.0
100
AcDbText
 73
     2
  0
TEXT
  5
34B
330
3C7
100
AcDbEntity
  8
DATA
 62
     7
100
AcDbText
 10
1018.522135764357
 20
-794.7516226595803
 30
0.0
 40
19.23828125
  1
1-
 41
0.7
 72
     1
 11
1027.500000347691
 21
-785.1324820345803
 31
0.0
100
AcDbText
 73
     2
  0
TEXT
  5
34C
330
3C7
100
AcDbEntity
  8
DATA
 62
     7
100
AcDbText
 10
1038.777669270833
 20
-817.2516226595803
 30
0.0
 40
19.23828125
  1
2+
 41
0.7
 72
     1
 11
1050.0
 21
-807.6324820345803
 31
0.0
100
AcDbText
 73
     2
  0
TEXT
  5
34D
330
3C7
100
AcDbEntity
  8
DATA
 62
     7
100
AcDbText
 10
1061.277668923142
 20
-794.7516226595803
 30
0.0
 40
19.23828125
  1
2-
 41
0.7
 72
     1
 11
1072.499999652309
 21
-785.1324820345803
 31
0.0
100
AcDbText
 73
     2
  0
LINE
  5
34E
330
3C7
100
AcDbEntity
  8
DATA
  6
Continuous
 62
     7
100
AcDbLine
 10
1050.0
 20
-735.1324820345803
 30
0.0
 11
1050.0
 21
-725.1324820345803
 31
0.0
  0
LINE
  5
34F
330
3C7
100
AcDbEntity
  8
DATA
  6
Continuous
 62
     7
100
AcDbLine
 10
1000.0
 20
-785.1324820345803
 30
0.0
 11
990.0
 21
-785.1324820345803
 31
0.0
  0
TEXT
  5
350
330
3C7
100
AcDbEntity
  8
DATA
 62
     7
100
AcDbText
 10
637.6215193668985
 20
-346.5094763293393
 30
0.0
 40
32.30534939236112
  1
Ser.N:
 41
0.7
 11
637.6215193668985
 21
-330.3568016331587
 31
0.0
100
AcDbText
 73
     2
  0
TEXT
  5
351
330
3C7
100
AcDbEntity
  8
DATA
 62
     7
100
AcDbText
 10
637.6215193668985
 20
-211.5094763293393
 30
0.0
 40
32.30534939236112
  1
Power handling RMS:  600W
 41
0.7
 11
637.6215193668985
 21
-195.3568016331587
 31
0.0
100
AcDbText
 73
     2
  0
TEXT
  5
352
330
3C7
100
AcDbEntity
  8
DATA
 62
     7
100
AcDbText
 10
637.6215193668985
 20
-76.50947632933929
 30
0.0
 40
32.30534939236112
  1
Model:                D12
 41
0.7
 11
637.6215193668985
 21
-60.35680163315873
 31
0.0
100
AcDbText
 73
     2
  0
TEXT
  5
353
330
3C7
100
AcDbEntity
  8
DATA
 62
     7
100
AcDbText
 10
637.6215193668985
 20
-121.5094763293393
 30
0.0
 40
32.30534939236112
  1
Ver.:                 1.0
 41
0.7
 11
637.6215193668985
 21
-105.3568016331587
 31
0.0
100
AcDbText
 73
     2
  0
TEXT
  5
354
330
3C7
100
AcDbEntity
  8
DATA
 62
     7
100
AcDbText
 10
637.6215193668985
 20
-166.5094763293393
 30
0.0
 40
32.30534939236112
  1
Impedance:            4Ω
 41
0.7
 11
637.6215193668985
 21
-150.3568016331587
 31
0.0
100
AcDbText
 73
     2
  0
TEXT
  5
355
330
3C7
100
AcDbEntity
  8
DATA
 62
     7
100
AcDbText
 10
637.6215193668985
 20
-256.5094763293394
 30
0.0
 40
32.30534939236112
  1
Peak power:         2400W
 41
0.7
 11
637.6215193668985
 21
-240.3568016331588
 31
0.0
100
AcDbText
 73
     2
  0
TEXT
  5
356
330
3C7
100
AcDbEntity
  8
DATA
 62
     7
100
AcDbText
 10
637.6215193668985
 20
-301.5094763293393
 30
0.0
 40
32.30534939236112
  1
Weight:              19kg
 41
0.7
 11
637.6215193668985
 21
-285.3568016331587
 31
0.0
100
AcDbText
 73
     2
  0
ENDSEC
  0
SECTION
  2
OBJECTS
  0
DICTIONARY
  5
364
330
0
100
AcDbDictionary
281
     1
  3
ACAD_CIP_PREVIOUS_PRODUCT_INFO
350
3E0
  3
ACAD_COLOR
350
3BA
  3
ACAD_DETAILVIEWSTYLE
350
3C1
  3
ACAD_GROUP
350
365
  3
ACAD_LAYOUT
350
3B9
  3
ACAD_MATERIAL
350
368
  3
ACAD_MLEADERSTYLE
350
3BD
  3
ACAD_MLINESTYLE
350
3B6
  3
ACAD_PLOTSETTINGS
350
3B8
  3
ACAD_PLOTSTYLENAME
350
366
  3
ACAD_SCALELIST
350
39A
  3
ACAD_SECTIONVIEWSTYLE
350
3BF
  3
ACAD_TABLESTYLE
350
3BB
  3
ACAD_VISUALSTYLE
350
381
  3
ACDB_RECOMPOSE_DATA
350
3F8
  3
AcDbVariableDictionary
350
3EB
  3
DWGPROPS
350
3F9
  0
DICTIONARY
  5
3E1
330
3AC
100
AcDbDictionary
280
     1
281
     1
  3
ADSK_XREC_LAYER_RECONCILED
360
3E2
  0
DICTIONARY
  5
3E3
330
3CB
100
AcDbDictionary
280
     1
281
     1
  3
ADSK_XREC_LAYER_RECONCILED
360
3E4
  0
DICTIONARY
  5
3E5
330
3D7
100
AcDbDictionary
280
     1
281
     1
  3
ADSK_XREC_LAYER_RECONCILED
360
3E6
  0
DICTIONARY
  5
3E7
330
3D9
100
AcDbDictionary
280
     1
281
     1
  3
ADSK_XREC_LAYER_RECONCILED
360
3E8
  0
DICTIONARY
  5
3E9
330
3DA
100
AcDbDictionary
280
     1
281
     1
  3
ADSK_XREC_LAYER_RECONCILED
360
3EA
  0
XRECORD
  5
3E0
102
{ACAD_REACTORS
330
364
102
}
330
364
100
AcDbXrecord
280
     1
300
ACDLT
300
2018
300
ACDLT_F_S
  0
DICTIONARY
  5
3BA
102
{ACAD_REACTORS
330
364
102
}
330
364
100
AcDbDictionary
281
     1
  0
DICTIONARY
  5
3C1
102
{ACAD_REACTORS
330
364
102
}
330
364
100
AcDbDictionary
281
     1
  3
Imperial24
350
3C2
  0
DICTIONARY
  5
365
102
{ACAD_REACTORS
330
364
102
}
330
364
100
AcDbDictionary
281
     1
  0
DICTIONARY
  5
3B9
102
{ACAD_REACTORS
330
364
102
}
330
364
100
AcDbDictionary
281
     1
  3
Model
350
3CA
  3
レイアウト1
350
3C6
  0
DICTIONARY
  5
368
102
{ACAD_REACTORS
330
364
102
}
330
364
100
AcDbDictionary
281
     1
  3
ByBlock
350
371
  3
ByLayer
350
369
  3
Global
350
379
  0
DICTIONARY
  5
3BD
102
{ACAD_REACTORS
330
364
102
}
330
364
100
AcDbDictionary
281
     1
  3
Standard
350
3BE
  0
DICTIONARY
  5
3B6
102
{ACAD_REACTORS
330
364
102
}
330
364
100
AcDbDictionary
281
     1
  3
Standard
350
3B7
  0
DICTIONARY
  5
3B8
102
{ACAD_REACTORS
330
364
102
}
330
364
100
AcDbDictionary
281
     1
  0
ACDBDICTIONARYWDFLT
  5
366
102
{ACAD_REACTORS
330
364
102
}
330
364
100
AcDbDictionary
281
     1
  3
Normal
350
367
100
AcDbDictionaryWithDefault
340
367
  0
DICTIONARY
  5
39A
102
{ACAD_REACTORS
330
364
102
}
330
364
100
AcDbDictionary
281
     1
  3
A0
350
39B
  3
A1
350
39C
  3
A2
350
39D
  3
A3
350
39E
  3
A4
350
39F
  3
A5
350
3A0
  3
A6
350
3A1
  3
A7
350
3A2
  3
A8
350
3A3
  3
A9
350
3A4
  3
B0
350
3A5
  3
B1
350
3A6
  3
B2
350
3A7
  3
B3
350
3A8
  3
B4
350
3A9
  3
B5
350
3AA
  3
B6
350
3AB
  0
DICTIONARY
  5
3BF
102
{ACAD_REACTORS
330
364
102
}
330
364
100
AcDbDictionary
281
     1
  3
Imperial24
350
3C0
  0
DICTIONARY
  5
3BB
102
{ACAD_REACTORS
330
364
102
}
330
364
100
AcDbDictionary
281
     1
  3
Standard
350
3BC
  0
DICTIONARY
  5
381
102
{ACAD_REACTORS
330
364
102
}
330
364
100
AcDbDictionary
281
     1
  3
2dWireframe
350
387
  3
Basic
350
386
  3
Brighten
350
38D
  3
ColorChange
350
391
  3
Conceptual
350
38A
  3
Dim
350
38C
  3
EdgeColorOff
350
399
  3
Facepattern
350
390
  3
Flat
350
382
  3
FlatWithEdges
350
383
  3
Gouraud
350
384
  3
GouraudWithEdges
350
385
  3
Hidden
350
389
  3
JitterOff
350
397
  3
Linepattern
350
38F
  3
OverhangOff
350
398
  3
Realistic
350
38B
  3
Shaded
350
396
  3
Shaded with edges
350
395
  3
Shades of Gray
350
392
  3
Sketchy
350
393
  3
Thicken
350
38E
  3
Wireframe
350
388
  3
X-Ray
350
394
  0
XRECORD
  5
3F8
102
{ACAD_REACTORS
330
364
102
}
330
364
100
AcDbXrecord
280
     1
 90
        1
330
3BC
  0
DICTIONARY
  5
3EB
102
{ACAD_REACTORS
330
364
102
}
330
364
100
AcDbDictionary
281
     1
  3
CANNOSCALE
350
3F0
  3
CMLEADERSTYLE
350
3ED
  3
CTABLESTYLE
350
3EC
  3
CVIEWDETAILSTYLE
350
3EE
  3
CVIEWSECTIONSTYLE
350
3EF
  3
DIMASSOC
350
3F3
  3
INDEXCTL
350
3F2
  3
SORTENTS
350
3F1
  3
XCLIPFRAME
350
3F4
  0
XRECORD
  5
3F9
102
{ACAD_REACTORS
330
364
102
}
330
364
100
AcDbXrecord
280
     1
  1
DWGPROPS COOKIE
  2

  3

  4

  6

  7

  8
sasaki_n
  9

300
=
301
=
302
=
303
=
304
=
305
=
306
=
307
=
308
=
309
=
 40
0.0005092592592593
 41
2457907.737488426
 42
2457907.741921296
  1

 90
        0
  0
XRECORD
  5
3E2
102
{ACAD_REACTORS
330
3E1
102
}
330
3E1
100
AcDbXrecord
280
     1
290
     1
  0
XRECORD
  5
3E4
102
{ACAD_REACTORS
330
3E3
102
}
330
3E3
100
AcDbXrecord
280
     1
290
     1
  0
XRECORD
  5
3E6
102
{ACAD_REACTORS
330
3E5
102
}
330
3E5
100
AcDbXrecord
280
     1
290
     1
  0
XRECORD
  5
3E8
102
{ACAD_REACTORS
330
3E7
102
}
330
3E7
100
AcDbXrecord
280
     1
290
     1
  0
XRECORD
  5
3EA
102
{ACAD_REACTORS
330
3E9
102
}
330
3E9
100
AcDbXrecord
280
     1
290
     1
  0
ACDBDETAILVIEWSTYLE
  5
3C2
102
{ACAD_XDICTIONARY
360
431
102
}
102
{ACAD_REACTORS
330
3C1
102
}
330
3C1
100
AcDbModelDocViewStyle
 70
     0
  3
Imperial24
290
     0
100
AcDbDetailViewStyle
 70
     0
 71
     0
 90
        3
 71
     1
340
3AD
 40
0.24
340
0
 40
0.24
300

 40
0.36
280
     3
 71
     2
340
3B4
 90
       25
 71
     3
340
3AD
 40
0.24
 90
        1
 40
0.75
 90
        1
300
%<\AcVar ViewType \f "%tc1">% %<\AcVar ViewDetailId>%\PSCALE %<\AcVar ViewScale \f "%sn">%
 71
     4
340
3B4
 90
       25
340
3B4
 90
       25
280
     0
  0
LAYOUT
  5
3CA
102
{ACAD_XDICTIONARY
360
435
102
}
102
{ACAD_REACTORS
330
3B9
102
}
330
3B9
100
AcDbPlotSettings
  1

  2
DocuPrint 3000-2
  4

  6

 40
0.0
 41
0.0
 42
0.0
 43
0.0
 44
0.0
 45
0.0
 46
0.0
 47
0.0
 48
0.0
 49
0.0
140
0.0
141
0.0
142
1.0
143
1.0
 70
  1712
 72
     0
 73
     0
 74
     0
  7

 75
     0
147
1.0
148
0.0
149
0.0
100
AcDbLayout
  1
Model
 70
     1
 71
     0
 10
0.0
 20
0.0
 11
12.0
 21
9.0
 12
0.0
 22
0.0
 32
0.0
 14
0.0
 24
0.0
 34
0.0
 15
0.0
 25
0.0
 35
0.0
146
0.0
 13
0.0
 23
0.0
 33
0.0
 16
1.0
 26
0.0
 36
0.0
 17
0.0
 27
1.0
 37
0.0
 76
     0
330
3C7
331
3CC
  0
LAYOUT
  5
3C6
102
{ACAD_XDICTIONARY
360
433
102
}
102
{ACAD_REACTORS
330
3B9
102
}
330
3B9
100
AcDbPlotSettings
  1

  2
DocuPrint 3000-2
  4

  6

 40
0.0
 41
0.0
 42
0.0
 43
0.0
 44
0.0
 45
0.0
 46
0.0
 47
0.0
 48
0.0
 49
0.0
140
0.0
141
0.0
142
1.0
143
1.0
 70
   688
 72
     0
 73
     0
 74
     5
  7

 75
    16
147
1.0
148
0.0
149
0.0
100
AcDbLayout
  1
レイアウト1
 70
     0
 71
     1
 10
0.0
 20
0.0
 11
12.0
 21
9.0
 12
0.0
 22
0.0
 32
0.0
 14
1.000000000000000E+20
 24
1.000000000000000E+20
 34
1.000000000000000E+20
 15
-1.000000000000000E+20
 25
-1.000000000000000E+20
 35
-1.000000000000000E+20
146
0.0
 13
0.0
 23
0.0
 33
0.0
 16
1.0
 26
0.0
 36
0.0
 17
0.0
 27
1.0
 37
0.0
 76
     0
330
3C3
  0
MATERIAL
  5
371
102
{ACAD_XDICTIONARY
360
372
102
}
102
{ACAD_REACTORS
330
368
102
}
330
368
100
AcDbMaterial
  1
ByBlock
 72
     0
 43
0.0208333333333333
 43
0.0
 43
0.0
 43
0.0
 43
0.0
 43
0.0208333333333333
 43
0.0
 43
0.0
 43
0.0
 43
0.0
 43
1.0
 43
0.0
 43
0.0
 43
0.0
 43
0.0
 43
1.0
 77
     0
 47
0.0208333333333333
 47
0.0
 47
0.0
 47
0.0
 47
0.0
 47
0.0208333333333333
 47
0.0
 47
0.0
 47
0.0
 47
0.0
 47
1.0
 47
0.0
 47
0.0
 47
0.0
 47
0.0
 47
1.0
171
     0
 49
0.0208333333333333
 49
0.0
 49
0.0
 49
0.0
 49
0.0
 49
0.0208333333333333
 49
0.0
 49
0.0
 49
0.0
 49
0.0
 49
1.0
 49
0.0
 49
0.0
 49
0.0
 49
0.0
 49
1.0
175
     0
142
0.0208333333333333
142
0.0
142
0.0
142
0.0
142
0.0
142
0.0208333333333333
142
0.0
142
0.0
142
0.0
142
0.0
142
1.0
142
0.0
142
0.0
142
0.0
142
0.0
142
1.0
179
     0
144
0.0208333333333333
144
0.0
144
0.0
144
0.0
144
0.0
144
0.0208333333333333
144
0.0
144
0.0
144
0.0
144
0.0
144
1.0
144
0.0
144
0.0
144
0.0
144
0.0
144
1.0
147
0.0208333333333333
147
0.0
147
0.0
147
0.0
147
0.0
147
0.0208333333333333
147
0.0
147
0.0
147
0.0
147
0.0
147
1.0
147
0.0
147
0.0
147
0.0
147
0.0
147
1.0
  0
MATERIAL
  5
369
102
{ACAD_XDICTIONARY
360
36A
102
}
102
{ACAD_REACTORS
330
368
102
}
330
368
100
AcDbMaterial
  1
ByLayer
 72
     0
 43
0.0208333333333333
 43
0.0
 43
0.0
 43
0.0
 43
0.0
 43
0.0208333333333333
 43
0.0
 43
0.0
 43
0.0
 43
0.0
 43
1.0
 43
0.0
 43
0.0
 43
0.0
 43
0.0
 43
1.0
 77
     0
 47
0.0208333333333333
 47
0.0
 47
0.0
 47
0.0
 47
0.0
 47
0.0208333333333333
 47
0.0
 47
0.0
 47
0.0
 47
0.0
 47
1.0
 47
0.0
 47
0.0
 47
0.0
 47
0.0
 47
1.0
171
     0
 49
0.0208333333333333
 49
0.0
 49
0.0
 49
0.0
 49
0.0
 49
0.0208333333333333
 49
0.0
 49
0.0
 49
0.0
 49
0.0
 49
1.0
 49
0.0
 49
0.0
 49
0.0
 49
0.0
 49
1.0
175
     0
142
0.0208333333333333
142
0.0
142
0.0
142
0.0
142
0.0
142
0.0208333333333333
142
0.0
142
0.0
142
0.0
142
0.0
142
1.0
142
0.0
142
0.0
142
0.0
142
0.0
142
1.0
179
     0
144
0.0208333333333333
144
0.0
144
0.0
144
0.0
144
0.0
144
0.0208333333333333
144
0.0
144
0.0
144
0.0
144
0.0
144
1.0
144
0.0
144
0.0
144
0.0
144
0.0
144
1.0
147
0.0208333333333333
147
0.0
147
0.0
147
0.0
147
0.0
147
0.0208333333333333
147
0.0
147
0.0
147
0.0
147
0.0
147
1.0
147
0.0
147
0.0
147
0.0
147
0.0
147
1.0
  0
MATERIAL
  5
379
102
{ACAD_XDICTIONARY
360
37A
102
}
102
{ACAD_REACTORS
330
368
102
}
330
368
100
AcDbMaterial
  1
Global
 72
     0
 43
0.0208333333333333
 43
0.0
 43
0.0
 43
0.0
 43
0.0
 43
0.0208333333333333
 43
0.0
 43
0.0
 43
0.0
 43
0.0
 43
1.0
 43
0.0
 43
0.0
 43
0.0
 43
0.0
 43
1.0
 77
     0
 47
0.0208333333333333
 47
0.0
 47
0.0
 47
0.0
 47
0.0
 47
0.0208333333333333
 47
0.0
 47
0.0
 47
0.0
 47
0.0
 47
1.0
 47
0.0
 47
0.0
 47
0.0
 47
0.0
 47
1.0
171
     0
 49
0.0208333333333333
 49
0.0
 49
0.0
 49
0.0
 49
0.0
 49
0.0208333333333333
 49
0.0
 49
0.0
 49
0.0
 49
0.0
 49
1.0
 49
0.0
 49
0.0
 49
0.0
 49
0.0
 49
1.0
175
     0
142
0.0208333333333333
142
0.0
142
0.0
142
0.0
142
0.0
142
0.0208333333333333
142
0.0
142
0.0
142
0.0
142
0.0
142
1.0
142
0.0
142
0.0
142
0.0
142
0.0
142
1.0
179
     0
144
0.0208333333333333
144
0.0
144
0.0
144
0.0
144
0.0
144
0.0208333333333333
144
0.0
144
0.0
144
0.0
144
0.0
144
1.0
144
0.0
144
0.0
144
0.0
144
0.0
144
1.0
147
0.0208333333333333
147
0.0
147
0.0
147
0.0
147
0.0
147
0.0208333333333333
147
0.0
147
0.0
147
0.0
147
0.0
147
1.0
147
0.0
147
0.0
147
0.0
147
0.0
147
1.0
  0
MLEADERSTYLE
  5
3BE
102
{ACAD_REACTORS
330
3BD
102
}
330
3BD
100
AcDbMLeaderStyle
170
     2
171
     1
172
     0
 90
        2
 40
0.0
 41
0.0
173
     1
 91
-1056964608
340
3B2
 92
       -2
290
     1
 42
0.09
291
     1
 43
0.36
  3
Standard
 44
0.18
300

342
3AD
174
     1
178
     6
175
     1
176
     0
 93
-1056964608
 45
0.18
292
     0
297
     0
 46
0.18
 94
-1056964608
 47
1.0
 49
1.0
140
1.0
293
     1
141
0.0
294
     1
177
     0
142
1.0
295
     0
296
     0
143
0.125
1001
ACAD_MLEADERVER
1070
     2
  0
MLINESTYLE
  5
3B7
102
{ACAD_REACTORS
330
3B6
102
}
330
3B6
100
AcDbMlineStyle
  2
STANDARD
 70
     0
  3

 62
   256
 51
90.0
 52
90.0
 71
     2
 49
0.5
 62
   256
  6
BYLAYER
 49
-0.5
 62
   256
  6
BYLAYER
  0
ACDBPLACEHOLDER
  5
367
102
{ACAD_REACTORS
330
366
102
}
330
366
  0
SCALE
  5
39B
102
{ACAD_REACTORS
330
39A
102
}
330
39A
100
AcDbScale
 70
     0
300
1:1
140
1.0
141
1.0
290
     1
  0
SCALE
  5
39C
102
{ACAD_REACTORS
330
39A
102
}
330
39A
100
AcDbScale
 70
     0
300
1/128" = 1'-0"
140
0.0078125
141
12.0
290
     0
  0
SCALE
  5
39D
102
{ACAD_REACTORS
330
39A
102
}
330
39A
100
AcDbScale
 70
     0
300
1/64" = 1'-0"
140
0.015625
141
12.0
290
     0
  0
SCALE
  5
39E
102
{ACAD_REACTORS
330
39A
102
}
330
39A
100
AcDbScale
 70
     0
300
1/32" = 1'-0"
140
0.03125
141
12.0
290
     0
  0
SCALE
  5
39F
102
{ACAD_REACTORS
330
39A
102
}
330
39A
100
AcDbScale
 70
     0
300
1/16" = 1'-0"
140
0.0625
141
12.0
290
     0
  0
SCALE
  5
3A0
102
{ACAD_REACTORS
330
39A
102
}
330
39A
100
AcDbScale
 70
     0
300
3/32" = 1'-0"
140
0.09375
141
12.0
290
     0
  0
SCALE
  5
3A1
102
{ACAD_REACTORS
330
39A
102
}
330
39A
100
AcDbScale
 70
     0
300
1/8" = 1'-0"
140
0.125
141
12.0
290
     0
  0
SCALE
  5
3A2
102
{ACAD_REACTORS
330
39A
102
}
330
39A
100
AcDbScale
 70
     0
300
3/16" = 1'-0"
140
0.1875
141
12.0
290
     0
  0
SCALE
  5
3A3
102
{ACAD_REACTORS
330
39A
102
}
330
39A
100
AcDbScale
 70
     0
300
1/4" = 1'-0"
140
0.25
141
12.0
290
     0
  0
SCALE
  5
3A4
102
{ACAD_REACTORS
330
39A
102
}
330
39A
100
AcDbScale
 70
     0
300
3/8" = 1'-0"
140
0.375
141
12.0
290
     0
  0
SCALE
  5
3A5
102
{ACAD_REACTORS
330
39A
102
}
330
39A
100
AcDbScale
 70
     0
300
1/2" = 1'-0"
140
0.5
141
12.0
290
     0
  0
SCALE
  5
3A6
102
{ACAD_REACTORS
330
39A
102
}
330
39A
100
AcDbScale
 70
     0
300
3/4" = 1'-0"
140
0.75
141
12.0
290
     0
  0
SCALE
  5
3A7
102
{ACAD_REACTORS
330
39A
102
}
330
39A
100
AcDbScale
 70
     0
300
1" = 1'-0"
140
1.0
141
12.0
290
     0
  0
SCALE
  5
3A8
102
{ACAD_REACTORS
330
39A
102
}
330
39A
100
AcDbScale
 70
     0
300
1-1/2" = 1'-0"
140
1.5
141
12.0
290
     0
  0
SCALE
  5
3A9
102
{ACAD_REACTORS
330
39A
102
}
330
39A
100
AcDbScale
 70
     0
300
3" = 1'-0"
140
3.0
141
12.0
290
     0
  0
SCALE
  5
3AA
102
{ACAD_REACTORS
330
39A
102
}
330
39A
100
AcDbScale
 70
     0
300
6" = 1'-0"
140
6.0
141
12.0
290
     0
  0
SCALE
  5
3AB
102
{ACAD_REACTORS
330
39A
102
}
330
39A
100
AcDbScale
 70
     0
300
1'-0" = 1'-0"
140
12.0
141
12.0
290
     0
  0
ACDBSECTIONVIEWSTYLE
  5
3C0
102
{ACAD_XDICTIONARY
360
42F
102
}
102
{ACAD_REACTORS
330
3BF
102
}
330
3BF
100
AcDbModelDocViewStyle
 70
     0
  3
Imperial24
290
     0
100
AcDbSectionViewStyle
 70
     0
 71
     0
 90
       78
 71
     1
340
3AD
 40
0.24
340
0
340
0
 40
0.24
300
I, O, Q, S, X, Z
 40
0.48
 90
        3
 40
0.18
 90
        1
 71
     2
340
3B4
 90
       25
340
3B4
 90
       50
 40
0.24
 40
0.0
 40
0.24
 71
     3
340
3AD
 40
0.24
 90
        1
 40
0.75
 90
        1
300
%<\AcVar ViewType \f "%tc1">% %<\AcVar ViewSectionStartId>%-%<\AcVar ViewSectionEndId>%\PSCALE %<\AcVar ViewScale \f "%sn">%
 71
     4
300
ANSI31
 40
1.0
 90
        0
290
     0
290
     0
 90
        6
 40
0.0
 40
1.570796326794896
 40
0.2617993877991494
 40
1.308996938995747
 40
-0.2617993877991494
 40
1.832595714594046
  0
TABLESTYLE
  5
3BC
102
{ACAD_XDICTIONARY
360
3F6
102
}
102
{ACAD_REACTORS
330
3BB
102
}
330
3BB
100
AcDbTableStyle
  3
Standard
 70
     0
 71
     0
 40
0.06
 41
0.06
280
     0
281
     0
  7
STANDARD
140
0.18
170
     2
 62
     0
 63
     7
283
     0
274
    -2
284
     1
 64
     0
275
    -2
285
     1
 65
     0
276
    -2
286
     1
 66
     0
277
    -2
287
     1
 67
     0
278
    -2
288
     1
 68
     0
279
    -2
289
     1
 69
     0
  7
STANDARD
140
0.25
170
     5
 62
     0
 63
     7
283
     0
274
    -2
284
     1
 64
     0
275
    -2
285
     1
 65
     0
276
    -2
286
     1
 66
     0
277
    -2
287
     1
 67
     0
278
    -2
288
     1
 68
     0
279
    -2
289
     1
 69
     0
  7
STANDARD
140
0.18
170
     5
 62
     0
 63
     7
283
     0
274
    -2
284
     1
 64
     0
275
    -2
285
     1
 65
     0
276
    -2
286
     1
 66
     0
277
    -2
287
     1
 67
     0
278
    -2
288
     1
 68
     0
279
    -2
289
     1
 69
     0
  0
VISUALSTYLE
  5
387
102
{ACAD_XDICTIONARY
360
407
102
}
102
{ACAD_REACTORS
330
381
102
}
330
381
100
AcDbVisualStyle
  2
2dWireframe
 70
     4
 71
     0
 72
     2
 73
     0
 90
        0
 40
-0.6
 41
-30.0
 62
     5
 63
     7
 74
     1
 91
        4
 64
     7
 65
   257
 75
     1
175
     1
 42
1.0
 92
        0
 66
   257
 43
1.0
 76
     1
 77
     6
 78
     2
 67
     7
 79
     5
170
     0
171
     0
290
     0
174
     0
 93
        1
 44
0.0
173
     0
291
     0
 45
0.0
1001
ACAD
1000
AcDbSavedByObjectVersion
1070
     0
  0
VISUALSTYLE
  5
386
102
{ACAD_XDICTIONARY
360
405
102
}
102
{ACAD_REACTORS
330
381
102
}
330
381
100
AcDbVisualStyle
  2
Basic
 70
     7
 71
     1
 72
     0
 73
     1
 90
        0
 40
-0.6
 41
-30.0
 62
     5
 63
     7
 74
     0
 91
        4
 64
     7
 65
   257
 75
     1
175
     1
 42
1.0
 92
        8
 66
     7
 43
1.0
 76
     1
 77
     6
 78
     2
 67
     7
 79
     5
170
     0
171
     0
290
     0
174
     0
 93
        1
 44
0.0
173
     0
291
     1
 45
0.0
1001
ACAD
1000
AcDbSavedByObjectVersion
1070
     0
  0
VISUALSTYLE
  5
38D
102
{ACAD_XDICTIONARY
360
413
102
}
102
{ACAD_REACTORS
330
381
102
}
330
381
100
AcDbVisualStyle
  2
Brighten
 70
    12
 71
     2
 72
     2
 73
     0
 90
        0
 40
-0.6
 41
-30.0
 62
     5
 63
     7
 74
     1
 91
        4
 64
     7
 65
   257
 75
     1
175
     1
 42
1.0
 92
        8
 66
     7
 43
1.0
 76
     1
 77
     6
 78
     2
 67
     7
 79
     5
170
     0
171
     0
290
     0
174
     0
 93
        1
 44
50.0
173
     0
291
     1
 45
0.0
1001
ACAD
1000
AcDbSavedByObjectVersion
1070
     0
  0
VISUALSTYLE
  5
391
102
{ACAD_XDICTIONARY
360
41B
102
}
102
{ACAD_REACTORS
330
381
102
}
330
381
100
AcDbVisualStyle
  2
ColorChange
 70
    16
 71
     2
 72
     2
 73
     3
 90
        0
 40
-0.6
 41
-30.0
 62
     5
 63
     8
 74
     1
 91
        4
 64
     7
 65
   257
 75
     1
175
     1
 42
1.0
 92
        8
 66
     8
 43
1.0
 76
     1
 77
     6
 78
     2
 67
     7
 79
     5
170
     0
171
     0
290
     0
174
     0
 93
        1
 44
0.0
173
     0
291
     1
 45
0.0
1001
ACAD
1000
AcDbSavedByObjectVersion
1070
     0
  0
VISUALSTYLE
  5
38A
102
{ACAD_XDICTIONARY
360
40D
102
}
102
{ACAD_REACTORS
330
381
102
}
330
381
100
AcDbVisualStyle
  2
Conceptual
 70
     9
 71
     3
 72
     2
 73
     0
 90
        0
 40
-0.6
 41
-30.0
 62
     5
 63
     7
 74
     2
 91
        2
 64
     7
 65
   257
 75
     1
175
     1
 42
179.0
 92
        8
 66
     7
 43
1.0
 76
     1
 77
     6
 78
     2
 67
     7
 79
     3
170
     0
171
     0
290
     0
174
     0
 93
        1
 44
0.0
173
     0
291
     0
 45
0.0
1001
ACAD
1000
AcDbSavedByObjectVersion
1070
     0
  0
VISUALSTYLE
  5
38C
102
{ACAD_XDICTIONARY
360
411
102
}
102
{ACAD_REACTORS
330
381
102
}
330
381
100
AcDbVisualStyle
  2
Dim
 70
    11
 71
     2
 72
     2
 73
     0
 90
        0
 40
-0.6
 41
-30.0
 62
     5
 63
     7
 74
     1
 91
        4
 64
     7
 65
   257
 75
     1
175
     1
 42
1.0
 92
        8
 66
     7
 43
1.0
 76
     1
 77
     6
 78
     2
 67
     7
 79
     5
170
     0
171
     0
290
     0
174
     0
 93
        1
 44
-50.0
173
     0
291
     1
 45
0.0
1001
ACAD
1000
AcDbSavedByObjectVersion
1070
     0
  0
VISUALSTYLE
  5
399
102
{ACAD_XDICTIONARY
360
42B
102
}
102
{ACAD_REACTORS
330
381
102
}
330
381
100
AcDbVisualStyle
  2
EdgeColorOff
 70
    22
 71
     2
 72
     2
 73
     0
 90
        0
 40
-0.6
 41
-30.0
 62
     5
 63
     7
 74
     1
 91
        4
 64
     7
 65
   257
 75
     1
175
     1
 42
1.0
 92
        8
 66
     7
 43
1.0
 76
     1
 77
     6
 78
     2
 67
     7
 79
     5
170
     0
171
     0
290
     0
174
     0
 93
        1
 44
0.0
173
     0
291
     1
 45
0.0
1001
ACAD
1000
AcDbSavedByObjectVersion
1070
     0
  0
VISUALSTYLE
  5
390
102
{ACAD_XDICTIONARY
360
419
102
}
102
{ACAD_REACTORS
330
381
102
}
330
381
100
AcDbVisualStyle
  2
Facepattern
 70
    15
 71
     2
 72
     2
 73
     0
 90
        0
 40
-0.6
 41
-30.0
 62
     5
 63
     7
 74
     1
 91
        4
 64
     7
 65
   257
 75
     1
175
     1
 42
1.0
 92
        8
 66
     7
 43
1.0
 76
     1
 77
     6
 78
     2
 67
     7
 79
     5
170
     0
171
     0
290
     0
174
     0
 93
        1
 44
0.0
173
     0
291
     1
 45
0.0
1001
ACAD
1000
AcDbSavedByObjectVersion
1070
     0
  0
VISUALSTYLE
  5
382
102
{ACAD_XDICTIONARY
360
3FD
102
}
102
{ACAD_REACTORS
330
381
102
}
330
381
100
AcDbVisualStyle
  2
Flat
 70
     0
 71
     2
 72
     1
 73
     1
 90
        2
 40
-0.6
 41
30.0
 62
     5
 63
     7
 74
     0
 91
        0
 64
     7
 65
   257
 75
     1
175
     1
 42
1.0
 92
        8
 66
     7
 43
1.0
 76
     1
 77
     6
 78
     2
 67
     7
 79
     5
170
     0
171
     0
290
     0
174
     0
 93
       13
 44
0.0
173
     0
291
     1
 45
0.0
1001
ACAD
1000
AcDbSavedByObjectVersion
1070
     0
  0
VISUALSTYLE
  5
383
102
{ACAD_XDICTIONARY
360
3FF
102
}
102
{ACAD_REACTORS
330
381
102
}
330
381
100
AcDbVisualStyle
  2
FlatWithEdges
 70
     1
 71
     2
 72
     1
 73
     1
 90
        2
 40
-0.6
 41
30.0
 62
     5
 63
     7
 74
     1
 91
        0
 64
     7
 65
   257
 75
     1
175
     1
 42
1.0
 92
        0
 66
   257
 43
1.0
 76
     1
 77
     6
 78
     2
 67
     7
 79
     5
170
     0
171
     0
290
     0
174
     0
 93
       13
 44
0.0
173
     0
291
     1
 45
0.0
1001
ACAD
1000
AcDbSavedByObjectVersion
1070
     0
  0
VISUALSTYLE
  5
384
102
{ACAD_XDICTIONARY
360
401
102
}
102
{ACAD_REACTORS
330
381
102
}
330
381
100
AcDbVisualStyle
  2
Gouraud
 70
     2
 71
     2
 72
     2
 73
     1
 90
        2
 40
-0.6
 41
30.0
 62
     5
 63
     7
 74
     0
 91
        0
 64
     7
 65
   257
 75
     1
175
     1
 42
1.0
 92
        0
 66
     7
 43
1.0
 76
     1
 77
     6
 78
     2
 67
     7
 79
     5
170
     0
171
     0
290
     0
174
     0
 93
       13
 44
0.0
173
     0
291
     1
 45
0.0
1001
ACAD
1000
AcDbSavedByObjectVersion
1070
     0
  0
VISUALSTYLE
  5
385
102
{ACAD_XDICTIONARY
360
403
102
}
102
{ACAD_REACTORS
330
381
102
}
330
381
100
AcDbVisualStyle
  2
GouraudWithEdges
 70
     3
 71
     2
 72
     2
 73
     1
 90
        2
 40
-0.6
 41
30.0
 62
     5
 63
     7
 74
     1
 91
        0
 64
     7
 65
   257
 75
     1
175
     1
 42
1.0
 92
        0
 66
   257
 43
1.0
 76
     1
 77
     6
 78
     2
 67
     7
 79
     5
170
     0
171
     0
290
     0
174
     0
 93
       13
 44
0.0
173
     0
291
     1
 45
0.0
1001
ACAD
1000
AcDbSavedByObjectVersion
1070
     0
  0
VISUALSTYLE
  5
389
102
{ACAD_XDICTIONARY
360
40B
102
}
102
{ACAD_REACTORS
330
381
102
}
330
381
100
AcDbVisualStyle
  2
Hidden
 70
     6
 71
     1
 72
     2
 73
     2
 90
        0
 40
-0.6
 41
-30.0
 62
     5
 63
     7
 74
     2
 91
        2
 64
     7
 65
   257
 75
     2
175
     1
 42
40.0
 92
        0
 66
   257
 43
1.0
 76
     1
 77
     6
 78
     2
 67
     7
 79
     3
170
     0
171
     0
290
     0
174
     0
 93
        1
 44
0.0
173
     0
291
     0
 45
0.0
1001
ACAD
1000
AcDbSavedByObjectVersion
1070
     0
  0
VISUALSTYLE
  5
397
102
{ACAD_XDICTIONARY
360
427
102
}
102
{ACAD_REACTORS
330
381
102
}
330
381
100
AcDbVisualStyle
  2
JitterOff
 70
    20
 71
     2
 72
     2
 73
     0
 90
        0
 40
-0.6
 41
-30.0
 62
     5
 63
     7
 74
     1
 91
        4
 64
     7
 65
   257
 75
     1
175
     1
 42
1.0
 92
       10
 66
     7
 43
1.0
 76
     1
 77
     6
 78
     2
 67
     7
 79
     5
170
     0
171
     0
290
     0
174
     0
 93
        1
 44
0.0
173
     0
291
     1
 45
0.0
1001
ACAD
1000
AcDbSavedByObjectVersion
1070
     0
  0
VISUALSTYLE
  5
38F
102
{ACAD_XDICTIONARY
360
417
102
}
102
{ACAD_REACTORS
330
381
102
}
330
381
100
AcDbVisualStyle
  2
Linepattern
 70
    14
 71
     2
 72
     2
 73
     0
 90
        0
 40
-0.6
 41
-30.0
 62
     5
 63
     7
 74
     1
 91
        4
 64
     7
 65
   257
 75
     7
175
     7
 42
1.0
 92
        8
 66
     7
 43
1.0
 76
     1
 77
     6
 78
     2
 67
     7
 79
     5
170
     0
171
     0
290
     0
174
     0
 93
        1
 44
0.0
173
     0
291
     1
 45
0.0
1001
ACAD
1000
AcDbSavedByObjectVersion
1070
     0
  0
VISUALSTYLE
  5
398
102
{ACAD_XDICTIONARY
360
429
102
}
102
{ACAD_REACTORS
330
381
102
}
330
381
100
AcDbVisualStyle
  2
OverhangOff
 70
    21
 71
     2
 72
     2
 73
     0
 90
        0
 40
-0.6
 41
-30.0
 62
     5
 63
     7
 74
     1
 91
        4
 64
     7
 65
   257
 75
     1
175
     1
 42
1.0
 92
        9
 66
     7
 43
1.0
 76
     1
 77
     6
 78
     2
 67
     7
 79
     5
170
     0
171
     0
290
     0
174
     0
 93
        1
 44
0.0
173
     0
291
     1
 45
0.0
1001
ACAD
1000
AcDbSavedByObjectVersion
1070
     0
  0
VISUALSTYLE
  5
38B
102
{ACAD_XDICTIONARY
360
40F
102
}
102
{ACAD_REACTORS
330
381
102
}
330
381
100
AcDbVisualStyle
  2
Realistic
 70
     8
 71
     2
 72
     3
 73
     0
 90
        2
 40
-0.6
 41
30.0
 62
     5
 63
     7
 74
     0
 91
        0
 64
     7
 65
   257
 75
     1
175
     1
 42
1.0
 92
        8
 66
   257
 43
1.0
 76
     1
 77
     6
 78
     2
 67
     7
 79
     3
170
     0
171
     0
290
     0
174
     0
 93
       13
 44
0.0
173
     0
291
     0
 45
0.0
1001
ACAD
1000
AcDbSavedByObjectVersion
1070
     0
  0
VISUALSTYLE
  5
396
102
{ACAD_XDICTIONARY
360
425
102
}
102
{ACAD_REACTORS
330
381
102
}
330
381
100
AcDbVisualStyle
  2
Shaded
 70
    27
 71
     2
 72
     2
 73
     1
 90
        2
 40
-0.6
 41
30.0
 62
     5
 63
     7
 74
     0
 91
        4
 64
     7
 65
   257
 75
     1
175
     1
 42
1.0
 92
        8
 66
   257
 43
1.0
 76
     1
 77
     6
 78
     2
 67
     8
 79
     3
170
     0
171
     0
290
     0
174
     0
 93
        5
 44
0.0
173
     0
291
     0
 45
0.0
1001
ACAD
1000
AcDbSavedByObjectVersion
1070
     0
  0
VISUALSTYLE
  5
395
102
{ACAD_XDICTIONARY
360
423
102
}
102
{ACAD_REACTORS
330
381
102
}
330
381
100
AcDbVisualStyle
  2
Shaded with edges
 70
    26
 71
     2
 72
     2
 73
     1
 90
        2
 40
-0.6
 41
30.0
 62
     5
 63
     7
 74
     1
 91
        2
 64
     7
 65
   257
 75
     2
175
     1
 42
1.0
 92
        8
 66
   257
 43
1.0
 76
     1
 77
     6
 78
     2
 67
     7
 79
     3
170
     0
171
     0
290
     0
174
     0
 93
        5
 44
0.0
173
     0
291
     0
 45
0.0
1001
ACAD
1000
AcDbSavedByObjectVersion
1070
     0
  0
VISUALSTYLE
  5
392
102
{ACAD_XDICTIONARY
360
41D
102
}
102
{ACAD_REACTORS
330
381
102
}
330
381
100
AcDbVisualStyle
  2
Shades of Gray
 70
    23
 71
     2
 72
     2
 73
     3
 90
        0
 40
-0.6
 41
-30.0
 62
     5
 63
     7
 74
     2
 91
        2
 64
     7
 65
     7
 75
     1
175
     1
 42
40.0
 92
        8
 66
     7
 43
1.0
 76
     1
 77
     6
 78
     2
 67
     7
 79
     3
170
     0
171
     0
290
     0
174
     0
 93
        1
 44
0.0
173
     0
291
     0
 45
0.0
1001
ACAD
1000
AcDbSavedByObjectVersion
1070
     0
  0
VISUALSTYLE
  5
393
102
{ACAD_XDICTIONARY
360
41F
102
}
102
{ACAD_REACTORS
330
381
102
}
330
381
100
AcDbVisualStyle
  2
Sketchy
 70
    24
 71
     1
 72
     2
 73
     2
 90
        0
 40
-0.6
 41
-30.0
 62
     5
 63
     7
 74
     2
 91
        2
 64
     7
 65
     7
 75
     1
175
     1
 42
40.0
 92
       11
 66
     7
 43
1.0
 76
     1
 77
     6
 78
     2
 67
     7
 79
     6
170
     0
171
     0
290
     0
174
     0
 93
        1
 44
0.0
173
     0
291
     0
 45
0.0
1001
ACAD
1000
AcDbSavedByObjectVersion
1070
     0
  0
VISUALSTYLE
  5
38E
102
{ACAD_XDICTIONARY
360
415
102
}
102
{ACAD_REACTORS
330
381
102
}
330
381
100
AcDbVisualStyle
  2
Thicken
 70
    13
 71
     2
 72
     2
 73
     0
 90
        0
 40
-0.6
 41
-30.0
 62
     5
 63
     7
 74
     1
 91
        4
 64
     7
 65
   257
 75
     1
175
     1
 42
1.0
 92
       12
 66
     7
 43
1.0
 76
     1
 77
     6
 78
     2
 67
     7
 79
     5
170
     0
171
     0
290
     0
174
     0
 93
        1
 44
0.0
173
     0
291
     1
 45
0.0
1001
ACAD
1000
AcDbSavedByObjectVersion
1070
     0
  0
VISUALSTYLE
  5
388
102
{ACAD_XDICTIONARY
360
409
102
}
102
{ACAD_REACTORS
330
381
102
}
330
381
100
AcDbVisualStyle
  2
Wireframe
 70
     5
 71
     0
 72
     2
 73
     0
 90
        0
 40
-0.6
 41
-30.0
 62
     5
 63
     7
 74
     1
 91
        4
 64
     7
 65
   257
 75
     1
175
     1
 42
1.0
 92
        0
 66
   257
 43
1.0
 76
     1
 77
     6
 78
     2
 67
     7
 79
     3
170
     0
171
     0
290
     0
174
     0
 93
        1
 44
0.0
173
     0
291
     0
 45
0.0
1001
ACAD
1000
AcDbSavedByObjectVersion
1070
     0
  0
VISUALSTYLE
  5
394
102
{ACAD_XDICTIONARY
360
421
102
}
102
{ACAD_REACTORS
330
381
102
}
330
381
100
AcDbVisualStyle
  2
X-Ray
 70
    25
 71
     2
 72
     2
 73
     1
 90
        1
 40
0.5
 41
-30.0
 62
     5
 63
     7
 74
     1
 91
        0
 64
     7
 65
   257
 75
     1
175
     1
 42
1.0
 92
        8
 66
     7
 43
1.0
 76
     1
 77
     6
 78
     2
 67
     7
 79
     3
170
     0
171
     0
290
     0
174
     0
 93
       13
 44
0.0
173
     0
291
     0
 45
0.0
1001
ACAD
1000
AcDbSavedByObjectVersion
1070
     0
  0
DICTIONARYVAR
  5
3F0
102
{ACAD_REACTORS
330
3EB
102
}
330
3EB
100
DictionaryVariables
280
     0
  1
1:1
  0
DICTIONARYVAR
  5
3ED
102
{ACAD_REACTORS
330
3EB
102
}
330
3EB
100
DictionaryVariables
280
     0
  1
STANDARD
  0
DICTIONARYVAR
  5
3EC
102
{ACAD_REACTORS
330
3EB
102
}
330
3EB
100
DictionaryVariables
280
     0
  1
STANDARD
  0
DICTIONARYVAR
  5
3EE
102
{ACAD_REACTORS
330
3EB
102
}
330
3EB
100
DictionaryVariables
280
     0
  1
Imperial24
  0
DICTIONARYVAR
  5
3EF
102
{ACAD_REACTORS
330
3EB
102
}
330
3EB
100
DictionaryVariables
280
     0
  1
Imperial24
  0
DICTIONARYVAR
  5
3F3
102
{ACAD_REACTORS
330
3EB
102
}
330
3EB
100
DictionaryVariables
280
     0
  1
1
  0
DICTIONARYVAR
  5
3F2
102
{ACAD_REACTORS
330
3EB
102
}
330
3EB
100
DictionaryVariables
280
     0
  1
0
  0
DICTIONARYVAR
  5
3F1
102
{ACAD_REACTORS
330
3EB
102
}
330
3EB
100
DictionaryVariables
280
     0
  1
127
  0
DICTIONARYVAR
  5
3F4
102
{ACAD_REACTORS
330
3EB
102
}
330
3EB
100
DictionaryVariables
280
     0
  1
2
  0
DICTIONARY
  5
431
330
3C2
100
AcDbDictionary
280
     1
281
     1
  3
ACAD_XREC_ROUNDTRIP
360
432
  0
DICTIONARY
  5
435
330
3CA
100
AcDbDictionary
280
     1
281
     1
  3
ACAD_XREC_ROUNDTRIP
360
436
  0
DICTIONARY
  5
433
330
3C6
100
AcDbDictionary
280
     1
281
     1
  3
ACAD_XREC_ROUNDTRIP
360
434
  0
DICTIONARY
  5
372
330
371
100
AcDbDictionary
280
     1
281
     1
  3
ACAD_XREC_ROUNDTRIP
360
3FB
  3
BUMPTILE
360
374
  3
DIFFUSETILE
360
373
  3
OPACITYTILE
360
377
  3
REFLECTIONTILE
360
376
  3
REFRACTIONTILE
360
378
  3
SPECULARTILE
360
375
  0
DICTIONARY
  5
36A
330
369
100
AcDbDictionary
280
     1
281
     1
  3
ACAD_XREC_ROUNDTRIP
360
3FA
  3
BUMPTILE
360
36C
  3
DIFFUSETILE
360
36B
  3
OPACITYTILE
360
36F
  3
REFLECTIONTILE
360
36E
  3
REFRACTIONTILE
360
370
  3
SPECULARTILE
360
36D
  0
DICTIONARY
  5
37A
330
379
100
AcDbDictionary
280
     1
281
     1
  3
ACAD_XREC_ROUNDTRIP
360
3FC
  3
BUMPTILE
360
37C
  3
DIFFUSETILE
360
37B
  3
OPACITYTILE
360
37F
  3
REFLECTIONTILE
360
37E
  3
REFRACTIONTILE
360
380
  3
SPECULARTILE
360
37D
  0
DICTIONARY
  5
42F
330
3C0
100
AcDbDictionary
280
     1
281
     1
  3
ACAD_XREC_ROUNDTRIP
360
430
  0
DICTIONARY
  5
3F6
330
3BC
100
AcDbDictionary
280
     1
281
     1
  3
ACAD_ROUNDTRIP_2008_TABLESTYLE_CELLSTYLEMAP
360
3F7
  3
ACAD_XREC_ROUNDTRIP
360
42D
  0
DICTIONARY
  5
407
330
387
100
AcDbDictionary
280
     1
281
     1
  3
ACAD_XREC_ROUNDTRIP
360
408
  0
DICTIONARY
  5
405
330
386
100
AcDbDictionary
280
     1
281
     1
  3
ACAD_XREC_ROUNDTRIP
360
406
  0
DICTIONARY
  5
413
330
38D
100
AcDbDictionary
280
     1
281
     1
  3
ACAD_XREC_ROUNDTRIP
360
414
  0
DICTIONARY
  5
41B
330
391
100
AcDbDictionary
280
     1
281
     1
  3
ACAD_XREC_ROUNDTRIP
360
41C
  0
DICTIONARY
  5
40D
330
38A
100
AcDbDictionary
280
     1
281
     1
  3
ACAD_XREC_ROUNDTRIP
360
40E
  0
DICTIONARY
  5
411
330
38C
100
AcDbDictionary
280
     1
281
     1
  3
ACAD_XREC_ROUNDTRIP
360
412
  0
DICTIONARY
  5
42B
330
399
100
AcDbDictionary
280
     1
281
     1
  3
ACAD_XREC_ROUNDTRIP
360
42C
  0
DICTIONARY
  5
419
330
390
100
AcDbDictionary
280
     1
281
     1
  3
ACAD_XREC_ROUNDTRIP
360
41A
  0
DICTIONARY
  5
3FD
330
382
100
AcDbDictionary
280
     1
281
     1
  3
ACAD_XREC_ROUNDTRIP
360
3FE
  0
DICTIONARY
  5
3FF
330
383
100
AcDbDictionary
280
     1
281
     1
  3
ACAD_XREC_ROUNDTRIP
360
400
  0
DICTIONARY
  5
401
330
384
100
AcDbDictionary
280
     1
281
     1
  3
ACAD_XREC_ROUNDTRIP
360
402
  0
DICTIONARY
  5
403
330
385
100
AcDbDictionary
280
     1
281
     1
  3
ACAD_XREC_ROUNDTRIP
360
404
  0
DICTIONARY
  5
40B
330
389
100
AcDbDictionary
280
     1
281
     1
  3
ACAD_XREC_ROUNDTRIP
360
40C
  0
DICTIONARY
  5
427
330
397
100
AcDbDictionary
280
     1
281
     1
  3
ACAD_XREC_ROUNDTRIP
360
428
  0
DICTIONARY
  5
417
330
38F
100
AcDbDictionary
280
     1
281
     1
  3
ACAD_XREC_ROUNDTRIP
360
418
  0
DICTIONARY
  5
429
330
398
100
AcDbDictionary
280
     1
281
     1
  3
ACAD_XREC_ROUNDTRIP
360
42A
  0
DICTIONARY
  5
40F
330
38B
100
AcDbDictionary
280
     1
281
     1
  3
ACAD_XREC_ROUNDTRIP
360
410
  0
DICTIONARY
  5
425
330
396
100
AcDbDictionary
280
     1
281
     1
  3
ACAD_XREC_ROUNDTRIP
360
426
  0
DICTIONARY
  5
423
330
395
100
AcDbDictionary
280
     1
281
     1
  3
ACAD_XREC_ROUNDTRIP
360
424
  0
DICTIONARY
  5
41D
330
392
100
AcDbDictionary
280
     1
281
     1
  3
ACAD_XREC_ROUNDTRIP
360
41E
  0
DICTIONARY
  5
41F
330
393
100
AcDbDictionary
280
     1
281
     1
  3
ACAD_XREC_ROUNDTRIP
360
420
  0
DICTIONARY
  5
415
330
38E
100
AcDbDictionary
280
     1
281
     1
  3
ACAD_XREC_ROUNDTRIP
360
416
  0
DICTIONARY
  5
409
330
388
100
AcDbDictionary
280
     1
281
     1
  3
ACAD_XREC_ROUNDTRIP
360
40A
  0
DICTIONARY
  5
421
330
394
100
AcDbDictionary
280
     1
281
     1
  3
ACAD_XREC_ROUNDTRIP
360
422
  0
XRECORD
  5
432
102
{ACAD_REACTORS
330
431
102
}
330
431
100
AcDbXrecord
280
     1
102
DISPLAYNAME
  1
Imperial24
102
FLAGS
 90
        0
  0
XRECORD
  5
436
102
{ACAD_REACTORS
330
435
102
}
330
435
100
AcDbXrecord
280
     1
102
SHADEPLOT
 70
     0
102
SHADEPLOTRESLEVEL
 70
     2
102
SHADEPLOTCUSTOMDPI
 70
   300
  0
XRECORD
  5
434
102
{ACAD_REACTORS
330
433
102
}
330
433
100
AcDbXrecord
280
     1
102
SHADEPLOT
 70
     0
102
SHADEPLOTRESLEVEL
 70
     2
102
SHADEPLOTCUSTOMDPI
 70
   300
  0
XRECORD
  5
3FB
102
{ACAD_REACTORS
330
372
102
}
330
372
100
AcDbXrecord
280
     1
102
MATERIAL
148
0.0
149
0.0
149
0.0
 93
        0
 94
      127
282
     0
 72
     0
 77
     0
171
     0
175
     0
179
     0
273
     0
  0
XRECORD
  5
374
102
{ACAD_REACTORS
330
372
102
}
330
372
100
AcDbXrecord
280
     1
270
     1
271
     1
  0
XRECORD
  5
373
102
{ACAD_REACTORS
330
372
102
}
330
372
100
AcDbXrecord
280
     1
270
     1
271
     1
  0
XRECORD
  5
377
102
{ACAD_REACTORS
330
372
102
}
330
372
100
AcDbXrecord
280
     1
270
     1
271
     1
  0
XRECORD
  5
376
102
{ACAD_REACTORS
330
372
102
}
330
372
100
AcDbXrecord
280
     1
270
     1
271
     1
  0
XRECORD
  5
378
102
{ACAD_REACTORS
330
372
102
}
330
372
100
AcDbXrecord
280
     1
270
     1
271
     1
  0
XRECORD
  5
375
102
{ACAD_REACTORS
330
372
102
}
330
372
100
AcDbXrecord
280
     1
270
     1
271
     1
  0
XRECORD
  5
3FA
102
{ACAD_REACTORS
330
36A
102
}
330
36A
100
AcDbXrecord
280
     1
102
MATERIAL
148
0.0
149
0.0
149
0.0
 93
        0
 94
      127
282
     0
 72
     0
 77
     0
171
     0
175
     0
179
     0
273
     0
  0
XRECORD
  5
36C
102
{ACAD_REACTORS
330
36A
102
}
330
36A
100
AcDbXrecord
280
     1
270
     1
271
     1
  0
XRECORD
  5
36B
102
{ACAD_REACTORS
330
36A
102
}
330
36A
100
AcDbXrecord
280
     1
270
     1
271
     1
  0
XRECORD
  5
36F
102
{ACAD_REACTORS
330
36A
102
}
330
36A
100
AcDbXrecord
280
     1
270
     1
271
     1
  0
XRECORD
  5
36E
102
{ACAD_REACTORS
330
36A
102
}
330
36A
100
AcDbXrecord
280
     1
270
     1
271
     1
  0
XRECORD
  5
370
102
{ACAD_REACTORS
330
36A
102
}
330
36A
100
AcDbXrecord
280
     1
270
     1
271
     1
  0
XRECORD
  5
36D
102
{ACAD_REACTORS
330
36A
102
}
330
36A
100
AcDbXrecord
280
     1
270
     1
271
     1
  0
XRECORD
  5
3FC
102
{ACAD_REACTORS
330
37A
102
}
330
37A
100
AcDbXrecord
280
     1
102
MATERIAL
148
0.0
149
0.0
149
0.0
 93
        0
 94
      127
282
     0
 72
     0
 77
     0
171
     0
175
     0
179
     0
273
     0
  0
XRECORD
  5
37C
102
{ACAD_REACTORS
330
37A
102
}
330
37A
100
AcDbXrecord
280
     1
270
     1
271
     1
  0
XRECORD
  5
37B
102
{ACAD_REACTORS
330
37A
102
}
330
37A
100
AcDbXrecord
280
     1
270
     1
271
     1
  0
XRECORD
  5
37F
102
{ACAD_REACTORS
330
37A
102
}
330
37A
100
AcDbXrecord
280
     1
270
     1
271
     1
  0
XRECORD
  5
37E
102
{ACAD_REACTORS
330
37A
102
}
330
37A
100
AcDbXrecord
280
     1
270
     1
271
     1
  0
XRECORD
  5
380
102
{ACAD_REACTORS
330
37A
102
}
330
37A
100
AcDbXrecord
280
     1
270
     1
271
     1
  0
XRECORD
  5
37D
102
{ACAD_REACTORS
330
37A
102
}
330
37A
100
AcDbXrecord
280
     1
270
     1
271
     1
  0
XRECORD
  5
430
102
{ACAD_REACTORS
330
42F
102
}
330
42F
100
AcDbXrecord
280
     1
102
DISPLAYNAME
  1
Imperial24
102
FLAGS
 90
        0
  0
CELLSTYLEMAP
  5
3F7
102
{ACAD_REACTORS
330
3F6
102
}
330
3F6
100
AcDbCellStyleMap
 90
        3
300
CELLSTYLE
  1
TABLEFORMAT_BEGIN
 90
        5
170
     1
 91
        0
 92
    32768
 62
   257
 93
        1
300
CONTENTFORMAT
  1
CONTENTFORMAT_BEGIN
 90
        0
 91
        0
 92
      512
 93
        0
300

 40
0.0
140
1.0
 94
        5
 62
     0
340
3AD
144
0.25
309
CONTENTFORMAT_END
171
     0
 94
        0
309
TABLEFORMAT_END
  1
CELLSTYLE_BEGIN
 90
        1
 91
        1
300
_TITLE
309
CELLSTYLE_END
300
CELLSTYLE
  1
TABLEFORMAT_BEGIN
 90
        5
170
     1
 91
        0
 92
        0
 62
   257
 93
        1
300
CONTENTFORMAT
  1
CONTENTFORMAT_BEGIN
 90
        0
 91
        0
 92
      512
 93
        0
300

 40
0.0
140
1.0
 94
        5
 62
     0
340
3AD
144
0.18
309
CONTENTFORMAT_END
171
     0
 94
        0
309
TABLEFORMAT_END
  1
CELLSTYLE_BEGIN
 90
        2
 91
        1
300
_HEADER
309
CELLSTYLE_END
300
CELLSTYLE
  1
TABLEFORMAT_BEGIN
 90
        5
170
     1
 91
        0
 92
        0
 62
   257
 93
        1
300
CONTENTFORMAT
  1
CONTENTFORMAT_BEGIN
 90
        0
 91
        0
 92
      512
 93
        0
300

 40
0.0
140
1.0
 94
        2
 62
     0
340
3AD
144
0.18
309
CONTENTFORMAT_END
171
     0
 94
        0
309
TABLEFORMAT_END
  1
CELLSTYLE_BEGIN
 90
        3
 91
        2
300
_DATA
309
CELLSTYLE_END
  0
XRECORD
  5
42D
102
{ACAD_REACTORS
330
3F6
102
}
330
3F6
100
AcDbXrecord
280
     1
102
ACAD_ROUNDTRIP_PRE2007_TABLESTYLE
 90
      512
 91
        0
  1

 92
      512
 93
        0
  2

 94
      512
 95
        0
  3

  0
XRECORD
  5
408
102
{ACAD_REACTORS
330
407
102
}
330
407
100
AcDbXrecord
280
     1
102
RTVSPost2010Prop28
280
     1
102
RTVSPost2010PropOp28
 70
     1
102
RTVSPost2010Prop29
280
     1
102
RTVSPost2010PropOp29
 70
     1
102
RTVSPost2010Prop30
280
     0
102
RTVSPost2010PropOp30
 70
     1
102
RTVSPost2010Prop31
280
     0
102
RTVSPost2010PropOp31
 70
     1
102
RTVSPost2010Prop32
280
     0
102
RTVSPost2010PropOp32
 70
     1
102
RTVSPost2010Prop33
280
     0
102
RTVSPost2010PropOp33
 70
     1
102
RTVSPost2010Prop34
280
     0
102
RTVSPost2010PropOp34
 70
     1
102
RTVSPost2010Prop35
280
     0
102
RTVSPost2010PropOp35
 70
     1
102
RTVSPost2010Prop36
280
     0
102
RTVSPost2010PropOp36
 70
     1
102
RTVSPost2010Prop37
 90
       50
102
RTVSPost2010PropOp37
 70
     1
102
RTVSPost2010Prop38
140
0.0
102
RTVSPost2010PropOp38
 70
     1
102
RTVSPost2010Prop39
140
1.0
102
RTVSPost2010PropOp39
 70
     1
102
RTVSPost2010Prop40
 90
        0
102
RTVSPost2010PropOp40
 70
     1
102
RTVSPost2010Prop41ColorIndex
 90
       18
102
RTVSPost2010Prop41ColorRGB
 90
        0
102
RTVSPost2010PropOp41
 70
     1
102
RTVSPost2010Prop42
 90
       50
102
RTVSPost2010PropOp42
 70
     1
102
RTVSPost2010Prop43
 90
        3
102
RTVSPost2010PropOp43
 70
     1
102
RTVSPost2010Prop44ColorIndex
 90
        5
102
RTVSPost2010Prop44ColorRGB
 90
      255
102
RTVSPost2010PropOp44
 70
     1
102
RTVSPost2010Prop45
280
     0
102
RTVSPost2010PropOp45
 70
     1
102
RTVSPost2010Prop46
 90
       50
102
RTVSPost2010PropOp46
 70
     1
102
RTVSPost2010Prop47
 90
       50
102
RTVSPost2010PropOp47
 70
     1
102
RTVSPost2010Prop48
 90
       50
102
RTVSPost2010PropOp48
 70
     1
102
RTVSPost2010Prop49
280
     0
102
RTVSPost2010PropOp49
 70
     1
102
RTVSPost2010Prop50
 90
       50
102
RTVSPost2010PropOp50
 70
     1
102
RTVSPost2010Prop51ColorIndex
 90
      256
102
RTVSPost2010Prop51ColorRGB
 90
-16777216
102
RTVSPost2010PropOp51
 70
     0
102
RTVSPost2010Prop52
140
1.0
102
RTVSPost2010PropOp52
 70
     0
102
RTVSPost2010Prop53
 90
        2
102
RTVSPost2010PropOp53
 70
     1
102
RTVSPost2010Prop54
  1
strokes_ogs.tif
102
RTVSPost2010PropOp54
 70
     1
102
RTVSPost2010Prop55
280
     0
102
RTVSPost2010PropOp55
 70
     1
102
RTVSPost2010Prop56
140
1.0
102
RTVSPost2010PropOp56
 70
     1
102
RTVSPost2010Prop57
140
1.0
102
RTVSPost2010PropOp57
 70
     1
102
RTVSPropertyOp0
 70
     1
102
RTVSPropertyOp1
 70
     1
102
RTVSPropertyOp2
 70
     1
102
RTVSPropertyOp3
 70
     1
102
RTVSPropertyOp4
 70
     1
102
RTVSPropertyOp5
 70
     1
102
RTVSPropertyOp6
 70
     1
102
RTVSPropertyOp7
 70
     1
102
RTVSPropertyOp8
 70
     1
102
RTVSPropertyOp9
 70
     1
102
RTVSPropertyOp10
 70
     1
102
RTVSPropertyOp11
 70
     1
102
RTVSPropertyOp12
 70
     1
102
RTVSPropertyOp13
 70
     1
102
RTVSPropertyOp14
 70
     1
102
RTVSPropertyOp15
 70
     1
102
RTVSPropertyOp16
 70
     1
102
RTVSPropertyOp17
 70
     1
102
RTVSPropertyOp18
 70
     1
102
RTVSPropertyOp19
 70
     1
102
RTVSPropertyOp20
 70
     1
102
RTVSPropertyOp21
 70
     1
102
RTVSPropertyOp22
 70
     1
102
RTVSPropertyOp23
 70
     1
102
RTVSPropertyOp24
 70
     1
102
RTVSPropertyOp25
 70
     1
102
RTVSPropertyOp26
 70
     1
102
RTVSPropertyOp27
 70
     1
102
RTVSPropertyOp28
 70
     1
102
RTVSPropertyOp29
 70
     1
102
RTVSPropertyOp30
 70
     1
102
RTVSPropertyOp31
 70
     1
102
RTVSPropertyOp32
 70
     1
102
RTVSPropertyOp33
 70
     1
102
RTVSPropertyOp34
 70
     1
102
RTVSPropertyOp35
 70
     1
102
RTVSPropertyOp36
 70
     1
102
RTVSPropertyOp37
 70
     1
102
RTVSPropertyOp38
 70
     1
102
RTVSPropertyOp39
 70
     1
102
RTVSPropertyOp40
 70
     1
102
RTVSPropertyOp41
 70
     1
102
RTVSPropertyOp42
 70
     1
102
RTVSPropertyOp43
 70
     1
102
RTVSPropertyOp44
 70
     1
102
RTVSPropertyOp45
 70
     1
102
RTVSPropertyOp46
 70
     1
102
RTVSPropertyOp47
 70
     1
102
RTVSPropertyOp48
 70
     1
102
RTVSPropertyOp49
 70
     1
102
RTVSPropertyOp50
 70
     1
102
RTVSPropertyOp51
 70
     0
102
RTVSPropertyOp52
 70
     0
102
RTVSPropertyOp53
 70
     1
102
RTVSPropertyOp54
 70
     1
102
RTVSPropertyOp55
 70
     1
102
RTVSPropertyOp56
 70
     1
102
RTVSPropertyOp57
 70
     1
102
RTVSPropertyOp58
 70
     1
102
RTVSPropertyOp59
 70
     1
102
RTVSPropertyOp60
 70
     1
102
RTVSPropertyOp61
 70
     1
102
RTVSPropertyOp62
 70
     1
  0
XRECORD
  5
406
102
{ACAD_REACTORS
330
405
102
}
330
405
100
AcDbXrecord
280
     1
102
RTVSPost2010Prop28
280
     0
102
RTVSPost2010PropOp28
 70
     1
102
RTVSPost2010Prop29
280
     1
102
RTVSPost2010PropOp29
 70
     1
102
RTVSPost2010Prop30
280
     1
102
RTVSPost2010PropOp30
 70
     1
102
RTVSPost2010Prop31
280
     0
102
RTVSPost2010PropOp31
 70
     1
102
RTVSPost2010Prop32
280
     0
102
RTVSPost2010PropOp32
 70
     1
102
RTVSPost2010Prop33
280
     0
102
RTVSPost2010PropOp33
 70
     1
102
RTVSPost2010Prop34
280
     0
102
RTVSPost2010PropOp34
 70
     1
102
RTVSPost2010Prop35
280
     0
102
RTVSPost2010PropOp35
 70
     1
102
RTVSPost2010Prop36
280
     0
102
RTVSPost2010PropOp36
 70
     1
102
RTVSPost2010Prop37
 90
       50
102
RTVSPost2010PropOp37
 70
     1
102
RTVSPost2010Prop38
140
0.0
102
RTVSPost2010PropOp38
 70
     1
102
RTVSPost2010Prop39
140
1.0
102
RTVSPost2010PropOp39
 70
     1
102
RTVSPost2010Prop40
 90
        0
102
RTVSPost2010PropOp40
 70
     1
102
RTVSPost2010Prop41ColorIndex
 90
       18
102
RTVSPost2010Prop41ColorRGB
 90
        0
102
RTVSPost2010PropOp41
 70
     1
102
RTVSPost2010Prop42
 90
       50
102
RTVSPost2010PropOp42
 70
     1
102
RTVSPost2010Prop43
 90
        3
102
RTVSPost2010PropOp43
 70
     1
102
RTVSPost2010Prop44ColorIndex
 90
        5
102
RTVSPost2010Prop44ColorRGB
 90
      255
102
RTVSPost2010PropOp44
 70
     1
102
RTVSPost2010Prop45
280
     0
102
RTVSPost2010PropOp45
 70
     1
102
RTVSPost2010Prop46
 90
       50
102
RTVSPost2010PropOp46
 70
     1
102
RTVSPost2010Prop47
 90
       50
102
RTVSPost2010PropOp47
 70
     1
102
RTVSPost2010Prop48
 90
       50
102
RTVSPost2010PropOp48
 70
     1
102
RTVSPost2010Prop49
280
     0
102
RTVSPost2010PropOp49
 70
     1
102
RTVSPost2010Prop50
 90
       50
102
RTVSPost2010PropOp50
 70
     1
102
RTVSPost2010Prop51ColorIndex
 90
      256
102
RTVSPost2010Prop51ColorRGB
 90
-16777216
102
RTVSPost2010PropOp51
 70
     0
102
RTVSPost2010Prop52
140
1.0
102
RTVSPost2010PropOp52
 70
     0
102
RTVSPost2010Prop53
 90
        2
102
RTVSPost2010PropOp53
 70
     1
102
RTVSPost2010Prop54
  1
strokes_ogs.tif
102
RTVSPost2010PropOp54
 70
     1
102
RTVSPost2010Prop55
280
     0
102
RTVSPost2010PropOp55
 70
     1
102
RTVSPost2010Prop56
140
1.0
102
RTVSPost2010PropOp56
 70
     1
102
RTVSPost2010Prop57
140
1.0
102
RTVSPost2010PropOp57
 70
     1
102
RTVSPropertyOp0
 70
     1
102
RTVSPropertyOp1
 70
     1
102
RTVSPropertyOp2
 70
     1
102
RTVSPropertyOp3
 70
     1
102
RTVSPropertyOp4
 70
     1
102
RTVSPropertyOp5
 70
     1
102
RTVSPropertyOp6
 70
     1
102
RTVSPropertyOp7
 70
     1
102
RTVSPropertyOp8
 70
     1
102
RTVSPropertyOp9
 70
     1
102
RTVSPropertyOp10
 70
     1
102
RTVSPropertyOp11
 70
     1
102
RTVSPropertyOp12
 70
     1
102
RTVSPropertyOp13
 70
     1
102
RTVSPropertyOp14
 70
     1
102
RTVSPropertyOp15
 70
     1
102
RTVSPropertyOp16
 70
     1
102
RTVSPropertyOp17
 70
     1
102
RTVSPropertyOp18
 70
     1
102
RTVSPropertyOp19
 70
     1
102
RTVSPropertyOp20
 70
     1
102
RTVSPropertyOp21
 70
     1
102
RTVSPropertyOp22
 70
     1
102
RTVSPropertyOp23
 70
     1
102
RTVSPropertyOp24
 70
     1
102
RTVSPropertyOp25
 70
     1
102
RTVSPropertyOp26
 70
     1
102
RTVSPropertyOp27
 70
     1
102
RTVSPropertyOp28
 70
     1
102
RTVSPropertyOp29
 70
     1
102
RTVSPropertyOp30
 70
     1
102
RTVSPropertyOp31
 70
     1
102
RTVSPropertyOp32
 70
     1
102
RTVSPropertyOp33
 70
     1
102
RTVSPropertyOp34
 70
     1
102
RTVSPropertyOp35
 70
     1
102
RTVSPropertyOp36
 70
     1
102
RTVSPropertyOp37
 70
     1
102
RTVSPropertyOp38
 70
     1
102
RTVSPropertyOp39
 70
     1
102
RTVSPropertyOp40
 70
     1
102
RTVSPropertyOp41
 70
     1
102
RTVSPropertyOp42
 70
     1
102
RTVSPropertyOp43
 70
     1
102
RTVSPropertyOp44
 70
     1
102
RTVSPropertyOp45
 70
     1
102
RTVSPropertyOp46
 70
     1
102
RTVSPropertyOp47
 70
     1
102
RTVSPropertyOp48
 70
     1
102
RTVSPropertyOp49
 70
     1
102
RTVSPropertyOp50
 70
     1
102
RTVSPropertyOp51
 70
     0
102
RTVSPropertyOp52
 70
     0
102
RTVSPropertyOp53
 70
     1
102
RTVSPropertyOp54
 70
     1
102
RTVSPropertyOp55
 70
     1
102
RTVSPropertyOp56
 70
     1
102
RTVSPropertyOp57
 70
     1
102
RTVSPropertyOp58
 70
     1
102
RTVSPropertyOp59
 70
     1
102
RTVSPropertyOp60
 70
     1
102
RTVSPropertyOp61
 70
     1
102
RTVSPropertyOp62
 70
     1
  0
XRECORD
  5
414
102
{ACAD_REACTORS
330
413
102
}
330
413
100
AcDbXrecord
280
     1
102
RTVSPost2010Prop28
280
     0
102
RTVSPost2010PropOp28
 70
     1
102
RTVSPost2010Prop29
280
     1
102
RTVSPost2010PropOp29
 70
     1
102
RTVSPost2010Prop30
280
     1
102
RTVSPost2010PropOp30
 70
     1
102
RTVSPost2010Prop31
280
     0
102
RTVSPost2010PropOp31
 70
     1
102
RTVSPost2010Prop32
280
     0
102
RTVSPost2010PropOp32
 70
     1
102
RTVSPost2010Prop33
280
     0
102
RTVSPost2010PropOp33
 70
     1
102
RTVSPost2010Prop34
280
     0
102
RTVSPost2010PropOp34
 70
     1
102
RTVSPost2010Prop35
280
     0
102
RTVSPost2010PropOp35
 70
     1
102
RTVSPost2010Prop36
280
     0
102
RTVSPost2010PropOp36
 70
     1
102
RTVSPost2010Prop37
 90
       50
102
RTVSPost2010PropOp37
 70
     1
102
RTVSPost2010Prop38
140
0.0
102
RTVSPost2010PropOp38
 70
     1
102
RTVSPost2010Prop39
140
1.0
102
RTVSPost2010PropOp39
 70
     1
102
RTVSPost2010Prop40
 90
        0
102
RTVSPost2010PropOp40
 70
     1
102
RTVSPost2010Prop41ColorIndex
 90
       18
102
RTVSPost2010Prop41ColorRGB
 90
        0
102
RTVSPost2010PropOp41
 70
     1
102
RTVSPost2010Prop42
 90
       50
102
RTVSPost2010PropOp42
 70
     1
102
RTVSPost2010Prop43
 90
        3
102
RTVSPost2010PropOp43
 70
     1
102
RTVSPost2010Prop44ColorIndex
 90
        5
102
RTVSPost2010Prop44ColorRGB
 90
      255
102
RTVSPost2010PropOp44
 70
     1
102
RTVSPost2010Prop45
280
     0
102
RTVSPost2010PropOp45
 70
     1
102
RTVSPost2010Prop46
 90
       50
102
RTVSPost2010PropOp46
 70
     1
102
RTVSPost2010Prop47
 90
       50
102
RTVSPost2010PropOp47
 70
     1
102
RTVSPost2010Prop48
 90
       50
102
RTVSPost2010PropOp48
 70
     1
102
RTVSPost2010Prop49
280
     0
102
RTVSPost2010PropOp49
 70
     1
102
RTVSPost2010Prop50
 90
       50
102
RTVSPost2010PropOp50
 70
     1
102
RTVSPost2010Prop51ColorIndex
 90
      256
102
RTVSPost2010Prop51ColorRGB
 90
-16777216
102
RTVSPost2010PropOp51
 70
     0
102
RTVSPost2010Prop52
140
1.0
102
RTVSPost2010PropOp52
 70
     0
102
RTVSPost2010Prop53
 90
        2
102
RTVSPost2010PropOp53
 70
     1
102
RTVSPost2010Prop54
  1
strokes_ogs.tif
102
RTVSPost2010PropOp54
 70
     1
102
RTVSPost2010Prop55
280
     0
102
RTVSPost2010PropOp55
 70
     1
102
RTVSPost2010Prop56
140
1.0
102
RTVSPost2010PropOp56
 70
     1
102
RTVSPost2010Prop57
140
1.0
102
RTVSPost2010PropOp57
 70
     1
102
RTVSPropertyOp0
 70
     1
102
RTVSPropertyOp1
 70
     1
102
RTVSPropertyOp2
 70
     1
102
RTVSPropertyOp3
 70
     1
102
RTVSPropertyOp4
 70
     1
102
RTVSPropertyOp5
 70
     1
102
RTVSPropertyOp6
 70
     1
102
RTVSPropertyOp7
 70
     1
102
RTVSPropertyOp8
 70
     1
102
RTVSPropertyOp9
 70
     1
102
RTVSPropertyOp10
 70
     1
102
RTVSPropertyOp11
 70
     1
102
RTVSPropertyOp12
 70
     1
102
RTVSPropertyOp13
 70
     1
102
RTVSPropertyOp14
 70
     1
102
RTVSPropertyOp15
 70
     1
102
RTVSPropertyOp16
 70
     1
102
RTVSPropertyOp17
 70
     1
102
RTVSPropertyOp18
 70
     1
102
RTVSPropertyOp19
 70
     1
102
RTVSPropertyOp20
 70
     1
102
RTVSPropertyOp21
 70
     1
102
RTVSPropertyOp22
 70
     1
102
RTVSPropertyOp23
 70
     1
102
RTVSPropertyOp24
 70
     1
102
RTVSPropertyOp25
 70
     1
102
RTVSPropertyOp26
 70
     1
102
RTVSPropertyOp27
 70
     1
102
RTVSPropertyOp28
 70
     1
102
RTVSPropertyOp29
 70
     1
102
RTVSPropertyOp30
 70
     1
102
RTVSPropertyOp31
 70
     1
102
RTVSPropertyOp32
 70
     1
102
RTVSPropertyOp33
 70
     1
102
RTVSPropertyOp34
 70
     1
102
RTVSPropertyOp35
 70
     1
102
RTVSPropertyOp36
 70
     1
102
RTVSPropertyOp37
 70
     1
102
RTVSPropertyOp38
 70
     1
102
RTVSPropertyOp39
 70
     1
102
RTVSPropertyOp40
 70
     1
102
RTVSPropertyOp41
 70
     1
102
RTVSPropertyOp42
 70
     1
102
RTVSPropertyOp43
 70
     1
102
RTVSPropertyOp44
 70
     1
102
RTVSPropertyOp45
 70
     1
102
RTVSPropertyOp46
 70
     1
102
RTVSPropertyOp47
 70
     1
102
RTVSPropertyOp48
 70
     1
102
RTVSPropertyOp49
 70
     1
102
RTVSPropertyOp50
 70
     1
102
RTVSPropertyOp51
 70
     0
102
RTVSPropertyOp52
 70
     0
102
RTVSPropertyOp53
 70
     1
102
RTVSPropertyOp54
 70
     1
102
RTVSPropertyOp55
 70
     1
102
RTVSPropertyOp56
 70
     1
102
RTVSPropertyOp57
 70
     1
102
RTVSPropertyOp58
 70
     1
102
RTVSPropertyOp59
 70
     1
102
RTVSPropertyOp60
 70
     1
102
RTVSPropertyOp61
 70
     1
102
RTVSPropertyOp62
 70
     1
  0
XRECORD
  5
41C
102
{ACAD_REACTORS
330
41B
102
}
330
41B
100
AcDbXrecord
280
     1
102
RTVSPost2010Prop28
280
     0
102
RTVSPost2010PropOp28
 70
     1
102
RTVSPost2010Prop29
280
     1
102
RTVSPost2010PropOp29
 70
     1
102
RTVSPost2010Prop30
280
     1
102
RTVSPost2010PropOp30
 70
     1
102
RTVSPost2010Prop31
280
     0
102
RTVSPost2010PropOp31
 70
     1
102
RTVSPost2010Prop32
280
     0
102
RTVSPost2010PropOp32
 70
     1
102
RTVSPost2010Prop33
280
     0
102
RTVSPost2010PropOp33
 70
     1
102
RTVSPost2010Prop34
280
     0
102
RTVSPost2010PropOp34
 70
     1
102
RTVSPost2010Prop35
280
     0
102
RTVSPost2010PropOp35
 70
     1
102
RTVSPost2010Prop36
280
     0
102
RTVSPost2010PropOp36
 70
     1
102
RTVSPost2010Prop37
 90
       50
102
RTVSPost2010PropOp37
 70
     1
102
RTVSPost2010Prop38
140
0.0
102
RTVSPost2010PropOp38
 70
     1
102
RTVSPost2010Prop39
140
1.0
102
RTVSPost2010PropOp39
 70
     1
102
RTVSPost2010Prop40
 90
        0
102
RTVSPost2010PropOp40
 70
     1
102
RTVSPost2010Prop41ColorIndex
 90
       18
102
RTVSPost2010Prop41ColorRGB
 90
        0
102
RTVSPost2010PropOp41
 70
     1
102
RTVSPost2010Prop42
 90
       50
102
RTVSPost2010PropOp42
 70
     1
102
RTVSPost2010Prop43
 90
        3
102
RTVSPost2010PropOp43
 70
     1
102
RTVSPost2010Prop44ColorIndex
 90
        5
102
RTVSPost2010Prop44ColorRGB
 90
      255
102
RTVSPost2010PropOp44
 70
     1
102
RTVSPost2010Prop45
280
     0
102
RTVSPost2010PropOp45
 70
     1
102
RTVSPost2010Prop46
 90
       50
102
RTVSPost2010PropOp46
 70
     1
102
RTVSPost2010Prop47
 90
       50
102
RTVSPost2010PropOp47
 70
     1
102
RTVSPost2010Prop48
 90
       50
102
RTVSPost2010PropOp48
 70
     1
102
RTVSPost2010Prop49
280
     0
102
RTVSPost2010PropOp49
 70
     1
102
RTVSPost2010Prop50
 90
       50
102
RTVSPost2010PropOp50
 70
     1
102
RTVSPost2010Prop51ColorIndex
 90
      256
102
RTVSPost2010Prop51ColorRGB
 90
-16777216
102
RTVSPost2010PropOp51
 70
     0
102
RTVSPost2010Prop52
140
1.0
102
RTVSPost2010PropOp52
 70
     0
102
RTVSPost2010Prop53
 90
        2
102
RTVSPost2010PropOp53
 70
     1
102
RTVSPost2010Prop54
  1
strokes_ogs.tif
102
RTVSPost2010PropOp54
 70
     1
102
RTVSPost2010Prop55
280
     0
102
RTVSPost2010PropOp55
 70
     1
102
RTVSPost2010Prop56
140
1.0
102
RTVSPost2010PropOp56
 70
     1
102
RTVSPost2010Prop57
140
1.0
102
RTVSPost2010PropOp57
 70
     1
102
RTVSPropertyOp0
 70
     1
102
RTVSPropertyOp1
 70
     1
102
RTVSPropertyOp2
 70
     1
102
RTVSPropertyOp3
 70
     1
102
RTVSPropertyOp4
 70
     1
102
RTVSPropertyOp5
 70
     1
102
RTVSPropertyOp6
 70
     1
102
RTVSPropertyOp7
 70
     1
102
RTVSPropertyOp8
 70
     1
102
RTVSPropertyOp9
 70
     1
102
RTVSPropertyOp10
 70
     1
102
RTVSPropertyOp11
 70
     1
102
RTVSPropertyOp12
 70
     1
102
RTVSPropertyOp13
 70
     1
102
RTVSPropertyOp14
 70
     1
102
RTVSPropertyOp15
 70
     1
102
RTVSPropertyOp16
 70
     1
102
RTVSPropertyOp17
 70
     1
102
RTVSPropertyOp18
 70
     1
102
RTVSPropertyOp19
 70
     1
102
RTVSPropertyOp20
 70
     1
102
RTVSPropertyOp21
 70
     1
102
RTVSPropertyOp22
 70
     1
102
RTVSPropertyOp23
 70
     1
102
RTVSPropertyOp24
 70
     1
102
RTVSPropertyOp25
 70
     1
102
RTVSPropertyOp26
 70
     1
102
RTVSPropertyOp27
 70
     1
102
RTVSPropertyOp28
 70
     1
102
RTVSPropertyOp29
 70
     1
102
RTVSPropertyOp30
 70
     1
102
RTVSPropertyOp31
 70
     1
102
RTVSPropertyOp32
 70
     1
102
RTVSPropertyOp33
 70
     1
102
RTVSPropertyOp34
 70
     1
102
RTVSPropertyOp35
 70
     1
102
RTVSPropertyOp36
 70
     1
102
RTVSPropertyOp37
 70
     1
102
RTVSPropertyOp38
 70
     1
102
RTVSPropertyOp39
 70
     1
102
RTVSPropertyOp40
 70
     1
102
RTVSPropertyOp41
 70
     1
102
RTVSPropertyOp42
 70
     1
102
RTVSPropertyOp43
 70
     1
102
RTVSPropertyOp44
 70
     1
102
RTVSPropertyOp45
 70
     1
102
RTVSPropertyOp46
 70
     1
102
RTVSPropertyOp47
 70
     1
102
RTVSPropertyOp48
 70
     1
102
RTVSPropertyOp49
 70
     1
102
RTVSPropertyOp50
 70
     1
102
RTVSPropertyOp51
 70
     0
102
RTVSPropertyOp52
 70
     0
102
RTVSPropertyOp53
 70
     1
102
RTVSPropertyOp54
 70
     1
102
RTVSPropertyOp55
 70
     1
102
RTVSPropertyOp56
 70
     1
102
RTVSPropertyOp57
 70
     1
102
RTVSPropertyOp58
 70
     1
102
RTVSPropertyOp59
 70
     1
102
RTVSPropertyOp60
 70
     1
102
RTVSPropertyOp61
 70
     1
102
RTVSPropertyOp62
 70
     1
  0
XRECORD
  5
40E
102
{ACAD_REACTORS
330
40D
102
}
330
40D
100
AcDbXrecord
280
     1
102
RTVSPost2010Prop28
280
     0
102
RTVSPost2010PropOp28
 70
     1
102
RTVSPost2010Prop29
280
     1
102
RTVSPost2010PropOp29
 70
     1
102
RTVSPost2010Prop30
280
     1
102
RTVSPost2010PropOp30
 70
     1
102
RTVSPost2010Prop31
280
     0
102
RTVSPost2010PropOp31
 70
     1
102
RTVSPost2010Prop32
280
     0
102
RTVSPost2010PropOp32
 70
     1
102
RTVSPost2010Prop33
280
     0
102
RTVSPost2010PropOp33
 70
     1
102
RTVSPost2010Prop34
280
     0
102
RTVSPost2010PropOp34
 70
     1
102
RTVSPost2010Prop35
280
     0
102
RTVSPost2010PropOp35
 70
     1
102
RTVSPost2010Prop36
280
     0
102
RTVSPost2010PropOp36
 70
     1
102
RTVSPost2010Prop37
 90
       50
102
RTVSPost2010PropOp37
 70
     1
102
RTVSPost2010Prop38
140
0.0
102
RTVSPost2010PropOp38
 70
     1
102
RTVSPost2010Prop39
140
1.0
102
RTVSPost2010PropOp39
 70
     1
102
RTVSPost2010Prop40
 90
        0
102
RTVSPost2010PropOp40
 70
     1
102
RTVSPost2010Prop41ColorIndex
 90
       18
102
RTVSPost2010Prop41ColorRGB
 90
        0
102
RTVSPost2010PropOp41
 70
     1
102
RTVSPost2010Prop42
 90
       50
102
RTVSPost2010PropOp42
 70
     1
102
RTVSPost2010Prop43
 90
        3
102
RTVSPost2010PropOp43
 70
     1
102
RTVSPost2010Prop44ColorIndex
 90
        5
102
RTVSPost2010Prop44ColorRGB
 90
      255
102
RTVSPost2010PropOp44
 70
     1
102
RTVSPost2010Prop45
280
     0
102
RTVSPost2010PropOp45
 70
     1
102
RTVSPost2010Prop46
 90
       50
102
RTVSPost2010PropOp46
 70
     1
102
RTVSPost2010Prop47
 90
       50
102
RTVSPost2010PropOp47
 70
     1
102
RTVSPost2010Prop48
 90
       50
102
RTVSPost2010PropOp48
 70
     1
102
RTVSPost2010Prop49
280
     0
102
RTVSPost2010PropOp49
 70
     1
102
RTVSPost2010Prop50
 90
       50
102
RTVSPost2010PropOp50
 70
     1
102
RTVSPost2010Prop51ColorIndex
 90
      256
102
RTVSPost2010Prop51ColorRGB
 90
-16777216
102
RTVSPost2010PropOp51
 70
     0
102
RTVSPost2010Prop52
140
1.0
102
RTVSPost2010PropOp52
 70
     0
102
RTVSPost2010Prop53
 90
        2
102
RTVSPost2010PropOp53
 70
     1
102
RTVSPost2010Prop54
  1
strokes_ogs.tif
102
RTVSPost2010PropOp54
 70
     1
102
RTVSPost2010Prop55
280
     0
102
RTVSPost2010PropOp55
 70
     1
102
RTVSPost2010Prop56
140
1.0
102
RTVSPost2010PropOp56
 70
     1
102
RTVSPost2010Prop57
140
1.0
102
RTVSPost2010PropOp57
 70
     1
102
RTVSPropertyOp0
 70
     1
102
RTVSPropertyOp1
 70
     1
102
RTVSPropertyOp2
 70
     1
102
RTVSPropertyOp3
 70
     1
102
RTVSPropertyOp4
 70
     1
102
RTVSPropertyOp5
 70
     1
102
RTVSPropertyOp6
 70
     1
102
RTVSPropertyOp7
 70
     1
102
RTVSPropertyOp8
 70
     1
102
RTVSPropertyOp9
 70
     1
102
RTVSPropertyOp10
 70
     1
102
RTVSPropertyOp11
 70
     1
102
RTVSPropertyOp12
 70
     1
102
RTVSPropertyOp13
 70
     1
102
RTVSPropertyOp14
 70
     1
102
RTVSPropertyOp15
 70
     1
102
RTVSPropertyOp16
 70
     1
102
RTVSPropertyOp17
 70
     1
102
RTVSPropertyOp18
 70
     1
102
RTVSPropertyOp19
 70
     1
102
RTVSPropertyOp20
 70
     1
102
RTVSPropertyOp21
 70
     1
102
RTVSPropertyOp22
 70
     1
102
RTVSPropertyOp23
 70
     1
102
RTVSPropertyOp24
 70
     1
102
RTVSPropertyOp25
 70
     1
102
RTVSPropertyOp26
 70
     1
102
RTVSPropertyOp27
 70
     1
102
RTVSPropertyOp28
 70
     1
102
RTVSPropertyOp29
 70
     1
102
RTVSPropertyOp30
 70
     1
102
RTVSPropertyOp31
 70
     1
102
RTVSPropertyOp32
 70
     1
102
RTVSPropertyOp33
 70
     1
102
RTVSPropertyOp34
 70
     1
102
RTVSPropertyOp35
 70
     1
102
RTVSPropertyOp36
 70
     1
102
RTVSPropertyOp37
 70
     1
102
RTVSPropertyOp38
 70
     1
102
RTVSPropertyOp39
 70
     1
102
RTVSPropertyOp40
 70
     1
102
RTVSPropertyOp41
 70
     1
102
RTVSPropertyOp42
 70
     1
102
RTVSPropertyOp43
 70
     1
102
RTVSPropertyOp44
 70
     1
102
RTVSPropertyOp45
 70
     1
102
RTVSPropertyOp46
 70
     1
102
RTVSPropertyOp47
 70
     1
102
RTVSPropertyOp48
 70
     1
102
RTVSPropertyOp49
 70
     1
102
RTVSPropertyOp50
 70
     1
102
RTVSPropertyOp51
 70
     0
102
RTVSPropertyOp52
 70
     0
102
RTVSPropertyOp53
 70
     1
102
RTVSPropertyOp54
 70
     1
102
RTVSPropertyOp55
 70
     1
102
RTVSPropertyOp56
 70
     1
102
RTVSPropertyOp57
 70
     1
102
RTVSPropertyOp58
 70
     1
102
RTVSPropertyOp59
 70
     1
102
RTVSPropertyOp60
 70
     1
102
RTVSPropertyOp61
 70
     1
102
RTVSPropertyOp62
 70
     1
  0
XRECORD
  5
412
102
{ACAD_REACTORS
330
411
102
}
330
411
100
AcDbXrecord
280
     1
102
RTVSPost2010Prop28
280
     0
102
RTVSPost2010PropOp28
 70
     1
102
RTVSPost2010Prop29
280
     1
102
RTVSPost2010PropOp29
 70
     1
102
RTVSPost2010Prop30
280
     1
102
RTVSPost2010PropOp30
 70
     1
102
RTVSPost2010Prop31
280
     0
102
RTVSPost2010PropOp31
 70
     1
102
RTVSPost2010Prop32
280
     0
102
RTVSPost2010PropOp32
 70
     1
102
RTVSPost2010Prop33
280
     0
102
RTVSPost2010PropOp33
 70
     1
102
RTVSPost2010Prop34
280
     0
102
RTVSPost2010PropOp34
 70
     1
102
RTVSPost2010Prop35
280
     0
102
RTVSPost2010PropOp35
 70
     1
102
RTVSPost2010Prop36
280
     0
102
RTVSPost2010PropOp36
 70
     1
102
RTVSPost2010Prop37
 90
       50
102
RTVSPost2010PropOp37
 70
     1
102
RTVSPost2010Prop38
140
0.0
102
RTVSPost2010PropOp38
 70
     1
102
RTVSPost2010Prop39
140
1.0
102
RTVSPost2010PropOp39
 70
     1
102
RTVSPost2010Prop40
 90
        0
102
RTVSPost2010PropOp40
 70
     1
102
RTVSPost2010Prop41ColorIndex
 90
       18
102
RTVSPost2010Prop41ColorRGB
 90
        0
102
RTVSPost2010PropOp41
 70
     1
102
RTVSPost2010Prop42
 90
       50
102
RTVSPost2010PropOp42
 70
     1
102
RTVSPost2010Prop43
 90
        3
102
RTVSPost2010PropOp43
 70
     1
102
RTVSPost2010Prop44ColorIndex
 90
        5
102
RTVSPost2010Prop44ColorRGB
 90
      255
102
RTVSPost2010PropOp44
 70
     1
102
RTVSPost2010Prop45
280
     0
102
RTVSPost2010PropOp45
 70
     1
102
RTVSPost2010Prop46
 90
       50
102
RTVSPost2010PropOp46
 70
     1
102
RTVSPost2010Prop47
 90
       50
102
RTVSPost2010PropOp47
 70
     1
102
RTVSPost2010Prop48
 90
       50
102
RTVSPost2010PropOp48
 70
     1
102
RTVSPost2010Prop49
280
     0
102
RTVSPost2010PropOp49
 70
     1
102
RTVSPost2010Prop50
 90
       50
102
RTVSPost2010PropOp50
 70
     1
102
RTVSPost2010Prop51ColorIndex
 90
      256
102
RTVSPost2010Prop51ColorRGB
 90
-16777216
102
RTVSPost2010PropOp51
 70
     0
102
RTVSPost2010Prop52
140
1.0
102
RTVSPost2010PropOp52
 70
     0
102
RTVSPost2010Prop53
 90
        2
102
RTVSPost2010PropOp53
 70
     1
102
RTVSPost2010Prop54
  1
strokes_ogs.tif
102
RTVSPost2010PropOp54
 70
     1
102
RTVSPost2010Prop55
280
     0
102
RTVSPost2010PropOp55
 70
     1
102
RTVSPost2010Prop56
140
1.0
102
RTVSPost2010PropOp56
 70
     1
102
RTVSPost2010Prop57
140
1.0
102
RTVSPost2010PropOp57
 70
     1
102
RTVSPropertyOp0
 70
     1
102
RTVSPropertyOp1
 70
     1
102
RTVSPropertyOp2
 70
     1
102
RTVSPropertyOp3
 70
     1
102
RTVSPropertyOp4
 70
     1
102
RTVSPropertyOp5
 70
     1
102
RTVSPropertyOp6
 70
     1
102
RTVSPropertyOp7
 70
     1
102
RTVSPropertyOp8
 70
     1
102
RTVSPropertyOp9
 70
     1
102
RTVSPropertyOp10
 70
     1
102
RTVSPropertyOp11
 70
     1
102
RTVSPropertyOp12
 70
     1
102
RTVSPropertyOp13
 70
     1
102
RTVSPropertyOp14
 70
     1
102
RTVSPropertyOp15
 70
     1
102
RTVSPropertyOp16
 70
     1
102
RTVSPropertyOp17
 70
     1
102
RTVSPropertyOp18
 70
     1
102
RTVSPropertyOp19
 70
     1
102
RTVSPropertyOp20
 70
     1
102
RTVSPropertyOp21
 70
     1
102
RTVSPropertyOp22
 70
     1
102
RTVSPropertyOp23
 70
     1
102
RTVSPropertyOp24
 70
     1
102
RTVSPropertyOp25
 70
     1
102
RTVSPropertyOp26
 70
     1
102
RTVSPropertyOp27
 70
     1
102
RTVSPropertyOp28
 70
     1
102
RTVSPropertyOp29
 70
     1
102
RTVSPropertyOp30
 70
     1
102
RTVSPropertyOp31
 70
     1
102
RTVSPropertyOp32
 70
     1
102
RTVSPropertyOp33
 70
     1
102
RTVSPropertyOp34
 70
     1
102
RTVSPropertyOp35
 70
     1
102
RTVSPropertyOp36
 70
     1
102
RTVSPropertyOp37
 70
     1
102
RTVSPropertyOp38
 70
     1
102
RTVSPropertyOp39
 70
     1
102
RTVSPropertyOp40
 70
     1
102
RTVSPropertyOp41
 70
     1
102
RTVSPropertyOp42
 70
     1
102
RTVSPropertyOp43
 70
     1
102
RTVSPropertyOp44
 70
     1
102
RTVSPropertyOp45
 70
     1
102
RTVSPropertyOp46
 70
     1
102
RTVSPropertyOp47
 70
     1
102
RTVSPropertyOp48
 70
     1
102
RTVSPropertyOp49
 70
     1
102
RTVSPropertyOp50
 70
     1
102
RTVSPropertyOp51
 70
     0
102
RTVSPropertyOp52
 70
     0
102
RTVSPropertyOp53
 70
     1
102
RTVSPropertyOp54
 70
     1
102
RTVSPropertyOp55
 70
     1
102
RTVSPropertyOp56
 70
     1
102
RTVSPropertyOp57
 70
     1
102
RTVSPropertyOp58
 70
     1
102
RTVSPropertyOp59
 70
     1
102
RTVSPropertyOp60
 70
     1
102
RTVSPropertyOp61
 70
     1
102
RTVSPropertyOp62
 70
     1
  0
XRECORD
  5
42C
102
{ACAD_REACTORS
330
42B
102
}
330
42B
100
AcDbXrecord
280
     1
102
RTVSPost2010Prop28
280
     0
102
RTVSPost2010PropOp28
 70
     1
102
RTVSPost2010Prop29
280
     1
102
RTVSPost2010PropOp29
 70
     1
102
RTVSPost2010Prop30
280
     1
102
RTVSPost2010PropOp30
 70
     1
102
RTVSPost2010Prop31
280
     0
102
RTVSPost2010PropOp31
 70
     1
102
RTVSPost2010Prop32
280
     0
102
RTVSPost2010PropOp32
 70
     1
102
RTVSPost2010Prop33
280
     0
102
RTVSPost2010PropOp33
 70
     1
102
RTVSPost2010Prop34
280
     0
102
RTVSPost2010PropOp34
 70
     1
102
RTVSPost2010Prop35
280
     0
102
RTVSPost2010PropOp35
 70
     1
102
RTVSPost2010Prop36
280
     0
102
RTVSPost2010PropOp36
 70
     1
102
RTVSPost2010Prop37
 90
       50
102
RTVSPost2010PropOp37
 70
     0
102
RTVSPost2010Prop38
140
0.0
102
RTVSPost2010PropOp38
 70
     0
102
RTVSPost2010Prop39
140
1.0
102
RTVSPost2010PropOp39
 70
     0
102
RTVSPost2010Prop40
 90
        0
102
RTVSPost2010PropOp40
 70
     0
102
RTVSPost2010Prop41ColorIndex
 90
       18
102
RTVSPost2010Prop41ColorRGB
 90
        0
102
RTVSPost2010PropOp41
 70
     0
102
RTVSPost2010Prop42
 90
       50
102
RTVSPost2010PropOp42
 70
     0
102
RTVSPost2010Prop43
 90
        3
102
RTVSPost2010PropOp43
 70
     0
102
RTVSPost2010Prop44ColorIndex
 90
        5
102
RTVSPost2010Prop44ColorRGB
 90
      255
102
RTVSPost2010PropOp44
 70
     0
102
RTVSPost2010Prop45
280
     0
102
RTVSPost2010PropOp45
 70
     1
102
RTVSPost2010Prop46
 90
       50
102
RTVSPost2010PropOp46
 70
     0
102
RTVSPost2010Prop47
 90
       50
102
RTVSPost2010PropOp47
 70
     0
102
RTVSPost2010Prop48
 90
       50
102
RTVSPost2010PropOp48
 70
     0
102
RTVSPost2010Prop49
280
     0
102
RTVSPost2010PropOp49
 70
     1
102
RTVSPost2010Prop50
 90
       50
102
RTVSPost2010PropOp50
 70
     0
102
RTVSPost2010Prop51ColorIndex
 90
      256
102
RTVSPost2010Prop51ColorRGB
 90
-16777216
102
RTVSPost2010PropOp51
 70
     0
102
RTVSPost2010Prop52
140
1.0
102
RTVSPost2010PropOp52
 70
     0
102
RTVSPost2010Prop53
 90
        2
102
RTVSPost2010PropOp53
 70
     0
102
RTVSPost2010Prop54
  1
strokes_ogs.tif
102
RTVSPost2010PropOp54
 70
     0
102
RTVSPost2010Prop55
280
     0
102
RTVSPost2010PropOp55
 70
     1
102
RTVSPost2010Prop56
140
1.0
102
RTVSPost2010PropOp56
 70
     0
102
RTVSPost2010Prop57
140
1.0
102
RTVSPost2010PropOp57
 70
     0
102
RTVSPropertyOp0
 70
     0
102
RTVSPropertyOp1
 70
     0
102
RTVSPropertyOp2
 70
     0
102
RTVSPropertyOp3
 70
     0
102
RTVSPropertyOp4
 70
     0
102
RTVSPropertyOp5
 70
     0
102
RTVSPropertyOp6
 70
     0
102
RTVSPropertyOp7
 70
     0
102
RTVSPropertyOp8
 70
     0
102
RTVSPropertyOp9
 70
     0
102
RTVSPropertyOp10
 70
     0
102
RTVSPropertyOp11
 70
     0
102
RTVSPropertyOp12
 70
     0
102
RTVSPropertyOp13
 70
     0
102
RTVSPropertyOp14
 70
     2
102
RTVSPropertyOp15
 70
     0
102
RTVSPropertyOp16
 70
     0
102
RTVSPropertyOp17
 70
     0
102
RTVSPropertyOp18
 70
     0
102
RTVSPropertyOp19
 70
     0
102
RTVSPropertyOp20
 70
     0
102
RTVSPropertyOp21
 70
     0
102
RTVSPropertyOp22
 70
     0
102
RTVSPropertyOp23
 70
     0
102
RTVSPropertyOp24
 70
     0
102
RTVSPropertyOp25
 70
     0
102
RTVSPropertyOp26
 70
     0
102
RTVSPropertyOp27
 70
     0
102
RTVSPropertyOp28
 70
     1
102
RTVSPropertyOp29
 70
     1
102
RTVSPropertyOp30
 70
     1
102
RTVSPropertyOp31
 70
     1
102
RTVSPropertyOp32
 70
     1
102
RTVSPropertyOp33
 70
     1
102
RTVSPropertyOp34
 70
     1
102
RTVSPropertyOp35
 70
     1
102
RTVSPropertyOp36
 70
     1
102
RTVSPropertyOp37
 70
     0
102
RTVSPropertyOp38
 70
     0
102
RTVSPropertyOp39
 70
     0
102
RTVSPropertyOp40
 70
     0
102
RTVSPropertyOp41
 70
     0
102
RTVSPropertyOp42
 70
     0
102
RTVSPropertyOp43
 70
     0
102
RTVSPropertyOp44
 70
     0
102
RTVSPropertyOp45
 70
     1
102
RTVSPropertyOp46
 70
     0
102
RTVSPropertyOp47
 70
     0
102
RTVSPropertyOp48
 70
     0
102
RTVSPropertyOp49
 70
     1
102
RTVSPropertyOp50
 70
     0
102
RTVSPropertyOp51
 70
     0
102
RTVSPropertyOp52
 70
     0
102
RTVSPropertyOp53
 70
     0
102
RTVSPropertyOp54
 70
     0
102
RTVSPropertyOp55
 70
     1
102
RTVSPropertyOp56
 70
     0
102
RTVSPropertyOp57
 70
     0
102
RTVSPropertyOp58
 70
     0
102
RTVSPropertyOp59
 70
     0
102
RTVSPropertyOp60
 70
     0
102
RTVSPropertyOp61
 70
     0
102
RTVSPropertyOp62
 70
     0
  0
XRECORD
  5
41A
102
{ACAD_REACTORS
330
419
102
}
330
419
100
AcDbXrecord
280
     1
102
RTVSPost2010Prop28
280
     0
102
RTVSPost2010PropOp28
 70
     1
102
RTVSPost2010Prop29
280
     1
102
RTVSPost2010PropOp29
 70
     1
102
RTVSPost2010Prop30
280
     1
102
RTVSPost2010PropOp30
 70
     1
102
RTVSPost2010Prop31
280
     0
102
RTVSPost2010PropOp31
 70
     1
102
RTVSPost2010Prop32
280
     0
102
RTVSPost2010PropOp32
 70
     1
102
RTVSPost2010Prop33
280
     0
102
RTVSPost2010PropOp33
 70
     1
102
RTVSPost2010Prop34
280
     0
102
RTVSPost2010PropOp34
 70
     1
102
RTVSPost2010Prop35
280
     0
102
RTVSPost2010PropOp35
 70
     1
102
RTVSPost2010Prop36
280
     0
102
RTVSPost2010PropOp36
 70
     1
102
RTVSPost2010Prop37
 90
       50
102
RTVSPost2010PropOp37
 70
     1
102
RTVSPost2010Prop38
140
0.0
102
RTVSPost2010PropOp38
 70
     1
102
RTVSPost2010Prop39
140
1.0
102
RTVSPost2010PropOp39
 70
     1
102
RTVSPost2010Prop40
 90
        0
102
RTVSPost2010PropOp40
 70
     1
102
RTVSPost2010Prop41ColorIndex
 90
       18
102
RTVSPost2010Prop41ColorRGB
 90
        0
102
RTVSPost2010PropOp41
 70
     1
102
RTVSPost2010Prop42
 90
       50
102
RTVSPost2010PropOp42
 70
     1
102
RTVSPost2010Prop43
 90
        3
102
RTVSPost2010PropOp43
 70
     1
102
RTVSPost2010Prop44ColorIndex
 90
        5
102
RTVSPost2010Prop44ColorRGB
 90
      255
102
RTVSPost2010PropOp44
 70
     1
102
RTVSPost2010Prop45
280
     0
102
RTVSPost2010PropOp45
 70
     1
102
RTVSPost2010Prop46
 90
       50
102
RTVSPost2010PropOp46
 70
     1
102
RTVSPost2010Prop47
 90
       50
102
RTVSPost2010PropOp47
 70
     1
102
RTVSPost2010Prop48
 90
       50
102
RTVSPost2010PropOp48
 70
     1
102
RTVSPost2010Prop49
280
     0
102
RTVSPost2010PropOp49
 70
     1
102
RTVSPost2010Prop50
 90
       50
102
RTVSPost2010PropOp50
 70
     1
102
RTVSPost2010Prop51ColorIndex
 90
      256
102
RTVSPost2010Prop51ColorRGB
 90
-16777216
102
RTVSPost2010PropOp51
 70
     0
102
RTVSPost2010Prop52
140
1.0
102
RTVSPost2010PropOp52
 70
     0
102
RTVSPost2010Prop53
 90
        2
102
RTVSPost2010PropOp53
 70
     1
102
RTVSPost2010Prop54
  1
strokes_ogs.tif
102
RTVSPost2010PropOp54
 70
     1
102
RTVSPost2010Prop55
280
     0
102
RTVSPost2010PropOp55
 70
     1
102
RTVSPost2010Prop56
140
1.0
102
RTVSPost2010PropOp56
 70
     1
102
RTVSPost2010Prop57
140
1.0
102
RTVSPost2010PropOp57
 70
     1
102
RTVSPropertyOp0
 70
     1
102
RTVSPropertyOp1
 70
     1
102
RTVSPropertyOp2
 70
     1
102
RTVSPropertyOp3
 70
     1
102
RTVSPropertyOp4
 70
     1
102
RTVSPropertyOp5
 70
     1
102
RTVSPropertyOp6
 70
     1
102
RTVSPropertyOp7
 70
     1
102
RTVSPropertyOp8
 70
     1
102
RTVSPropertyOp9
 70
     1
102
RTVSPropertyOp10
 70
     1
102
RTVSPropertyOp11
 70
     1
102
RTVSPropertyOp12
 70
     1
102
RTVSPropertyOp13
 70
     1
102
RTVSPropertyOp14
 70
     1
102
RTVSPropertyOp15
 70
     1
102
RTVSPropertyOp16
 70
     1
102
RTVSPropertyOp17
 70
     1
102
RTVSPropertyOp18
 70
     1
102
RTVSPropertyOp19
 70
     1
102
RTVSPropertyOp20
 70
     1
102
RTVSPropertyOp21
 70
     1
102
RTVSPropertyOp22
 70
     1
102
RTVSPropertyOp23
 70
     1
102
RTVSPropertyOp24
 70
     1
102
RTVSPropertyOp25
 70
     1
102
RTVSPropertyOp26
 70
     1
102
RTVSPropertyOp27
 70
     1
102
RTVSPropertyOp28
 70
     1
102
RTVSPropertyOp29
 70
     1
102
RTVSPropertyOp30
 70
     1
102
RTVSPropertyOp31
 70
     1
102
RTVSPropertyOp32
 70
     1
102
RTVSPropertyOp33
 70
     1
102
RTVSPropertyOp34
 70
     1
102
RTVSPropertyOp35
 70
     1
102
RTVSPropertyOp36
 70
     1
102
RTVSPropertyOp37
 70
     1
102
RTVSPropertyOp38
 70
     1
102
RTVSPropertyOp39
 70
     1
102
RTVSPropertyOp40
 70
     1
102
RTVSPropertyOp41
 70
     1
102
RTVSPropertyOp42
 70
     1
102
RTVSPropertyOp43
 70
     1
102
RTVSPropertyOp44
 70
     1
102
RTVSPropertyOp45
 70
     1
102
RTVSPropertyOp46
 70
     1
102
RTVSPropertyOp47
 70
     1
102
RTVSPropertyOp48
 70
     1
102
RTVSPropertyOp49
 70
     1
102
RTVSPropertyOp50
 70
     1
102
RTVSPropertyOp51
 70
     0
102
RTVSPropertyOp52
 70
     0
102
RTVSPropertyOp53
 70
     1
102
RTVSPropertyOp54
 70
     1
102
RTVSPropertyOp55
 70
     1
102
RTVSPropertyOp56
 70
     1
102
RTVSPropertyOp57
 70
     1
102
RTVSPropertyOp58
 70
     1
102
RTVSPropertyOp59
 70
     1
102
RTVSPropertyOp60
 70
     1
102
RTVSPropertyOp61
 70
     1
102
RTVSPropertyOp62
 70
     1
  0
XRECORD
  5
3FE
102
{ACAD_REACTORS
330
3FD
102
}
330
3FD
100
AcDbXrecord
280
     1
102
RTVSPost2010Prop28
280
     0
102
RTVSPost2010PropOp28
 70
     1
102
RTVSPost2010Prop29
280
     1
102
RTVSPost2010PropOp29
 70
     1
102
RTVSPost2010Prop30
280
     1
102
RTVSPost2010PropOp30
 70
     1
102
RTVSPost2010Prop31
280
     0
102
RTVSPost2010PropOp31
 70
     1
102
RTVSPost2010Prop32
280
     0
102
RTVSPost2010PropOp32
 70
     1
102
RTVSPost2010Prop33
280
     0
102
RTVSPost2010PropOp33
 70
     1
102
RTVSPost2010Prop34
280
     0
102
RTVSPost2010PropOp34
 70
     1
102
RTVSPost2010Prop35
280
     0
102
RTVSPost2010PropOp35
 70
     1
102
RTVSPost2010Prop36
280
     0
102
RTVSPost2010PropOp36
 70
     1
102
RTVSPost2010Prop37
 90
       50
102
RTVSPost2010PropOp37
 70
     1
102
RTVSPost2010Prop38
140
0.0
102
RTVSPost2010PropOp38
 70
     1
102
RTVSPost2010Prop39
140
1.0
102
RTVSPost2010PropOp39
 70
     1
102
RTVSPost2010Prop40
 90
        0
102
RTVSPost2010PropOp40
 70
     1
102
RTVSPost2010Prop41ColorIndex
 90
       18
102
RTVSPost2010Prop41ColorRGB
 90
        0
102
RTVSPost2010PropOp41
 70
     1
102
RTVSPost2010Prop42
 90
       50
102
RTVSPost2010PropOp42
 70
     1
102
RTVSPost2010Prop43
 90
        3
102
RTVSPost2010PropOp43
 70
     1
102
RTVSPost2010Prop44ColorIndex
 90
        5
102
RTVSPost2010Prop44ColorRGB
 90
      255
102
RTVSPost2010PropOp44
 70
     1
102
RTVSPost2010Prop45
280
     0
102
RTVSPost2010PropOp45
 70
     1
102
RTVSPost2010Prop46
 90
       50
102
RTVSPost2010PropOp46
 70
     1
102
RTVSPost2010Prop47
 90
       50
102
RTVSPost2010PropOp47
 70
     1
102
RTVSPost2010Prop48
 90
       50
102
RTVSPost2010PropOp48
 70
     1
102
RTVSPost2010Prop49
280
     0
102
RTVSPost2010PropOp49
 70
     1
102
RTVSPost2010Prop50
 90
       50
102
RTVSPost2010PropOp50
 70
     1
102
RTVSPost2010Prop51ColorIndex
 90
      256
102
RTVSPost2010Prop51ColorRGB
 90
-16777216
102
RTVSPost2010PropOp51
 70
     0
102
RTVSPost2010Prop52
140
1.0
102
RTVSPost2010PropOp52
 70
     0
102
RTVSPost2010Prop53
 90
        2
102
RTVSPost2010PropOp53
 70
     1
102
RTVSPost2010Prop54
  1
strokes_ogs.tif
102
RTVSPost2010PropOp54
 70
     1
102
RTVSPost2010Prop55
280
     0
102
RTVSPost2010PropOp55
 70
     1
102
RTVSPost2010Prop56
140
1.0
102
RTVSPost2010PropOp56
 70
     1
102
RTVSPost2010Prop57
140
1.0
102
RTVSPost2010PropOp57
 70
     1
102
RTVSPropertyOp0
 70
     1
102
RTVSPropertyOp1
 70
     1
102
RTVSPropertyOp2
 70
     1
102
RTVSPropertyOp3
 70
     1
102
RTVSPropertyOp4
 70
     1
102
RTVSPropertyOp5
 70
     1
102
RTVSPropertyOp6
 70
     1
102
RTVSPropertyOp7
 70
     1
102
RTVSPropertyOp8
 70
     1
102
RTVSPropertyOp9
 70
     1
102
RTVSPropertyOp10
 70
     1
102
RTVSPropertyOp11
 70
     1
102
RTVSPropertyOp12
 70
     1
102
RTVSPropertyOp13
 70
     1
102
RTVSPropertyOp14
 70
     1
102
RTVSPropertyOp15
 70
     1
102
RTVSPropertyOp16
 70
     1
102
RTVSPropertyOp17
 70
     1
102
RTVSPropertyOp18
 70
     1
102
RTVSPropertyOp19
 70
     1
102
RTVSPropertyOp20
 70
     1
102
RTVSPropertyOp21
 70
     1
102
RTVSPropertyOp22
 70
     1
102
RTVSPropertyOp23
 70
     1
102
RTVSPropertyOp24
 70
     1
102
RTVSPropertyOp25
 70
     1
102
RTVSPropertyOp26
 70
     1
102
RTVSPropertyOp27
 70
     1
102
RTVSPropertyOp28
 70
     1
102
RTVSPropertyOp29
 70
     1
102
RTVSPropertyOp30
 70
     1
102
RTVSPropertyOp31
 70
     1
102
RTVSPropertyOp32
 70
     1
102
RTVSPropertyOp33
 70
     1
102
RTVSPropertyOp34
 70
     1
102
RTVSPropertyOp35
 70
     1
102
RTVSPropertyOp36
 70
     1
102
RTVSPropertyOp37
 70
     1
102
RTVSPropertyOp38
 70
     1
102
RTVSPropertyOp39
 70
     1
102
RTVSPropertyOp40
 70
     1
102
RTVSPropertyOp41
 70
     1
102
RTVSPropertyOp42
 70
     1
102
RTVSPropertyOp43
 70
     1
102
RTVSPropertyOp44
 70
     1
102
RTVSPropertyOp45
 70
     1
102
RTVSPropertyOp46
 70
     1
102
RTVSPropertyOp47
 70
     1
102
RTVSPropertyOp48
 70
     1
102
RTVSPropertyOp49
 70
     1
102
RTVSPropertyOp50
 70
     1
102
RTVSPropertyOp51
 70
     0
102
RTVSPropertyOp52
 70
     0
102
RTVSPropertyOp53
 70
     1
102
RTVSPropertyOp54
 70
     1
102
RTVSPropertyOp55
 70
     1
102
RTVSPropertyOp56
 70
     1
102
RTVSPropertyOp57
 70
     1
102
RTVSPropertyOp58
 70
     1
102
RTVSPropertyOp59
 70
     1
102
RTVSPropertyOp60
 70
     1
102
RTVSPropertyOp61
 70
     1
102
RTVSPropertyOp62
 70
     1
  0
XRECORD
  5
400
102
{ACAD_REACTORS
330
3FF
102
}
330
3FF
100
AcDbXrecord
280
     1
102
RTVSPost2010Prop28
280
     0
102
RTVSPost2010PropOp28
 70
     1
102
RTVSPost2010Prop29
280
     1
102
RTVSPost2010PropOp29
 70
     1
102
RTVSPost2010Prop30
280
     1
102
RTVSPost2010PropOp30
 70
     1
102
RTVSPost2010Prop31
280
     0
102
RTVSPost2010PropOp31
 70
     1
102
RTVSPost2010Prop32
280
     0
102
RTVSPost2010PropOp32
 70
     1
102
RTVSPost2010Prop33
280
     0
102
RTVSPost2010PropOp33
 70
     1
102
RTVSPost2010Prop34
280
     0
102
RTVSPost2010PropOp34
 70
     1
102
RTVSPost2010Prop35
280
     0
102
RTVSPost2010PropOp35
 70
     1
102
RTVSPost2010Prop36
280
     0
102
RTVSPost2010PropOp36
 70
     1
102
RTVSPost2010Prop37
 90
       50
102
RTVSPost2010PropOp37
 70
     1
102
RTVSPost2010Prop38
140
0.0
102
RTVSPost2010PropOp38
 70
     1
102
RTVSPost2010Prop39
140
1.0
102
RTVSPost2010PropOp39
 70
     1
102
RTVSPost2010Prop40
 90
        0
102
RTVSPost2010PropOp40
 70
     1
102
RTVSPost2010Prop41ColorIndex
 90
       18
102
RTVSPost2010Prop41ColorRGB
 90
        0
102
RTVSPost2010PropOp41
 70
     1
102
RTVSPost2010Prop42
 90
       50
102
RTVSPost2010PropOp42
 70
     1
102
RTVSPost2010Prop43
 90
        3
102
RTVSPost2010PropOp43
 70
     1
102
RTVSPost2010Prop44ColorIndex
 90
        5
102
RTVSPost2010Prop44ColorRGB
 90
      255
102
RTVSPost2010PropOp44
 70
     1
102
RTVSPost2010Prop45
280
     0
102
RTVSPost2010PropOp45
 70
     1
102
RTVSPost2010Prop46
 90
       50
102
RTVSPost2010PropOp46
 70
     1
102
RTVSPost2010Prop47
 90
       50
102
RTVSPost2010PropOp47
 70
     1
102
RTVSPost2010Prop48
 90
       50
102
RTVSPost2010PropOp48
 70
     1
102
RTVSPost2010Prop49
280
     0
102
RTVSPost2010PropOp49
 70
     1
102
RTVSPost2010Prop50
 90
       50
102
RTVSPost2010PropOp50
 70
     1
102
RTVSPost2010Prop51ColorIndex
 90
      256
102
RTVSPost2010Prop51ColorRGB
 90
-16777216
102
RTVSPost2010PropOp51
 70
     0
102
RTVSPost2010Prop52
140
1.0
102
RTVSPost2010PropOp52
 70
     0
102
RTVSPost2010Prop53
 90
        2
102
RTVSPost2010PropOp53
 70
     1
102
RTVSPost2010Prop54
  1
strokes_ogs.tif
102
RTVSPost2010PropOp54
 70
     1
102
RTVSPost2010Prop55
280
     0
102
RTVSPost2010PropOp55
 70
     1
102
RTVSPost2010Prop56
140
1.0
102
RTVSPost2010PropOp56
 70
     1
102
RTVSPost2010Prop57
140
1.0
102
RTVSPost2010PropOp57
 70
     1
102
RTVSPropertyOp0
 70
     1
102
RTVSPropertyOp1
 70
     1
102
RTVSPropertyOp2
 70
     1
102
RTVSPropertyOp3
 70
     1
102
RTVSPropertyOp4
 70
     1
102
RTVSPropertyOp5
 70
     1
102
RTVSPropertyOp6
 70
     1
102
RTVSPropertyOp7
 70
     1
102
RTVSPropertyOp8
 70
     1
102
RTVSPropertyOp9
 70
     1
102
RTVSPropertyOp10
 70
     1
102
RTVSPropertyOp11
 70
     1
102
RTVSPropertyOp12
 70
     1
102
RTVSPropertyOp13
 70
     1
102
RTVSPropertyOp14
 70
     1
102
RTVSPropertyOp15
 70
     1
102
RTVSPropertyOp16
 70
     1
102
RTVSPropertyOp17
 70
     1
102
RTVSPropertyOp18
 70
     1
102
RTVSPropertyOp19
 70
     1
102
RTVSPropertyOp20
 70
     1
102
RTVSPropertyOp21
 70
     1
102
RTVSPropertyOp22
 70
     1
102
RTVSPropertyOp23
 70
     1
102
RTVSPropertyOp24
 70
     1
102
RTVSPropertyOp25
 70
     1
102
RTVSPropertyOp26
 70
     1
102
RTVSPropertyOp27
 70
     1
102
RTVSPropertyOp28
 70
     1
102
RTVSPropertyOp29
 70
     1
102
RTVSPropertyOp30
 70
     1
102
RTVSPropertyOp31
 70
     1
102
RTVSPropertyOp32
 70
     1
102
RTVSPropertyOp33
 70
     1
102
RTVSPropertyOp34
 70
     1
102
RTVSPropertyOp35
 70
     1
102
RTVSPropertyOp36
 70
     1
102
RTVSPropertyOp37
 70
     1
102
RTVSPropertyOp38
 70
     1
102
RTVSPropertyOp39
 70
     1
102
RTVSPropertyOp40
 70
     1
102
RTVSPropertyOp41
 70
     1
102
RTVSPropertyOp42
 70
     1
102
RTVSPropertyOp43
 70
     1
102
RTVSPropertyOp44
 70
     1
102
RTVSPropertyOp45
 70
     1
102
RTVSPropertyOp46
 70
     1
102
RTVSPropertyOp47
 70
     1
102
RTVSPropertyOp48
 70
     1
102
RTVSPropertyOp49
 70
     1
102
RTVSPropertyOp50
 70
     1
102
RTVSPropertyOp51
 70
     0
102
RTVSPropertyOp52
 70
     0
102
RTVSPropertyOp53
 70
     1
102
RTVSPropertyOp54
 70
     1
102
RTVSPropertyOp55
 70
     1
102
RTVSPropertyOp56
 70
     1
102
RTVSPropertyOp57
 70
     1
102
RTVSPropertyOp58
 70
     1
102
RTVSPropertyOp59
 70
     1
102
RTVSPropertyOp60
 70
     1
102
RTVSPropertyOp61
 70
     1
102
RTVSPropertyOp62
 70
     1
  0
XRECORD
  5
402
102
{ACAD_REACTORS
330
401
102
}
330
401
100
AcDbXrecord
280
     1
102
RTVSPost2010Prop28
280
     0
102
RTVSPost2010PropOp28
 70
     1
102
RTVSPost2010Prop29
280
     1
102
RTVSPost2010PropOp29
 70
     1
102
RTVSPost2010Prop30
280
     1
102
RTVSPost2010PropOp30
 70
     1
102
RTVSPost2010Prop31
280
     0
102
RTVSPost2010PropOp31
 70
     1
102
RTVSPost2010Prop32
280
     0
102
RTVSPost2010PropOp32
 70
     1
102
RTVSPost2010Prop33
280
     0
102
RTVSPost2010PropOp33
 70
     1
102
RTVSPost2010Prop34
280
     0
102
RTVSPost2010PropOp34
 70
     1
102
RTVSPost2010Prop35
280
     0
102
RTVSPost2010PropOp35
 70
     1
102
RTVSPost2010Prop36
280
     0
102
RTVSPost2010PropOp36
 70
     1
102
RTVSPost2010Prop37
 90
       50
102
RTVSPost2010PropOp37
 70
     1
102
RTVSPost2010Prop38
140
0.0
102
RTVSPost2010PropOp38
 70
     1
102
RTVSPost2010Prop39
140
1.0
102
RTVSPost2010PropOp39
 70
     1
102
RTVSPost2010Prop40
 90
        0
102
RTVSPost2010PropOp40
 70
     1
102
RTVSPost2010Prop41ColorIndex
 90
       18
102
RTVSPost2010Prop41ColorRGB
 90
        0
102
RTVSPost2010PropOp41
 70
     1
102
RTVSPost2010Prop42
 90
       50
102
RTVSPost2010PropOp42
 70
     1
102
RTVSPost2010Prop43
 90
        3
102
RTVSPost2010PropOp43
 70
     1
102
RTVSPost2010Prop44ColorIndex
 90
        5
102
RTVSPost2010Prop44ColorRGB
 90
      255
102
RTVSPost2010PropOp44
 70
     1
102
RTVSPost2010Prop45
280
     0
102
RTVSPost2010PropOp45
 70
     1
102
RTVSPost2010Prop46
 90
       50
102
RTVSPost2010PropOp46
 70
     1
102
RTVSPost2010Prop47
 90
       50
102
RTVSPost2010PropOp47
 70
     1
102
RTVSPost2010Prop48
 90
       50
102
RTVSPost2010PropOp48
 70
     1
102
RTVSPost2010Prop49
280
     0
102
RTVSPost2010PropOp49
 70
     1
102
RTVSPost2010Prop50
 90
       50
102
RTVSPost2010PropOp50
 70
     1
102
RTVSPost2010Prop51ColorIndex
 90
      256
102
RTVSPost2010Prop51ColorRGB
 90
-16777216
102
RTVSPost2010PropOp51
 70
     0
102
RTVSPost2010Prop52
140
1.0
102
RTVSPost2010PropOp52
 70
     0
102
RTVSPost2010Prop53
 90
        2
102
RTVSPost2010PropOp53
 70
     1
102
RTVSPost2010Prop54
  1
strokes_ogs.tif
102
RTVSPost2010PropOp54
 70
     1
102
RTVSPost2010Prop55
280
     0
102
RTVSPost2010PropOp55
 70
     1
102
RTVSPost2010Prop56
140
1.0
102
RTVSPost2010PropOp56
 70
     1
102
RTVSPost2010Prop57
140
1.0
102
RTVSPost2010PropOp57
 70
     1
102
RTVSPropertyOp0
 70
     1
102
RTVSPropertyOp1
 70
     1
102
RTVSPropertyOp2
 70
     1
102
RTVSPropertyOp3
 70
     1
102
RTVSPropertyOp4
 70
     1
102
RTVSPropertyOp5
 70
     1
102
RTVSPropertyOp6
 70
     1
102
RTVSPropertyOp7
 70
     1
102
RTVSPropertyOp8
 70
     1
102
RTVSPropertyOp9
 70
     1
102
RTVSPropertyOp10
 70
     1
102
RTVSPropertyOp11
 70
     1
102
RTVSPropertyOp12
 70
     1
102
RTVSPropertyOp13
 70
     1
102
RTVSPropertyOp14
 70
     1
102
RTVSPropertyOp15
 70
     1
102
RTVSPropertyOp16
 70
     1
102
RTVSPropertyOp17
 70
     1
102
RTVSPropertyOp18
 70
     1
102
RTVSPropertyOp19
 70
     1
102
RTVSPropertyOp20
 70
     1
102
RTVSPropertyOp21
 70
     1
102
RTVSPropertyOp22
 70
     1
102
RTVSPropertyOp23
 70
     1
102
RTVSPropertyOp24
 70
     1
102
RTVSPropertyOp25
 70
     1
102
RTVSPropertyOp26
 70
     1
102
RTVSPropertyOp27
 70
     1
102
RTVSPropertyOp28
 70
     1
102
RTVSPropertyOp29
 70
     1
102
RTVSPropertyOp30
 70
     1
102
RTVSPropertyOp31
 70
     1
102
RTVSPropertyOp32
 70
     1
102
RTVSPropertyOp33
 70
     1
102
RTVSPropertyOp34
 70
     1
102
RTVSPropertyOp35
 70
     1
102
RTVSPropertyOp36
 70
     1
102
RTVSPropertyOp37
 70
     1
102
RTVSPropertyOp38
 70
     1
102
RTVSPropertyOp39
 70
     1
102
RTVSPropertyOp40
 70
     1
102
RTVSPropertyOp41
 70
     1
102
RTVSPropertyOp42
 70
     1
102
RTVSPropertyOp43
 70
     1
102
RTVSPropertyOp44
 70
     1
102
RTVSPropertyOp45
 70
     1
102
RTVSPropertyOp46
 70
     1
102
RTVSPropertyOp47
 70
     1
102
RTVSPropertyOp48
 70
     1
102
RTVSPropertyOp49
 70
     1
102
RTVSPropertyOp50
 70
     1
102
RTVSPropertyOp51
 70
     0
102
RTVSPropertyOp52
 70
     0
102
RTVSPropertyOp53
 70
     1
102
RTVSPropertyOp54
 70
     1
102
RTVSPropertyOp55
 70
     1
102
RTVSPropertyOp56
 70
     1
102
RTVSPropertyOp57
 70
     1
102
RTVSPropertyOp58
 70
     1
102
RTVSPropertyOp59
 70
     1
102
RTVSPropertyOp60
 70
     1
102
RTVSPropertyOp61
 70
     1
102
RTVSPropertyOp62
 70
     1
  0
XRECORD
  5
404
102
{ACAD_REACTORS
330
403
102
}
330
403
100
AcDbXrecord
280
     1
102
RTVSPost2010Prop28
280
     0
102
RTVSPost2010PropOp28
 70
     1
102
RTVSPost2010Prop29
280
     1
102
RTVSPost2010PropOp29
 70
     1
102
RTVSPost2010Prop30
280
     1
102
RTVSPost2010PropOp30
 70
     1
102
RTVSPost2010Prop31
280
     0
102
RTVSPost2010PropOp31
 70
     1
102
RTVSPost2010Prop32
280
     0
102
RTVSPost2010PropOp32
 70
     1
102
RTVSPost2010Prop33
280
     0
102
RTVSPost2010PropOp33
 70
     1
102
RTVSPost2010Prop34
280
     0
102
RTVSPost2010PropOp34
 70
     1
102
RTVSPost2010Prop35
280
     0
102
RTVSPost2010PropOp35
 70
     1
102
RTVSPost2010Prop36
280
     0
102
RTVSPost2010PropOp36
 70
     1
102
RTVSPost2010Prop37
 90
       50
102
RTVSPost2010PropOp37
 70
     1
102
RTVSPost2010Prop38
140
0.0
102
RTVSPost2010PropOp38
 70
     1
102
RTVSPost2010Prop39
140
1.0
102
RTVSPost2010PropOp39
 70
     1
102
RTVSPost2010Prop40
 90
        0
102
RTVSPost2010PropOp40
 70
     1
102
RTVSPost2010Prop41ColorIndex
 90
       18
102
RTVSPost2010Prop41ColorRGB
 90
        0
102
RTVSPost2010PropOp41
 70
     1
102
RTVSPost2010Prop42
 90
       50
102
RTVSPost2010PropOp42
 70
     1
102
RTVSPost2010Prop43
 90
        3
102
RTVSPost2010PropOp43
 70
     1
102
RTVSPost2010Prop44ColorIndex
 90
        5
102
RTVSPost2010Prop44ColorRGB
 90
      255
102
RTVSPost2010PropOp44
 70
     1
102
RTVSPost2010Prop45
280
     0
102
RTVSPost2010PropOp45
 70
     1
102
RTVSPost2010Prop46
 90
       50
102
RTVSPost2010PropOp46
 70
     1
102
RTVSPost2010Prop47
 90
       50
102
RTVSPost2010PropOp47
 70
     1
102
RTVSPost2010Prop48
 90
       50
102
RTVSPost2010PropOp48
 70
     1
102
RTVSPost2010Prop49
280
     0
102
RTVSPost2010PropOp49
 70
     1
102
RTVSPost2010Prop50
 90
       50
102
RTVSPost2010PropOp50
 70
     1
102
RTVSPost2010Prop51ColorIndex
 90
      256
102
RTVSPost2010Prop51ColorRGB
 90
-16777216
102
RTVSPost2010PropOp51
 70
     0
102
RTVSPost2010Prop52
140
1.0
102
RTVSPost2010PropOp52
 70
     0
102
RTVSPost2010Prop53
 90
        2
102
RTVSPost2010PropOp53
 70
     1
102
RTVSPost2010Prop54
  1
strokes_ogs.tif
102
RTVSPost2010PropOp54
 70
     1
102
RTVSPost2010Prop55
280
     0
102
RTVSPost2010PropOp55
 70
     1
102
RTVSPost2010Prop56
140
1.0
102
RTVSPost2010PropOp56
 70
     1
102
RTVSPost2010Prop57
140
1.0
102
RTVSPost2010PropOp57
 70
     1
102
RTVSPropertyOp0
 70
     1
102
RTVSPropertyOp1
 70
     1
102
RTVSPropertyOp2
 70
     1
102
RTVSPropertyOp3
 70
     1
102
RTVSPropertyOp4
 70
     1
102
RTVSPropertyOp5
 70
     1
102
RTVSPropertyOp6
 70
     1
102
RTVSPropertyOp7
 70
     1
102
RTVSPropertyOp8
 70
     1
102
RTVSPropertyOp9
 70
     1
102
RTVSPropertyOp10
 70
     1
102
RTVSPropertyOp11
 70
     1
102
RTVSPropertyOp12
 70
     1
102
RTVSPropertyOp13
 70
     1
102
RTVSPropertyOp14
 70
     1
102
RTVSPropertyOp15
 70
     1
102
RTVSPropertyOp16
 70
     1
102
RTVSPropertyOp17
 70
     1
102
RTVSPropertyOp18
 70
     1
102
RTVSPropertyOp19
 70
     1
102
RTVSPropertyOp20
 70
     1
102
RTVSPropertyOp21
 70
     1
102
RTVSPropertyOp22
 70
     1
102
RTVSPropertyOp23
 70
     1
102
RTVSPropertyOp24
 70
     1
102
RTVSPropertyOp25
 70
     1
102
RTVSPropertyOp26
 70
     1
102
RTVSPropertyOp27
 70
     1
102
RTVSPropertyOp28
 70
     1
102
RTVSPropertyOp29
 70
     1
102
RTVSPropertyOp30
 70
     1
102
RTVSPropertyOp31
 70
     1
102
RTVSPropertyOp32
 70
     1
102
RTVSPropertyOp33
 70
     1
102
RTVSPropertyOp34
 70
     1
102
RTVSPropertyOp35
 70
     1
102
RTVSPropertyOp36
 70
     1
102
RTVSPropertyOp37
 70
     1
102
RTVSPropertyOp38
 70
     1
102
RTVSPropertyOp39
 70
     1
102
RTVSPropertyOp40
 70
     1
102
RTVSPropertyOp41
 70
     1
102
RTVSPropertyOp42
 70
     1
102
RTVSPropertyOp43
 70
     1
102
RTVSPropertyOp44
 70
     1
102
RTVSPropertyOp45
 70
     1
102
RTVSPropertyOp46
 70
     1
102
RTVSPropertyOp47
 70
     1
102
RTVSPropertyOp48
 70
     1
102
RTVSPropertyOp49
 70
     1
102
RTVSPropertyOp50
 70
     1
102
RTVSPropertyOp51
 70
     0
102
RTVSPropertyOp52
 70
     0
102
RTVSPropertyOp53
 70
     1
102
RTVSPropertyOp54
 70
     1
102
RTVSPropertyOp55
 70
     1
102
RTVSPropertyOp56
 70
     1
102
RTVSPropertyOp57
 70
     1
102
RTVSPropertyOp58
 70
     1
102
RTVSPropertyOp59
 70
     1
102
RTVSPropertyOp60
 70
     1
102
RTVSPropertyOp61
 70
     1
102
RTVSPropertyOp62
 70
     1
  0
XRECORD
  5
40C
102
{ACAD_REACTORS
330
40B
102
}
330
40B
100
AcDbXrecord
280
     1
102
RTVSPost2010Prop28
280
     0
102
RTVSPost2010PropOp28
 70
     1
102
RTVSPost2010Prop29
280
     1
102
RTVSPost2010PropOp29
 70
     1
102
RTVSPost2010Prop30
280
     1
102
RTVSPost2010PropOp30
 70
     1
102
RTVSPost2010Prop31
280
     0
102
RTVSPost2010PropOp31
 70
     1
102
RTVSPost2010Prop32
280
     0
102
RTVSPost2010PropOp32
 70
     1
102
RTVSPost2010Prop33
280
     0
102
RTVSPost2010PropOp33
 70
     1
102
RTVSPost2010Prop34
280
     0
102
RTVSPost2010PropOp34
 70
     1
102
RTVSPost2010Prop35
280
     0
102
RTVSPost2010PropOp35
 70
     1
102
RTVSPost2010Prop36
280
     0
102
RTVSPost2010PropOp36
 70
     1
102
RTVSPost2010Prop37
 90
       50
102
RTVSPost2010PropOp37
 70
     1
102
RTVSPost2010Prop38
140
0.0
102
RTVSPost2010PropOp38
 70
     1
102
RTVSPost2010Prop39
140
1.0
102
RTVSPost2010PropOp39
 70
     1
102
RTVSPost2010Prop40
 90
        0
102
RTVSPost2010PropOp40
 70
     1
102
RTVSPost2010Prop41ColorIndex
 90
       18
102
RTVSPost2010Prop41ColorRGB
 90
        0
102
RTVSPost2010PropOp41
 70
     1
102
RTVSPost2010Prop42
 90
       50
102
RTVSPost2010PropOp42
 70
     1
102
RTVSPost2010Prop43
 90
        3
102
RTVSPost2010PropOp43
 70
     1
102
RTVSPost2010Prop44ColorIndex
 90
        5
102
RTVSPost2010Prop44ColorRGB
 90
      255
102
RTVSPost2010PropOp44
 70
     1
102
RTVSPost2010Prop45
280
     0
102
RTVSPost2010PropOp45
 70
     1
102
RTVSPost2010Prop46
 90
       50
102
RTVSPost2010PropOp46
 70
     1
102
RTVSPost2010Prop47
 90
       50
102
RTVSPost2010PropOp47
 70
     1
102
RTVSPost2010Prop48
 90
       50
102
RTVSPost2010PropOp48
 70
     1
102
RTVSPost2010Prop49
280
     0
102
RTVSPost2010PropOp49
 70
     1
102
RTVSPost2010Prop50
 90
       50
102
RTVSPost2010PropOp50
 70
     1
102
RTVSPost2010Prop51ColorIndex
 90
      256
102
RTVSPost2010Prop51ColorRGB
 90
-16777216
102
RTVSPost2010PropOp51
 70
     0
102
RTVSPost2010Prop52
140
1.0
102
RTVSPost2010PropOp52
 70
     0
102
RTVSPost2010Prop53
 90
        2
102
RTVSPost2010PropOp53
 70
     1
102
RTVSPost2010Prop54
  1
strokes_ogs.tif
102
RTVSPost2010PropOp54
 70
     1
102
RTVSPost2010Prop55
280
     0
102
RTVSPost2010PropOp55
 70
     1
102
RTVSPost2010Prop56
140
1.0
102
RTVSPost2010PropOp56
 70
     1
102
RTVSPost2010Prop57
140
1.0
102
RTVSPost2010PropOp57
 70
     1
102
RTVSPropertyOp0
 70
     1
102
RTVSPropertyOp1
 70
     1
102
RTVSPropertyOp2
 70
     1
102
RTVSPropertyOp3
 70
     1
102
RTVSPropertyOp4
 70
     1
102
RTVSPropertyOp5
 70
     1
102
RTVSPropertyOp6
 70
     1
102
RTVSPropertyOp7
 70
     1
102
RTVSPropertyOp8
 70
     1
102
RTVSPropertyOp9
 70
     1
102
RTVSPropertyOp10
 70
     1
102
RTVSPropertyOp11
 70
     1
102
RTVSPropertyOp12
 70
     1
102
RTVSPropertyOp13
 70
     1
102
RTVSPropertyOp14
 70
     1
102
RTVSPropertyOp15
 70
     1
102
RTVSPropertyOp16
 70
     1
102
RTVSPropertyOp17
 70
     1
102
RTVSPropertyOp18
 70
     1
102
RTVSPropertyOp19
 70
     1
102
RTVSPropertyOp20
 70
     1
102
RTVSPropertyOp21
 70
     1
102
RTVSPropertyOp22
 70
     1
102
RTVSPropertyOp23
 70
     1
102
RTVSPropertyOp24
 70
     1
102
RTVSPropertyOp25
 70
     1
102
RTVSPropertyOp26
 70
     1
102
RTVSPropertyOp27
 70
     1
102
RTVSPropertyOp28
 70
     1
102
RTVSPropertyOp29
 70
     1
102
RTVSPropertyOp30
 70
     1
102
RTVSPropertyOp31
 70
     1
102
RTVSPropertyOp32
 70
     1
102
RTVSPropertyOp33
 70
     1
102
RTVSPropertyOp34
 70
     1
102
RTVSPropertyOp35
 70
     1
102
RTVSPropertyOp36
 70
     1
102
RTVSPropertyOp37
 70
     1
102
RTVSPropertyOp38
 70
     1
102
RTVSPropertyOp39
 70
     1
102
RTVSPropertyOp40
 70
     1
102
RTVSPropertyOp41
 70
     1
102
RTVSPropertyOp42
 70
     1
102
RTVSPropertyOp43
 70
     1
102
RTVSPropertyOp44
 70
     1
102
RTVSPropertyOp45
 70
     1
102
RTVSPropertyOp46
 70
     1
102
RTVSPropertyOp47
 70
     1
102
RTVSPropertyOp48
 70
     1
102
RTVSPropertyOp49
 70
     1
102
RTVSPropertyOp50
 70
     1
102
RTVSPropertyOp51
 70
     0
102
RTVSPropertyOp52
 70
     0
102
RTVSPropertyOp53
 70
     1
102
RTVSPropertyOp54
 70
     1
102
RTVSPropertyOp55
 70
     1
102
RTVSPropertyOp56
 70
     1
102
RTVSPropertyOp57
 70
     1
102
RTVSPropertyOp58
 70
     1
102
RTVSPropertyOp59
 70
     1
102
RTVSPropertyOp60
 70
     1
102
RTVSPropertyOp61
 70
     1
102
RTVSPropertyOp62
 70
     1
  0
XRECORD
  5
428
102
{ACAD_REACTORS
330
427
102
}
330
427
100
AcDbXrecord
280
     1
102
RTVSPost2010Prop28
280
     0
102
RTVSPost2010PropOp28
 70
     1
102
RTVSPost2010Prop29
280
     1
102
RTVSPost2010PropOp29
 70
     1
102
RTVSPost2010Prop30
280
     1
102
RTVSPost2010PropOp30
 70
     1
102
RTVSPost2010Prop31
280
     0
102
RTVSPost2010PropOp31
 70
     1
102
RTVSPost2010Prop32
280
     0
102
RTVSPost2010PropOp32
 70
     1
102
RTVSPost2010Prop33
280
     0
102
RTVSPost2010PropOp33
 70
     1
102
RTVSPost2010Prop34
280
     0
102
RTVSPost2010PropOp34
 70
     1
102
RTVSPost2010Prop35
280
     0
102
RTVSPost2010PropOp35
 70
     1
102
RTVSPost2010Prop36
280
     0
102
RTVSPost2010PropOp36
 70
     1
102
RTVSPost2010Prop37
 90
       50
102
RTVSPost2010PropOp37
 70
     0
102
RTVSPost2010Prop38
140
0.0
102
RTVSPost2010PropOp38
 70
     0
102
RTVSPost2010Prop39
140
1.0
102
RTVSPost2010PropOp39
 70
     0
102
RTVSPost2010Prop40
 90
        0
102
RTVSPost2010PropOp40
 70
     0
102
RTVSPost2010Prop41ColorIndex
 90
       18
102
RTVSPost2010Prop41ColorRGB
 90
        0
102
RTVSPost2010PropOp41
 70
     0
102
RTVSPost2010Prop42
 90
       50
102
RTVSPost2010PropOp42
 70
     0
102
RTVSPost2010Prop43
 90
        3
102
RTVSPost2010PropOp43
 70
     0
102
RTVSPost2010Prop44ColorIndex
 90
        5
102
RTVSPost2010Prop44ColorRGB
 90
      255
102
RTVSPost2010PropOp44
 70
     0
102
RTVSPost2010Prop45
280
     0
102
RTVSPost2010PropOp45
 70
     1
102
RTVSPost2010Prop46
 90
       50
102
RTVSPost2010PropOp46
 70
     0
102
RTVSPost2010Prop47
 90
       50
102
RTVSPost2010PropOp47
 70
     0
102
RTVSPost2010Prop48
 90
       50
102
RTVSPost2010PropOp48
 70
     0
102
RTVSPost2010Prop49
280
     0
102
RTVSPost2010PropOp49
 70
     1
102
RTVSPost2010Prop50
 90
       50
102
RTVSPost2010PropOp50
 70
     0
102
RTVSPost2010Prop51ColorIndex
 90
      256
102
RTVSPost2010Prop51ColorRGB
 90
-16777216
102
RTVSPost2010PropOp51
 70
     0
102
RTVSPost2010Prop52
140
1.0
102
RTVSPost2010PropOp52
 70
     0
102
RTVSPost2010Prop53
 90
        2
102
RTVSPost2010PropOp53
 70
     0
102
RTVSPost2010Prop54
  1
strokes_ogs.tif
102
RTVSPost2010PropOp54
 70
     0
102
RTVSPost2010Prop55
280
     0
102
RTVSPost2010PropOp55
 70
     1
102
RTVSPost2010Prop56
140
1.0
102
RTVSPost2010PropOp56
 70
     0
102
RTVSPost2010Prop57
140
1.0
102
RTVSPost2010PropOp57
 70
     0
102
RTVSPropertyOp0
 70
     0
102
RTVSPropertyOp1
 70
     0
102
RTVSPropertyOp2
 70
     0
102
RTVSPropertyOp3
 70
     0
102
RTVSPropertyOp4
 70
     0
102
RTVSPropertyOp5
 70
     0
102
RTVSPropertyOp6
 70
     0
102
RTVSPropertyOp7
 70
     0
102
RTVSPropertyOp8
 70
     0
102
RTVSPropertyOp9
 70
     0
102
RTVSPropertyOp10
 70
     0
102
RTVSPropertyOp11
 70
     0
102
RTVSPropertyOp12
 70
     0
102
RTVSPropertyOp13
 70
     0
102
RTVSPropertyOp14
 70
     2
102
RTVSPropertyOp15
 70
     0
102
RTVSPropertyOp16
 70
     0
102
RTVSPropertyOp17
 70
     0
102
RTVSPropertyOp18
 70
     0
102
RTVSPropertyOp19
 70
     0
102
RTVSPropertyOp20
 70
     0
102
RTVSPropertyOp21
 70
     0
102
RTVSPropertyOp22
 70
     0
102
RTVSPropertyOp23
 70
     0
102
RTVSPropertyOp24
 70
     0
102
RTVSPropertyOp25
 70
     0
102
RTVSPropertyOp26
 70
     0
102
RTVSPropertyOp27
 70
     0
102
RTVSPropertyOp28
 70
     1
102
RTVSPropertyOp29
 70
     1
102
RTVSPropertyOp30
 70
     1
102
RTVSPropertyOp31
 70
     1
102
RTVSPropertyOp32
 70
     1
102
RTVSPropertyOp33
 70
     1
102
RTVSPropertyOp34
 70
     1
102
RTVSPropertyOp35
 70
     1
102
RTVSPropertyOp36
 70
     1
102
RTVSPropertyOp37
 70
     0
102
RTVSPropertyOp38
 70
     0
102
RTVSPropertyOp39
 70
     0
102
RTVSPropertyOp40
 70
     0
102
RTVSPropertyOp41
 70
     0
102
RTVSPropertyOp42
 70
     0
102
RTVSPropertyOp43
 70
     0
102
RTVSPropertyOp44
 70
     0
102
RTVSPropertyOp45
 70
     1
102
RTVSPropertyOp46
 70
     0
102
RTVSPropertyOp47
 70
     0
102
RTVSPropertyOp48
 70
     0
102
RTVSPropertyOp49
 70
     1
102
RTVSPropertyOp50
 70
     0
102
RTVSPropertyOp51
 70
     0
102
RTVSPropertyOp52
 70
     0
102
RTVSPropertyOp53
 70
     0
102
RTVSPropertyOp54
 70
     0
102
RTVSPropertyOp55
 70
     1
102
RTVSPropertyOp56
 70
     0
102
RTVSPropertyOp57
 70
     0
102
RTVSPropertyOp58
 70
     0
102
RTVSPropertyOp59
 70
     0
102
RTVSPropertyOp60
 70
     0
102
RTVSPropertyOp61
 70
     0
102
RTVSPropertyOp62
 70
     0
  0
XRECORD
  5
418
102
{ACAD_REACTORS
330
417
102
}
330
417
100
AcDbXrecord
280
     1
102
RTVSPost2010Prop28
280
     0
102
RTVSPost2010PropOp28
 70
     1
102
RTVSPost2010Prop29
280
     1
102
RTVSPost2010PropOp29
 70
     1
102
RTVSPost2010Prop30
280
     1
102
RTVSPost2010PropOp30
 70
     1
102
RTVSPost2010Prop31
280
     0
102
RTVSPost2010PropOp31
 70
     1
102
RTVSPost2010Prop32
280
     0
102
RTVSPost2010PropOp32
 70
     1
102
RTVSPost2010Prop33
280
     0
102
RTVSPost2010PropOp33
 70
     1
102
RTVSPost2010Prop34
280
     0
102
RTVSPost2010PropOp34
 70
     1
102
RTVSPost2010Prop35
280
     0
102
RTVSPost2010PropOp35
 70
     1
102
RTVSPost2010Prop36
280
     0
102
RTVSPost2010PropOp36
 70
     1
102
RTVSPost2010Prop37
 90
       50
102
RTVSPost2010PropOp37
 70
     1
102
RTVSPost2010Prop38
140
0.0
102
RTVSPost2010PropOp38
 70
     1
102
RTVSPost2010Prop39
140
1.0
102
RTVSPost2010PropOp39
 70
     1
102
RTVSPost2010Prop40
 90
        0
102
RTVSPost2010PropOp40
 70
     1
102
RTVSPost2010Prop41ColorIndex
 90
       18
102
RTVSPost2010Prop41ColorRGB
 90
        0
102
RTVSPost2010PropOp41
 70
     1
102
RTVSPost2010Prop42
 90
       50
102
RTVSPost2010PropOp42
 70
     1
102
RTVSPost2010Prop43
 90
        3
102
RTVSPost2010PropOp43
 70
     1
102
RTVSPost2010Prop44ColorIndex
 90
        5
102
RTVSPost2010Prop44ColorRGB
 90
      255
102
RTVSPost2010PropOp44
 70
     1
102
RTVSPost2010Prop45
280
     0
102
RTVSPost2010PropOp45
 70
     1
102
RTVSPost2010Prop46
 90
       50
102
RTVSPost2010PropOp46
 70
     1
102
RTVSPost2010Prop47
 90
       50
102
RTVSPost2010PropOp47
 70
     1
102
RTVSPost2010Prop48
 90
       50
102
RTVSPost2010PropOp48
 70
     1
102
RTVSPost2010Prop49
280
     0
102
RTVSPost2010PropOp49
 70
     1
102
RTVSPost2010Prop50
 90
       50
102
RTVSPost2010PropOp50
 70
     1
102
RTVSPost2010Prop51ColorIndex
 90
      256
102
RTVSPost2010Prop51ColorRGB
 90
-16777216
102
RTVSPost2010PropOp51
 70
     0
102
RTVSPost2010Prop52
140
1.0
102
RTVSPost2010PropOp52
 70
     0
102
RTVSPost2010Prop53
 90
        2
102
RTVSPost2010PropOp53
 70
     1
102
RTVSPost2010Prop54
  1
strokes_ogs.tif
102
RTVSPost2010PropOp54
 70
     1
102
RTVSPost2010Prop55
280
     0
102
RTVSPost2010PropOp55
 70
     1
102
RTVSPost2010Prop56
140
1.0
102
RTVSPost2010PropOp56
 70
     1
102
RTVSPost2010Prop57
140
1.0
102
RTVSPost2010PropOp57
 70
     1
102
RTVSPropertyOp0
 70
     1
102
RTVSPropertyOp1
 70
     1
102
RTVSPropertyOp2
 70
     1
102
RTVSPropertyOp3
 70
     1
102
RTVSPropertyOp4
 70
     1
102
RTVSPropertyOp5
 70
     1
102
RTVSPropertyOp6
 70
     1
102
RTVSPropertyOp7
 70
     1
102
RTVSPropertyOp8
 70
     1
102
RTVSPropertyOp9
 70
     1
102
RTVSPropertyOp10
 70
     1
102
RTVSPropertyOp11
 70
     1
102
RTVSPropertyOp12
 70
     1
102
RTVSPropertyOp13
 70
     1
102
RTVSPropertyOp14
 70
     1
102
RTVSPropertyOp15
 70
     1
102
RTVSPropertyOp16
 70
     1
102
RTVSPropertyOp17
 70
     1
102
RTVSPropertyOp18
 70
     1
102
RTVSPropertyOp19
 70
     1
102
RTVSPropertyOp20
 70
     1
102
RTVSPropertyOp21
 70
     1
102
RTVSPropertyOp22
 70
     1
102
RTVSPropertyOp23
 70
     1
102
RTVSPropertyOp24
 70
     1
102
RTVSPropertyOp25
 70
     1
102
RTVSPropertyOp26
 70
     1
102
RTVSPropertyOp27
 70
     1
102
RTVSPropertyOp28
 70
     1
102
RTVSPropertyOp29
 70
     1
102
RTVSPropertyOp30
 70
     1
102
RTVSPropertyOp31
 70
     1
102
RTVSPropertyOp32
 70
     1
102
RTVSPropertyOp33
 70
     1
102
RTVSPropertyOp34
 70
     1
102
RTVSPropertyOp35
 70
     1
102
RTVSPropertyOp36
 70
     1
102
RTVSPropertyOp37
 70
     1
102
RTVSPropertyOp38
 70
     1
102
RTVSPropertyOp39
 70
     1
102
RTVSPropertyOp40
 70
     1
102
RTVSPropertyOp41
 70
     1
102
RTVSPropertyOp42
 70
     1
102
RTVSPropertyOp43
 70
     1
102
RTVSPropertyOp44
 70
     1
102
RTVSPropertyOp45
 70
     1
102
RTVSPropertyOp46
 70
     1
102
RTVSPropertyOp47
 70
     1
102
RTVSPropertyOp48
 70
     1
102
RTVSPropertyOp49
 70
     1
102
RTVSPropertyOp50
 70
     1
102
RTVSPropertyOp51
 70
     0
102
RTVSPropertyOp52
 70
     0
102
RTVSPropertyOp53
 70
     1
102
RTVSPropertyOp54
 70
     1
102
RTVSPropertyOp55
 70
     1
102
RTVSPropertyOp56
 70
     1
102
RTVSPropertyOp57
 70
     1
102
RTVSPropertyOp58
 70
     1
102
RTVSPropertyOp59
 70
     1
102
RTVSPropertyOp60
 70
     1
102
RTVSPropertyOp61
 70
     1
102
RTVSPropertyOp62
 70
     1
  0
XRECORD
  5
42A
102
{ACAD_REACTORS
330
429
102
}
330
429
100
AcDbXrecord
280
     1
102
RTVSPost2010Prop28
280
     0
102
RTVSPost2010PropOp28
 70
     1
102
RTVSPost2010Prop29
280
     1
102
RTVSPost2010PropOp29
 70
     1
102
RTVSPost2010Prop30
280
     1
102
RTVSPost2010PropOp30
 70
     1
102
RTVSPost2010Prop31
280
     0
102
RTVSPost2010PropOp31
 70
     1
102
RTVSPost2010Prop32
280
     0
102
RTVSPost2010PropOp32
 70
     1
102
RTVSPost2010Prop33
280
     0
102
RTVSPost2010PropOp33
 70
     1
102
RTVSPost2010Prop34
280
     0
102
RTVSPost2010PropOp34
 70
     1
102
RTVSPost2010Prop35
280
     0
102
RTVSPost2010PropOp35
 70
     1
102
RTVSPost2010Prop36
280
     0
102
RTVSPost2010PropOp36
 70
     1
102
RTVSPost2010Prop37
 90
       50
102
RTVSPost2010PropOp37
 70
     0
102
RTVSPost2010Prop38
140
0.0
102
RTVSPost2010PropOp38
 70
     0
102
RTVSPost2010Prop39
140
1.0
102
RTVSPost2010PropOp39
 70
     0
102
RTVSPost2010Prop40
 90
        0
102
RTVSPost2010PropOp40
 70
     0
102
RTVSPost2010Prop41ColorIndex
 90
       18
102
RTVSPost2010Prop41ColorRGB
 90
        0
102
RTVSPost2010PropOp41
 70
     0
102
RTVSPost2010Prop42
 90
       50
102
RTVSPost2010PropOp42
 70
     0
102
RTVSPost2010Prop43
 90
        3
102
RTVSPost2010PropOp43
 70
     0
102
RTVSPost2010Prop44ColorIndex
 90
        5
102
RTVSPost2010Prop44ColorRGB
 90
      255
102
RTVSPost2010PropOp44
 70
     0
102
RTVSPost2010Prop45
280
     0
102
RTVSPost2010PropOp45
 70
     1
102
RTVSPost2010Prop46
 90
       50
102
RTVSPost2010PropOp46
 70
     0
102
RTVSPost2010Prop47
 90
       50
102
RTVSPost2010PropOp47
 70
     0
102
RTVSPost2010Prop48
 90
       50
102
RTVSPost2010PropOp48
 70
     0
102
RTVSPost2010Prop49
280
     0
102
RTVSPost2010PropOp49
 70
     1
102
RTVSPost2010Prop50
 90
       50
102
RTVSPost2010PropOp50
 70
     0
102
RTVSPost2010Prop51ColorIndex
 90
      256
102
RTVSPost2010Prop51ColorRGB
 90
-16777216
102
RTVSPost2010PropOp51
 70
     0
102
RTVSPost2010Prop52
140
1.0
102
RTVSPost2010PropOp52
 70
     0
102
RTVSPost2010Prop53
 90
        2
102
RTVSPost2010PropOp53
 70
     0
102
RTVSPost2010Prop54
  1
strokes_ogs.tif
102
RTVSPost2010PropOp54
 70
     0
102
RTVSPost2010Prop55
280
     0
102
RTVSPost2010PropOp55
 70
     1
102
RTVSPost2010Prop56
140
1.0
102
RTVSPost2010PropOp56
 70
     0
102
RTVSPost2010Prop57
140
1.0
102
RTVSPost2010PropOp57
 70
     0
102
RTVSPropertyOp0
 70
     0
102
RTVSPropertyOp1
 70
     0
102
RTVSPropertyOp2
 70
     0
102
RTVSPropertyOp3
 70
     0
102
RTVSPropertyOp4
 70
     0
102
RTVSPropertyOp5
 70
     0
102
RTVSPropertyOp6
 70
     0
102
RTVSPropertyOp7
 70
     0
102
RTVSPropertyOp8
 70
     0
102
RTVSPropertyOp9
 70
     0
102
RTVSPropertyOp10
 70
     0
102
RTVSPropertyOp11
 70
     0
102
RTVSPropertyOp12
 70
     0
102
RTVSPropertyOp13
 70
     0
102
RTVSPropertyOp14
 70
     2
102
RTVSPropertyOp15
 70
     0
102
RTVSPropertyOp16
 70
     0
102
RTVSPropertyOp17
 70
     0
102
RTVSPropertyOp18
 70
     0
102
RTVSPropertyOp19
 70
     0
102
RTVSPropertyOp20
 70
     0
102
RTVSPropertyOp21
 70
     0
102
RTVSPropertyOp22
 70
     0
102
RTVSPropertyOp23
 70
     0
102
RTVSPropertyOp24
 70
     0
102
RTVSPropertyOp25
 70
     0
102
RTVSPropertyOp26
 70
     0
102
RTVSPropertyOp27
 70
     0
102
RTVSPropertyOp28
 70
     1
102
RTVSPropertyOp29
 70
     1
102
RTVSPropertyOp30
 70
     1
102
RTVSPropertyOp31
 70
     1
102
RTVSPropertyOp32
 70
     1
102
RTVSPropertyOp33
 70
     1
102
RTVSPropertyOp34
 70
     1
102
RTVSPropertyOp35
 70
     1
102
RTVSPropertyOp36
 70
     1
102
RTVSPropertyOp37
 70
     0
102
RTVSPropertyOp38
 70
     0
102
RTVSPropertyOp39
 70
     0
102
RTVSPropertyOp40
 70
     0
102
RTVSPropertyOp41
 70
     0
102
RTVSPropertyOp42
 70
     0
102
RTVSPropertyOp43
 70
     0
102
RTVSPropertyOp44
 70
     0
102
RTVSPropertyOp45
 70
     1
102
RTVSPropertyOp46
 70
     0
102
RTVSPropertyOp47
 70
     0
102
RTVSPropertyOp48
 70
     0
102
RTVSPropertyOp49
 70
     1
102
RTVSPropertyOp50
 70
     0
102
RTVSPropertyOp51
 70
     0
102
RTVSPropertyOp52
 70
     0
102
RTVSPropertyOp53
 70
     0
102
RTVSPropertyOp54
 70
     0
102
RTVSPropertyOp55
 70
     1
102
RTVSPropertyOp56
 70
     0
102
RTVSPropertyOp57
 70
     0
102
RTVSPropertyOp58
 70
     0
102
RTVSPropertyOp59
 70
     0
102
RTVSPropertyOp60
 70
     0
102
RTVSPropertyOp61
 70
     0
102
RTVSPropertyOp62
 70
     0
  0
XRECORD
  5
410
102
{ACAD_REACTORS
330
40F
102
}
330
40F
100
AcDbXrecord
280
     1
102
RTVSPost2010Prop28
280
     0
102
RTVSPost2010PropOp28
 70
     1
102
RTVSPost2010Prop29
280
     1
102
RTVSPost2010PropOp29
 70
     1
102
RTVSPost2010Prop30
280
     1
102
RTVSPost2010PropOp30
 70
     1
102
RTVSPost2010Prop31
280
     0
102
RTVSPost2010PropOp31
 70
     1
102
RTVSPost2010Prop32
280
     0
102
RTVSPost2010PropOp32
 70
     1
102
RTVSPost2010Prop33
280
     0
102
RTVSPost2010PropOp33
 70
     1
102
RTVSPost2010Prop34
280
     0
102
RTVSPost2010PropOp34
 70
     1
102
RTVSPost2010Prop35
280
     0
102
RTVSPost2010PropOp35
 70
     1
102
RTVSPost2010Prop36
280
     0
102
RTVSPost2010PropOp36
 70
     1
102
RTVSPost2010Prop37
 90
       50
102
RTVSPost2010PropOp37
 70
     1
102
RTVSPost2010Prop38
140
0.0
102
RTVSPost2010PropOp38
 70
     1
102
RTVSPost2010Prop39
140
1.0
102
RTVSPost2010PropOp39
 70
     1
102
RTVSPost2010Prop40
 90
        0
102
RTVSPost2010PropOp40
 70
     1
102
RTVSPost2010Prop41ColorIndex
 90
       18
102
RTVSPost2010Prop41ColorRGB
 90
        0
102
RTVSPost2010PropOp41
 70
     1
102
RTVSPost2010Prop42
 90
       50
102
RTVSPost2010PropOp42
 70
     1
102
RTVSPost2010Prop43
 90
        3
102
RTVSPost2010PropOp43
 70
     1
102
RTVSPost2010Prop44ColorIndex
 90
        5
102
RTVSPost2010Prop44ColorRGB
 90
      255
102
RTVSPost2010PropOp44
 70
     1
102
RTVSPost2010Prop45
280
     0
102
RTVSPost2010PropOp45
 70
     1
102
RTVSPost2010Prop46
 90
       50
102
RTVSPost2010PropOp46
 70
     1
102
RTVSPost2010Prop47
 90
       50
102
RTVSPost2010PropOp47
 70
     1
102
RTVSPost2010Prop48
 90
       50
102
RTVSPost2010PropOp48
 70
     1
102
RTVSPost2010Prop49
280
     0
102
RTVSPost2010PropOp49
 70
     1
102
RTVSPost2010Prop50
 90
       50
102
RTVSPost2010PropOp50
 70
     1
102
RTVSPost2010Prop51ColorIndex
 90
      256
102
RTVSPost2010Prop51ColorRGB
 90
-16777216
102
RTVSPost2010PropOp51
 70
     0
102
RTVSPost2010Prop52
140
1.0
102
RTVSPost2010PropOp52
 70
     0
102
RTVSPost2010Prop53
 90
        2
102
RTVSPost2010PropOp53
 70
     1
102
RTVSPost2010Prop54
  1
strokes_ogs.tif
102
RTVSPost2010PropOp54
 70
     1
102
RTVSPost2010Prop55
280
     0
102
RTVSPost2010PropOp55
 70
     1
102
RTVSPost2010Prop56
140
1.0
102
RTVSPost2010PropOp56
 70
     1
102
RTVSPost2010Prop57
140
1.0
102
RTVSPost2010PropOp57
 70
     1
102
RTVSPropertyOp0
 70
     1
102
RTVSPropertyOp1
 70
     1
102
RTVSPropertyOp2
 70
     1
102
RTVSPropertyOp3
 70
     1
102
RTVSPropertyOp4
 70
     1
102
RTVSPropertyOp5
 70
     1
102
RTVSPropertyOp6
 70
     1
102
RTVSPropertyOp7
 70
     1
102
RTVSPropertyOp8
 70
     1
102
RTVSPropertyOp9
 70
     1
102
RTVSPropertyOp10
 70
     1
102
RTVSPropertyOp11
 70
     1
102
RTVSPropertyOp12
 70
     1
102
RTVSPropertyOp13
 70
     1
102
RTVSPropertyOp14
 70
     1
102
RTVSPropertyOp15
 70
     1
102
RTVSPropertyOp16
 70
     1
102
RTVSPropertyOp17
 70
     1
102
RTVSPropertyOp18
 70
     1
102
RTVSPropertyOp19
 70
     1
102
RTVSPropertyOp20
 70
     1
102
RTVSPropertyOp21
 70
     1
102
RTVSPropertyOp22
 70
     1
102
RTVSPropertyOp23
 70
     1
102
RTVSPropertyOp24
 70
     1
102
RTVSPropertyOp25
 70
     1
102
RTVSPropertyOp26
 70
     1
102
RTVSPropertyOp27
 70
     1
102
RTVSPropertyOp28
 70
     1
102
RTVSPropertyOp29
 70
     1
102
RTVSPropertyOp30
 70
     1
102
RTVSPropertyOp31
 70
     1
102
RTVSPropertyOp32
 70
     1
102
RTVSPropertyOp33
 70
     1
102
RTVSPropertyOp34
 70
     1
102
RTVSPropertyOp35
 70
     1
102
RTVSPropertyOp36
 70
     1
102
RTVSPropertyOp37
 70
     1
102
RTVSPropertyOp38
 70
     1
102
RTVSPropertyOp39
 70
     1
102
RTVSPropertyOp40
 70
     1
102
RTVSPropertyOp41
 70
     1
102
RTVSPropertyOp42
 70
     1
102
RTVSPropertyOp43
 70
     1
102
RTVSPropertyOp44
 70
     1
102
RTVSPropertyOp45
 70
     1
102
RTVSPropertyOp46
 70
     1
102
RTVSPropertyOp47
 70
     1
102
RTVSPropertyOp48
 70
     1
102
RTVSPropertyOp49
 70
     1
102
RTVSPropertyOp50
 70
     1
102
RTVSPropertyOp51
 70
     0
102
RTVSPropertyOp52
 70
     0
102
RTVSPropertyOp53
 70
     1
102
RTVSPropertyOp54
 70
     1
102
RTVSPropertyOp55
 70
     1
102
RTVSPropertyOp56
 70
     1
102
RTVSPropertyOp57
 70
     1
102
RTVSPropertyOp58
 70
     1
102
RTVSPropertyOp59
 70
     1
102
RTVSPropertyOp60
 70
     1
102
RTVSPropertyOp61
 70
     1
102
RTVSPropertyOp62
 70
     1
  0
XRECORD
  5
426
102
{ACAD_REACTORS
330
425
102
}
330
425
100
AcDbXrecord
280
     1
102
RTVSPost2010Prop28
280
     0
102
RTVSPost2010PropOp28
 70
     1
102
RTVSPost2010Prop29
280
     1
102
RTVSPost2010PropOp29
 70
     1
102
RTVSPost2010Prop30
280
     1
102
RTVSPost2010PropOp30
 70
     1
102
RTVSPost2010Prop31
280
     0
102
RTVSPost2010PropOp31
 70
     1
102
RTVSPost2010Prop32
280
     0
102
RTVSPost2010PropOp32
 70
     1
102
RTVSPost2010Prop33
280
     0
102
RTVSPost2010PropOp33
 70
     1
102
RTVSPost2010Prop34
280
     0
102
RTVSPost2010PropOp34
 70
     1
102
RTVSPost2010Prop35
280
     0
102
RTVSPost2010PropOp35
 70
     1
102
RTVSPost2010Prop36
280
     0
102
RTVSPost2010PropOp36
 70
     1
102
RTVSPost2010Prop37
 90
       50
102
RTVSPost2010PropOp37
 70
     1
102
RTVSPost2010Prop38
140
0.0
102
RTVSPost2010PropOp38
 70
     1
102
RTVSPost2010Prop39
140
1.0
102
RTVSPost2010PropOp39
 70
     1
102
RTVSPost2010Prop40
 90
        0
102
RTVSPost2010PropOp40
 70
     1
102
RTVSPost2010Prop41ColorIndex
 90
       18
102
RTVSPost2010Prop41ColorRGB
 90
        0
102
RTVSPost2010PropOp41
 70
     1
102
RTVSPost2010Prop42
 90
       50
102
RTVSPost2010PropOp42
 70
     1
102
RTVSPost2010Prop43
 90
        3
102
RTVSPost2010PropOp43
 70
     1
102
RTVSPost2010Prop44ColorIndex
 90
        5
102
RTVSPost2010Prop44ColorRGB
 90
      255
102
RTVSPost2010PropOp44
 70
     1
102
RTVSPost2010Prop45
280
     0
102
RTVSPost2010PropOp45
 70
     1
102
RTVSPost2010Prop46
 90
       50
102
RTVSPost2010PropOp46
 70
     1
102
RTVSPost2010Prop47
 90
       50
102
RTVSPost2010PropOp47
 70
     1
102
RTVSPost2010Prop48
 90
       50
102
RTVSPost2010PropOp48
 70
     1
102
RTVSPost2010Prop49
280
     0
102
RTVSPost2010PropOp49
 70
     1
102
RTVSPost2010Prop50
 90
       50
102
RTVSPost2010PropOp50
 70
     1
102
RTVSPost2010Prop51ColorIndex
 90
      256
102
RTVSPost2010Prop51ColorRGB
 90
-16777216
102
RTVSPost2010PropOp51
 70
     0
102
RTVSPost2010Prop52
140
1.0
102
RTVSPost2010PropOp52
 70
     0
102
RTVSPost2010Prop53
 90
        2
102
RTVSPost2010PropOp53
 70
     1
102
RTVSPost2010Prop54
  1
strokes_ogs.tif
102
RTVSPost2010PropOp54
 70
     1
102
RTVSPost2010Prop55
280
     0
102
RTVSPost2010PropOp55
 70
     1
102
RTVSPost2010Prop56
140
1.0
102
RTVSPost2010PropOp56
 70
     1
102
RTVSPost2010Prop57
140
1.0
102
RTVSPost2010PropOp57
 70
     1
102
RTVSPropertyOp0
 70
     1
102
RTVSPropertyOp1
 70
     1
102
RTVSPropertyOp2
 70
     1
102
RTVSPropertyOp3
 70
     1
102
RTVSPropertyOp4
 70
     1
102
RTVSPropertyOp5
 70
     1
102
RTVSPropertyOp6
 70
     1
102
RTVSPropertyOp7
 70
     1
102
RTVSPropertyOp8
 70
     1
102
RTVSPropertyOp9
 70
     1
102
RTVSPropertyOp10
 70
     1
102
RTVSPropertyOp11
 70
     1
102
RTVSPropertyOp12
 70
     1
102
RTVSPropertyOp13
 70
     1
102
RTVSPropertyOp14
 70
     1
102
RTVSPropertyOp15
 70
     1
102
RTVSPropertyOp16
 70
     1
102
RTVSPropertyOp17
 70
     1
102
RTVSPropertyOp18
 70
     1
102
RTVSPropertyOp19
 70
     1
102
RTVSPropertyOp20
 70
     1
102
RTVSPropertyOp21
 70
     1
102
RTVSPropertyOp22
 70
     1
102
RTVSPropertyOp23
 70
     1
102
RTVSPropertyOp24
 70
     1
102
RTVSPropertyOp25
 70
     1
102
RTVSPropertyOp26
 70
     1
102
RTVSPropertyOp27
 70
     1
102
RTVSPropertyOp28
 70
     1
102
RTVSPropertyOp29
 70
     1
102
RTVSPropertyOp30
 70
     1
102
RTVSPropertyOp31
 70
     1
102
RTVSPropertyOp32
 70
     1
102
RTVSPropertyOp33
 70
     1
102
RTVSPropertyOp34
 70
     1
102
RTVSPropertyOp35
 70
     1
102
RTVSPropertyOp36
 70
     1
102
RTVSPropertyOp37
 70
     1
102
RTVSPropertyOp38
 70
     1
102
RTVSPropertyOp39
 70
     1
102
RTVSPropertyOp40
 70
     1
102
RTVSPropertyOp41
 70
     1
102
RTVSPropertyOp42
 70
     1
102
RTVSPropertyOp43
 70
     1
102
RTVSPropertyOp44
 70
     1
102
RTVSPropertyOp45
 70
     1
102
RTVSPropertyOp46
 70
     1
102
RTVSPropertyOp47
 70
     1
102
RTVSPropertyOp48
 70
     1
102
RTVSPropertyOp49
 70
     1
102
RTVSPropertyOp50
 70
     1
102
RTVSPropertyOp51
 70
     0
102
RTVSPropertyOp52
 70
     0
102
RTVSPropertyOp53
 70
     1
102
RTVSPropertyOp54
 70
     1
102
RTVSPropertyOp55
 70
     1
102
RTVSPropertyOp56
 70
     1
102
RTVSPropertyOp57
 70
     1
102
RTVSPropertyOp58
 70
     1
102
RTVSPropertyOp59
 70
     1
102
RTVSPropertyOp60
 70
     1
102
RTVSPropertyOp61
 70
     1
102
RTVSPropertyOp62
 70
     1
  0
XRECORD
  5
424
102
{ACAD_REACTORS
330
423
102
}
330
423
100
AcDbXrecord
280
     1
102
RTVSPost2010Prop28
280
     0
102
RTVSPost2010PropOp28
 70
     1
102
RTVSPost2010Prop29
280
     1
102
RTVSPost2010PropOp29
 70
     1
102
RTVSPost2010Prop30
280
     1
102
RTVSPost2010PropOp30
 70
     1
102
RTVSPost2010Prop31
280
     0
102
RTVSPost2010PropOp31
 70
     1
102
RTVSPost2010Prop32
280
     0
102
RTVSPost2010PropOp32
 70
     1
102
RTVSPost2010Prop33
280
     0
102
RTVSPost2010PropOp33
 70
     1
102
RTVSPost2010Prop34
280
     0
102
RTVSPost2010PropOp34
 70
     1
102
RTVSPost2010Prop35
280
     0
102
RTVSPost2010PropOp35
 70
     1
102
RTVSPost2010Prop36
280
     0
102
RTVSPost2010PropOp36
 70
     1
102
RTVSPost2010Prop37
 90
       50
102
RTVSPost2010PropOp37
 70
     1
102
RTVSPost2010Prop38
140
0.0
102
RTVSPost2010PropOp38
 70
     1
102
RTVSPost2010Prop39
140
1.0
102
RTVSPost2010PropOp39
 70
     1
102
RTVSPost2010Prop40
 90
        0
102
RTVSPost2010PropOp40
 70
     1
102
RTVSPost2010Prop41ColorIndex
 90
       18
102
RTVSPost2010Prop41ColorRGB
 90
        0
102
RTVSPost2010PropOp41
 70
     1
102
RTVSPost2010Prop42
 90
       50
102
RTVSPost2010PropOp42
 70
     1
102
RTVSPost2010Prop43
 90
        3
102
RTVSPost2010PropOp43
 70
     1
102
RTVSPost2010Prop44ColorIndex
 90
        5
102
RTVSPost2010Prop44ColorRGB
 90
      255
102
RTVSPost2010PropOp44
 70
     1
102
RTVSPost2010Prop45
280
     0
102
RTVSPost2010PropOp45
 70
     1
102
RTVSPost2010Prop46
 90
       50
102
RTVSPost2010PropOp46
 70
     1
102
RTVSPost2010Prop47
 90
       50
102
RTVSPost2010PropOp47
 70
     1
102
RTVSPost2010Prop48
 90
       50
102
RTVSPost2010PropOp48
 70
     1
102
RTVSPost2010Prop49
280
     0
102
RTVSPost2010PropOp49
 70
     1
102
RTVSPost2010Prop50
 90
       50
102
RTVSPost2010PropOp50
 70
     1
102
RTVSPost2010Prop51ColorIndex
 90
      256
102
RTVSPost2010Prop51ColorRGB
 90
-16777216
102
RTVSPost2010PropOp51
 70
     0
102
RTVSPost2010Prop52
140
1.0
102
RTVSPost2010PropOp52
 70
     0
102
RTVSPost2010Prop53
 90
        2
102
RTVSPost2010PropOp53
 70
     1
102
RTVSPost2010Prop54
  1
strokes_ogs.tif
102
RTVSPost2010PropOp54
 70
     1
102
RTVSPost2010Prop55
280
     0
102
RTVSPost2010PropOp55
 70
     1
102
RTVSPost2010Prop56
140
1.0
102
RTVSPost2010PropOp56
 70
     1
102
RTVSPost2010Prop57
140
1.0
102
RTVSPost2010PropOp57
 70
     1
102
RTVSPropertyOp0
 70
     1
102
RTVSPropertyOp1
 70
     1
102
RTVSPropertyOp2
 70
     1
102
RTVSPropertyOp3
 70
     1
102
RTVSPropertyOp4
 70
     1
102
RTVSPropertyOp5
 70
     1
102
RTVSPropertyOp6
 70
     1
102
RTVSPropertyOp7
 70
     1
102
RTVSPropertyOp8
 70
     1
102
RTVSPropertyOp9
 70
     1
102
RTVSPropertyOp10
 70
     1
102
RTVSPropertyOp11
 70
     1
102
RTVSPropertyOp12
 70
     1
102
RTVSPropertyOp13
 70
     1
102
RTVSPropertyOp14
 70
     1
102
RTVSPropertyOp15
 70
     1
102
RTVSPropertyOp16
 70
     1
102
RTVSPropertyOp17
 70
     1
102
RTVSPropertyOp18
 70
     1
102
RTVSPropertyOp19
 70
     1
102
RTVSPropertyOp20
 70
     1
102
RTVSPropertyOp21
 70
     1
102
RTVSPropertyOp22
 70
     1
102
RTVSPropertyOp23
 70
     1
102
RTVSPropertyOp24
 70
     1
102
RTVSPropertyOp25
 70
     1
102
RTVSPropertyOp26
 70
     1
102
RTVSPropertyOp27
 70
     1
102
RTVSPropertyOp28
 70
     1
102
RTVSPropertyOp29
 70
     1
102
RTVSPropertyOp30
 70
     1
102
RTVSPropertyOp31
 70
     1
102
RTVSPropertyOp32
 70
     1
102
RTVSPropertyOp33
 70
     1
102
RTVSPropertyOp34
 70
     1
102
RTVSPropertyOp35
 70
     1
102
RTVSPropertyOp36
 70
     1
102
RTVSPropertyOp37
 70
     1
102
RTVSPropertyOp38
 70
     1
102
RTVSPropertyOp39
 70
     1
102
RTVSPropertyOp40
 70
     1
102
RTVSPropertyOp41
 70
     1
102
RTVSPropertyOp42
 70
     1
102
RTVSPropertyOp43
 70
     1
102
RTVSPropertyOp44
 70
     1
102
RTVSPropertyOp45
 70
     1
102
RTVSPropertyOp46
 70
     1
102
RTVSPropertyOp47
 70
     1
102
RTVSPropertyOp48
 70
     1
102
RTVSPropertyOp49
 70
     1
102
RTVSPropertyOp50
 70
     1
102
RTVSPropertyOp51
 70
     0
102
RTVSPropertyOp52
 70
     0
102
RTVSPropertyOp53
 70
     1
102
RTVSPropertyOp54
 70
     1
102
RTVSPropertyOp55
 70
     1
102
RTVSPropertyOp56
 70
     1
102
RTVSPropertyOp57
 70
     1
102
RTVSPropertyOp58
 70
     1
102
RTVSPropertyOp59
 70
     1
102
RTVSPropertyOp60
 70
     1
102
RTVSPropertyOp61
 70
     1
102
RTVSPropertyOp62
 70
     1
  0
XRECORD
  5
41E
102
{ACAD_REACTORS
330
41D
102
}
330
41D
100
AcDbXrecord
280
     1
102
RTVSPost2010Prop28
280
     0
102
RTVSPost2010PropOp28
 70
     1
102
RTVSPost2010Prop29
280
     1
102
RTVSPost2010PropOp29
 70
     1
102
RTVSPost2010Prop30
280
     1
102
RTVSPost2010PropOp30
 70
     1
102
RTVSPost2010Prop31
280
     0
102
RTVSPost2010PropOp31
 70
     1
102
RTVSPost2010Prop32
280
     0
102
RTVSPost2010PropOp32
 70
     1
102
RTVSPost2010Prop33
280
     0
102
RTVSPost2010PropOp33
 70
     1
102
RTVSPost2010Prop34
280
     0
102
RTVSPost2010PropOp34
 70
     1
102
RTVSPost2010Prop35
280
     0
102
RTVSPost2010PropOp35
 70
     1
102
RTVSPost2010Prop36
280
     0
102
RTVSPost2010PropOp36
 70
     1
102
RTVSPost2010Prop37
 90
       50
102
RTVSPost2010PropOp37
 70
     1
102
RTVSPost2010Prop38
140
0.0
102
RTVSPost2010PropOp38
 70
     1
102
RTVSPost2010Prop39
140
1.0
102
RTVSPost2010PropOp39
 70
     1
102
RTVSPost2010Prop40
 90
        0
102
RTVSPost2010PropOp40
 70
     1
102
RTVSPost2010Prop41ColorIndex
 90
       18
102
RTVSPost2010Prop41ColorRGB
 90
        0
102
RTVSPost2010PropOp41
 70
     1
102
RTVSPost2010Prop42
 90
       50
102
RTVSPost2010PropOp42
 70
     1
102
RTVSPost2010Prop43
 90
        3
102
RTVSPost2010PropOp43
 70
     1
102
RTVSPost2010Prop44ColorIndex
 90
        5
102
RTVSPost2010Prop44ColorRGB
 90
      255
102
RTVSPost2010PropOp44
 70
     1
102
RTVSPost2010Prop45
280
     0
102
RTVSPost2010PropOp45
 70
     1
102
RTVSPost2010Prop46
 90
       50
102
RTVSPost2010PropOp46
 70
     1
102
RTVSPost2010Prop47
 90
       50
102
RTVSPost2010PropOp47
 70
     1
102
RTVSPost2010Prop48
 90
       50
102
RTVSPost2010PropOp48
 70
     1
102
RTVSPost2010Prop49
280
     0
102
RTVSPost2010PropOp49
 70
     1
102
RTVSPost2010Prop50
 90
       50
102
RTVSPost2010PropOp50
 70
     1
102
RTVSPost2010Prop51ColorIndex
 90
      256
102
RTVSPost2010Prop51ColorRGB
 90
-16777216
102
RTVSPost2010PropOp51
 70
     0
102
RTVSPost2010Prop52
140
1.0
102
RTVSPost2010PropOp52
 70
     0
102
RTVSPost2010Prop53
 90
        2
102
RTVSPost2010PropOp53
 70
     1
102
RTVSPost2010Prop54
  1
strokes_ogs.tif
102
RTVSPost2010PropOp54
 70
     1
102
RTVSPost2010Prop55
280
     0
102
RTVSPost2010PropOp55
 70
     1
102
RTVSPost2010Prop56
140
1.0
102
RTVSPost2010PropOp56
 70
     1
102
RTVSPost2010Prop57
140
1.0
102
RTVSPost2010PropOp57
 70
     1
102
RTVSPropertyOp0
 70
     1
102
RTVSPropertyOp1
 70
     1
102
RTVSPropertyOp2
 70
     1
102
RTVSPropertyOp3
 70
     1
102
RTVSPropertyOp4
 70
     1
102
RTVSPropertyOp5
 70
     1
102
RTVSPropertyOp6
 70
     1
102
RTVSPropertyOp7
 70
     1
102
RTVSPropertyOp8
 70
     1
102
RTVSPropertyOp9
 70
     1
102
RTVSPropertyOp10
 70
     1
102
RTVSPropertyOp11
 70
     1
102
RTVSPropertyOp12
 70
     1
102
RTVSPropertyOp13
 70
     1
102
RTVSPropertyOp14
 70
     1
102
RTVSPropertyOp15
 70
     1
102
RTVSPropertyOp16
 70
     1
102
RTVSPropertyOp17
 70
     1
102
RTVSPropertyOp18
 70
     1
102
RTVSPropertyOp19
 70
     1
102
RTVSPropertyOp20
 70
     1
102
RTVSPropertyOp21
 70
     1
102
RTVSPropertyOp22
 70
     1
102
RTVSPropertyOp23
 70
     1
102
RTVSPropertyOp24
 70
     1
102
RTVSPropertyOp25
 70
     1
102
RTVSPropertyOp26
 70
     1
102
RTVSPropertyOp27
 70
     1
102
RTVSPropertyOp28
 70
     1
102
RTVSPropertyOp29
 70
     1
102
RTVSPropertyOp30
 70
     1
102
RTVSPropertyOp31
 70
     1
102
RTVSPropertyOp32
 70
     1
102
RTVSPropertyOp33
 70
     1
102
RTVSPropertyOp34
 70
     1
102
RTVSPropertyOp35
 70
     1
102
RTVSPropertyOp36
 70
     1
102
RTVSPropertyOp37
 70
     1
102
RTVSPropertyOp38
 70
     1
102
RTVSPropertyOp39
 70
     1
102
RTVSPropertyOp40
 70
     1
102
RTVSPropertyOp41
 70
     1
102
RTVSPropertyOp42
 70
     1
102
RTVSPropertyOp43
 70
     1
102
RTVSPropertyOp44
 70
     1
102
RTVSPropertyOp45
 70
     1
102
RTVSPropertyOp46
 70
     1
102
RTVSPropertyOp47
 70
     1
102
RTVSPropertyOp48
 70
     1
102
RTVSPropertyOp49
 70
     1
102
RTVSPropertyOp50
 70
     1
102
RTVSPropertyOp51
 70
     0
102
RTVSPropertyOp52
 70
     0
102
RTVSPropertyOp53
 70
     1
102
RTVSPropertyOp54
 70
     1
102
RTVSPropertyOp55
 70
     1
102
RTVSPropertyOp56
 70
     1
102
RTVSPropertyOp57
 70
     1
102
RTVSPropertyOp58
 70
     1
102
RTVSPropertyOp59
 70
     1
102
RTVSPropertyOp60
 70
     1
102
RTVSPropertyOp61
 70
     1
102
RTVSPropertyOp62
 70
     1
  0
XRECORD
  5
420
102
{ACAD_REACTORS
330
41F
102
}
330
41F
100
AcDbXrecord
280
     1
102
RTVSPost2010Prop28
280
     0
102
RTVSPost2010PropOp28
 70
     1
102
RTVSPost2010Prop29
280
     1
102
RTVSPost2010PropOp29
 70
     1
102
RTVSPost2010Prop30
280
     1
102
RTVSPost2010PropOp30
 70
     1
102
RTVSPost2010Prop31
280
     0
102
RTVSPost2010PropOp31
 70
     1
102
RTVSPost2010Prop32
280
     0
102
RTVSPost2010PropOp32
 70
     1
102
RTVSPost2010Prop33
280
     0
102
RTVSPost2010PropOp33
 70
     1
102
RTVSPost2010Prop34
280
     0
102
RTVSPost2010PropOp34
 70
     1
102
RTVSPost2010Prop35
280
     0
102
RTVSPost2010PropOp35
 70
     1
102
RTVSPost2010Prop36
280
     0
102
RTVSPost2010PropOp36
 70
     1
102
RTVSPost2010Prop37
 90
       50
102
RTVSPost2010PropOp37
 70
     1
102
RTVSPost2010Prop38
140
0.0
102
RTVSPost2010PropOp38
 70
     1
102
RTVSPost2010Prop39
140
1.0
102
RTVSPost2010PropOp39
 70
     1
102
RTVSPost2010Prop40
 90
        0
102
RTVSPost2010PropOp40
 70
     1
102
RTVSPost2010Prop41ColorIndex
 90
       18
102
RTVSPost2010Prop41ColorRGB
 90
        0
102
RTVSPost2010PropOp41
 70
     1
102
RTVSPost2010Prop42
 90
       50
102
RTVSPost2010PropOp42
 70
     1
102
RTVSPost2010Prop43
 90
        3
102
RTVSPost2010PropOp43
 70
     1
102
RTVSPost2010Prop44ColorIndex
 90
        5
102
RTVSPost2010Prop44ColorRGB
 90
      255
102
RTVSPost2010PropOp44
 70
     1
102
RTVSPost2010Prop45
280
     0
102
RTVSPost2010PropOp45
 70
     1
102
RTVSPost2010Prop46
 90
       50
102
RTVSPost2010PropOp46
 70
     1
102
RTVSPost2010Prop47
 90
       50
102
RTVSPost2010PropOp47
 70
     1
102
RTVSPost2010Prop48
 90
       50
102
RTVSPost2010PropOp48
 70
     1
102
RTVSPost2010Prop49
280
     0
102
RTVSPost2010PropOp49
 70
     1
102
RTVSPost2010Prop50
 90
       50
102
RTVSPost2010PropOp50
 70
     1
102
RTVSPost2010Prop51ColorIndex
 90
      256
102
RTVSPost2010Prop51ColorRGB
 90
-16777216
102
RTVSPost2010PropOp51
 70
     0
102
RTVSPost2010Prop52
140
1.0
102
RTVSPost2010PropOp52
 70
     0
102
RTVSPost2010Prop53
 90
        2
102
RTVSPost2010PropOp53
 70
     1
102
RTVSPost2010Prop54
  1
strokes_ogs.tif
102
RTVSPost2010PropOp54
 70
     1
102
RTVSPost2010Prop55
280
     0
102
RTVSPost2010PropOp55
 70
     1
102
RTVSPost2010Prop56
140
1.0
102
RTVSPost2010PropOp56
 70
     1
102
RTVSPost2010Prop57
140
1.0
102
RTVSPost2010PropOp57
 70
     1
102
RTVSPropertyOp0
 70
     1
102
RTVSPropertyOp1
 70
     1
102
RTVSPropertyOp2
 70
     1
102
RTVSPropertyOp3
 70
     1
102
RTVSPropertyOp4
 70
     1
102
RTVSPropertyOp5
 70
     1
102
RTVSPropertyOp6
 70
     1
102
RTVSPropertyOp7
 70
     1
102
RTVSPropertyOp8
 70
     1
102
RTVSPropertyOp9
 70
     1
102
RTVSPropertyOp10
 70
     1
102
RTVSPropertyOp11
 70
     1
102
RTVSPropertyOp12
 70
     1
102
RTVSPropertyOp13
 70
     1
102
RTVSPropertyOp14
 70
     1
102
RTVSPropertyOp15
 70
     1
102
RTVSPropertyOp16
 70
     1
102
RTVSPropertyOp17
 70
     1
102
RTVSPropertyOp18
 70
     1
102
RTVSPropertyOp19
 70
     1
102
RTVSPropertyOp20
 70
     1
102
RTVSPropertyOp21
 70
     1
102
RTVSPropertyOp22
 70
     1
102
RTVSPropertyOp23
 70
     1
102
RTVSPropertyOp24
 70
     1
102
RTVSPropertyOp25
 70
     1
102
RTVSPropertyOp26
 70
     1
102
RTVSPropertyOp27
 70
     1
102
RTVSPropertyOp28
 70
     1
102
RTVSPropertyOp29
 70
     1
102
RTVSPropertyOp30
 70
     1
102
RTVSPropertyOp31
 70
     1
102
RTVSPropertyOp32
 70
     1
102
RTVSPropertyOp33
 70
     1
102
RTVSPropertyOp34
 70
     1
102
RTVSPropertyOp35
 70
     1
102
RTVSPropertyOp36
 70
     1
102
RTVSPropertyOp37
 70
     1
102
RTVSPropertyOp38
 70
     1
102
RTVSPropertyOp39
 70
     1
102
RTVSPropertyOp40
 70
     1
102
RTVSPropertyOp41
 70
     1
102
RTVSPropertyOp42
 70
     1
102
RTVSPropertyOp43
 70
     1
102
RTVSPropertyOp44
 70
     1
102
RTVSPropertyOp45
 70
     1
102
RTVSPropertyOp46
 70
     1
102
RTVSPropertyOp47
 70
     1
102
RTVSPropertyOp48
 70
     1
102
RTVSPropertyOp49
 70
     1
102
RTVSPropertyOp50
 70
     1
102
RTVSPropertyOp51
 70
     0
102
RTVSPropertyOp52
 70
     0
102
RTVSPropertyOp53
 70
     1
102
RTVSPropertyOp54
 70
     1
102
RTVSPropertyOp55
 70
     1
102
RTVSPropertyOp56
 70
     1
102
RTVSPropertyOp57
 70
     1
102
RTVSPropertyOp58
 70
     1
102
RTVSPropertyOp59
 70
     1
102
RTVSPropertyOp60
 70
     1
102
RTVSPropertyOp61
 70
     1
102
RTVSPropertyOp62
 70
     1
  0
XRECORD
  5
416
102
{ACAD_REACTORS
330
415
102
}
330
415
100
AcDbXrecord
280
     1
102
RTVSPost2010Prop28
280
     0
102
RTVSPost2010PropOp28
 70
     1
102
RTVSPost2010Prop29
280
     1
102
RTVSPost2010PropOp29
 70
     1
102
RTVSPost2010Prop30
280
     1
102
RTVSPost2010PropOp30
 70
     1
102
RTVSPost2010Prop31
280
     0
102
RTVSPost2010PropOp31
 70
     1
102
RTVSPost2010Prop32
280
     0
102
RTVSPost2010PropOp32
 70
     1
102
RTVSPost2010Prop33
280
     0
102
RTVSPost2010PropOp33
 70
     1
102
RTVSPost2010Prop34
280
     0
102
RTVSPost2010PropOp34
 70
     1
102
RTVSPost2010Prop35
280
     0
102
RTVSPost2010PropOp35
 70
     1
102
RTVSPost2010Prop36
280
     0
102
RTVSPost2010PropOp36
 70
     1
102
RTVSPost2010Prop37
 90
       50
102
RTVSPost2010PropOp37
 70
     1
102
RTVSPost2010Prop38
140
0.0
102
RTVSPost2010PropOp38
 70
     1
102
RTVSPost2010Prop39
140
1.0
102
RTVSPost2010PropOp39
 70
     1
102
RTVSPost2010Prop40
 90
        0
102
RTVSPost2010PropOp40
 70
     1
102
RTVSPost2010Prop41ColorIndex
 90
       18
102
RTVSPost2010Prop41ColorRGB
 90
        0
102
RTVSPost2010PropOp41
 70
     1
102
RTVSPost2010Prop42
 90
       50
102
RTVSPost2010PropOp42
 70
     1
102
RTVSPost2010Prop43
 90
        3
102
RTVSPost2010PropOp43
 70
     1
102
RTVSPost2010Prop44ColorIndex
 90
        5
102
RTVSPost2010Prop44ColorRGB
 90
      255
102
RTVSPost2010PropOp44
 70
     1
102
RTVSPost2010Prop45
280
     0
102
RTVSPost2010PropOp45
 70
     1
102
RTVSPost2010Prop46
 90
       50
102
RTVSPost2010PropOp46
 70
     1
102
RTVSPost2010Prop47
 90
       50
102
RTVSPost2010PropOp47
 70
     1
102
RTVSPost2010Prop48
 90
       50
102
RTVSPost2010PropOp48
 70
     1
102
RTVSPost2010Prop49
280
     0
102
RTVSPost2010PropOp49
 70
     1
102
RTVSPost2010Prop50
 90
       50
102
RTVSPost2010PropOp50
 70
     1
102
RTVSPost2010Prop51ColorIndex
 90
      256
102
RTVSPost2010Prop51ColorRGB
 90
-16777216
102
RTVSPost2010PropOp51
 70
     0
102
RTVSPost2010Prop52
140
1.0
102
RTVSPost2010PropOp52
 70
     0
102
RTVSPost2010Prop53
 90
        2
102
RTVSPost2010PropOp53
 70
     1
102
RTVSPost2010Prop54
  1
strokes_ogs.tif
102
RTVSPost2010PropOp54
 70
     1
102
RTVSPost2010Prop55
280
     0
102
RTVSPost2010PropOp55
 70
     1
102
RTVSPost2010Prop56
140
1.0
102
RTVSPost2010PropOp56
 70
     1
102
RTVSPost2010Prop57
140
1.0
102
RTVSPost2010PropOp57
 70
     1
102
RTVSPropertyOp0
 70
     1
102
RTVSPropertyOp1
 70
     1
102
RTVSPropertyOp2
 70
     1
102
RTVSPropertyOp3
 70
     1
102
RTVSPropertyOp4
 70
     1
102
RTVSPropertyOp5
 70
     1
102
RTVSPropertyOp6
 70
     1
102
RTVSPropertyOp7
 70
     1
102
RTVSPropertyOp8
 70
     1
102
RTVSPropertyOp9
 70
     1
102
RTVSPropertyOp10
 70
     1
102
RTVSPropertyOp11
 70
     1
102
RTVSPropertyOp12
 70
     1
102
RTVSPropertyOp13
 70
     1
102
RTVSPropertyOp14
 70
     1
102
RTVSPropertyOp15
 70
     1
102
RTVSPropertyOp16
 70
     1
102
RTVSPropertyOp17
 70
     1
102
RTVSPropertyOp18
 70
     1
102
RTVSPropertyOp19
 70
     1
102
RTVSPropertyOp20
 70
     1
102
RTVSPropertyOp21
 70
     1
102
RTVSPropertyOp22
 70
     1
102
RTVSPropertyOp23
 70
     1
102
RTVSPropertyOp24
 70
     1
102
RTVSPropertyOp25
 70
     1
102
RTVSPropertyOp26
 70
     1
102
RTVSPropertyOp27
 70
     1
102
RTVSPropertyOp28
 70
     1
102
RTVSPropertyOp29
 70
     1
102
RTVSPropertyOp30
 70
     1
102
RTVSPropertyOp31
 70
     1
102
RTVSPropertyOp32
 70
     1
102
RTVSPropertyOp33
 70
     1
102
RTVSPropertyOp34
 70
     1
102
RTVSPropertyOp35
 70
     1
102
RTVSPropertyOp36
 70
     1
102
RTVSPropertyOp37
 70
     1
102
RTVSPropertyOp38
 70
     1
102
RTVSPropertyOp39
 70
     1
102
RTVSPropertyOp40
 70
     1
102
RTVSPropertyOp41
 70
     1
102
RTVSPropertyOp42
 70
     1
102
RTVSPropertyOp43
 70
     1
102
RTVSPropertyOp44
 70
     1
102
RTVSPropertyOp45
 70
     1
102
RTVSPropertyOp46
 70
     1
102
RTVSPropertyOp47
 70
     1
102
RTVSPropertyOp48
 70
     1
102
RTVSPropertyOp49
 70
     1
102
RTVSPropertyOp50
 70
     1
102
RTVSPropertyOp51
 70
     0
102
RTVSPropertyOp52
 70
     0
102
RTVSPropertyOp53
 70
     1
102
RTVSPropertyOp54
 70
     1
102
RTVSPropertyOp55
 70
     1
102
RTVSPropertyOp56
 70
     1
102
RTVSPropertyOp57
 70
     1
102
RTVSPropertyOp58
 70
     1
102
RTVSPropertyOp59
 70
     1
102
RTVSPropertyOp60
 70
     1
102
RTVSPropertyOp61
 70
     1
102
RTVSPropertyOp62
 70
     1
  0
XRECORD
  5
40A
102
{ACAD_REACTORS
330
409
102
}
330
409
100
AcDbXrecord
280
     1
102
RTVSPost2010Prop28
280
     0
102
RTVSPost2010PropOp28
 70
     1
102
RTVSPost2010Prop29
280
     1
102
RTVSPost2010PropOp29
 70
     1
102
RTVSPost2010Prop30
280
     1
102
RTVSPost2010PropOp30
 70
     1
102
RTVSPost2010Prop31
280
     0
102
RTVSPost2010PropOp31
 70
     1
102
RTVSPost2010Prop32
280
     0
102
RTVSPost2010PropOp32
 70
     1
102
RTVSPost2010Prop33
280
     0
102
RTVSPost2010PropOp33
 70
     1
102
RTVSPost2010Prop34
280
     0
102
RTVSPost2010PropOp34
 70
     1
102
RTVSPost2010Prop35
280
     0
102
RTVSPost2010PropOp35
 70
     1
102
RTVSPost2010Prop36
280
     0
102
RTVSPost2010PropOp36
 70
     1
102
RTVSPost2010Prop37
 90
       50
102
RTVSPost2010PropOp37
 70
     1
102
RTVSPost2010Prop38
140
0.0
102
RTVSPost2010PropOp38
 70
     1
102
RTVSPost2010Prop39
140
1.0
102
RTVSPost2010PropOp39
 70
     1
102
RTVSPost2010Prop40
 90
        0
102
RTVSPost2010PropOp40
 70
     1
102
RTVSPost2010Prop41ColorIndex
 90
       18
102
RTVSPost2010Prop41ColorRGB
 90
        0
102
RTVSPost2010PropOp41
 70
     1
102
RTVSPost2010Prop42
 90
       50
102
RTVSPost2010PropOp42
 70
     1
102
RTVSPost2010Prop43
 90
        3
102
RTVSPost2010PropOp43
 70
     1
102
RTVSPost2010Prop44ColorIndex
 90
        5
102
RTVSPost2010Prop44ColorRGB
 90
      255
102
RTVSPost2010PropOp44
 70
     1
102
RTVSPost2010Prop45
280
     0
102
RTVSPost2010PropOp45
 70
     1
102
RTVSPost2010Prop46
 90
       50
102
RTVSPost2010PropOp46
 70
     1
102
RTVSPost2010Prop47
 90
       50
102
RTVSPost2010PropOp47
 70
     1
102
RTVSPost2010Prop48
 90
       50
102
RTVSPost2010PropOp48
 70
     1
102
RTVSPost2010Prop49
280
     0
102
RTVSPost2010PropOp49
 70
     1
102
RTVSPost2010Prop50
 90
       50
102
RTVSPost2010PropOp50
 70
     1
102
RTVSPost2010Prop51ColorIndex
 90
      256
102
RTVSPost2010Prop51ColorRGB
 90
-16777216
102
RTVSPost2010PropOp51
 70
     0
102
RTVSPost2010Prop52
140
1.0
102
RTVSPost2010PropOp52
 70
     0
102
RTVSPost2010Prop53
 90
        2
102
RTVSPost2010PropOp53
 70
     1
102
RTVSPost2010Prop54
  1
strokes_ogs.tif
102
RTVSPost2010PropOp54
 70
     1
102
RTVSPost2010Prop55
280
     0
102
RTVSPost2010PropOp55
 70
     1
102
RTVSPost2010Prop56
140
1.0
102
RTVSPost2010PropOp56
 70
     1
102
RTVSPost2010Prop57
140
1.0
102
RTVSPost2010PropOp57
 70
     1
102
RTVSPropertyOp0
 70
     1
102
RTVSPropertyOp1
 70
     1
102
RTVSPropertyOp2
 70
     1
102
RTVSPropertyOp3
 70
     1
102
RTVSPropertyOp4
 70
     1
102
RTVSPropertyOp5
 70
     1
102
RTVSPropertyOp6
 70
     1
102
RTVSPropertyOp7
 70
     1
102
RTVSPropertyOp8
 70
     1
102
RTVSPropertyOp9
 70
     1
102
RTVSPropertyOp10
 70
     1
102
RTVSPropertyOp11
 70
     1
102
RTVSPropertyOp12
 70
     1
102
RTVSPropertyOp13
 70
     1
102
RTVSPropertyOp14
 70
     1
102
RTVSPropertyOp15
 70
     1
102
RTVSPropertyOp16
 70
     1
102
RTVSPropertyOp17
 70
     1
102
RTVSPropertyOp18
 70
     1
102
RTVSPropertyOp19
 70
     1
102
RTVSPropertyOp20
 70
     1
102
RTVSPropertyOp21
 70
     1
102
RTVSPropertyOp22
 70
     1
102
RTVSPropertyOp23
 70
     1
102
RTVSPropertyOp24
 70
     1
102
RTVSPropertyOp25
 70
     1
102
RTVSPropertyOp26
 70
     1
102
RTVSPropertyOp27
 70
     1
102
RTVSPropertyOp28
 70
     1
102
RTVSPropertyOp29
 70
     1
102
RTVSPropertyOp30
 70
     1
102
RTVSPropertyOp31
 70
     1
102
RTVSPropertyOp32
 70
     1
102
RTVSPropertyOp33
 70
     1
102
RTVSPropertyOp34
 70
     1
102
RTVSPropertyOp35
 70
     1
102
RTVSPropertyOp36
 70
     1
102
RTVSPropertyOp37
 70
     1
102
RTVSPropertyOp38
 70
     1
102
RTVSPropertyOp39
 70
     1
102
RTVSPropertyOp40
 70
     1
102
RTVSPropertyOp41
 70
     1
102
RTVSPropertyOp42
 70
     1
102
RTVSPropertyOp43
 70
     1
102
RTVSPropertyOp44
 70
     1
102
RTVSPropertyOp45
 70
     1
102
RTVSPropertyOp46
 70
     1
102
RTVSPropertyOp47
 70
     1
102
RTVSPropertyOp48
 70
     1
102
RTVSPropertyOp49
 70
     1
102
RTVSPropertyOp50
 70
     1
102
RTVSPropertyOp51
 70
     0
102
RTVSPropertyOp52
 70
     0
102
RTVSPropertyOp53
 70
     1
102
RTVSPropertyOp54
 70
     1
102
RTVSPropertyOp55
 70
     1
102
RTVSPropertyOp56
 70
     1
102
RTVSPropertyOp57
 70
     1
102
RTVSPropertyOp58
 70
     1
102
RTVSPropertyOp59
 70
     1
102
RTVSPropertyOp60
 70
     1
102
RTVSPropertyOp61
 70
     1
102
RTVSPropertyOp62
 70
     1
  0
XRECORD
  5
422
102
{ACAD_REACTORS
330
421
102
}
330
421
100
AcDbXrecord
280
     1
102
RTVSPost2010Prop28
280
     0
102
RTVSPost2010PropOp28
 70
     1
102
RTVSPost2010Prop29
280
     1
102
RTVSPost2010PropOp29
 70
     1
102
RTVSPost2010Prop30
280
     1
102
RTVSPost2010PropOp30
 70
     1
102
RTVSPost2010Prop31
280
     0
102
RTVSPost2010PropOp31
 70
     1
102
RTVSPost2010Prop32
280
     0
102
RTVSPost2010PropOp32
 70
     1
102
RTVSPost2010Prop33
280
     0
102
RTVSPost2010PropOp33
 70
     1
102
RTVSPost2010Prop34
280
     0
102
RTVSPost2010PropOp34
 70
     1
102
RTVSPost2010Prop35
280
     0
102
RTVSPost2010PropOp35
 70
     1
102
RTVSPost2010Prop36
280
     0
102
RTVSPost2010PropOp36
 70
     1
102
RTVSPost2010Prop37
 90
       50
102
RTVSPost2010PropOp37
 70
     1
102
RTVSPost2010Prop38
140
0.0
102
RTVSPost2010PropOp38
 70
     1
102
RTVSPost2010Prop39
140
1.0
102
RTVSPost2010PropOp39
 70
     1
102
RTVSPost2010Prop40
 90
        0
102
RTVSPost2010PropOp40
 70
     1
102
RTVSPost2010Prop41ColorIndex
 90
       18
102
RTVSPost2010Prop41ColorRGB
 90
        0
102
RTVSPost2010PropOp41
 70
     1
102
RTVSPost2010Prop42
 90
       50
102
RTVSPost2010PropOp42
 70
     1
102
RTVSPost2010Prop43
 90
        3
102
RTVSPost2010PropOp43
 70
     1
102
RTVSPost2010Prop44ColorIndex
 90
        5
102
RTVSPost2010Prop44ColorRGB
 90
      255
102
RTVSPost2010PropOp44
 70
     1
102
RTVSPost2010Prop45
280
     0
102
RTVSPost2010PropOp45
 70
     1
102
RTVSPost2010Prop46
 90
       50
102
RTVSPost2010PropOp46
 70
     1
102
RTVSPost2010Prop47
 90
       50
102
RTVSPost2010PropOp47
 70
     1
102
RTVSPost2010Prop48
 90
       50
102
RTVSPost2010PropOp48
 70
     1
102
RTVSPost2010Prop49
280
     0
102
RTVSPost2010PropOp49
 70
     1
102
RTVSPost2010Prop50
 90
       50
102
RTVSPost2010PropOp50
 70
     1
102
RTVSPost2010Prop51ColorIndex
 90
      256
102
RTVSPost2010Prop51ColorRGB
 90
-16777216
102
RTVSPost2010PropOp51
 70
     0
102
RTVSPost2010Prop52
140
1.0
102
RTVSPost2010PropOp52
 70
     0
102
RTVSPost2010Prop53
 90
        2
102
RTVSPost2010PropOp53
 70
     1
102
RTVSPost2010Prop54
  1
strokes_ogs.tif
102
RTVSPost2010PropOp54
 70
     1
102
RTVSPost2010Prop55
280
     0
102
RTVSPost2010PropOp55
 70
     1
102
RTVSPost2010Prop56
140
1.0
102
RTVSPost2010PropOp56
 70
     1
102
RTVSPost2010Prop57
140
1.0
102
RTVSPost2010PropOp57
 70
     1
102
RTVSPropertyOp0
 70
     1
102
RTVSPropertyOp1
 70
     1
102
RTVSPropertyOp2
 70
     1
102
RTVSPropertyOp3
 70
     1
102
RTVSPropertyOp4
 70
     1
102
RTVSPropertyOp5
 70
     1
102
RTVSPropertyOp6
 70
     1
102
RTVSPropertyOp7
 70
     1
102
RTVSPropertyOp8
 70
     1
102
RTVSPropertyOp9
 70
     1
102
RTVSPropertyOp10
 70
     1
102
RTVSPropertyOp11
 70
     1
102
RTVSPropertyOp12
 70
     1
102
RTVSPropertyOp13
 70
     1
102
RTVSPropertyOp14
 70
     1
102
RTVSPropertyOp15
 70
     1
102
RTVSPropertyOp16
 70
     1
102
RTVSPropertyOp17
 70
     1
102
RTVSPropertyOp18
 70
     1
102
RTVSPropertyOp19
 70
     1
102
RTVSPropertyOp20
 70
     1
102
RTVSPropertyOp21
 70
     1
102
RTVSPropertyOp22
 70
     1
102
RTVSPropertyOp23
 70
     1
102
RTVSPropertyOp24
 70
     1
102
RTVSPropertyOp25
 70
     1
102
RTVSPropertyOp26
 70
     1
102
RTVSPropertyOp27
 70
     1
102
RTVSPropertyOp28
 70
     1
102
RTVSPropertyOp29
 70
     1
102
RTVSPropertyOp30
 70
     1
102
RTVSPropertyOp31
 70
     1
102
RTVSPropertyOp32
 70
     1
102
RTVSPropertyOp33
 70
     1
102
RTVSPropertyOp34
 70
     1
102
RTVSPropertyOp35
 70
     1
102
RTVSPropertyOp36
 70
     1
102
RTVSPropertyOp37
 70
     1
102
RTVSPropertyOp38
 70
     1
102
RTVSPropertyOp39
 70
     1
102
RTVSPropertyOp40
 70
     1
102
RTVSPropertyOp41
 70
     1
102
RTVSPropertyOp42
 70
     1
102
RTVSPropertyOp43
 70
     1
102
RTVSPropertyOp44
 70
     1
102
RTVSPropertyOp45
 70
     1
102
RTVSPropertyOp46
 70
     1
102
RTVSPropertyOp47
 70
     1
102
RTVSPropertyOp48
 70
     1
102
RTVSPropertyOp49
 70
     1
102
RTVSPropertyOp50
 70
     1
102
RTVSPropertyOp51
 70
     0
102
RTVSPropertyOp52
 70
     0
102
RTVSPropertyOp53
 70
     1
102
RTVSPropertyOp54
 70
     1
102
RTVSPropertyOp55
 70
     1
102
RTVSPropertyOp56
 70
     1
102
RTVSPropertyOp57
 70
     1
102
RTVSPropertyOp58
 70
     1
102
RTVSPropertyOp59
 70
     1
102
RTVSPropertyOp60
 70
     1
102
RTVSPropertyOp61
 70
     1
102
RTVSPropertyOp62
 70
     1
  0
ENDSEC
  0
EOF
