  0
SECTION
  2
HEADER
  9
$ACADVER
  1
AC1015
  9
$ACADMAINTVER
 70
    20
  9
$DWGCODEPAGE
  3
ANSI_932
  9
$INSBASE
 10
0.0
 20
0.0
 30
0.0
  9
$EXTMIN
 10
-270.0164782349211
 20
-405.6485877027885
 30
-0.0015258207003583
  9
$EXTMAX
 10
270.0164807494923
 20
397.0420186093907
 30
0.0000000349246037
  9
$LIMMIN
 10
0.0
 20
0.0
  9
$LIMMAX
 10
0.0
 20
0.0
  9
$ORTHOMODE
 70
     0
  9
$REGENMODE
 70
     1
  9
$FILLMODE
 70
     1
  9
$QTEXTMODE
 70
     0
  9
$MIRRTEXT
 70
     1
  9
$LTSCALE
 40
15.24
  9
$ATTMODE
 70
     1
  9
$TEXTSIZE
 40
0.0
  9
$TRACEWID
 40
1.0
  9
$TEXTSTYLE
  7
STANDARD
  9
$CLAYER
  8
DATA
  9
$CELTYPE
  6
ByLayer
  9
$CECOLOR
 62
   256
  9
$CELTSCALE
 40
1.0
  9
$DISPSILH
 70
     0
  9
$DIMSCALE
 40
1.0
  9
$DIMASZ
 40
0.18
  9
$DIMEXO
 40
0.0625
  9
$DIMDLI
 40
0.38
  9
$DIMRND
 40
0.0
  9
$DIMDLE
 40
0.0
  9
$DIMEXE
 40
0.18
  9
$DIMTP
 40
0.0
  9
$DIMTM
 40
0.0
  9
$DIMTXT
 40
0.18
  9
$DIMCEN
 40
0.09
  9
$DIMTSZ
 40
0.0
  9
$DIMTOL
 70
     0
  9
$DIMLIM
 70
     0
  9
$DIMTIH
 70
     1
  9
$DIMTOH
 70
     1
  9
$DIMSE1
 70
     0
  9
$DIMSE2
 70
     0
  9
$DIMTAD
 70
     0
  9
$DIMZIN
 70
     0
  9
$DIMBLK
  1

  9
$DIMASO
 70
     1
  9
$DIMSHO
 70
     1
  9
$DIMPOST
  1

  9
$DIMAPOST
  1

  9
$DIMALT
 70
     0
  9
$DIMALTD
 70
     2
  9
$DIMALTF
 40
25.4
  9
$DIMLFAC
 40
1.0
  9
$DIMTOFL
 70
     0
  9
$DIMTVP
 40
0.0
  9
$DIMTIX
 70
     0
  9
$DIMSOXD
 70
     0
  9
$DIMSAH
 70
     0
  9
$DIMBLK1
  1

  9
$DIMBLK2
  1

  9
$DIMSTYLE
  2
STANDARD
  9
$DIMCLRD
 70
     0
  9
$DIMCLRE
 70
     0
  9
$DIMCLRT
 70
     0
  9
$DIMTFAC
 40
1.0
  9
$DIMGAP
 40
0.09
  9
$DIMJUST
 70
     0
  9
$DIMSD1
 70
     0
  9
$DIMSD2
 70
     0
  9
$DIMTOLJ
 70
     1
  9
$DIMTZIN
 70
     0
  9
$DIMALTZ
 70
     0
  9
$DIMALTTZ
 70
     0
  9
$DIMUPT
 70
     0
  9
$DIMDEC
 70
     4
  9
$DIMTDEC
 70
     4
  9
$DIMALTU
 70
     2
  9
$DIMALTTD
 70
     2
  9
$DIMTXSTY
  7
STANDARD
  9
$DIMAUNIT
 70
     0
  9
$DIMADEC
 70
     0
  9
$DIMALTRND
 40
0.0
  9
$DIMAZIN
 70
     0
  9
$DIMDSEP
 70
    46
  9
$DIMATFIT
 70
     3
  9
$DIMFRAC
 70
     0
  9
$DIMLDRBLK
  1

  9
$DIMLUNIT
 70
     2
  9
$DIMLWD
 70
    -2
  9
$DIMLWE
 70
    -2
  9
$DIMTMOVE
 70
     0
  9
$LUNITS
 70
     2
  9
$LUPREC
 70
     4
  9
$SKETCHINC
 40
0.1
  9
$FILLETRAD
 40
0.0
  9
$AUNITS
 70
     0
  9
$AUPREC
 70
     0
  9
$MENU
  1
acad
  9
$ELEVATION
 40
0.0
  9
$PELEVATION
 40
0.0
  9
$THICKNESS
 40
0.0
  9
$LIMCHECK
 70
     0
  9
$CHAMFERA
 40
0.0
  9
$CHAMFERB
 40
0.0
  9
$CHAMFERC
 40
0.0
  9
$CHAMFERD
 40
0.0
  9
$SKPOLY
 70
     0
  9
$TDCREATE
 40
2457961.758634259
  9
$TDUCREATE
 40
2457961.383634259
  9
$TDUPDATE
 40
2457961.759525463
  9
$TDUUPDATE
 40
2457961.384525463
  9
$TDINDWG
 40
0.0005439815
  9
$TDUSRTIMER
 40
0.0005439815
  9
$USRTIMER
 70
     1
  9
$ANGBASE
 50
0.0
  9
$ANGDIR
 70
     0
  9
$PDMODE
 70
     1
  9
$PDSIZE
 40
-2.0
  9
$PLINEWID
 40
0.0
  9
$SPLFRAME
 70
     0
  9
$SPLINETYPE
 70
     6
  9
$SPLINESEGS
 70
     8
  9
$HANDSEED
  5
513
  9
$SURFTAB1
 70
     6
  9
$SURFTAB2
 70
     6
  9
$SURFTYPE
 70
     6
  9
$SURFU
 70
     6
  9
$SURFV
 70
     6
  9
$UCSBASE
  2

  9
$UCSNAME
  2

  9
$UCSORG
 10
0.0
 20
0.0
 30
0.0
  9
$UCSXDIR
 10
1.0
 20
0.0
 30
0.0
  9
$UCSYDIR
 10
0.0
 20
1.0
 30
0.0
  9
$UCSORTHOREF
  2

  9
$UCSORTHOVIEW
 70
     0
  9
$UCSORGTOP
 10
0.0
 20
0.0
 30
0.0
  9
$UCSORGBOTTOM
 10
0.0
 20
0.0
 30
0.0
  9
$UCSORGLEFT
 10
0.0
 20
0.0
 30
0.0
  9
$UCSORGRIGHT
 10
0.0
 20
0.0
 30
0.0
  9
$UCSORGFRONT
 10
0.0
 20
0.0
 30
0.0
  9
$UCSORGBACK
 10
0.0
 20
0.0
 30
0.0
  9
$PUCSBASE
  2

  9
$PUCSNAME
  2

  9
$PUCSORG
 10
0.0
 20
0.0
 30
0.0
  9
$PUCSXDIR
 10
1.0
 20
0.0
 30
0.0
  9
$PUCSYDIR
 10
0.0
 20
1.0
 30
0.0
  9
$PUCSORTHOREF
  2

  9
$PUCSORTHOVIEW
 70
     0
  9
$PUCSORGTOP
 10
0.0
 20
0.0
 30
0.0
  9
$PUCSORGBOTTOM
 10
0.0
 20
0.0
 30
0.0
  9
$PUCSORGLEFT
 10
0.0
 20
0.0
 30
0.0
  9
$PUCSORGRIGHT
 10
0.0
 20
0.0
 30
0.0
  9
$PUCSORGFRONT
 10
0.0
 20
0.0
 30
0.0
  9
$PUCSORGBACK
 10
0.0
 20
0.0
 30
0.0
  9
$USERI1
 70
     0
  9
$USERI2
 70
     0
  9
$USERI3
 70
     0
  9
$USERI4
 70
     0
  9
$USERI5
 70
     0
  9
$USERR1
 40
0.0
  9
$USERR2
 40
0.0
  9
$USERR3
 40
0.0
  9
$USERR4
 40
0.0
  9
$USERR5
 40
0.0
  9
$WORLDVIEW
 70
     1
  9
$SHADEDGE
 70
     3
  9
$SHADEDIF
 70
    70
  9
$TILEMODE
 70
     1
  9
$MAXACTVP
 70
    64
  9
$PINSBASE
 10
0.0
 20
0.0
 30
0.0
  9
$PLIMCHECK
 70
     0
  9
$PEXTMIN
 10
1.000000000000000E+20
 20
1.000000000000000E+20
 30
1.000000000000000E+20
  9
$PEXTMAX
 10
-1.000000000000000E+20
 20
-1.000000000000000E+20
 30
-1.000000000000000E+20
  9
$PLIMMIN
 10
0.0
 20
0.0
  9
$PLIMMAX
 10
12.0
 20
9.0
  9
$UNITMODE
 70
     0
  9
$VISRETAIN
 70
     0
  9
$PLINEGEN
 70
     1
  9
$PSLTSCALE
 70
     0
  9
$TREEDEPTH
 70
  3020
  9
$CMLSTYLE
  2
Standard
  9
$CMLJUST
 70
     0
  9
$CMLSCALE
 40
1.0
  9
$PROXYGRAPHICS
 70
     1
  9
$MEASUREMENT
 70
     0
  9
$CELWEIGHT
370
    -1
  9
$ENDCAPS
280
     0
  9
$JOINSTYLE
280
     0
  9
$LWDISPLAY
290
     0
  9
$INSUNITS
 70
     0
  9
$HYPERLINKBASE
  1

  9
$STYLESHEET
  1

  9
$XEDIT
290
     1
  9
$CEPSNTYPE
380
     0
  9
$PSTYLEMODE
290
     1
  9
$FINGERPRINTGUID
  2
{526E9DF2-3E5B-5846-9260-0BE3A1F9FD2A}
  9
$VERSIONGUID
  2
{E3B0A89C-211B-5F48-A348-00D4EC14113E}
  9
$EXTNAMES
290
     1
  9
$PSVPSCALE
 40
0.0
  9
$OLESTARTUP
290
     0
  0
ENDSEC
  0
SECTION
  2
CLASSES
  0
CLASS
  1
ACDBDICTIONARYWDFLT
  2
AcDbDictionaryWithDefault
  3
ObjectDBX Classes
 90
        0
280
     0
281
     0
  0
CLASS
  1
MATERIAL
  2
AcDbMaterial
  3
ObjectDBX Classes
 90
     1153
280
     0
281
     0
  0
CLASS
  1
VISUALSTYLE
  2
AcDbVisualStyle
  3
ObjectDBX Classes
 90
     4095
280
     0
281
     0
  0
CLASS
  1
SCALE
  2
AcDbScale
  3
ObjectDBX Classes
 90
     1153
280
     0
281
     0
  0
CLASS
  1
TABLESTYLE
  2
AcDbTableStyle
  3
ObjectDBX Classes
 90
     4095
280
     0
281
     0
  0
CLASS
  1
MLEADERSTYLE
  2
AcDbMLeaderStyle
  3
ACDB_MLEADERSTYLE_CLASS
 90
     4095
280
     0
281
     0
  0
CLASS
  1
ACDBSECTIONVIEWSTYLE
  2
AcDbSectionViewStyle
  3
ObjectDBX Classes
 90
     1025
280
     0
281
     0
  0
CLASS
  1
ACDBDETAILVIEWSTYLE
  2
AcDbDetailViewStyle
  3
ObjectDBX Classes
 90
     1025
280
     0
281
     0
  0
CLASS
  1
DICTIONARYVAR
  2
AcDbDictionaryVar
  3
ObjectDBX Classes
 90
        0
280
     0
281
     0
  0
CLASS
  1
CELLSTYLEMAP
  2
AcDbCellStyleMap
  3
ObjectDBX Classes
 90
     1152
280
     0
281
     0
  0
CLASS
  1
ACDBPLACEHOLDER
  2
AcDbPlaceHolder
  3
ObjectDBX Classes
 90
        0
280
     0
281
     0
  0
CLASS
  1
LAYOUT
  2
AcDbLayout
  3
ObjectDBX Classes
 90
        0
280
     0
281
     0
  0
ENDSEC
  0
SECTION
  2
TABLES
  0
TABLE
  2
VPORT
  5
43D
330
0
100
AcDbSymbolTable
 70
     1
  0
VPORT
  5
4A9
330
43D
100
AcDbSymbolTableRecord
100
AcDbViewportTableRecord
  2
*ACTIVE
 70
     0
 10
0.0
 20
0.0
 11
1.0
 21
1.0
 12
0.0000012572857031
 22
-4.303284546698932
 13
0.0
 23
0.0
 14
1.0
 24
1.0
 15
0.0
 25
0.0
 16
0.0
 26
0.0
 36
1.0
 17
0.0
 27
0.0
 37
0.0
 40
809.2431826902377
 41
2.588555858310626
 42
50.0
 43
0.0
 44
0.0
 50
0.0
 51
0.0
 71
     0
 72
  2000
 73
     1
 74
     1
 75
     0
 76
     0
 77
     0
 78
     0
281
     0
 65
     1
110
0.0
120
0.0
130
0.0
111
1.0
121
0.0
131
0.0
112
0.0
122
1.0
132
0.0
 79
     0
146
0.0
1001
ACAD_NAV_VCDISPLAY
1070
     3
  0
ENDTAB
  0
TABLE
  2
LTYPE
  5
43A
330
0
100
AcDbSymbolTable
 70
    11
  0
LTYPE
  5
48F
330
43A
100
AcDbSymbolTableRecord
100
AcDbLinetypeTableRecord
  2
ByBlock
 70
     0
  3

 72
    65
 73
     0
 40
0.0
  0
LTYPE
  5
490
330
43A
100
AcDbSymbolTableRecord
100
AcDbLinetypeTableRecord
  2
ByLayer
 70
     0
  3

 72
    65
 73
     0
 40
0.0
  0
LTYPE
  5
491
330
43A
100
AcDbSymbolTableRecord
100
AcDbLinetypeTableRecord
  2
CONTINUOUS
 70
     0
  3
Solid line
 72
    65
 73
     0
 40
0.0
  0
LTYPE
  5
4B0
330
43A
100
AcDbSymbolTableRecord
100
AcDbLinetypeTableRecord
  2
STYLE_07
 70
     0
  3

 72
    65
 73
     6
 40
1.875
 49
0.625
 74
     0
 49
-0.208282470703125
 74
     0
 49
0.625
 74
     0
 49
-0.2083587646484375
 74
     0
 49
0.069427490234375
 74
     0
 49
-0.1389312744140625
 74
     0
  0
ENDTAB
  0
TABLE
  2
LAYER
  5
437
330
0
100
AcDbSymbolTable
 70
     5
  0
LAYER
  5
489
102
{ACAD_XDICTIONARY
360
4BD
102
}
330
437
100
AcDbSymbolTableRecord
100
AcDbLayerTableRecord
  2
0
 70
     0
 62
     7
  6
CONTINUOUS
370
    -3
390
444
  0
LAYER
  5
4A8
102
{ACAD_XDICTIONARY
360
4BF
102
}
330
437
100
AcDbSymbolTableRecord
100
AcDbLayerTableRecord
  2
DATA
 70
     0
 62
     7
  6
CONTINUOUS
370
    -3
390
444
  0
LAYER
  5
4B4
102
{ACAD_XDICTIONARY
360
4C1
102
}
330
437
100
AcDbSymbolTableRecord
100
AcDbLayerTableRecord
  2
HIBINO-BASE
 70
     0
 62
     7
  6
CONTINUOUS
370
    -3
390
444
  0
LAYER
  5
4B5
102
{ACAD_XDICTIONARY
360
4C3
102
}
330
437
100
AcDbSymbolTableRecord
100
AcDbLayerTableRecord
  2
SPEC
 70
     0
 62
     7
  6
CONTINUOUS
370
    -3
390
444
  0
LAYER
  5
4B6
102
{ACAD_XDICTIONARY
360
4C5
102
}
330
437
100
AcDbSymbolTableRecord
100
AcDbLayerTableRecord
  2
DIMNSIONS
 70
     0
 62
     7
  6
CONTINUOUS
370
    -3
390
444
  0
ENDTAB
  0
TABLE
  2
STYLE
  5
438
330
0
100
AcDbSymbolTable
 70
     3
  0
STYLE
  5
48A
330
438
100
AcDbSymbolTableRecord
100
AcDbTextStyleTableRecord
  2
STANDARD
 70
     0
 40
0.0
 41
1.0
 50
0.0
 71
     0
 42
0.0
  3
txt
  4
BIGFONT.SHX
  0
ENDTAB
  0
TABLE
  2
VIEW
  5
43B
330
0
100
AcDbSymbolTable
 70
     0
  0
ENDTAB
  0
TABLE
  2
UCS
  5
43C
330
0
100
AcDbSymbolTable
 70
     0
  0
ENDTAB
  0
TABLE
  2
APPID
  5
43E
330
0
100
AcDbSymbolTable
 70
     4
  0
APPID
  5
48B
330
43E
100
AcDbSymbolTableRecord
100
AcDbRegAppTableRecord
  2
ACAD
 70
     0
  0
APPID
  5
492
330
43E
100
AcDbSymbolTableRecord
100
AcDbRegAppTableRecord
  2
AcadAnnotative
 70
     0
  0
APPID
  5
4D1
330
43E
100
AcDbSymbolTableRecord
100
AcDbRegAppTableRecord
  2
ACAD_NAV_VCDISPLAY
 70
     0
  0
APPID
  5
50A
330
43E
100
AcDbSymbolTableRecord
100
AcDbRegAppTableRecord
  2
ACAD_MLEADERVER
 70
     0
  0
ENDTAB
  0
TABLE
  2
DIMSTYLE
  5
43F
330
0
100
AcDbSymbolTable
 70
     2
100
AcDbDimStyleTable
 71
     0
  0
DIMSTYLE
105
48C
330
43F
100
AcDbSymbolTableRecord
100
AcDbDimStyleTableRecord
  2
STANDARD
 70
     0
279
     2
340
48A
  0
ENDTAB
  0
TABLE
  2
BLOCK_RECORD
  5
436
330
0
100
AcDbSymbolTable
 70
     0
  0
BLOCK_RECORD
  5
4A4
330
436
100
AcDbSymbolTableRecord
100
AcDbBlockTableRecord
  2
*Model_Space
340
4A7
  0
BLOCK_RECORD
  5
4A0
330
436
100
AcDbSymbolTableRecord
100
AcDbBlockTableRecord
  2
*Paper_Space
340
4A3
  0
ENDTAB
  0
ENDSEC
  0
SECTION
  2
BLOCKS
  0
BLOCK
  5
4A5
330
4A4
100
AcDbEntity
  8
0
100
AcDbBlockBegin
  2
*Model_Space
 70
     0
 10
0.0
 20
0.0
 30
0.0
  3
*Model_Space
  1

  0
ENDBLK
  5
4A6
330
4A4
100
AcDbEntity
  8
0
100
AcDbBlockEnd
  0
BLOCK
  5
4A1
330
4A0
100
AcDbEntity
 67
     1
  8
0
100
AcDbBlockBegin
  2
*Paper_Space
 70
     0
 10
0.0
 20
0.0
 30
0.0
  3
*Paper_Space
  1

  0
ENDBLK
  5
4A2
330
4A0
100
AcDbEntity
 67
     1
  8
0
100
AcDbBlockEnd
  0
ENDSEC
  0
SECTION
  2
ENTITIES
  0
LINE
  5
2C
330
4A4
100
AcDbEntity
  8
HIBINO-BASE
  6
Continuous
 62
     7
100
AcDbLine
 10
-270.0
 20
397.0175705555557
 30
0.0
 11
270.0
 21
397.0175705555557
 31
0.0
  0
LINE
  5
2D
330
4A4
100
AcDbEntity
  8
HIBINO-BASE
  6
Continuous
 62
     7
100
AcDbLine
 10
270.0
 20
-382.9824294444443
 30
0.0
 11
-270.0
 21
-382.9824294444443
 31
0.0
  0
LINE
  5
2E
330
4A4
100
AcDbEntity
  8
HIBINO-BASE
  6
Continuous
 62
     7
100
AcDbLine
 10
-270.0
 20
-382.9824294444443
 30
0.0
 11
-270.0
 21
397.0175705555557
 31
0.0
  0
LINE
  5
2F
330
4A4
100
AcDbEntity
  8
HIBINO-BASE
  6
Continuous
 62
     7
100
AcDbLine
 10
270.0
 20
397.0175705555557
 30
0.0
 11
270.0
 21
-382.9824294444443
 31
0.0
  0
LINE
  5
30
330
4A4
100
AcDbEntity
  8
HIBINO-BASE
  6
Continuous
 62
     7
100
AcDbLine
 10
0.0
 20
-315.4824294444444
 30
0.0
 11
270.0
 21
-315.4824294444444
 31
0.0
  0
LINE
  5
31
330
4A4
100
AcDbEntity
  8
HIBINO-BASE
  6
Continuous
 62
     7
100
AcDbLine
 10
0.0
 20
-382.9824294444443
 30
0.0
 11
0.0
 21
-315.4824294444444
 31
0.0
  0
TEXT
  5
32
330
4A4
100
AcDbEntity
  8
HIBINO-BASE
 62
     7
100
AcDbText
 10
2.700000000000101
 20
-323.0085094444444
 30
0.0
 40
4.886523437499999
  1
NOTE
 41
0.7
 11
2.700000000000102
 21
-318.1219860069444
 31
0.0
100
AcDbText
 73
     3
  0
LINE
  5
33
330
4A4
100
AcDbEntity
  8
HIBINO-BASE
  6
Continuous
 62
     7
100
AcDbLine
 10
105.0
 20
-382.9824294444443
 30
0.0
 11
105.0
 21
-315.4824294444444
 31
0.0
  0
TEXT
  5
34
330
4A4
100
AcDbEntity
  8
HIBINO-BASE
 62
     7
100
AcDbText
 10
107.6999999999999
 20
-323.0085094444444
 30
0.0
 40
4.886523437499999
  1
TITLE
 41
0.7
 11
107.6999999999999
 21
-318.1219860069444
 31
0.0
100
AcDbText
 73
     3
  0
LINE
  5
35
330
4A4
100
AcDbEntity
  8
HIBINO-BASE
  6
Continuous
 62
     7
100
AcDbLine
 10
0.0
 20
-352.9824294444444
 30
0.0
 11
270.0
 21
-352.9824294444444
 31
0.0
  0
TEXT
  5
36
330
4A4
100
AcDbEntity
  8
HIBINO-BASE
 62
     7
100
AcDbText
 10
145.1999999999999
 20
-360.3395494444443
 30
0.0
 40
4.886523437499999
  1
DRAWN
 41
0.7
 11
145.1999999999999
 21
-355.4530260069443
 31
0.0
100
AcDbText
 73
     3
  0
TEXT
  5
37
330
4A4
100
AcDbEntity
  8
HIBINO-BASE
 62
     7
100
AcDbText
 10
70.19999999999993
 20
-360.3395494444443
 30
0.0
 40
4.886523437499999
  1
DATE
 41
0.7
 11
70.19999999999993
 21
-355.4530260069443
 31
0.0
100
AcDbText
 73
     3
  0
TEXT
  5
38
330
4A4
100
AcDbEntity
  8
HIBINO-BASE
 62
     7
100
AcDbText
 10
40.19999999999993
 20
-360.3395494444443
 30
0.0
 40
4.886523437499999
  1
SCALE
 41
0.7
 11
40.19999999999993
 21
-355.4530260069443
 31
0.0
100
AcDbText
 73
     3
  0
TEXT
  5
39
330
4A4
100
AcDbEntity
  8
HIBINO-BASE
 62
     7
100
AcDbText
 10
107.6999999999999
 20
-360.3395494444443
 30
0.0
 40
4.886523437499999
  1
DESIGN
 41
0.7
 11
107.6999999999999
 21
-355.4530260069443
 31
0.0
100
AcDbText
 73
     3
  0
TEXT
  5
3A
330
4A4
100
AcDbEntity
  8
HIBINO-BASE
 62
     7
100
AcDbText
 10
220.1999999999999
 20
-360.3395494444443
 30
0.0
 40
4.886523437499999
  1
DRAWING NO.
 41
0.7
 11
220.1999999999999
 21
-355.4530260069443
 31
0.0
100
AcDbText
 73
     3
  0
TEXT
  5
3B
330
4A4
100
AcDbEntity
  8
HIBINO-BASE
 62
     7
100
AcDbText
 10
182.6999999999999
 20
-360.3395494444443
 30
0.0
 40
4.886523437499999
  1
CHECK
 41
0.7
 11
182.6999999999999
 21
-355.4530260069443
 31
0.0
100
AcDbText
 73
     3
  0
LINE
  5
3C
330
4A4
100
AcDbEntity
  8
HIBINO-BASE
  6
Continuous
 62
     7
100
AcDbLine
 10
43.125
 20
-379.2324294444443
 30
0.0
 11
54.375
 21
-367.9824294444443
 31
0.0
  0
TEXT
  5
3D
330
4A4
100
AcDbEntity
  8
HIBINO-BASE
 62
     7
100
AcDbText
 10
41.25
 20
-371.3092594444445
 30
0.0
 40
4.886523437499999
  1
1
 41
0.7
 11
41.25
 21
-366.4227360069445
 31
0.0
100
AcDbText
 73
     3
  0
LINE
  5
3E
330
4A4
100
AcDbEntity
  8
HIBINO-BASE
  6
Continuous
 62
     7
100
AcDbLine
 10
37.5
 20
-382.9824294444443
 30
0.0
 11
37.5
 21
-352.9824294444444
 31
0.0
  0
LINE
  5
3F
330
4A4
100
AcDbEntity
  8
HIBINO-BASE
  6
Continuous
 62
     7
100
AcDbLine
 10
67.5
 20
-382.9824294444443
 30
0.0
 11
67.5
 21
-352.9824294444444
 31
0.0
  0
LINE
  5
40
330
4A4
100
AcDbEntity
  8
HIBINO-BASE
  6
Continuous
 62
     7
100
AcDbLine
 10
142.5
 20
-352.9824294444444
 30
0.0
 11
142.5
 21
-382.9824294444443
 31
0.0
  0
LINE
  5
41
330
4A4
100
AcDbEntity
  8
HIBINO-BASE
  6
Continuous
 62
     7
100
AcDbLine
 10
217.5
 20
-352.9824294444444
 30
0.0
 11
217.5
 21
-382.9824294444443
 31
0.0
  0
LINE
  5
42
330
4A4
100
AcDbEntity
  8
HIBINO-BASE
  6
Continuous
 62
     7
100
AcDbLine
 10
180.0
 20
-382.9824294444443
 30
0.0
 11
180.0
 21
-352.9824294444444
 31
0.0
  0
TEXT
  5
43
330
4A4
100
AcDbEntity
  8
HIBINO-BASE
 62
     7
100
AcDbText
 10
70.06961999999998
 20
-374.3914894444444
 30
0.0
 40
4.886523437499999
  1
'17.07.
 41
0.7
 11
70.06961999999998
 21
-369.5049660069444
 31
0.0
100
AcDbText
 73
     3
  0
TEXT
  5
44
330
4A4
100
AcDbEntity
  8
HIBINO-BASE
 62
     7
100
AcDbText
 10
52.5
 20
-376.9342594444445
 30
0.0
 40
4.886523437499999
  1
3
 41
0.7
 11
52.5
 21
-372.0477360069445
 31
0.0
100
AcDbText
 73
     3
  0
TEXT
  5
45
330
4A4
100
AcDbEntity
  8
HIBINO-BASE
 62
     7
100
AcDbText
 10
147.0174300331038
 20
-374.3914894444444
 30
0.0
 40
4.886523437499999
  1
N.Sasaki
 41
0.7
 11
147.0174300331038
 21
-369.5049660069444
 31
0.0
100
AcDbText
 73
     3
  0
TEXT
  5
46
330
4A4
100
AcDbEntity
  8
HIBINO-BASE
 62
     7
100
AcDbText
 10
11.65000000000015
 20
-377.0544294444444
 30
0.0
 40
9.773046874999998
  1
A4
 41
0.7
 11
11.65000000000015
 21
-367.2813825694444
 31
0.0
100
AcDbText
 73
     3
  0
TEXT
  5
47
330
4A4
100
AcDbEntity
  8
HIBINO-BASE
 62
     7
100
AcDbText
 10
2.874999999999942
 20
-360.8407944444443
 30
0.0
 40
4.886523437499999
  1
PAPER SIZE
 41
0.7
 11
2.874999999999943
 21
-355.9542710069444
 31
0.0
100
AcDbText
 73
     3
  0
TEXT
  5
48
330
4A4
100
AcDbEntity
  8
HIBINO-BASE
 62
     7
100
AcDbText
 10
-248.4479999999999
 20
-402.1089744444443
 30
0.0
 40
10.58746744791666
  1
Hibino-Intersound Corporation
 41
0.7
 11
-248.4479999999999
 21
-391.5215069965278
 31
0.0
100
AcDbText
 73
     3
  0
TEXT
  5
49
330
4A4
100
AcDbEntity
  8
HIBINO-BASE
 62
     7
100
AcDbText
 10
42.07300250172937
 20
-402.1089744444443
 30
0.0
 40
10.58746744791666
  1
ヒビノインターサウンド株式会社
 41
0.7
 11
42.07300250172937
 21
-391.5215069965278
 31
0.0
100
AcDbText
 73
     3
  0
LINE
  5
4A
330
4A4
100
AcDbEntity
  8
SPEC
  6
Continuous
 62
     7
100
AcDbLine
 10
-247.4999999999999
 20
367.0175705555557
 30
0.0
 11
195.0000000000001
 21
367.0175705555557
 31
0.0
  0
LINE
  5
4B
330
4A4
100
AcDbEntity
  8
SPEC
  6
Continuous
 62
     7
100
AcDbLine
 10
-247.4999999999999
 20
355.7675705555555
 30
0.0
 11
195.0000000000001
 21
355.7675705555555
 31
0.0
  0
LINE
  5
4C
330
4A4
100
AcDbEntity
  8
SPEC
  6
Continuous
 62
     7
100
AcDbLine
 10
-247.4999999999999
 20
367.0175705555557
 30
0.0
 11
-247.4999999999999
 21
187.0175705555556
 31
0.0
  0
TEXT
  5
4D
330
4A4
100
AcDbEntity
  8
SPEC
 62
     7
100
AcDbText
 10
-243.7499999999999
 20
371.1973805555555
 30
0.0
 40
7.329785156249999
  1
仕様
 41
0.7
 11
-243.7499999999999
 21
378.5271657118055
 31
0.0
100
AcDbText
 73
     3
  0
LINE
  5
4E
330
4A4
100
AcDbEntity
  8
SPEC
  6
Continuous
 62
     7
100
AcDbLine
 10
-131.25
 20
367.0175705555557
 30
0.0
 11
-131.25
 21
187.0175705555556
 31
0.0
  0
LINE
  5
4F
330
4A4
100
AcDbEntity
  8
SPEC
  6
Continuous
 62
     7
100
AcDbLine
 10
195.0000000000001
 20
367.0175705555557
 30
0.0
 11
195.0000000000001
 21
187.0175705555556
 31
0.0
  0
TEXT
  5
50
330
4A4
100
AcDbEntity
  8
SPEC
 62
     7
100
AcDbText
 10
-244.8
 20
211.8813238888888
 30
0.0
 40
5.700944010416667
  1
寸法(W×H×D)
 41
0.7
 11
-244.8
 21
217.5822678993055
 31
0.0
100
AcDbText
 73
     3
  0
TEXT
  5
51
330
4A4
100
AcDbEntity
  8
SPEC
 62
     7
100
AcDbText
 10
-244.8
 20
200.6313238888888
 30
0.0
 40
5.700944010416667
  1
質量
 41
0.7
 11
-244.8
 21
206.3322678993054
 31
0.0
100
AcDbText
 73
     3
  0
TEXT
  5
52
330
4A4
100
AcDbEntity
  8
SPEC
 62
     7
100
AcDbText
 10
-128.55
 20
211.8813238888888
 30
0.0
 40
5.700944010416667
  1
110×27×85mm(除突起部)
 41
0.7
 11
-128.55
 21
217.5822678993055
 31
0.0
100
AcDbText
 73
     3
  0
LINE
  5
53
330
4A4
100
AcDbEntity
  8
SPEC
  6
Continuous
 62
     7
100
AcDbLine
 10
-247.4999999999999
 20
344.5175705555556
 30
0.0
 11
195.0000000000001
 21
344.5175705555556
 31
0.0
  0
LINE
  5
54
330
4A4
100
AcDbEntity
  8
SPEC
  6
Continuous
 62
     7
100
AcDbLine
 10
-247.4999999999999
 20
333.2675705555555
 30
0.0
 11
195.0000000000001
 21
333.2675705555555
 31
0.0
  0
LINE
  5
55
330
4A4
100
AcDbEntity
  8
SPEC
  6
Continuous
 62
     7
100
AcDbLine
 10
-247.4999999999999
 20
322.0175705555555
 30
0.0
 11
195.0000000000001
 21
322.0175705555555
 31
0.0
  0
LINE
  5
56
330
4A4
100
AcDbEntity
  8
SPEC
  6
Continuous
 62
     7
100
AcDbLine
 10
-247.4999999999999
 20
310.7675705555556
 30
0.0
 11
195.0000000000001
 21
310.7675705555556
 31
0.0
  0
LINE
  5
57
330
4A4
100
AcDbEntity
  8
SPEC
  6
Continuous
 62
     7
100
AcDbLine
 10
-247.4999999999999
 20
299.5175705555555
 30
0.0
 11
195.0000000000001
 21
299.5175705555555
 31
0.0
  0
LINE
  5
58
330
4A4
100
AcDbEntity
  8
SPEC
  6
Continuous
 62
     7
100
AcDbLine
 10
-247.4999999999999
 20
288.2675705555556
 30
0.0
 11
195.0000000000001
 21
288.2675705555556
 31
0.0
  0
LINE
  5
59
330
4A4
100
AcDbEntity
  8
SPEC
  6
Continuous
 62
     7
100
AcDbLine
 10
-247.4999999999999
 20
277.0175705555555
 30
0.0
 11
195.0000000000001
 21
277.0175705555555
 31
0.0
  0
LINE
  5
5A
330
4A4
100
AcDbEntity
  8
SPEC
  6
Continuous
 62
     7
100
AcDbLine
 10
-247.4999999999999
 20
265.7675705555555
 30
0.0
 11
195.0000000000001
 21
265.7675705555555
 31
0.0
  0
LINE
  5
5B
330
4A4
100
AcDbEntity
  8
SPEC
  6
Continuous
 62
     7
100
AcDbLine
 10
-247.4999999999999
 20
254.5175705555556
 30
0.0
 11
195.0000000000001
 21
254.5175705555556
 31
0.0
  0
LINE
  5
5C
330
4A4
100
AcDbEntity
  8
SPEC
  6
Continuous
 62
     7
100
AcDbLine
 10
-247.4999999999999
 20
243.2675705555556
 30
0.0
 11
195.0000000000001
 21
243.2675705555556
 31
0.0
  0
LINE
  5
5D
330
4A4
100
AcDbEntity
  8
SPEC
  6
Continuous
 62
     7
100
AcDbLine
 10
-247.4999999999999
 20
232.0175705555556
 30
0.0
 11
195.0000000000001
 21
232.0175705555556
 31
0.0
  0
LINE
  5
5E
330
4A4
100
AcDbEntity
  8
SPEC
  6
Continuous
 62
     7
100
AcDbLine
 10
-247.4999999999999
 20
220.7675705555556
 30
0.0
 11
195.0000000000001
 21
220.7675705555556
 31
0.0
  0
LINE
  5
5F
330
4A4
100
AcDbEntity
  8
SPEC
  6
Continuous
 62
     7
100
AcDbLine
 10
-247.4999999999999
 20
209.5175705555556
 30
0.0
 11
195.0000000000001
 21
209.5175705555556
 31
0.0
  0
LINE
  5
60
330
4A4
100
AcDbEntity
  8
SPEC
  6
Continuous
 62
     7
100
AcDbLine
 10
-247.4999999999999
 20
187.0175705555556
 30
0.0
 11
195.0000000000001
 21
187.0175705555556
 31
0.0
  0
TEXT
  5
61
330
4A4
100
AcDbEntity
  8
SPEC
 62
     7
100
AcDbText
 10
-128.55
 20
200.6313238888888
 30
0.0
 40
5.700944010416665
  1
GTB-UHD-HBT-S(送信機):180g
 41
0.7
 11
-128.55
 21
206.3322678993054
 31
0.0
100
AcDbText
 73
     3
  0
TEXT
  5
62
330
4A4
100
AcDbEntity
  8
SPEC
 62
     7
100
AcDbText
 10
-128.55
 20
189.3813238888888
 30
0.0
 40
5.700944010416665
  1
GTB-UHD-HBT-R(受信機):170g
 41
0.7
 11
-128.55
 21
195.0822678993054
 31
0.0
100
AcDbText
 73
     3
  0
TEXT
  5
63
330
4A4
100
AcDbEntity
  8
SPEC
 62
     7
100
AcDbText
 10
-244.8
 20
358.1313238888889
 30
0.0
 40
5.700944010416665
  1
ピクセルクロック
 41
0.7
 11
-244.8
 21
363.8322678993055
 31
0.0
100
AcDbText
 73
     3
  0
TEXT
  5
64
330
4A4
100
AcDbEntity
  8
SPEC
 62
     7
100
AcDbText
 10
-128.55
 20
358.1313238888889
 30
0.0
 40
5.700944010416665
  1
300MHz
 41
0.7
 11
-128.55
 21
363.8322678993055
 31
0.0
100
AcDbText
 73
     3
  0
TEXT
  5
65
330
4A4
100
AcDbEntity
  8
SPEC
 62
     7
100
AcDbText
 10
-244.8
 20
234.3813238888888
 30
0.0
 40
5.700944010416665
  1
保管温度
 41
0.7
 11
-244.8
 21
240.0822678993055
 31
0.0
100
AcDbText
 73
     3
  0
TEXT
  5
66
330
4A4
100
AcDbEntity
  8
SPEC
 62
     7
100
AcDbText
 10
-244.8
 20
346.8813238888888
 30
0.0
 40
5.700944010416665
  1
対応解像度
 41
0.7
 11
-244.8
 21
352.5822678993054
 31
0.0
100
AcDbText
 73
     3
  0
TEXT
  5
67
330
4A4
100
AcDbEntity
  8
SPEC
 62
     7
100
AcDbText
 10
-128.55
 20
346.8813238888888
 30
0.0
 40
5.700944010416665
  1
4K UHD(3840x2160 @60Hz)、4K DCI(4096×2160 60Hz)、1920x1200(WUXGA)、1080p
 41
0.7
 11
-128.55
 21
352.5822678993054
 31
0.0
100
AcDbText
 73
     3
  0
TEXT
  5
68
330
4A4
100
AcDbEntity
  8
SPEC
 62
     7
100
AcDbText
 10
-244.8
 20
335.6313238888887
 30
0.0
 40
5.700944010416665
  1
入力端子(送信機)
 41
0.7
 11
-244.8
 21
341.3322678993054
 31
0.0
100
AcDbText
 73
     3
  0
TEXT
  5
69
330
4A4
100
AcDbEntity
  8
SPEC
 62
     7
100
AcDbText
 10
-128.55
 20
335.6313238888887
 30
0.0
 40
5.700944010416665
  1
HDMI 19-pinメス
 41
0.7
 11
-128.55
 21
341.3322678993054
 31
0.0
100
AcDbText
 73
     3
  0
TEXT
  5
6A
330
4A4
100
AcDbEntity
  8
SPEC
 62
     7
100
AcDbText
 10
-244.8
 20
324.3813238888888
 30
0.0
 40
5.700944010416665
  1
出力端子(受信機)
 41
0.7
 11
-244.8
 21
330.0822678993054
 31
0.0
100
AcDbText
 73
     3
  0
TEXT
  5
6B
330
4A4
100
AcDbEntity
  8
SPEC
 62
     7
100
AcDbText
 10
-128.55
 20
324.3813238888888
 30
0.0
 40
5.700944010416665
  1
HDMI 19-pinメス
 41
0.7
 11
-128.55
 21
330.0822678993054
 31
0.0
100
AcDbText
 73
     3
  0
TEXT
  5
6C
330
4A4
100
AcDbEntity
  8
SPEC
 62
     7
100
AcDbText
 10
-244.8
 20
313.1313238888887
 30
0.0
 40
5.700944010416665
  1
Link端子(送信機・受信機)
 41
0.7
 11
-244.8
 21
318.8322678993054
 31
0.0
100
AcDbText
 73
     3
  0
TEXT
  5
6D
330
4A4
100
AcDbEntity
  8
SPEC
 62
     7
100
AcDbText
 10
-128.55
 20
313.1313238888887
 30
0.0
 40
5.700944010416665
  1
RJ-45
 41
0.7
 11
-128.55
 21
318.8322678993054
 31
0.0
100
AcDbText
 73
     3
  0
TEXT
  5
6E
330
4A4
100
AcDbEntity
  8
SPEC
 62
     7
100
AcDbText
 10
-244.8
 20
301.8813238888887
 30
0.0
 40
5.700944010416665
  1
IR In/Ext端子(送信機・受信機)
 41
0.7
 11
-244.8
 21
307.5822678993054
 31
0.0
100
AcDbText
 73
     3
  0
TEXT
  5
6F
330
4A4
100
AcDbEntity
  8
SPEC
 62
     7
100
AcDbText
 10
-128.55
 20
301.8813238888887
 30
0.0
 40
5.700944010416665
  1
3.5mmメス
 41
0.7
 11
-128.55
 21
307.5822678993054
 31
0.0
100
AcDbText
 73
     3
  0
TEXT
  5
70
330
4A4
100
AcDbEntity
  8
SPEC
 62
     7
100
AcDbText
 10
-244.8
 20
290.6313238888888
 30
0.0
 40
5.700944010416665
  1
IR Out端子(送信機・受信機)
 41
0.7
 11
-244.8
 21
296.3322678993054
 31
0.0
100
AcDbText
 73
     3
  0
TEXT
  5
71
330
4A4
100
AcDbEntity
  8
SPEC
 62
     7
100
AcDbText
 10
-128.55
 20
290.6313238888888
 30
0.0
 40
5.700944010416665
  1
3.5mmメス
 41
0.7
 11
-128.55
 21
296.3322678993054
 31
0.0
100
AcDbText
 73
     3
  0
TEXT
  5
72
330
4A4
100
AcDbEntity
  8
SPEC
 62
     7
100
AcDbText
 10
-244.8
 20
279.3813238888887
 30
0.0
 40
5.700944010416665
  1
電源
 41
0.7
 11
-244.8
 21
285.0822678993054
 31
0.0
100
AcDbText
 73
     3
  0
TEXT
  5
73
330
4A4
100
AcDbEntity
  8
SPEC
 62
     7
100
AcDbText
 10
-128.55
 20
279.3813238888887
 30
0.0
 40
5.700944010416665
  1
24V DC
 41
0.7
 11
-128.55
 21
285.0822678993054
 31
0.0
100
AcDbText
 73
     3
  0
TEXT
  5
74
330
4A4
100
AcDbEntity
  8
SPEC
 62
     7
100
AcDbText
 10
-244.8
 20
268.1313238888888
 30
0.0
 40
5.700944010416665
  1
消費電力
 41
0.7
 11
-244.8
 21
273.8322678993054
 31
0.0
100
AcDbText
 73
     3
  0
TEXT
  5
75
330
4A4
100
AcDbEntity
  8
SPEC
 62
     7
100
AcDbText
 10
-128.55
 20
268.1313238888888
 30
0.0
 40
5.700944010416665
  1
12W
 41
0.7
 11
-128.55
 21
273.8322678993054
 31
0.0
100
AcDbText
 73
     3
  0
TEXT
  5
76
330
4A4
100
AcDbEntity
  8
SPEC
 62
     7
100
AcDbText
 10
-244.8
 20
256.8813238888887
 30
0.0
 40
5.700944010416665
  1
動作温度
 41
0.7
 11
-244.8
 21
262.5822678993054
 31
0.0
100
AcDbText
 73
     3
  0
TEXT
  5
77
330
4A4
100
AcDbEntity
  8
SPEC
 62
     7
100
AcDbText
 10
-128.55
 20
256.8813238888887
 30
0.0
 40
5.700944010416665
  1
0～+45℃
 41
0.7
 11
-128.55
 21
262.5822678993054
 31
0.0
100
AcDbText
 73
     3
  0
TEXT
  5
78
330
4A4
100
AcDbEntity
  8
SPEC
 62
     7
100
AcDbText
 10
-244.8
 20
245.6313238888888
 30
0.0
 40
5.700944010416665
  1
動作湿度
 41
0.7
 11
-244.8
 21
251.3322678993055
 31
0.0
100
AcDbText
 73
     3
  0
TEXT
  5
79
330
4A4
100
AcDbEntity
  8
SPEC
 62
     7
100
AcDbText
 10
-244.8
 20
223.1313238888888
 30
0.0
 40
5.700944010416665
  1
保管湿度
 41
0.7
 11
-244.8
 21
228.8322678993055
 31
0.0
100
AcDbText
 73
     3
  0
TEXT
  5
7A
330
4A4
100
AcDbEntity
  8
SPEC
 62
     7
100
AcDbText
 10
-128.55
 20
234.3813238888888
 30
0.0
 40
5.700944010416665
  1
-20℃～+85℃
 41
0.7
 11
-128.55
 21
240.0822678993055
 31
0.0
100
AcDbText
 73
     3
  0
TEXT
  5
7B
330
4A4
100
AcDbEntity
  8
SPEC
 62
     7
100
AcDbText
 10
-128.55
 20
245.6313238888888
 30
0.0
 40
5.700944010416665
  1
5%%%～90%%%(結露なきこと)
 41
0.7
 11
-128.55
 21
251.3322678993055
 31
0.0
100
AcDbText
 73
     3
  0
TEXT
  5
7C
330
4A4
100
AcDbEntity
  8
SPEC
 62
     7
100
AcDbText
 10
-128.55
 20
223.1313238888888
 30
0.0
 40
5.700944010416665
  1
0%%%～90%%%(結露なきこと)
 41
0.7
 11
-128.55
 21
228.8322678993055
 31
0.0
100
AcDbText
 73
     3
  0
TEXT
  5
7D
330
4A4
100
AcDbEntity
  8
DIMNSIONS
 62
     7
100
AcDbText
 10
-59.99999999999998
 20
-346.1739594444444
 30
0.0
 40
7.329785156249999
  1
(単位：mm)
 41
0.7
 11
-59.99999999999998
 21
-338.8441742881943
 31
0.0
100
AcDbText
 73
     3
  0
TEXT
  5
7E
330
4A4
100
AcDbEntity
  8
DIMNSIONS
 62
     7
100
AcDbText
 10
-253.2875
 20
-119.6295
 30
0.0
 40
5.700944010416665
  1
※
 41
0.7
 11
-253.2875
 21
-113.9285559895833
 31
0.0
100
AcDbText
 73
     3
  0
TEXT
  5
7F
330
4A4
100
AcDbEntity
  8
DIMNSIONS
 62
     7
100
AcDbText
 10
-158.1666666666667
 20
-203.0836666666667
 30
0.0
 40
5.700944010416665
  1
※
 41
0.7
 11
-158.1666666666667
 21
-197.38272265625
 31
0.0
100
AcDbText
 73
     3
  0
TEXT
  5
80
330
4A4
100
AcDbEntity
  8
DIMNSIONS
 62
     7
100
AcDbText
 10
-158.1666666666667
 20
-184.3336666666666
 30
0.0
 40
5.700944010416665
  1
※
 41
0.7
 11
-158.1666666666667
 21
-178.63272265625
 31
0.0
100
AcDbText
 73
     3
  0
TEXT
  5
81
330
4A4
100
AcDbEntity
  8
DIMNSIONS
 62
     7
100
AcDbText
 10
15.4625
 20
-119.6295
 30
0.0
 40
5.700944010416665
  1
※
 41
0.7
 11
15.4625
 21
-113.9285559895833
 31
0.0
100
AcDbText
 73
     3
  0
TEXT
  5
82
330
4A4
100
AcDbEntity
  8
DIMNSIONS
 62
     7
100
AcDbText
 10
110.5833333333333
 20
-203.0836666666667
 30
0.0
 40
5.700944010416665
  1
※
 41
0.7
 11
110.5833333333333
 21
-197.38272265625
 31
0.0
100
AcDbText
 73
     3
  0
TEXT
  5
83
330
4A4
100
AcDbEntity
  8
DIMNSIONS
 62
     7
100
AcDbText
 10
110.5833333333333
 20
-184.3336666666666
 30
0.0
 40
5.700944010416665
  1
※
 41
0.7
 11
110.5833333333333
 21
-178.6327226562499
 31
0.0
100
AcDbText
 73
     3
  0
LINE
  5
84
330
4A4
100
AcDbEntity
  8
DIMNSIONS
  6
Continuous
 62
     7
100
AcDbLine
 10
-223.75
 20
-254.5
 30
0.0
 11
-223.75
 21
-278.0
 31
0.0
  0
LINE
  5
85
330
4A4
100
AcDbEntity
  8
DIMNSIONS
  6
Continuous
 62
     7
100
AcDbLine
 10
-113.75
 20
-254.5
 30
0.0
 11
-113.75
 21
-278.0
 31
0.0
  0
LINE
  5
86
330
4A4
100
AcDbEntity
  8
DIMNSIONS
  6
Continuous
 62
     7
100
AcDbLine
 10
-223.75
 20
-275.0
 30
0.0
 11
-113.75
 21
-275.0
 31
0.0
  0
LINE
  5
87
330
4A4
100
AcDbEntity
  8
DIMNSIONS
  6
Continuous
 62
     7
100
AcDbLine
 10
-223.75
 20
-275.0
 30
0.0
 11
-217.7503662109375
 21
-273.3924029713382
 31
0.0
  0
LINE
  5
88
330
4A4
100
AcDbEntity
  8
DIMNSIONS
  6
Continuous
 62
     7
100
AcDbLine
 10
-223.75
 20
-275.0
 30
0.0
 11
-217.7503662109375
 21
-276.6075970286618
 31
0.0
  0
LINE
  5
89
330
4A4
100
AcDbEntity
  8
DIMNSIONS
  6
Continuous
 62
     7
100
AcDbLine
 10
-113.75
 20
-275.0
 30
0.0
 11
-119.7496337890625
 21
-276.6075970286618
 31
0.0
  0
LINE
  5
8A
330
4A4
100
AcDbEntity
  8
DIMNSIONS
  6
Continuous
 62
     7
100
AcDbLine
 10
-113.75
 20
-275.0
 30
0.0
 11
-119.7496337890625
 21
-273.3924029713382
 31
0.0
  0
TEXT
  5
8B
330
4A4
100
AcDbEntity
  8
DIMNSIONS
 62
     7
100
AcDbText
 10
-176.6875
 20
-272.0183333333334
 30
0.0
 40
8.144205729166666
  1
110
 41
0.7
 11
-176.6875
 21
-263.8741276041667
 31
0.0
100
AcDbText
 73
     3
  0
LINE
  5
8C
330
4A4
100
AcDbEntity
  8
DIMNSIONS
  6
Continuous
 62
     7
100
AcDbLine
 10
-228.25
 20
-250.0
 30
0.0
 11
-240.6545189829835
 21
-250.0
 31
0.0
  0
LINE
  5
8D
330
4A4
100
AcDbEntity
  8
DIMNSIONS
  6
Continuous
 62
     7
100
AcDbLine
 10
-216.25
 20
-223.0
 30
0.0
 11
-240.6545189829835
 21
-223.0
 31
0.0
  0
LINE
  5
8E
330
4A4
100
AcDbEntity
  8
DIMNSIONS
  6
Continuous
 62
     7
100
AcDbLine
 10
-237.6545189829835
 20
-250.0
 30
0.0
 11
-237.6545189829835
 21
-223.0
 31
0.0
  0
LINE
  5
8F
330
4A4
100
AcDbEntity
  8
DIMNSIONS
  6
Continuous
 62
     7
100
AcDbLine
 10
-237.6545189829835
 20
-250.0
 30
0.0
 11
-239.2621160116453
 21
-244.0003662109375
 31
0.0
  0
LINE
  5
90
330
4A4
100
AcDbEntity
  8
DIMNSIONS
  6
Continuous
 62
     7
100
AcDbLine
 10
-237.6545189829835
 20
-250.0
 30
0.0
 11
-236.0469219543217
 21
-244.0003662109375
 31
0.0
  0
LINE
  5
91
330
4A4
100
AcDbEntity
  8
DIMNSIONS
  6
Continuous
 62
     7
100
AcDbLine
 10
-237.6545189829835
 20
-223.0
 30
0.0
 11
-236.0469219543217
 21
-228.9996337890625
 31
0.0
  0
LINE
  5
92
330
4A4
100
AcDbEntity
  8
DIMNSIONS
  6
Continuous
 62
     7
100
AcDbLine
 10
-237.6545189829835
 20
-223.0
 30
0.0
 11
-239.2621160116453
 21
-228.9996337890625
 31
0.0
  0
TEXT
  5
93
330
4A4
100
AcDbEntity
  8
DIMNSIONS
 62
     7
100
AcDbText
 10
-240.6361856496502
 20
-247.0833333333333
 30
0.0
 40
8.144205729166666
  1
27.0
 50
90.0
 41
0.7
 11
-248.7803913788169
 21
-247.0833333333333
 31
0.0
100
AcDbText
 73
     3
  0
LINE
  5
94
330
4A4
100
AcDbEntity
  8
DIMNSIONS
  6
Continuous
 62
     7
100
AcDbLine
 10
-213.25
 20
-178.25
 30
0.0
 11
-213.25
 21
-196.75
 31
0.0
  0
LINE
  5
95
330
4A4
100
AcDbEntity
  8
DIMNSIONS
  6
Continuous
 62
     7
100
AcDbLine
 10
-124.25
 20
-178.25
 30
0.0
 11
-124.25
 21
-196.75
 31
0.0
  0
LINE
  5
96
330
4A4
100
AcDbEntity
  8
DIMNSIONS
  6
Continuous
 62
     7
100
AcDbLine
 10
-213.25
 20
-193.75
 30
0.0
 11
-124.25
 21
-193.75
 31
0.0
  0
LINE
  5
97
330
4A4
100
AcDbEntity
  8
DIMNSIONS
  6
Continuous
 62
     7
100
AcDbLine
 10
-213.25
 20
-193.75
 30
0.0
 11
-207.2503662109375
 21
-192.1424029713382
 31
0.0
  0
LINE
  5
98
330
4A4
100
AcDbEntity
  8
DIMNSIONS
  6
Continuous
 62
     7
100
AcDbLine
 10
-213.25
 20
-193.75
 30
0.0
 11
-207.2503662109375
 21
-195.3575970286617
 31
0.0
  0
LINE
  5
99
330
4A4
100
AcDbEntity
  8
DIMNSIONS
  6
Continuous
 62
     7
100
AcDbLine
 10
-124.25
 20
-193.75
 30
0.0
 11
-130.2496337890625
 21
-195.3575970286617
 31
0.0
  0
LINE
  5
9A
330
4A4
100
AcDbEntity
  8
DIMNSIONS
  6
Continuous
 62
     7
100
AcDbLine
 10
-124.25
 20
-193.75
 30
0.0
 11
-130.2496337890625
 21
-192.1424029713382
 31
0.0
  0
TEXT
  5
9B
330
4A4
100
AcDbEntity
  8
DIMNSIONS
 62
     7
100
AcDbText
 10
-179.3333333333333
 20
-190.7683333333333
 30
0.0
 40
8.144205729166666
  1
89.0
 41
0.7
 11
-179.3333333333333
 21
-182.6241276041666
 31
0.0
100
AcDbText
 73
     3
  0
LINE
  5
9C
330
4A4
100
AcDbEntity
  8
DIMNSIONS
  6
Continuous
 62
     7
100
AcDbLine
 10
-218.25
 20
-158.6
 30
0.0
 11
-218.25
 21
-215.5
 31
0.0
  0
LINE
  5
9D
330
4A4
100
AcDbEntity
  8
DIMNSIONS
  6
Continuous
 62
     7
100
AcDbLine
 10
-119.25
 20
-158.6
 30
0.0
 11
-119.25
 21
-215.5
 31
0.0
  0
LINE
  5
9E
330
4A4
100
AcDbEntity
  8
DIMNSIONS
  6
Continuous
 62
     7
100
AcDbLine
 10
-218.25
 20
-212.5
 30
0.0
 11
-119.25
 21
-212.5
 31
0.0
  0
LINE
  5
9F
330
4A4
100
AcDbEntity
  8
DIMNSIONS
  6
Continuous
 62
     7
100
AcDbLine
 10
-218.25
 20
-212.5
 30
0.0
 11
-212.2503662109375
 21
-210.8924029713382
 31
0.0
  0
LINE
  5
A0
330
4A4
100
AcDbEntity
  8
DIMNSIONS
  6
Continuous
 62
     7
100
AcDbLine
 10
-218.25
 20
-212.5
 30
0.0
 11
-212.2503662109375
 21
-214.1075970286618
 31
0.0
  0
LINE
  5
A1
330
4A4
100
AcDbEntity
  8
DIMNSIONS
  6
Continuous
 62
     7
100
AcDbLine
 10
-119.25
 20
-212.5
 30
0.0
 11
-125.2496337890625
 21
-214.1075970286618
 31
0.0
  0
LINE
  5
A2
330
4A4
100
AcDbEntity
  8
DIMNSIONS
  6
Continuous
 62
     7
100
AcDbLine
 10
-119.25
 20
-212.5
 30
0.0
 11
-125.2496337890625
 21
-210.8924029713382
 31
0.0
  0
TEXT
  5
A3
330
4A4
100
AcDbEntity
  8
DIMNSIONS
 62
     7
100
AcDbText
 10
-179.3333333333333
 20
-209.5183333333333
 30
0.0
 40
8.144205729166666
  1
99.0
 41
0.7
 11
-179.3333333333333
 21
-201.3741276041666
 31
0.0
100
AcDbText
 73
     3
  0
LINE
  5
A4
330
4A4
100
AcDbEntity
  8
DIMNSIONS
  6
Continuous
 62
     7
100
AcDbLine
 10
-222.25
 20
-173.75
 30
0.0
 11
-259.25
 21
-173.75
 31
0.0
  0
LINE
  5
A5
330
4A4
100
AcDbEntity
  8
DIMNSIONS
  6
Continuous
 62
     7
100
AcDbLine
 10
-222.25
 20
-88.75
 30
0.0
 11
-259.25
 21
-88.75
 31
0.0
  0
LINE
  5
A6
330
4A4
100
AcDbEntity
  8
DIMNSIONS
  6
Continuous
 62
     7
100
AcDbLine
 10
-256.25
 20
-173.75
 30
0.0
 11
-256.25
 21
-88.75
 31
0.0
  0
LINE
  5
A7
330
4A4
100
AcDbEntity
  8
DIMNSIONS
  6
Continuous
 62
     7
100
AcDbLine
 10
-256.25
 20
-173.75
 30
0.0
 11
-257.8575970286618
 21
-167.7503662109375
 31
0.0
  0
LINE
  5
A8
330
4A4
100
AcDbEntity
  8
DIMNSIONS
  6
Continuous
 62
     7
100
AcDbLine
 10
-256.25
 20
-173.75
 30
0.0
 11
-254.6424029713382
 21
-167.7503662109375
 31
0.0
  0
LINE
  5
A9
330
4A4
100
AcDbEntity
  8
DIMNSIONS
  6
Continuous
 62
     7
100
AcDbLine
 10
-256.25
 20
-88.75
 30
0.0
 11
-254.6424029713382
 21
-94.74963378906251
 31
0.0
  0
LINE
  5
AA
330
4A4
100
AcDbEntity
  8
DIMNSIONS
  6
Continuous
 62
     7
100
AcDbLine
 10
-256.25
 20
-88.75
 30
0.0
 11
-257.8575970286618
 21
-94.74963378906251
 31
0.0
  0
TEXT
  5
AB
330
4A4
100
AcDbEntity
  8
DIMNSIONS
 62
     7
100
AcDbText
 10
-259.2316666666666
 20
-141.8333333333333
 30
0.0
 40
8.144205729166666
  1
85.0
 50
90.0
 41
0.7
 11
-267.3758723958333
 21
-141.8333333333333
 31
0.0
100
AcDbText
 73
     3
  0
LINE
  5
AC
330
4A4
100
AcDbEntity
  8
DIMNSIONS
  6
Continuous
 62
     7
100
AcDbLine
 10
-222.25
 20
-88.75
 30
0.0
 11
-259.25
 21
-88.75
 31
0.0
  0
LINE
  5
AD
330
4A4
100
AcDbEntity
  8
DIMNSIONS
  6
Continuous
 62
     7
100
AcDbLine
 10
-179.25
 20
-82.75
 30
0.0
 11
-259.25
 21
-82.75
 31
0.0
  0
LINE
  5
AE
330
4A4
100
AcDbEntity
  8
DIMNSIONS
  6
Continuous
 62
     7
100
AcDbLine
 10
-256.25
 20
-82.75
 30
0.0
 11
-256.25
 21
-88.75
 31
0.0
  0
LINE
  5
AF
330
4A4
100
AcDbEntity
  8
DIMNSIONS
  6
Continuous
 62
     7
100
AcDbLine
 10
-256.25
 20
-88.75
 30
0.0
 11
-256.25
 21
-99.25
 31
0.0
  0
LINE
  5
B0
330
4A4
100
AcDbEntity
  8
DIMNSIONS
  6
Continuous
 62
     7
100
AcDbLine
 10
-256.25
 20
-88.75
 30
0.0
 11
-254.6424029713382
 21
-94.74963378906251
 31
0.0
  0
LINE
  5
B1
330
4A4
100
AcDbEntity
  8
DIMNSIONS
  6
Continuous
 62
     7
100
AcDbLine
 10
-256.25
 20
-88.75
 30
0.0
 11
-257.8575970286618
 21
-94.74963378906251
 31
0.0
  0
LINE
  5
B2
330
4A4
100
AcDbEntity
  8
DIMNSIONS
  6
Continuous
 62
     7
100
AcDbLine
 10
-256.25
 20
-82.75
 30
0.0
 11
-256.25
 21
-72.25
 31
0.0
  0
LINE
  5
B3
330
4A4
100
AcDbEntity
  8
DIMNSIONS
  6
Continuous
 62
     7
100
AcDbLine
 10
-256.25
 20
-82.75
 30
0.0
 11
-257.8575970286618
 21
-76.7503662109375
 31
0.0
  0
LINE
  5
B4
330
4A4
100
AcDbEntity
  8
DIMNSIONS
  6
Continuous
 62
     7
100
AcDbLine
 10
-256.25
 20
-82.75
 30
0.0
 11
-254.6424029713382
 21
-76.7503662109375
 31
0.0
  0
TEXT
  5
B5
330
4A4
100
AcDbEntity
  8
DIMNSIONS
 62
     7
100
AcDbText
 10
-259.2316666666667
 20
-93.6875
 30
0.0
 40
8.144205729166666
  1
6.0
 50
90.0
 41
0.7
 11
-267.3758723958334
 21
-93.6875
 31
0.0
100
AcDbText
 73
     3
  0
LINE
  5
B6
330
4A4
100
AcDbEntity
  8
DIMNSIONS
  6
Continuous
 62
     7
100
AcDbLine
 10
-220.75
 20
-157.5
 30
0.0
 11
-240.5
 21
-157.5
 31
0.0
  0
LINE
  5
B7
330
4A4
100
AcDbEntity
  8
DIMNSIONS
  6
Continuous
 62
     7
100
AcDbLine
 10
-220.75
 20
-105.0
 30
0.0
 11
-240.5
 21
-105.0
 31
0.0
  0
LINE
  5
B8
330
4A4
100
AcDbEntity
  8
DIMNSIONS
  6
Continuous
 62
     7
100
AcDbLine
 10
-237.5
 20
-157.5
 30
0.0
 11
-237.5
 21
-105.0
 31
0.0
  0
LINE
  5
B9
330
4A4
100
AcDbEntity
  8
DIMNSIONS
  6
Continuous
 62
     7
100
AcDbLine
 10
-237.5
 20
-157.5
 30
0.0
 11
-239.1075970286618
 21
-151.5003662109375
 31
0.0
  0
LINE
  5
BA
330
4A4
100
AcDbEntity
  8
DIMNSIONS
  6
Continuous
 62
     7
100
AcDbLine
 10
-237.5
 20
-157.5
 30
0.0
 11
-235.8924029713382
 21
-151.5003662109375
 31
0.0
  0
LINE
  5
BB
330
4A4
100
AcDbEntity
  8
DIMNSIONS
  6
Continuous
 62
     7
100
AcDbLine
 10
-237.5
 20
-105.0
 30
0.0
 11
-235.8924029713382
 21
-110.9996337890625
 31
0.0
  0
LINE
  5
BC
330
4A4
100
AcDbEntity
  8
DIMNSIONS
  6
Continuous
 62
     7
100
AcDbLine
 10
-237.5
 20
-105.0
 30
0.0
 11
-239.1075970286618
 21
-110.9996337890625
 31
0.0
  0
TEXT
  5
BD
330
4A4
100
AcDbEntity
  8
DIMNSIONS
 62
     7
100
AcDbText
 10
-240.4816666666667
 20
-141.8333333333333
 30
0.0
 40
8.144205729166666
  1
52.5
 50
90.0
 41
0.7
 11
-248.6258723958333
 21
-141.8333333333333
 31
0.0
100
AcDbText
 73
     3
  0
LINE
  5
BE
330
4A4
100
AcDbEntity
  8
DIMNSIONS
  6
Continuous
 62
     7
100
AcDbLine
 10
45.0
 20
-254.5
 30
0.0
 11
45.0
 21
-278.0
 31
0.0
  0
LINE
  5
BF
330
4A4
100
AcDbEntity
  8
DIMNSIONS
  6
Continuous
 62
     7
100
AcDbLine
 10
155.0
 20
-254.5
 30
0.0
 11
155.0
 21
-278.0
 31
0.0
  0
LINE
  5
C0
330
4A4
100
AcDbEntity
  8
DIMNSIONS
  6
Continuous
 62
     7
100
AcDbLine
 10
45.0
 20
-275.0
 30
0.0
 11
155.0
 21
-275.0
 31
0.0
  0
LINE
  5
C1
330
4A4
100
AcDbEntity
  8
DIMNSIONS
  6
Continuous
 62
     7
100
AcDbLine
 10
45.0
 20
-275.0
 30
0.0
 11
50.9996337890625
 21
-273.3924029713382
 31
0.0
  0
LINE
  5
C2
330
4A4
100
AcDbEntity
  8
DIMNSIONS
  6
Continuous
 62
     7
100
AcDbLine
 10
45.0
 20
-275.0
 30
0.0
 11
50.9996337890625
 21
-276.6075970286618
 31
0.0
  0
LINE
  5
C3
330
4A4
100
AcDbEntity
  8
DIMNSIONS
  6
Continuous
 62
     7
100
AcDbLine
 10
155.0
 20
-275.0
 30
0.0
 11
149.0003662109375
 21
-276.6075970286618
 31
0.0
  0
LINE
  5
C4
330
4A4
100
AcDbEntity
  8
DIMNSIONS
  6
Continuous
 62
     7
100
AcDbLine
 10
155.0
 20
-275.0
 30
0.0
 11
149.0003662109375
 21
-273.3924029713382
 31
0.0
  0
TEXT
  5
C5
330
4A4
100
AcDbEntity
  8
DIMNSIONS
 62
     7
100
AcDbText
 10
92.0625
 20
-272.0183333333334
 30
0.0
 40
8.144205729166666
  1
110
 41
0.7
 11
92.0625
 21
-263.8741276041667
 31
0.0
100
AcDbText
 73
     3
  0
LINE
  5
C6
330
4A4
100
AcDbEntity
  8
DIMNSIONS
  6
Continuous
 62
     7
100
AcDbLine
 10
40.49999999999999
 20
-250.0
 30
0.0
 11
28.25
 21
-250.0
 31
0.0
  0
LINE
  5
C7
330
4A4
100
AcDbEntity
  8
DIMNSIONS
  6
Continuous
 62
     7
100
AcDbLine
 10
52.5
 20
-223.0
 30
0.0
 11
28.25
 21
-223.0
 31
0.0
  0
LINE
  5
C8
330
4A4
100
AcDbEntity
  8
DIMNSIONS
  6
Continuous
 62
     7
100
AcDbLine
 10
31.25
 20
-250.0
 30
0.0
 11
31.25
 21
-223.0
 31
0.0
  0
LINE
  5
C9
330
4A4
100
AcDbEntity
  8
DIMNSIONS
  6
Continuous
 62
     7
100
AcDbLine
 10
31.25
 20
-250.0
 30
0.0
 11
29.64240297133823
 21
-244.0003662109375
 31
0.0
  0
LINE
  5
CA
330
4A4
100
AcDbEntity
  8
DIMNSIONS
  6
Continuous
 62
     7
100
AcDbLine
 10
31.25
 20
-250.0
 30
0.0
 11
32.85759702866177
 21
-244.0003662109375
 31
0.0
  0
LINE
  5
CB
330
4A4
100
AcDbEntity
  8
DIMNSIONS
  6
Continuous
 62
     7
100
AcDbLine
 10
31.25
 20
-223.0
 30
0.0
 11
32.85759702866177
 21
-228.9996337890625
 31
0.0
  0
LINE
  5
CC
330
4A4
100
AcDbEntity
  8
DIMNSIONS
  6
Continuous
 62
     7
100
AcDbLine
 10
31.25
 20
-223.0
 30
0.0
 11
29.64240297133823
 21
-228.9996337890625
 31
0.0
  0
TEXT
  5
CD
330
4A4
100
AcDbEntity
  8
DIMNSIONS
 62
     7
100
AcDbText
 10
28.26833333333334
 20
-247.0833333333333
 30
0.0
 40
8.144205729166666
  1
27.0
 50
90.0
 41
0.7
 11
20.12412760416667
 21
-247.0833333333333
 31
0.0
100
AcDbText
 73
     3
  0
LINE
  5
CE
330
4A4
100
AcDbEntity
  8
DIMNSIONS
  6
Continuous
 62
     7
100
AcDbLine
 10
55.5
 20
-178.25
 30
0.0
 11
55.5
 21
-196.75
 31
0.0
  0
LINE
  5
CF
330
4A4
100
AcDbEntity
  8
DIMNSIONS
  6
Continuous
 62
     7
100
AcDbLine
 10
144.5
 20
-178.25
 30
0.0
 11
144.5
 21
-196.75
 31
0.0
  0
LINE
  5
D0
330
4A4
100
AcDbEntity
  8
DIMNSIONS
  6
Continuous
 62
     7
100
AcDbLine
 10
55.5
 20
-193.75
 30
0.0
 11
144.5
 21
-193.75
 31
0.0
  0
LINE
  5
D1
330
4A4
100
AcDbEntity
  8
DIMNSIONS
  6
Continuous
 62
     7
100
AcDbLine
 10
55.5
 20
-193.75
 30
0.0
 11
61.4996337890625
 21
-192.1424029713382
 31
0.0
  0
LINE
  5
D2
330
4A4
100
AcDbEntity
  8
DIMNSIONS
  6
Continuous
 62
     7
100
AcDbLine
 10
55.5
 20
-193.75
 30
0.0
 11
61.4996337890625
 21
-195.3575970286617
 31
0.0
  0
LINE
  5
D3
330
4A4
100
AcDbEntity
  8
DIMNSIONS
  6
Continuous
 62
     7
100
AcDbLine
 10
144.5
 20
-193.75
 30
0.0
 11
138.5003662109375
 21
-195.3575970286617
 31
0.0
  0
LINE
  5
D4
330
4A4
100
AcDbEntity
  8
DIMNSIONS
  6
Continuous
 62
     7
100
AcDbLine
 10
144.5
 20
-193.75
 30
0.0
 11
138.5003662109375
 21
-192.1424029713382
 31
0.0
  0
TEXT
  5
D5
330
4A4
100
AcDbEntity
  8
DIMNSIONS
 62
     7
100
AcDbText
 10
89.41666666666668
 20
-190.7683333333333
 30
0.0
 40
8.144205729166666
  1
89.0
 41
0.7
 11
89.41666666666668
 21
-182.6241276041666
 31
0.0
100
AcDbText
 73
     3
  0
LINE
  5
D6
330
4A4
100
AcDbEntity
  8
DIMNSIONS
  6
Continuous
 62
     7
100
AcDbLine
 10
50.5
 20
-158.6
 30
0.0
 11
50.5
 21
-215.5
 31
0.0
  0
LINE
  5
D7
330
4A4
100
AcDbEntity
  8
DIMNSIONS
  6
Continuous
 62
     7
100
AcDbLine
 10
149.5
 20
-158.6
 30
0.0
 11
149.5
 21
-215.5
 31
0.0
  0
LINE
  5
D8
330
4A4
100
AcDbEntity
  8
DIMNSIONS
  6
Continuous
 62
     7
100
AcDbLine
 10
50.5
 20
-212.5
 30
0.0
 11
149.5
 21
-212.5
 31
0.0
  0
LINE
  5
D9
330
4A4
100
AcDbEntity
  8
DIMNSIONS
  6
Continuous
 62
     7
100
AcDbLine
 10
50.5
 20
-212.5
 30
0.0
 11
56.4996337890625
 21
-210.8924029713382
 31
0.0
  0
LINE
  5
DA
330
4A4
100
AcDbEntity
  8
DIMNSIONS
  6
Continuous
 62
     7
100
AcDbLine
 10
50.5
 20
-212.5
 30
0.0
 11
56.4996337890625
 21
-214.1075970286618
 31
0.0
  0
LINE
  5
DB
330
4A4
100
AcDbEntity
  8
DIMNSIONS
  6
Continuous
 62
     7
100
AcDbLine
 10
149.5
 20
-212.5
 30
0.0
 11
143.5003662109375
 21
-214.1075970286618
 31
0.0
  0
LINE
  5
DC
330
4A4
100
AcDbEntity
  8
DIMNSIONS
  6
Continuous
 62
     7
100
AcDbLine
 10
149.5
 20
-212.5
 30
0.0
 11
143.5003662109375
 21
-210.8924029713382
 31
0.0
  0
TEXT
  5
DD
330
4A4
100
AcDbEntity
  8
DIMNSIONS
 62
     7
100
AcDbText
 10
89.41666666666668
 20
-209.5183333333333
 30
0.0
 40
8.144205729166666
  1
99.0
 41
0.7
 11
89.41666666666668
 21
-201.3741276041666
 31
0.0
100
AcDbText
 73
     3
  0
LINE
  5
DE
330
4A4
100
AcDbEntity
  8
DIMNSIONS
  6
Continuous
 62
     7
100
AcDbLine
 10
46.5
 20
-173.75
 30
0.0
 11
9.5
 21
-173.75
 31
0.0
  0
LINE
  5
DF
330
4A4
100
AcDbEntity
  8
DIMNSIONS
  6
Continuous
 62
     7
100
AcDbLine
 10
46.5
 20
-88.75
 30
0.0
 11
9.5
 21
-88.75
 31
0.0
  0
LINE
  5
E0
330
4A4
100
AcDbEntity
  8
DIMNSIONS
  6
Continuous
 62
     7
100
AcDbLine
 10
12.5
 20
-173.75
 30
0.0
 11
12.5
 21
-88.75
 31
0.0
  0
LINE
  5
E1
330
4A4
100
AcDbEntity
  8
DIMNSIONS
  6
Continuous
 62
     7
100
AcDbLine
 10
12.5
 20
-173.75
 30
0.0
 11
10.89240297133822
 21
-167.7503662109375
 31
0.0
  0
LINE
  5
E2
330
4A4
100
AcDbEntity
  8
DIMNSIONS
  6
Continuous
 62
     7
100
AcDbLine
 10
12.5
 20
-173.75
 30
0.0
 11
14.10759702866177
 21
-167.7503662109375
 31
0.0
  0
LINE
  5
E3
330
4A4
100
AcDbEntity
  8
DIMNSIONS
  6
Continuous
 62
     7
100
AcDbLine
 10
12.5
 20
-88.75
 30
0.0
 11
14.10759702866177
 21
-94.74963378906251
 31
0.0
  0
LINE
  5
E4
330
4A4
100
AcDbEntity
  8
DIMNSIONS
  6
Continuous
 62
     7
100
AcDbLine
 10
12.5
 20
-88.75
 30
0.0
 11
10.89240297133822
 21
-94.74963378906251
 31
0.0
  0
TEXT
  5
E5
330
4A4
100
AcDbEntity
  8
DIMNSIONS
 62
     7
100
AcDbText
 10
9.518333333333332
 20
-141.8333333333333
 30
0.0
 40
8.144205729166666
  1
85.0
 50
90.0
 41
0.7
 11
1.374127604166666
 21
-141.8333333333333
 31
0.0
100
AcDbText
 73
     3
  0
LINE
  5
E6
330
4A4
100
AcDbEntity
  8
DIMNSIONS
  6
Continuous
 62
     7
100
AcDbLine
 10
46.5
 20
-88.75
 30
0.0
 11
9.5
 21
-88.75
 31
0.0
  0
LINE
  5
E7
330
4A4
100
AcDbEntity
  8
DIMNSIONS
  6
Continuous
 62
     7
100
AcDbLine
 10
89.50000000000001
 20
-82.75
 30
0.0
 11
9.5
 21
-82.75
 31
0.0
  0
LINE
  5
E8
330
4A4
100
AcDbEntity
  8
DIMNSIONS
  6
Continuous
 62
     7
100
AcDbLine
 10
12.5
 20
-82.75
 30
0.0
 11
12.5
 21
-88.75
 31
0.0
  0
LINE
  5
E9
330
4A4
100
AcDbEntity
  8
DIMNSIONS
  6
Continuous
 62
     7
100
AcDbLine
 10
12.5
 20
-88.75
 30
0.0
 11
12.5
 21
-99.25
 31
0.0
  0
LINE
  5
EA
330
4A4
100
AcDbEntity
  8
DIMNSIONS
  6
Continuous
 62
     7
100
AcDbLine
 10
12.5
 20
-88.75
 30
0.0
 11
14.10759702866177
 21
-94.74963378906251
 31
0.0
  0
LINE
  5
EB
330
4A4
100
AcDbEntity
  8
DIMNSIONS
  6
Continuous
 62
     7
100
AcDbLine
 10
12.5
 20
-88.75
 30
0.0
 11
10.89240297133822
 21
-94.74963378906251
 31
0.0
  0
LINE
  5
EC
330
4A4
100
AcDbEntity
  8
DIMNSIONS
  6
Continuous
 62
     7
100
AcDbLine
 10
12.5
 20
-82.75
 30
0.0
 11
12.5
 21
-72.25
 31
0.0
  0
LINE
  5
ED
330
4A4
100
AcDbEntity
  8
DIMNSIONS
  6
Continuous
 62
     7
100
AcDbLine
 10
12.5
 20
-82.75
 30
0.0
 11
10.89240297133822
 21
-76.7503662109375
 31
0.0
  0
LINE
  5
EE
330
4A4
100
AcDbEntity
  8
DIMNSIONS
  6
Continuous
 62
     7
100
AcDbLine
 10
12.5
 20
-82.75
 30
0.0
 11
14.10759702866177
 21
-76.7503662109375
 31
0.0
  0
TEXT
  5
EF
330
4A4
100
AcDbEntity
  8
DIMNSIONS
 62
     7
100
AcDbText
 10
9.51833333333333
 20
-93.6875
 30
0.0
 40
8.144205729166666
  1
6.0
 50
90.0
 41
0.7
 11
1.374127604166665
 21
-93.6875
 31
0.0
100
AcDbText
 73
     3
  0
LINE
  5
F0
330
4A4
100
AcDbEntity
  8
DIMNSIONS
  6
Continuous
 62
     7
100
AcDbLine
 10
48.0
 20
-157.5
 30
0.0
 11
28.25
 21
-157.5
 31
0.0
  0
LINE
  5
F1
330
4A4
100
AcDbEntity
  8
DIMNSIONS
  6
Continuous
 62
     7
100
AcDbLine
 10
48.0
 20
-105.0
 30
0.0
 11
28.25
 21
-105.0
 31
0.0
  0
LINE
  5
F2
330
4A4
100
AcDbEntity
  8
DIMNSIONS
  6
Continuous
 62
     7
100
AcDbLine
 10
31.25
 20
-157.5
 30
0.0
 11
31.25
 21
-105.0
 31
0.0
  0
LINE
  5
F3
330
4A4
100
AcDbEntity
  8
DIMNSIONS
  6
Continuous
 62
     7
100
AcDbLine
 10
31.25
 20
-157.5
 30
0.0
 11
29.64240297133823
 21
-151.5003662109375
 31
0.0
  0
LINE
  5
F4
330
4A4
100
AcDbEntity
  8
DIMNSIONS
  6
Continuous
 62
     7
100
AcDbLine
 10
31.25
 20
-157.5
 30
0.0
 11
32.85759702866177
 21
-151.5003662109375
 31
0.0
  0
LINE
  5
F5
330
4A4
100
AcDbEntity
  8
DIMNSIONS
  6
Continuous
 62
     7
100
AcDbLine
 10
31.25
 20
-105.0
 30
0.0
 11
32.85759702866177
 21
-110.9996337890625
 31
0.0
  0
LINE
  5
F6
330
4A4
100
AcDbEntity
  8
DIMNSIONS
  6
Continuous
 62
     7
100
AcDbLine
 10
31.25
 20
-105.0
 30
0.0
 11
29.64240297133823
 21
-110.9996337890625
 31
0.0
  0
TEXT
  5
F7
330
4A4
100
AcDbEntity
  8
DIMNSIONS
 62
     7
100
AcDbText
 10
28.26833333333334
 20
-141.8333333333333
 30
0.0
 40
8.144205729166666
  1
52.5
 50
90.0
 41
0.7
 11
20.12412760416667
 21
-141.8333333333333
 31
0.0
100
AcDbText
 73
     3
  0
LINE
  5
F8
330
4A4
100
AcDbEntity
  8
DIMNSIONS
  6
Continuous
 62
     7
100
AcDbLine
 10
-118.3494151037981
 20
-101.9997702065181
 30
0.0
 11
-106.25
 21
-86.25
 31
0.0
  0
LINE
  5
F9
330
4A4
100
AcDbEntity
  8
DIMNSIONS
  6
Continuous
 62
     7
100
AcDbLine
 10
-118.3494151037981
 20
-101.9997702065181
 30
0.0
 11
-115.9224754598619
 21
-96.28225870463959
 31
0.0
  0
LINE
  5
FA
330
4A4
100
AcDbEntity
  8
DIMNSIONS
  6
Continuous
 62
     7
100
AcDbLine
 10
-118.3494151037981
 20
-101.9997702065181
 30
0.0
 11
-113.3888679677585
 21
-98.26172982142971
 31
0.0
  0
LINE
  5
FB
330
4A4
100
AcDbEntity
  8
DIMNSIONS
  6
Continuous
 62
     7
100
AcDbLine
 10
-106.25
 20
-86.25
 30
0.0
 11
-100.25
 21
-86.25
 31
0.0
  0
TEXT
  5
FC
330
4A4
100
AcDbEntity
  8
DIMNSIONS
 62
     7
100
AcDbText
 10
-100.25
 20
-90.06000000000002
 30
0.0
 40
8.144205729166666
  1
4×6長穴(6ヵ所)
 41
0.7
 11
-100.25
 21
-81.91579427083334
 31
0.0
100
AcDbText
 73
     3
  0
LINE
  5
FD
330
4A4
100
AcDbEntity
  8
DIMNSIONS
  6
Continuous
 62
     7
100
AcDbLine
 10
150.4005848962051
 20
-101.9997702065139
 30
0.0
 11
162.5
 21
-86.25
 31
0.0
  0
LINE
  5
FE
330
4A4
100
AcDbEntity
  8
DIMNSIONS
  6
Continuous
 62
     7
100
AcDbLine
 10
150.4005848962051
 20
-101.9997702065139
 30
0.0
 11
152.8275245401414
 21
-96.28225870463536
 31
0.0
  0
LINE
  5
FF
330
4A4
100
AcDbEntity
  8
DIMNSIONS
  6
Continuous
 62
     7
100
AcDbLine
 10
150.4005848962051
 20
-101.9997702065139
 30
0.0
 11
155.3611320322447
 21
-98.26172982142548
 31
0.0
  0
LINE
  5
100
330
4A4
100
AcDbEntity
  8
DIMNSIONS
  6
Continuous
 62
     7
100
AcDbLine
 10
162.5
 20
-86.25
 30
0.0
 11
168.5
 21
-86.25
 31
0.0
  0
TEXT
  5
101
330
4A4
100
AcDbEntity
  8
DIMNSIONS
 62
     7
100
AcDbText
 10
168.5
 20
-90.06000000000002
 30
0.0
 40
8.144205729166666
  1
4×6長穴(6ヵ所)
 41
0.7
 11
168.5
 21
-81.91579427083334
 31
0.0
100
AcDbText
 73
     3
  0
TEXT
  5
102
330
4A4
100
AcDbEntity
  8
DATA
 62
     7
100
AcDbText
 10
-262.5
 20
-359.353596111111
 30
0.0
 40
5.700944010416667
  1
※仕様及び外観は予告なく変更されることがあります。
 41
0.7
 11
-262.5
 21
-353.6526521006944
 31
0.0
100
AcDbText
 73
     3
  0
TEXT
  5
103
330
4A4
100
AcDbEntity
  8
DATA
 62
     7
100
AcDbText
 10
-262.5
 20
-366.7619294444444
 30
0.0
 40
5.700944010416667
  1
　また、同一商品でも若干の個体差があることがあります。ご了承ください。
 41
0.7
 11
-262.5
 21
-361.0609854340277
 31
0.0
100
AcDbText
 73
     3
  0
TEXT
  5
104
330
4A4
100
AcDbEntity
  8
DATA
 62
     7
100
AcDbText
 10
149.9999999999999
 20
-349.5897594444443
 30
0.0
 40
7.329785156249999
  1
GTB-UHD-HBT
 41
0.7
 11
149.9999999999999
 21
-342.2599742881943
 31
0.0
100
AcDbText
 73
     3
  0
TEXT
  5
105
330
4A4
100
AcDbEntity
  8
DATA
 62
     7
100
AcDbText
 10
149.9999999999999
 20
-327.8397594444444
 30
0.0
 40
7.329785156249999
  1
Gefen
 41
0.7
 11
149.9999999999999
 21
-320.5099742881944
 31
0.0
100
AcDbText
 73
     3
  0
TEXT
  5
106
330
4A4
100
AcDbEntity
  8
DATA
 62
     7
100
AcDbText
 10
49.60409105062582
 20
-296.0397783106456
 30
0.0
 40
8.144205729166666
  1
GTB-UHD-HBT-R(受信機)
 41
0.7
 72
     1
 11
99.77239834229248
 21
-291.9676754460622
 31
0.0
100
AcDbText
 73
     2
  0
LINE
  5
107
330
4A4
100
AcDbEntity
  8
DATA
  6
Continuous
 62
     7
100
AcDbLine
 10
38.125
 20
-300.0
 30
0.0
 11
158.125
 21
-300.0
 31
0.0
  0
TEXT
  5
108
330
4A4
100
AcDbEntity
  8
DATA
 62
     7
100
AcDbText
 10
-219.1459089493742
 20
-296.0397783106456
 30
0.0
 40
8.144205729166666
  1
GTB-UHD-HBT-R(送信機)
 41
0.7
 72
     1
 11
-168.9776016577075
 21
-291.9676754460622
 31
0.0
100
AcDbText
 73
     2
  0
LINE
  5
109
330
4A4
100
AcDbEntity
  8
DATA
  6
Continuous
 62
     7
100
AcDbLine
 10
-230.625
 20
-300.0
 30
0.0
 11
-110.625
 21
-300.0
 31
0.0
  0
LINE
  5
10A
330
4A4
100
AcDbEntity
  8
DATA
  6
Continuous
 62
     7
100
AcDbLine
 10
-223.75
 20
-48.0
 30
0.0
 11
-223.75
 21
-49.5
 31
0.0
  0
LINE
  5
10B
330
4A4
100
AcDbEntity
  8
DATA
  6
Continuous
 62
     7
100
AcDbLine
 10
-213.25
 20
-48.0
 30
0.0
 11
-223.75
 21
-48.0
 31
0.0
  0
LINE
  5
10C
330
4A4
100
AcDbEntity
  8
DATA
  6
Continuous
 62
     7
100
AcDbLine
 10
-113.75
 20
-49.5
 30
0.0
 11
-113.75
 21
-48.0
 31
0.0
  0
LINE
  5
10D
330
4A4
100
AcDbEntity
  8
DATA
  6
Continuous
 62
     7
100
AcDbLine
 10
-211.75
 20
-75.0
 30
0.0
 11
-125.75
 21
-75.0
 31
0.0
  0
LINE
  5
10E
330
4A4
100
AcDbEntity
  8
DATA
  6
Continuous
 62
     7
100
AcDbLine
 10
-213.25
 20
-73.5
 30
0.0
 11
-213.25
 21
-51.0
 31
0.0
  0
LINE
  5
10F
330
4A4
100
AcDbEntity
  8
DATA
  6
Continuous
 62
     7
100
AcDbLine
 10
-124.25
 20
-73.5
 30
0.0
 11
-124.25
 21
-51.0
 31
0.0
  0
LINE
  5
110
330
4A4
100
AcDbEntity
  8
DATA
  6
Continuous
 62
     7
100
AcDbLine
 10
-214.75
 20
-49.5
 30
0.0
 11
-223.75
 21
-49.5
 31
0.0
  0
LINE
  5
111
330
4A4
100
AcDbEntity
  8
DATA
  6
Continuous
 62
     7
100
AcDbLine
 10
-211.75
 20
-72.0
 30
0.0
 11
-211.75
 21
-48.0
 31
0.0
  0
LINE
  5
112
330
4A4
100
AcDbEntity
  8
DATA
  6
Continuous
 62
     7
100
AcDbLine
 10
-125.75
 20
-72.0
 30
0.0
 11
-125.75
 21
-48.0
 31
0.0
  0
ARC
  5
113
330
4A4
100
AcDbEntity
  8
DATA
  6
Continuous
 62
     7
100
AcDbCircle
 10
-214.75
 20
-51.0
 30
0.0
 40
1.5
100
AcDbArc
 50
0.0
 51
90.0
  0
ARC
  5
114
330
4A4
100
AcDbEntity
  8
DATA
  6
Continuous
 62
     7
100
AcDbCircle
 10
-213.25
 20
-49.5
 30
0.0
 40
1.5
100
AcDbArc
 50
0.0
 51
90.0
  0
LINE
  5
115
330
4A4
100
AcDbEntity
  8
DATA
  6
Continuous
 62
     7
100
AcDbLine
 10
-124.25
 20
-48.0
 30
0.0
 11
-113.75
 21
-48.0
 31
0.0
  0
LINE
  5
116
330
4A4
100
AcDbEntity
  8
DATA
  6
Continuous
 62
     7
100
AcDbLine
 10
-122.75
 20
-49.5
 30
0.0
 11
-113.75
 21
-49.5
 31
0.0
  0
ARC
  5
117
330
4A4
100
AcDbEntity
  8
DATA
  6
Continuous
 62
     7
100
AcDbCircle
 10
-122.75
 20
-51.0
 30
0.0
 40
1.5
100
AcDbArc
 50
90.0
 51
180.0
  0
ARC
  5
118
330
4A4
100
AcDbEntity
  8
DATA
  6
Continuous
 62
     7
100
AcDbCircle
 10
-124.25
 20
-49.5
 30
0.0
 40
1.5
100
AcDbArc
 50
90.0
 51
180.0
  0
LINE
  5
119
330
4A4
100
AcDbEntity
  8
DATA
  6
Continuous
 62
     7
100
AcDbLine
 10
-211.75
 20
-48.0
 30
0.0
 11
-125.75
 21
-48.0
 31
0.0
  0
ARC
  5
11A
330
4A4
100
AcDbEntity
  8
DATA
  6
Continuous
 62
     7
100
AcDbCircle
 10
-211.75
 20
-73.5
 30
0.0
 40
1.5
100
AcDbArc
 50
180.0
 51
270.0
  0
ARC
  5
11B
330
4A4
100
AcDbEntity
  8
DATA
  6
Continuous
 62
     7
100
AcDbCircle
 10
-125.75
 20
-73.5
 30
0.0
 40
1.5
100
AcDbArc
 50
270.0
 51
0.0
  0
CIRCLE
  5
11C
330
4A4
100
AcDbEntity
  8
DATA
  6
Continuous
 62
     7
100
AcDbCircle
 10
-142.25
 20
-62.0
 30
0.0
 40
6.450000000000045
  0
LWPOLYLINE
  5
11D
330
4A4
100
AcDbEntity
  8
DATA
  6
Continuous
 62
     7
100
AcDbPolyline
 90
        6
 70
     1
 43
0.0
 10
-169.75
 20
-66.55662432702593
 10
-172.25
 20
-65.11324865405185
 10
-174.75
 20
-66.55662432702593
 10
-174.75
 20
-69.44337567297407
 10
-172.25
 20
-70.88675134594814
 10
-169.75
 20
-69.44337567297407
  0
LWPOLYLINE
  5
126
330
4A4
100
AcDbEntity
  8
DATA
  6
Continuous
 62
     7
100
AcDbPolyline
 90
        4
 70
     0
 43
0.0
 10
-180.25
 20
-57.51590123757103
 10
-180.25
 20
-61.51590123757102
 10
-164.25
 20
-61.51590123757102
 10
-164.25
 20
-57.51590123757103
  0
LINE
  5
12D
330
4A4
100
AcDbEntity
  8
DATA
  6
Continuous
 62
     7
100
AcDbLine
 10
-166.7500000000003
 20
-55.51590123757103
 30
0.0
 11
-177.7499999999996
 21
-55.51590123757103
 31
0.0
  0
ARC
  5
12E
330
4A4
100
AcDbEntity
  8
DATA
  6
Continuous
 62
     7
100
AcDbCircle
 10
-181.5191836734693
 20
-53.36692164573435
 30
0.0
 40
4.338762363909595
100
AcDbArc
 50
287.0090081320969
 51
330.3106083760832
  0
ARC
  5
12F
330
4A4
100
AcDbEntity
  8
DATA
  6
Continuous
 62
     7
100
AcDbCircle
 10
-162.9808163265305
 20
-53.36692164573435
 30
0.0
 40
4.338762363909694
100
AcDbArc
 50
209.689391623916
 51
252.9909918679017
  0
CIRCLE
  5
130
330
4A4
100
AcDbEntity
  8
DATA
  6
Continuous
 62
     7
100
AcDbCircle
 10
-172.25
 20
-68.0
 30
0.0
 40
1.200000000000045
  0
LINE
  5
131
330
4A4
100
AcDbEntity
  8
DATA
  6
Continuous
 62
     7
100
AcDbLine
 10
-201.25
 20
-61.51590123757102
 30
0.0
 11
-201.25
 21
-54.11590123757105
 31
0.0
  0
LINE
  5
132
330
4A4
100
AcDbEntity
  8
DATA
  6
Continuous
 62
     7
100
AcDbLine
 10
-189.35
 20
-61.51590123757102
 30
0.0
 11
-201.25
 21
-61.51590123757102
 31
0.0
  0
LINE
  5
133
330
4A4
100
AcDbEntity
  8
DATA
  6
Continuous
 62
     7
100
AcDbLine
 10
-189.35
 20
-54.11590123757105
 30
0.0
 11
-189.35
 21
-61.51590123757102
 31
0.0
  0
LINE
  5
134
330
4A4
100
AcDbEntity
  8
DATA
  6
Continuous
 62
     7
100
AcDbLine
 10
-201.25
 20
-54.11590123757105
 30
0.0
 11
-189.35
 21
-54.11590123757105
 31
0.0
  0
LWPOLYLINE
  5
135
330
4A4
100
AcDbEntity
  8
DATA
  6
Continuous
 62
     7
100
AcDbPolyline
 90
        4
 70
     1
 43
0.0
 10
-199.0499999999999
 20
-56.86590123757105
 10
-198.5499999999999
 20
-56.86590123757105
 10
-198.5499999999999
 20
-57.36590123757105
 10
-199.0499999999999
 20
-57.36590123757105
  0
LWPOLYLINE
  5
13C
330
4A4
100
AcDbEntity
  8
DATA
  6
Continuous
 62
     7
100
AcDbPolyline
 90
        4
 70
     1
 43
0.0
 10
-195.5499999999999
 20
-56.86590123757105
 10
-195.0499999999999
 20
-56.86590123757105
 10
-195.0499999999999
 20
-57.36590123757105
 10
-195.5499999999999
 20
-57.36590123757105
  0
LWPOLYLINE
  5
143
330
4A4
100
AcDbEntity
  8
DATA
  6
Continuous
 62
     7
100
AcDbPolyline
 90
        4
 70
     1
 43
0.0
 10
-192.0499999999999
 20
-56.86590123757105
 10
-191.5499999999999
 20
-56.86590123757105
 10
-191.5499999999999
 20
-57.36590123757105
 10
-192.0499999999999
 20
-57.36590123757105
  0
LINE
  5
14A
330
4A4
100
AcDbEntity
  8
DATA
  6
Continuous
 62
     7
100
AcDbLine
 10
-200.25
 20
-55.11590123757105
 30
0.0
 11
-197.2
 21
-55.11590123757105
 31
0.0
  0
LINE
  5
14B
330
4A4
100
AcDbEntity
  8
DATA
  6
Continuous
 62
     7
100
AcDbLine
 10
-196.9
 20
-55.11590123757105
 30
0.0
 11
-193.7
 21
-55.11590123757105
 31
0.0
  0
LINE
  5
14C
330
4A4
100
AcDbEntity
  8
DATA
  6
Continuous
 62
     7
100
AcDbLine
 10
-193.4
 20
-55.11590123757105
 30
0.0
 11
-190.35
 21
-55.11590123757105
 31
0.0
  0
LINE
  5
14D
330
4A4
100
AcDbEntity
  8
DATA
  6
Continuous
 62
     7
100
AcDbLine
 10
-200.25
 20
-60.71590123757107
 30
0.0
 11
-200.25
 21
-60.45991545153236
 31
0.0
  0
LINE
  5
14E
330
4A4
100
AcDbEntity
  8
DATA
  6
Continuous
 62
     7
100
AcDbLine
 10
-200.25
 20
-59.11590123757105
 30
0.0
 11
-200.25
 21
-55.11590123757105
 31
0.0
  0
LINE
  5
14F
330
4A4
100
AcDbEntity
  8
DATA
  6
Continuous
 62
     7
100
AcDbLine
 10
-190.35
 20
-55.11590123757105
 30
0.0
 11
-190.35
 21
-59.11590123757105
 31
0.0
  0
LINE
  5
150
330
4A4
100
AcDbEntity
  8
DATA
  6
Continuous
 62
     7
100
AcDbLine
 10
-190.35
 20
-60.45991545153236
 30
0.0
 11
-190.35
 21
-60.71590123757107
 31
0.0
  0
LINE
  5
151
330
4A4
100
AcDbEntity
  8
DATA
  6
Continuous
 62
     7
100
AcDbLine
 10
-200.25
 20
-59.11590123757105
 30
0.0
 11
-199.5
 21
-59.11590123757105
 31
0.0
  0
LINE
  5
152
330
4A4
100
AcDbEntity
  8
DATA
  6
Continuous
 62
     7
100
AcDbLine
 10
-198.1
 20
-59.11590123757105
 30
0.0
 11
-197.2
 21
-59.11590123757105
 31
0.0
  0
LINE
  5
153
330
4A4
100
AcDbEntity
  8
DATA
  6
Continuous
 62
     7
100
AcDbLine
 10
-196.9
 20
-59.11590123757105
 30
0.0
 11
-196.0
 21
-59.11590123757105
 31
0.0
  0
LINE
  5
154
330
4A4
100
AcDbEntity
  8
DATA
  6
Continuous
 62
     7
100
AcDbLine
 10
-194.6000000000001
 20
-59.11590123757105
 30
0.0
 11
-193.7
 21
-59.11590123757105
 31
0.0
  0
LINE
  5
155
330
4A4
100
AcDbEntity
  8
DATA
  6
Continuous
 62
     7
100
AcDbLine
 10
-193.4
 20
-59.11590123757105
 30
0.0
 11
-192.5
 21
-59.11590123757105
 31
0.0
  0
LINE
  5
156
330
4A4
100
AcDbEntity
  8
DATA
  6
Continuous
 62
     7
100
AcDbLine
 10
-191.0999999999999
 20
-59.11590123757105
 30
0.0
 11
-190.35
 21
-59.11590123757105
 31
0.0
  0
LINE
  5
157
330
4A4
100
AcDbEntity
  8
DATA
  6
Continuous
 62
     7
100
AcDbLine
 10
-190.3500000000001
 20
-60.71590123757107
 30
0.0
 11
-193.3928477002213
 21
-60.71590123757107
 31
0.0
  0
LINE
  5
158
330
4A4
100
AcDbEntity
  8
DATA
  6
Continuous
 62
     7
100
AcDbLine
 10
-193.7071522997789
 20
-60.71590123757107
 30
0.0
 11
-196.8928477002212
 21
-60.71590123757107
 31
0.0
  0
LINE
  5
159
330
4A4
100
AcDbEntity
  8
DATA
  6
Continuous
 62
     7
100
AcDbLine
 10
-197.2071522997787
 20
-60.71590123757107
 30
0.0
 11
-200.25
 21
-60.71590123757107
 31
0.0
  0
LINE
  5
15A
330
4A4
100
AcDbEntity
  8
DATA
  6
Continuous
 62
     7
100
AcDbLine
 10
-198.7999999999999
 20
-55.11590123757105
 30
0.0
 11
-197.2
 21
-55.11590123757105
 31
0.0
  0
LINE
  5
15B
330
4A4
100
AcDbEntity
  8
DATA
  6
Continuous
 62
     7
100
AcDbLine
 10
-196.9
 20
-55.11590123757105
 30
0.0
 11
-195.2999999999999
 21
-55.11590123757105
 31
0.0
  0
LINE
  5
15C
330
4A4
100
AcDbEntity
  8
DATA
  6
Continuous
 62
     7
100
AcDbLine
 10
-198.1
 20
-59.11590123757105
 30
0.0
 11
-197.2071522997787
 21
-60.71590123757107
 31
0.0
  0
LINE
  5
15D
330
4A4
100
AcDbEntity
  8
DATA
  6
Continuous
 62
     7
100
AcDbLine
 10
-196.0
 20
-59.11590123757105
 30
0.0
 11
-196.8928477002212
 21
-60.71590123757107
 31
0.0
  0
LINE
  5
15E
330
4A4
100
AcDbEntity
  8
DATA
  6
Continuous
 62
     7
100
AcDbLine
 10
-192.5
 20
-59.11590123757105
 30
0.0
 11
-193.3928477002211
 21
-60.71590123757107
 31
0.0
  0
LINE
  5
15F
330
4A4
100
AcDbEntity
  8
DATA
  6
Continuous
 62
     7
100
AcDbLine
 10
-194.6
 20
-59.11590123757105
 30
0.0
 11
-193.7071522997787
 21
-60.71590123757107
 31
0.0
  0
LINE
  5
160
330
4A4
100
AcDbEntity
  8
DATA
  6
Continuous
 62
     7
100
AcDbLine
 10
-199.5
 20
-59.11590123757105
 30
0.0
 11
-200.25
 21
-60.45991545153236
 31
0.0
  0
LINE
  5
161
330
4A4
100
AcDbEntity
  8
DATA
  6
Continuous
 62
     7
100
AcDbLine
 10
-191.1
 20
-59.11590123757105
 30
0.0
 11
-190.35
 21
-60.45991545153236
 31
0.0
  0
LINE
  5
162
330
4A4
100
AcDbEntity
  8
DATA
  6
Continuous
 62
     7
100
AcDbLine
 10
-197.2
 20
-55.11590123757105
 30
0.0
 11
-197.2
 21
-59.11590123757105
 31
0.0
  0
LINE
  5
163
330
4A4
100
AcDbEntity
  8
DATA
  6
Continuous
 62
     7
100
AcDbLine
 10
-196.9
 20
-55.11590123757105
 30
0.0
 11
-196.9
 21
-59.11590123757105
 31
0.0
  0
LINE
  5
164
330
4A4
100
AcDbEntity
  8
DATA
  6
Continuous
 62
     7
100
AcDbLine
 10
-193.4
 20
-55.11590123757105
 30
0.0
 11
-193.4
 21
-59.11590123757105
 31
0.0
  0
LINE
  5
165
330
4A4
100
AcDbEntity
  8
DATA
  6
Continuous
 62
     7
100
AcDbLine
 10
-193.7
 20
-55.11590123757105
 30
0.0
 11
-193.7
 21
-59.11590123757105
 31
0.0
  0
LINE
  5
166
330
4A4
100
AcDbEntity
  8
DATA
  6
Continuous
 62
     7
100
AcDbLine
 10
-177.1499999999999
 20
-58.21350514072594
 30
0.0
 11
-177.1499999999999
 21
-57.81350514072596
 31
0.0
  0
LINE
  5
167
330
4A4
100
AcDbEntity
  8
DATA
  6
Continuous
 62
     7
100
AcDbLine
 10
-167.3499999999999
 20
-58.21350514072594
 30
0.0
 11
-177.1499999999999
 21
-58.21350514072594
 31
0.0
  0
LINE
  5
168
330
4A4
100
AcDbEntity
  8
DATA
  6
Continuous
 62
     7
100
AcDbLine
 10
-167.3499999999999
 20
-57.81350514072596
 30
0.0
 11
-167.3499999999999
 21
-58.21350514072594
 31
0.0
  0
LINE
  5
169
330
4A4
100
AcDbEntity
  8
DATA
  6
Continuous
 62
     7
100
AcDbLine
 10
-177.1499999999999
 20
-57.81350514072596
 30
0.0
 11
-167.3499999999999
 21
-57.81350514072596
 31
0.0
  0
CIRCLE
  5
16A
330
4A4
100
AcDbEntity
  8
DATA
  6
Continuous
 62
     7
100
AcDbCircle
 10
-144.0499999999999
 20
-60.19999999999999
 30
0.0
 40
0.75
  0
CIRCLE
  5
16B
330
4A4
100
AcDbEntity
  8
DATA
  6
Continuous
 62
     7
100
AcDbCircle
 10
-140.45
 20
-60.19999999999999
 30
0.0
 40
0.75
  0
CIRCLE
  5
16C
330
4A4
100
AcDbEntity
  8
DATA
  6
Continuous
 62
     7
100
AcDbCircle
 10
-144.0499999999999
 20
-63.80000000000001
 30
0.0
 40
0.75
  0
CIRCLE
  5
16D
330
4A4
100
AcDbEntity
  8
DATA
  6
Continuous
 62
     7
100
AcDbCircle
 10
-140.45
 20
-63.80000000000001
 30
0.0
 40
0.75
  0
CIRCLE
  5
16E
330
4A4
100
AcDbEntity
  8
DATA
  6
Continuous
 62
     7
100
AcDbCircle
 10
-142.25
 20
-62.0
 30
0.0
 40
4.950000000000045
  0
ARC
  5
16F
330
4A4
100
AcDbEntity
  8
DATA
  6
Continuous
 62
     7
100
AcDbCircle
 10
-142.25
 20
-62.00000000000023
 30
0.0
 40
4.550000000000288
100
AcDbArc
 50
128.7192973222391
 51
167.3038754226971
  0
ARC
  5
170
330
4A4
100
AcDbEntity
  8
DATA
  6
Continuous
 62
     7
100
AcDbCircle
 10
-142.25
 20
-62.00000000000023
 30
0.0
 40
4.550000000000231
100
AcDbArc
 50
192.6961245773029
 51
252.7402973585298
  0
ARC
  5
171
330
4A4
100
AcDbEntity
  8
DATA
  6
Continuous
 62
     7
100
AcDbCircle
 10
-142.25
 20
-62.00000000000023
 30
0.0
 40
4.550000000000217
100
AcDbArc
 50
287.2597026414717
 51
347.303875422697
  0
ARC
  5
172
330
4A4
100
AcDbEntity
  8
DATA
  6
Continuous
 62
     7
100
AcDbCircle
 10
-142.25
 20
-62.00000000000023
 30
0.0
 40
4.550000000000231
100
AcDbArc
 50
12.69612457730288
 51
51.28070267776111
  0
LINE
  5
173
330
4A4
100
AcDbEntity
  8
DATA
  6
Continuous
 62
     7
100
AcDbLine
 10
-145.0960498941516
 20
-58.44999999999998
 30
0.0
 11
-139.4039501058484
 21
-58.44999999999998
 31
0.0
  0
LINE
  5
174
330
4A4
100
AcDbEntity
  8
DATA
  6
Continuous
 62
     7
100
AcDbLine
 10
-140.8999999999998
 20
-65.14999999999997
 30
0.0
 11
-140.8999999999998
 21
-66.3451121964805
 31
0.0
  0
LINE
  5
175
330
4A4
100
AcDbEntity
  8
DATA
  6
Continuous
 62
     7
100
AcDbLine
 10
-143.5999999999999
 20
-65.14999999999997
 30
0.0
 11
-140.8999999999998
 21
-65.14999999999997
 31
0.0
  0
LINE
  5
176
330
4A4
100
AcDbEntity
  8
DATA
  6
Continuous
 62
     7
100
AcDbLine
 10
-143.5999999999999
 20
-66.34511219648061
 30
0.0
 11
-143.5999999999999
 21
-65.14999999999997
 31
0.0
  0
LINE
  5
177
330
4A4
100
AcDbEntity
  8
DATA
  6
Continuous
 62
     7
100
AcDbLine
 10
-145.9250000000001
 20
-61.00000000000022
 30
0.0
 11
-146.6887498239934
 21
-61.00000000000022
 31
0.0
  0
LINE
  5
178
330
4A4
100
AcDbEntity
  8
DATA
  6
Continuous
 62
     7
100
AcDbLine
 10
-145.9250000000001
 20
-63.00000000000022
 30
0.0
 11
-146.6887498239934
 21
-63.00000000000022
 31
0.0
  0
LINE
  5
179
330
4A4
100
AcDbEntity
  8
DATA
  6
Continuous
 62
     7
100
AcDbLine
 10
-145.9250000000001
 20
-63.00000000000022
 30
0.0
 11
-145.9250000000001
 21
-61.00000000000022
 31
0.0
  0
LINE
  5
17A
330
4A4
100
AcDbEntity
  8
DATA
  6
Continuous
 62
     7
100
AcDbLine
 10
-138.575
 20
-61.00000000000022
 30
0.0
 11
-137.8112501760065
 21
-61.00000000000022
 31
0.0
  0
LINE
  5
17B
330
4A4
100
AcDbEntity
  8
DATA
  6
Continuous
 62
     7
100
AcDbLine
 10
-138.575
 20
-63.00000000000022
 30
0.0
 11
-137.8112501760065
 21
-63.00000000000022
 31
0.0
  0
LINE
  5
17C
330
4A4
100
AcDbEntity
  8
DATA
  6
Continuous
 62
     7
100
AcDbLine
 10
-138.575
 20
-63.00000000000022
 30
0.0
 11
-138.575
 21
-61.00000000000022
 31
0.0
  0
LINE
  5
17D
330
4A4
100
AcDbEntity
  8
DATA
  6
Continuous
 62
     7
100
AcDbLine
 10
-142.5499999999999
 20
-57.05909927239986
 30
0.0
 11
-142.5499999999999
 21
-55.55698052152565
 31
0.0
  0
LINE
  5
17E
330
4A4
100
AcDbEntity
  8
DATA
  6
Continuous
 62
     7
100
AcDbLine
 10
-141.95
 20
-55.55698052152565
 30
0.0
 11
-141.95
 21
-57.05909927239986
 31
0.0
  0
CIRCLE
  5
17F
330
4A4
100
AcDbEntity
  8
DATA
  6
Continuous
 62
     7
100
AcDbCircle
 10
-142.25
 20
-62.00000000000023
 30
0.0
 40
5.050000000000181
  0
TEXT
  5
180
330
4A4
100
AcDbEntity
  8
DATA
 62
     7
100
AcDbText
 10
-190.1436474210776
 20
-49.79400865380842
 30
0.0
 40
2.606145833333332
  1
RS-232
 50
180.0
 41
0.7
 72
     1
 11
-195.3125033238554
 21
-51.09708157047509
 31
0.0
100
AcDbText
 73
     2
  0
TEXT
  5
181
330
4A4
100
AcDbEntity
  8
DATA
 62
     7
100
AcDbText
 10
-166.7991590953287
 20
-49.79400865380842
 30
0.0
 40
2.606145833333332
  1
HDMI-In
 50
180.0
 41
0.7
 72
     1
 11
-172.2720653453287
 21
-51.09708157047509
 31
0.0
100
AcDbText
 73
     2
  0
TEXT
  5
182
330
4A4
100
AcDbEntity
  8
DATA
 62
     7
100
AcDbText
 10
-137.1422205856517
 20
-49.79400865380842
 30
0.0
 40
2.606145833333332
  1
24V DC
 50
180.0
 41
0.7
 72
     1
 11
-142.250266418985
 21
-51.09708157047509
 31
0.0
100
AcDbText
 73
     2
  0
LINE
  5
183
330
4A4
100
AcDbEntity
  8
DATA
  6
Continuous
 62
     7
100
AcDbLine
 10
-210.25
 20
-73.5
 30
0.0
 11
-127.25
 21
-73.5
 31
0.0
  0
ARC
  5
184
330
4A4
100
AcDbEntity
  8
DATA
  6
Continuous
 62
     7
100
AcDbCircle
 10
-210.25
 20
-72.0
 30
0.0
 40
1.5
100
AcDbArc
 50
180.0
 51
270.0
  0
ARC
  5
185
330
4A4
100
AcDbEntity
  8
DATA
  6
Continuous
 62
     7
100
AcDbCircle
 10
-127.25
 20
-72.0
 30
0.0
 40
1.5
100
AcDbArc
 50
270.0
 51
0.0
  0
LINE
  5
186
330
4A4
100
AcDbEntity
  8
DATA
  6
Continuous
 62
     7
100
AcDbLine
 10
-223.75
 20
-167.75
 30
0.0
 11
-223.75
 21
-94.74999999999999
 31
0.0
  0
LINE
  5
187
330
4A4
100
AcDbEntity
  8
DATA
  6
Continuous
 62
     7
100
AcDbLine
 10
-119.75
 20
-173.75
 30
0.0
 11
-217.75
 21
-173.75
 31
0.0
  0
LINE
  5
188
330
4A4
100
AcDbEntity
  8
DATA
  6
Continuous
 62
     7
100
AcDbLine
 10
-113.75
 20
-167.75
 30
0.0
 11
-113.75
 21
-94.74999999999999
 31
0.0
  0
LINE
  5
189
330
4A4
100
AcDbEntity
  8
DATA
  6
Continuous
 62
     7
100
AcDbLine
 10
-119.75
 20
-88.75
 30
0.0
 11
-217.75
 21
-88.75
 31
0.0
  0
LINE
  5
18A
330
4A4
100
AcDbEntity
  8
DATA
  6
Continuous
 62
     7
100
AcDbLine
 10
-213.25
 20
-173.75
 30
0.0
 11
-213.25
 21
-88.75
 31
0.0
  0
LINE
  5
18B
330
4A4
100
AcDbEntity
  8
DATA
  6
Continuous
 62
     7
100
AcDbLine
 10
-124.25
 20
-173.75
 30
0.0
 11
-124.25
 21
-88.75
 31
0.0
  0
LINE
  5
18C
330
4A4
100
AcDbEntity
  8
DATA
  6
Continuous
 62
     7
100
AcDbLine
 10
-201.25
 20
-174.55
 30
0.0
 11
-185.25
 21
-174.55
 31
0.0
  0
LINE
  5
18D
330
4A4
100
AcDbEntity
  8
DATA
  6
Continuous
 62
     7
100
AcDbLine
 10
-201.25
 20
-174.55
 30
0.0
 11
-201.25
 21
-173.75
 31
0.0
  0
LINE
  5
18E
330
4A4
100
AcDbEntity
  8
DATA
  6
Continuous
 62
     7
100
AcDbLine
 10
-185.25
 20
-174.55
 30
0.0
 11
-185.25
 21
-173.75
 31
0.0
  0
ARC
  5
18F
330
4A4
100
AcDbEntity
  8
DATA
  6
Continuous
 62
     7
100
AcDbCircle
 10
-217.75
 20
-94.74999999999999
 30
0.0
 40
6.0
100
AcDbArc
 50
90.0
 51
180.0
  0
ARC
  5
190
330
4A4
100
AcDbEntity
  8
DATA
  6
Continuous
 62
     7
100
AcDbCircle
 10
-119.75
 20
-94.74999999999999
 30
0.0
 40
6.0
100
AcDbArc
 50
0.0
 51
90.0
  0
ARC
  5
191
330
4A4
100
AcDbEntity
  8
DATA
  6
Continuous
 62
     7
100
AcDbCircle
 10
-217.75
 20
-167.75
 30
0.0
 40
6.0
100
AcDbArc
 50
180.0
 51
270.0
  0
ARC
  5
192
330
4A4
100
AcDbEntity
  8
DATA
  6
Continuous
 62
     7
100
AcDbCircle
 10
-119.75
 20
-167.75
 30
0.0
 40
6.0
100
AcDbArc
 50
270.0
 51
0.0
  0
LINE
  5
193
330
4A4
100
AcDbEntity
  8
DATA
  6
Continuous
 62
     7
100
AcDbLine
 10
-157.25
 20
-173.95
 30
0.0
 11
-157.25
 21
-173.75
 31
0.0
  0
LINE
  5
194
330
4A4
100
AcDbEntity
  8
DATA
  6
Continuous
 62
     7
100
AcDbLine
 10
-152.25
 20
-173.95
 30
0.0
 11
-152.25
 21
-173.75
 31
0.0
  0
LINE
  5
195
330
4A4
100
AcDbEntity
  8
DATA
  6
Continuous
 62
     7
100
AcDbLine
 10
-144.75
 20
-173.95
 30
0.0
 11
-144.75
 21
-173.75
 31
0.0
  0
LINE
  5
196
330
4A4
100
AcDbEntity
  8
DATA
  6
Continuous
 62
     7
100
AcDbLine
 10
-139.75
 20
-173.95
 30
0.0
 11
-139.75
 21
-173.75
 31
0.0
  0
LINE
  5
197
330
4A4
100
AcDbEntity
  8
DATA
  6
Continuous
 62
     7
100
AcDbLine
 10
-157.25
 20
-173.95
 30
0.0
 11
-152.25
 21
-173.95
 31
0.0
  0
LINE
  5
198
330
4A4
100
AcDbEntity
  8
DATA
  6
Continuous
 62
     7
100
AcDbLine
 10
-144.75
 20
-173.95
 30
0.0
 11
-139.75
 21
-173.95
 31
0.0
  0
LINE
  5
199
330
4A4
100
AcDbEntity
  8
DATA
  6
Continuous
 62
     7
100
AcDbLine
 10
-174.75
 20
-82.75
 30
0.0
 11
-169.75
 21
-82.75
 31
0.0
  0
LINE
  5
19A
330
4A4
100
AcDbEntity
  8
DATA
  6
Continuous
 62
     7
100
AcDbLine
 10
-172.25
 20
-88.75
 30
0.0
 11
-172.25
 21
-82.75
 31
0.0
  0
LINE
  5
19B
330
4A4
100
AcDbEntity
  8
DATA
  6
Continuous
 62
     7
100
AcDbLine
 10
-174.75
 20
-88.75
 30
0.0
 11
-174.75
 21
-82.75
 31
0.0
  0
LINE
  5
19C
330
4A4
100
AcDbEntity
  8
DATA
  6
Continuous
 62
     7
100
AcDbLine
 10
-169.75
 20
-82.75
 30
0.0
 11
-169.75
 21
-88.75
 31
0.0
  0
LINE
  5
19D
330
4A4
100
AcDbEntity
  8
DATA
  6
STYLE_07
 62
     7
100
AcDbLine
 10
-231.25
 20
-131.25
 30
0.0
 11
-106.25
 21
-131.25
 31
0.0
  0
LINE
  5
19E
330
4A4
100
AcDbEntity
  8
DATA
  6
Continuous
 62
     7
100
AcDbLine
 10
-201.25
 20
-88.25000000000001
 30
0.0
 11
-201.25
 21
-88.75
 31
0.0
  0
LINE
  5
19F
330
4A4
100
AcDbEntity
  8
DATA
  6
Continuous
 62
     7
100
AcDbLine
 10
-189.35
 20
-88.25000000000001
 30
0.0
 11
-189.35
 21
-88.75
 31
0.0
  0
LINE
  5
1A0
330
4A4
100
AcDbEntity
  8
DATA
  6
Continuous
 62
     7
100
AcDbLine
 10
-201.25
 20
-88.25000000000001
 30
0.0
 11
-189.35
 21
-88.25000000000001
 31
0.0
  0
ARC
  5
1A1
330
4A4
100
AcDbEntity
  8
DATA
  6
Continuous
 62
     7
100
AcDbCircle
 10
-154.25
 20
-89.0214802935945
 30
0.0
 40
1.499999999999967
100
AcDbArc
 50
10.42724701741206
 51
169.572752982588
  0
LINE
  5
1A2
330
4A4
100
AcDbEntity
  8
DATA
  6
Continuous
 62
     7
100
AcDbLine
 10
-148.7
 20
-88.45
 30
0.0
 11
-148.7
 21
-88.75
 31
0.0
  0
LINE
  5
1A3
330
4A4
100
AcDbEntity
  8
DATA
  6
Continuous
 62
     7
100
AcDbLine
 10
-135.7999999999999
 20
-88.45
 30
0.0
 11
-135.7999999999999
 21
-88.75
 31
0.0
  0
LINE
  5
1A4
330
4A4
100
AcDbEntity
  8
DATA
  6
Continuous
 62
     7
100
AcDbLine
 10
-148.7
 20
-88.45
 30
0.0
 11
-135.7999999999999
 21
-88.45
 31
0.0
  0
ARC
  5
1A5
330
4A4
100
AcDbEntity
  8
DATA
  6
Continuous
 62
     7
100
AcDbCircle
 10
-218.25
 20
-104.0
 30
0.0
 40
2.0
100
AcDbArc
 50
0.0
 51
180.0
  0
ARC
  5
1A6
330
4A4
100
AcDbEntity
  8
DATA
  6
Continuous
 62
     7
100
AcDbCircle
 10
-218.25
 20
-106.0
 30
0.0
 40
2.0
100
AcDbArc
 50
180.0
 51
0.0
  0
LINE
  5
1A7
330
4A4
100
AcDbEntity
  8
DATA
  6
Continuous
 62
     7
100
AcDbLine
 10
-220.25
 20
-106.0
 30
0.0
 11
-220.25
 21
-104.0
 31
0.0
  0
LINE
  5
1A8
330
4A4
100
AcDbEntity
  8
DATA
  6
Continuous
 62
     7
100
AcDbLine
 10
-216.25
 20
-106.0
 30
0.0
 11
-216.25
 21
-104.0
 31
0.0
  0
ARC
  5
1A9
330
4A4
100
AcDbEntity
  8
DATA
  6
Continuous
 62
     7
100
AcDbCircle
 10
-119.25
 20
-104.0
 30
0.0
 40
2.0
100
AcDbArc
 50
0.0
 51
180.0
  0
ARC
  5
1AA
330
4A4
100
AcDbEntity
  8
DATA
  6
Continuous
 62
     7
100
AcDbCircle
 10
-119.25
 20
-106.0
 30
0.0
 40
2.0
100
AcDbArc
 50
180.0
 51
0.0
  0
LINE
  5
1AB
330
4A4
100
AcDbEntity
  8
DATA
  6
Continuous
 62
     7
100
AcDbLine
 10
-117.25
 20
-106.0
 30
0.0
 11
-117.25
 21
-104.0
 31
0.0
  0
LINE
  5
1AC
330
4A4
100
AcDbEntity
  8
DATA
  6
Continuous
 62
     7
100
AcDbLine
 10
-121.25
 20
-106.0
 30
0.0
 11
-121.25
 21
-104.0
 31
0.0
  0
ARC
  5
1AD
330
4A4
100
AcDbEntity
  8
DATA
  6
Continuous
 62
     7
100
AcDbCircle
 10
-218.25
 20
-158.5
 30
0.0
 40
2.0
100
AcDbArc
 50
180.0
 51
0.0
  0
ARC
  5
1AE
330
4A4
100
AcDbEntity
  8
DATA
  6
Continuous
 62
     7
100
AcDbCircle
 10
-218.25
 20
-156.5
 30
0.0
 40
2.0
100
AcDbArc
 50
0.0
 51
180.0
  0
LINE
  5
1AF
330
4A4
100
AcDbEntity
  8
DATA
  6
Continuous
 62
     7
100
AcDbLine
 10
-220.25
 20
-156.5
 30
0.0
 11
-220.25
 21
-158.5
 31
0.0
  0
LINE
  5
1B0
330
4A4
100
AcDbEntity
  8
DATA
  6
Continuous
 62
     7
100
AcDbLine
 10
-216.25
 20
-156.5
 30
0.0
 11
-216.25
 21
-158.5
 31
0.0
  0
ARC
  5
1B1
330
4A4
100
AcDbEntity
  8
DATA
  6
Continuous
 62
     7
100
AcDbCircle
 10
-119.25
 20
-158.5
 30
0.0
 40
2.0
100
AcDbArc
 50
180.0
 51
0.0
  0
ARC
  5
1B2
330
4A4
100
AcDbEntity
  8
DATA
  6
Continuous
 62
     7
100
AcDbCircle
 10
-119.25
 20
-156.5
 30
0.0
 40
2.0
100
AcDbArc
 50
0.0
 51
180.0
  0
LINE
  5
1B3
330
4A4
100
AcDbEntity
  8
DATA
  6
Continuous
 62
     7
100
AcDbLine
 10
-117.25
 20
-156.5
 30
0.0
 11
-117.25
 21
-158.5
 31
0.0
  0
LINE
  5
1B4
330
4A4
100
AcDbEntity
  8
DATA
  6
Continuous
 62
     7
100
AcDbLine
 10
-121.25
 20
-156.5
 30
0.0
 11
-121.25
 21
-158.5
 31
0.0
  0
ARC
  5
1B5
330
4A4
100
AcDbEntity
  8
DATA
  6
Continuous
 62
     7
100
AcDbCircle
 10
-218.25
 20
-130.25
 30
0.0
 40
2.0
100
AcDbArc
 50
0.0
 51
180.0
  0
ARC
  5
1B6
330
4A4
100
AcDbEntity
  8
DATA
  6
Continuous
 62
     7
100
AcDbCircle
 10
-218.25
 20
-132.25
 30
0.0
 40
2.0
100
AcDbArc
 50
180.0
 51
0.0
  0
LINE
  5
1B7
330
4A4
100
AcDbEntity
  8
DATA
  6
Continuous
 62
     7
100
AcDbLine
 10
-220.25
 20
-132.25
 30
0.0
 11
-220.25
 21
-130.25
 31
0.0
  0
LINE
  5
1B8
330
4A4
100
AcDbEntity
  8
DATA
  6
Continuous
 62
     7
100
AcDbLine
 10
-216.25
 20
-132.25
 30
0.0
 11
-216.25
 21
-130.25
 31
0.0
  0
ARC
  5
1B9
330
4A4
100
AcDbEntity
  8
DATA
  6
Continuous
 62
     7
100
AcDbCircle
 10
-119.25
 20
-130.25
 30
0.0
 40
2.0
100
AcDbArc
 50
0.0
 51
180.0
  0
ARC
  5
1BA
330
4A4
100
AcDbEntity
  8
DATA
  6
Continuous
 62
     7
100
AcDbCircle
 10
-119.25
 20
-132.25
 30
0.0
 40
2.0
100
AcDbArc
 50
180.0
 51
0.0
  0
LINE
  5
1BB
330
4A4
100
AcDbEntity
  8
DATA
  6
Continuous
 62
     7
100
AcDbLine
 10
-117.25
 20
-132.25
 30
0.0
 11
-117.25
 21
-130.25
 31
0.0
  0
LINE
  5
1BC
330
4A4
100
AcDbEntity
  8
DATA
  6
Continuous
 62
     7
100
AcDbLine
 10
-121.25
 20
-132.25
 30
0.0
 11
-121.25
 21
-130.25
 31
0.0
  0
LINE
  5
1BD
330
4A4
100
AcDbEntity
  8
DATA
  6
Continuous
 62
     7
100
AcDbLine
 10
-223.75
 20
-250.0
 30
0.0
 11
-223.75
 21
-248.5
 31
0.0
  0
LINE
  5
1BE
330
4A4
100
AcDbEntity
  8
DATA
  6
Continuous
 62
     7
100
AcDbLine
 10
-213.25
 20
-250.0
 30
0.0
 11
-223.75
 21
-250.0
 31
0.0
  0
LINE
  5
1BF
330
4A4
100
AcDbEntity
  8
DATA
  6
Continuous
 62
     7
100
AcDbLine
 10
-113.75
 20
-248.5
 30
0.0
 11
-113.75
 21
-250.0
 31
0.0
  0
LINE
  5
1C0
330
4A4
100
AcDbEntity
  8
DATA
  6
Continuous
 62
     7
100
AcDbLine
 10
-211.75
 20
-223.0
 30
0.0
 11
-125.75
 21
-223.0
 31
0.0
  0
LINE
  5
1C1
330
4A4
100
AcDbEntity
  8
DATA
  6
Continuous
 62
     7
100
AcDbLine
 10
-213.25
 20
-224.5
 30
0.0
 11
-213.25
 21
-247.0
 31
0.0
  0
LINE
  5
1C2
330
4A4
100
AcDbEntity
  8
DATA
  6
Continuous
 62
     7
100
AcDbLine
 10
-124.25
 20
-224.5
 30
0.0
 11
-124.25
 21
-247.0
 31
0.0
  0
LINE
  5
1C3
330
4A4
100
AcDbEntity
  8
DATA
  6
Continuous
 62
     7
100
AcDbLine
 10
-214.75
 20
-248.5
 30
0.0
 11
-223.75
 21
-248.5
 31
0.0
  0
LINE
  5
1C4
330
4A4
100
AcDbEntity
  8
DATA
  6
Continuous
 62
     7
100
AcDbLine
 10
-211.75
 20
-224.5
 30
0.0
 11
-211.75
 21
-250.0
 31
0.0
  0
LINE
  5
1C5
330
4A4
100
AcDbEntity
  8
DATA
  6
Continuous
 62
     7
100
AcDbLine
 10
-125.75
 20
-224.5
 30
0.0
 11
-125.75
 21
-250.0
 31
0.0
  0
ARC
  5
1C6
330
4A4
100
AcDbEntity
  8
DATA
  6
Continuous
 62
     7
100
AcDbCircle
 10
-214.75
 20
-247.0
 30
0.0
 40
1.5
100
AcDbArc
 50
270.0
 51
0.0
  0
ARC
  5
1C7
330
4A4
100
AcDbEntity
  8
DATA
  6
Continuous
 62
     7
100
AcDbCircle
 10
-213.25
 20
-248.5
 30
0.0
 40
1.5
100
AcDbArc
 50
270.0
 51
0.0
  0
LINE
  5
1C8
330
4A4
100
AcDbEntity
  8
DATA
  6
Continuous
 62
     7
100
AcDbLine
 10
-124.25
 20
-250.0
 30
0.0
 11
-113.75
 21
-250.0
 31
0.0
  0
LINE
  5
1C9
330
4A4
100
AcDbEntity
  8
DATA
  6
Continuous
 62
     7
100
AcDbLine
 10
-122.75
 20
-248.5
 30
0.0
 11
-113.75
 21
-248.5
 31
0.0
  0
ARC
  5
1CA
330
4A4
100
AcDbEntity
  8
DATA
  6
Continuous
 62
     7
100
AcDbCircle
 10
-122.75
 20
-247.0
 30
0.0
 40
1.5
100
AcDbArc
 50
180.0
 51
270.0
  0
ARC
  5
1CB
330
4A4
100
AcDbEntity
  8
DATA
  6
Continuous
 62
     7
100
AcDbCircle
 10
-124.25
 20
-248.5
 30
0.0
 40
1.5
100
AcDbArc
 50
180.0
 51
270.0
  0
LINE
  5
1CC
330
4A4
100
AcDbEntity
  8
DATA
  6
Continuous
 62
     7
100
AcDbLine
 10
-211.75
 20
-250.0
 30
0.0
 11
-125.75
 21
-250.0
 31
0.0
  0
ARC
  5
1CD
330
4A4
100
AcDbEntity
  8
DATA
  6
Continuous
 62
     7
100
AcDbCircle
 10
-211.75
 20
-224.5
 30
0.0
 40
1.5
100
AcDbArc
 50
90.0
 51
180.0
  0
ARC
  5
1CE
330
4A4
100
AcDbEntity
  8
DATA
  6
Continuous
 62
     7
100
AcDbCircle
 10
-125.75
 20
-224.5
 30
0.0
 40
1.5
100
AcDbArc
 50
0.0
 51
90.0
  0
LINE
  5
1CF
330
4A4
100
AcDbEntity
  8
DATA
  6
Continuous
 62
     7
100
AcDbLine
 10
-201.25
 20
-230.0
 30
0.0
 11
-201.25
 21
-244.0
 31
0.0
  0
LINE
  5
1D0
330
4A4
100
AcDbEntity
  8
DATA
  6
Continuous
 62
     7
100
AcDbLine
 10
-201.25
 20
-244.0
 30
0.0
 11
-185.25
 21
-244.0
 31
0.0
  0
LINE
  5
1D1
330
4A4
100
AcDbEntity
  8
DATA
  6
Continuous
 62
     7
100
AcDbLine
 10
-185.25
 20
-230.0
 30
0.0
 11
-185.25
 21
-244.0
 31
0.0
  0
LINE
  5
1D2
330
4A4
100
AcDbEntity
  8
DATA
  6
Continuous
 62
     7
100
AcDbLine
 10
-201.25
 20
-230.0
 30
0.0
 11
-185.25
 21
-230.0
 31
0.0
  0
LINE
  5
1D3
330
4A4
100
AcDbEntity
  8
DATA
  6
Continuous
 62
     7
100
AcDbLine
 10
-199.75
 20
-232.2
 30
0.0
 11
-186.75
 21
-232.2
 31
0.0
  0
LINE
  5
1D4
330
4A4
100
AcDbEntity
  8
DATA
  6
Continuous
 62
     7
100
AcDbLine
 10
-199.75
 20
-232.2
 30
0.0
 11
-199.75
 21
-240.8
 31
0.0
  0
LINE
  5
1D5
330
4A4
100
AcDbEntity
  8
DATA
  6
Continuous
 62
     7
100
AcDbLine
 10
-186.75
 20
-232.2
 30
0.0
 11
-186.75
 21
-240.8
 31
0.0
  0
LINE
  5
1D6
330
4A4
100
AcDbEntity
  8
DATA
  6
Continuous
 62
     7
100
AcDbLine
 10
-195.75
 20
-244.0
 30
0.0
 11
-195.75
 21
-243.2550129396166
 31
0.0
  0
LINE
  5
1D7
330
4A4
100
AcDbEntity
  8
DATA
  6
Continuous
 62
     7
100
AcDbLine
 10
-190.75
 20
-243.2550129396166
 30
0.0
 11
-190.75
 21
-244.0
 31
0.0
  0
LINE
  5
1D8
330
4A4
100
AcDbEntity
  8
DATA
  6
Continuous
 62
     7
100
AcDbLine
 10
-199.75
 20
-240.8
 30
0.0
 11
-197.3499999999999
 21
-240.8
 31
0.0
  0
LINE
  5
1D9
330
4A4
100
AcDbEntity
  8
DATA
  6
Continuous
 62
     7
100
AcDbLine
 10
-197.3499999999999
 20
-243.2550129396166
 30
0.0
 11
-197.3499999999999
 21
-240.8
 31
0.0
  0
LINE
  5
1DA
330
4A4
100
AcDbEntity
  8
DATA
  6
Continuous
 62
     7
100
AcDbLine
 10
-197.3499999999999
 20
-243.2550129396166
 30
0.0
 11
-195.75
 21
-243.2550129396166
 31
0.0
  0
LINE
  5
1DB
330
4A4
100
AcDbEntity
  8
DATA
  6
Continuous
 62
     7
100
AcDbLine
 10
-186.75
 20
-240.8
 30
0.0
 11
-189.15
 21
-240.8
 31
0.0
  0
LINE
  5
1DC
330
4A4
100
AcDbEntity
  8
DATA
  6
Continuous
 62
     7
100
AcDbLine
 10
-189.15
 20
-243.2550129396166
 30
0.0
 11
-189.15
 21
-240.8
 31
0.0
  0
LINE
  5
1DD
330
4A4
100
AcDbEntity
  8
DATA
  6
Continuous
 62
     7
100
AcDbLine
 10
-189.15
 20
-243.2550129396166
 30
0.0
 11
-190.75
 21
-243.2550129396166
 31
0.0
  0
LINE
  5
1DE
330
4A4
100
AcDbEntity
  8
DATA
  6
Continuous
 62
     7
100
AcDbLine
 10
-195.75
 20
-243.7596816220732
 30
0.0
 11
-190.75
 21
-243.7596816220732
 31
0.0
  0
CIRCLE
  5
1DF
330
4A4
100
AcDbEntity
  8
DATA
  6
Continuous
 62
     7
100
AcDbCircle
 10
-154.75
 20
-241.0
 30
0.0
 40
2.5
  0
CIRCLE
  5
1E0
330
4A4
100
AcDbEntity
  8
DATA
  6
Continuous
 62
     7
100
AcDbCircle
 10
-154.75
 20
-241.0
 30
0.0
 40
1.700000000000045
  0
CIRCLE
  5
1E1
330
4A4
100
AcDbEntity
  8
DATA
  6
Continuous
 62
     7
100
AcDbCircle
 10
-142.25
 20
-241.0
 30
0.0
 40
2.5
  0
CIRCLE
  5
1E2
330
4A4
100
AcDbEntity
  8
DATA
  6
Continuous
 62
     7
100
AcDbCircle
 10
-142.25
 20
-241.0
 30
0.0
 40
1.700000000000045
  0
TEXT
  5
1E3
330
4A4
100
AcDbEntity
  8
DATA
 62
     7
100
AcDbText
 10
-195.977549271009
 20
-248.6360259365384
 30
0.0
 40
2.606145833333332
  1
Link
 41
0.7
 72
     1
 11
-193.241096146009
 21
-247.3329530198717
 31
0.0
100
AcDbText
 73
     2
  0
TEXT
  5
1E4
330
4A4
100
AcDbEntity
  8
DATA
 62
     7
100
AcDbText
 10
-163.1967878147987
 20
-248.6360259365384
 30
0.0
 40
2.606145833333332
  1
IR In/Ext
 41
0.7
 72
     1
 11
-156.2644398981321
 21
-247.3329530198717
 31
0.0
100
AcDbText
 73
     2
  0
TEXT
  5
1E5
330
4A4
100
AcDbEntity
  8
DATA
 62
     7
100
AcDbText
 10
-146.3291515161127
 20
-248.6360259365384
 30
0.0
 40
2.606145833333332
  1
IR Out
 41
0.7
 72
     1
 11
-141.8292063772238
 21
-247.3329530198717
 31
0.0
100
AcDbText
 73
     2
  0
TEXT
  5
1E6
330
4A4
100
AcDbEntity
  8
DATA
 62
     7
100
AcDbText
 10
-149.3805162906237
 20
-227.0831171314076
 30
0.0
 40
2.606145833333332
  1
GTB-UHD-HBT-S
 41
0.7
 11
-149.3805162906237
 21
-224.4769712980743
 31
0.0
100
AcDbText
 73
     3
  0
LINE
  5
1E7
330
4A4
100
AcDbEntity
  8
DATA
  6
Continuous
 62
     7
100
AcDbLine
 10
-106.25
 20
-250.0
 30
0.0
 11
-21.25
 21
-250.0
 31
0.0
  0
LINE
  5
1E8
330
4A4
100
AcDbEntity
  8
DATA
  6
Continuous
 62
     7
100
AcDbLine
 10
-104.75
 20
-223.0
 30
0.0
 11
-21.25
 21
-223.0
 31
0.0
  0
LINE
  5
1E9
330
4A4
100
AcDbEntity
  8
DATA
  6
Continuous
 62
     7
100
AcDbLine
 10
-106.25
 20
-250.0
 30
0.0
 11
-106.25
 21
-224.5
 31
0.0
  0
LINE
  5
1EA
330
4A4
100
AcDbEntity
  8
DATA
  6
Continuous
 62
     7
100
AcDbLine
 10
-21.25
 20
-250.0
 30
0.0
 11
-21.25
 21
-223.0
 31
0.0
  0
LINE
  5
1EB
330
4A4
100
AcDbEntity
  8
DATA
  6
Continuous
 62
     7
100
AcDbLine
 10
-106.25
 20
-248.5
 30
0.0
 11
-21.25
 21
-248.5
 31
0.0
  0
CIRCLE
  5
1EC
330
4A4
100
AcDbEntity
  8
DATA
  6
Continuous
 62
     7
100
AcDbCircle
 10
-85.25
 20
-242.0
 30
0.0
 40
2.5
  0
LINE
  5
1ED
330
4A4
100
AcDbEntity
  8
DATA
  6
Continuous
 62
     7
100
AcDbLine
 10
-86.5652946437965
 20
-242.0
 30
0.0
 11
-83.93470535620348
 21
-242.0
 31
0.0
  0
LINE
  5
1EE
330
4A4
100
AcDbEntity
  8
DATA
  6
Continuous
 62
     7
100
AcDbLine
 10
-85.25
 20
-243.3152946437966
 30
0.0
 11
-85.25
 21
-240.6847053562034
 31
0.0
  0
CIRCLE
  5
1EF
330
4A4
100
AcDbEntity
  8
DATA
  6
Continuous
 62
     7
100
AcDbCircle
 10
-42.25
 20
-242.0
 30
0.0
 40
2.5
  0
LINE
  5
1F0
330
4A4
100
AcDbEntity
  8
DATA
  6
Continuous
 62
     7
100
AcDbLine
 10
-40.93470535620349
 20
-242.0
 30
0.0
 11
-43.56529464379651
 21
-242.0
 31
0.0
  0
LINE
  5
1F1
330
4A4
100
AcDbEntity
  8
DATA
  6
Continuous
 62
     7
100
AcDbLine
 10
-42.25
 20
-243.3152946437966
 30
0.0
 11
-42.25
 21
-240.6847053562034
 31
0.0
  0
LINE
  5
1F2
330
4A4
100
AcDbEntity
  8
DATA
  6
Continuous
 62
     7
100
AcDbLine
 10
-15.25
 20
-227.5000000000001
 30
0.0
 11
-15.25
 21
-232.5
 31
0.0
  0
LINE
  5
1F3
330
4A4
100
AcDbEntity
  8
DATA
  6
Continuous
 62
     7
100
AcDbLine
 10
-20.95000000000005
 20
-230.0
 30
0.0
 11
-15.25
 21
-230.0
 31
0.0
  0
LINE
  5
1F4
330
4A4
100
AcDbEntity
  8
DATA
  6
Continuous
 62
     7
100
AcDbLine
 10
-21.25
 20
-227.5
 30
0.0
 11
-15.25
 21
-227.5
 31
0.0
  0
LINE
  5
1F5
330
4A4
100
AcDbEntity
  8
DATA
  6
Continuous
 62
     7
100
AcDbLine
 10
-15.25
 20
-232.5
 30
0.0
 11
-20.95000000000005
 21
-232.5
 31
0.0
  0
LINE
  5
1F6
330
4A4
100
AcDbEntity
  8
DATA
  6
Continuous
 62
     7
100
AcDbLine
 10
-20.95000000000005
 20
-229.55
 30
0.0
 11
-20.95000000000005
 21
-242.45
 31
0.0
  0
LINE
  5
1F7
330
4A4
100
AcDbEntity
  8
DATA
  6
Continuous
 62
     7
100
AcDbLine
 10
-20.95000000000005
 20
-229.55
 30
0.0
 11
-21.25
 21
-229.55
 31
0.0
  0
LINE
  5
1F8
330
4A4
100
AcDbEntity
  8
DATA
  6
Continuous
 62
     7
100
AcDbLine
 10
-20.95000000000005
 20
-242.45
 30
0.0
 11
-21.25
 21
-242.45
 31
0.0
  0
LINE
  5
1F9
330
4A4
100
AcDbEntity
  8
DATA
  6
Continuous
 62
     7
100
AcDbLine
 10
-20.75
 20
-236.4840987624289
 30
0.0
 11
-20.75
 21
-236.7311422459549
 31
0.0
  0
LINE
  5
1FA
330
4A4
100
AcDbEntity
  8
DATA
  6
Continuous
 62
     7
100
AcDbLine
 10
-20.75
 20
-239.2688577540498
 30
0.0
 11
-20.75
 21
-243.8840987624289
 31
0.0
  0
LINE
  5
1FB
330
4A4
100
AcDbEntity
  8
DATA
  6
Continuous
 62
     7
100
AcDbLine
 10
-20.75
 20
-236.484098762429
 30
0.0
 11
-20.95000000000005
 21
-236.484098762429
 31
0.0
  0
LINE
  5
1FC
330
4A4
100
AcDbEntity
  8
DATA
  6
Continuous
 62
     7
100
AcDbLine
 10
-20.75
 20
-243.8840987624289
 30
0.0
 11
-21.25
 21
-243.8840987624289
 31
0.0
  0
ARC
  5
1FD
330
4A4
100
AcDbEntity
  8
DATA
  6
Continuous
 62
     7
100
AcDbCircle
 10
-21.55000000000064
 20
-238.0000000000024
 30
0.0
 40
1.500000000002392
100
AcDbArc
 50
293.5781784781866
 51
66.4218215218134
  0
CIRCLE
  5
1FE
330
4A4
100
AcDbEntity
  8
DATA
  6
Continuous
 62
     7
100
AcDbCircle
 10
-97.81241210756641
 20
-243.0
 30
0.0
 40
0.849999999999909
  0
CIRCLE
  5
1FF
330
4A4
100
AcDbEntity
  8
DATA
  6
Continuous
 62
     7
100
AcDbCircle
 10
-99.21241210756651
 20
-240.2
 30
0.0
 40
0.8500000000001364
  0
CIRCLE
  5
200
330
4A4
100
AcDbEntity
  8
DATA
  6
Continuous
 62
     7
100
AcDbCircle
 10
-97.81241210756641
 20
-237.4
 30
0.0
 40
0.849999999999909
  0
CIRCLE
  5
201
330
4A4
100
AcDbEntity
  8
DATA
  6
Continuous
 62
     7
100
AcDbCircle
 10
-99.21241210756651
 20
-234.6
 30
0.0
 40
0.8500000000001364
  0
CIRCLE
  5
202
330
4A4
100
AcDbEntity
  8
DATA
  6
Continuous
 62
     7
100
AcDbCircle
 10
-97.81241210756641
 20
-231.8
 30
0.0
 40
0.849999999999909
  0
CIRCLE
  5
203
330
4A4
100
AcDbEntity
  8
DATA
  6
Continuous
 62
     7
100
AcDbCircle
 10
-99.21241210756651
 20
-229.0
 30
0.0
 40
0.8500000000001364
  0
CIRCLE
  5
204
330
4A4
100
AcDbEntity
  8
DATA
  6
Continuous
 62
     7
100
AcDbCircle
 10
-95.01241210756644
 20
-243.0
 30
0.0
 40
0.8500000000001364
  0
CIRCLE
  5
205
330
4A4
100
AcDbEntity
  8
DATA
  6
Continuous
 62
     7
100
AcDbCircle
 10
-96.41241210756628
 20
-240.2
 30
0.0
 40
0.849999999999909
  0
CIRCLE
  5
206
330
4A4
100
AcDbEntity
  8
DATA
  6
Continuous
 62
     7
100
AcDbCircle
 10
-95.01241210756644
 20
-237.4
 30
0.0
 40
0.8500000000001364
  0
CIRCLE
  5
207
330
4A4
100
AcDbEntity
  8
DATA
  6
Continuous
 62
     7
100
AcDbCircle
 10
-96.41241210756628
 20
-234.6
 30
0.0
 40
0.849999999999909
  0
CIRCLE
  5
208
330
4A4
100
AcDbEntity
  8
DATA
  6
Continuous
 62
     7
100
AcDbCircle
 10
-95.01241210756644
 20
-231.8
 30
0.0
 40
0.8500000000001364
  0
CIRCLE
  5
209
330
4A4
100
AcDbEntity
  8
DATA
  6
Continuous
 62
     7
100
AcDbCircle
 10
-96.41241210756628
 20
-229.0
 30
0.0
 40
0.849999999999909
  0
CIRCLE
  5
20A
330
4A4
100
AcDbEntity
  8
DATA
  6
Continuous
 62
     7
100
AcDbCircle
 10
-92.2124121075665
 20
-243.0
 30
0.0
 40
0.8500000000001364
  0
CIRCLE
  5
20B
330
4A4
100
AcDbEntity
  8
DATA
  6
Continuous
 62
     7
100
AcDbCircle
 10
-93.61241210756634
 20
-240.2
 30
0.0
 40
0.849999999999909
  0
CIRCLE
  5
20C
330
4A4
100
AcDbEntity
  8
DATA
  6
Continuous
 62
     7
100
AcDbCircle
 10
-92.2124121075665
 20
-237.4
 30
0.0
 40
0.8500000000001364
  0
CIRCLE
  5
20D
330
4A4
100
AcDbEntity
  8
DATA
  6
Continuous
 62
     7
100
AcDbCircle
 10
-93.61241210756634
 20
-234.6
 30
0.0
 40
0.849999999999909
  0
CIRCLE
  5
20E
330
4A4
100
AcDbEntity
  8
DATA
  6
Continuous
 62
     7
100
AcDbCircle
 10
-92.2124121075665
 20
-231.8
 30
0.0
 40
0.8500000000001364
  0
CIRCLE
  5
20F
330
4A4
100
AcDbEntity
  8
DATA
  6
Continuous
 62
     7
100
AcDbCircle
 10
-93.61241210756634
 20
-229.0
 30
0.0
 40
0.849999999999909
  0
CIRCLE
  5
210
330
4A4
100
AcDbEntity
  8
DATA
  6
Continuous
 62
     7
100
AcDbCircle
 10
-90.81241210756642
 20
-234.6
 30
0.0
 40
0.849999999999909
  0
CIRCLE
  5
211
330
4A4
100
AcDbEntity
  8
DATA
  6
Continuous
 62
     7
100
AcDbCircle
 10
-89.41241210756629
 20
-231.8
 30
0.0
 40
0.849999999999909
  0
CIRCLE
  5
212
330
4A4
100
AcDbEntity
  8
DATA
  6
Continuous
 62
     7
100
AcDbCircle
 10
-90.81241210756642
 20
-229.0
 30
0.0
 40
0.849999999999909
  0
CIRCLE
  5
213
330
4A4
100
AcDbEntity
  8
DATA
  6
Continuous
 62
     7
100
AcDbCircle
 10
-88.01241210756643
 20
-234.6
 30
0.0
 40
0.8500000000001364
  0
CIRCLE
  5
214
330
4A4
100
AcDbEntity
  8
DATA
  6
Continuous
 62
     7
100
AcDbCircle
 10
-86.61241210756633
 20
-231.8
 30
0.0
 40
0.849999999999909
  0
CIRCLE
  5
215
330
4A4
100
AcDbEntity
  8
DATA
  6
Continuous
 62
     7
100
AcDbCircle
 10
-88.01241210756643
 20
-229.0
 30
0.0
 40
0.8500000000001364
  0
CIRCLE
  5
216
330
4A4
100
AcDbEntity
  8
DATA
  6
Continuous
 62
     7
100
AcDbCircle
 10
-85.21241210756647
 20
-234.6
 30
0.0
 40
0.8500000000001364
  0
CIRCLE
  5
217
330
4A4
100
AcDbEntity
  8
DATA
  6
Continuous
 62
     7
100
AcDbCircle
 10
-83.81241210756639
 20
-231.8
 30
0.0
 40
0.849999999999909
  0
CIRCLE
  5
218
330
4A4
100
AcDbEntity
  8
DATA
  6
Continuous
 62
     7
100
AcDbCircle
 10
-85.21241210756647
 20
-229.0
 30
0.0
 40
0.8500000000001364
  0
CIRCLE
  5
219
330
4A4
100
AcDbEntity
  8
DATA
  6
Continuous
 62
     7
100
AcDbCircle
 10
-82.4124121075663
 20
-234.6
 30
0.0
 40
0.849999999999909
  0
CIRCLE
  5
21A
330
4A4
100
AcDbEntity
  8
DATA
  6
Continuous
 62
     7
100
AcDbCircle
 10
-81.01241210756644
 20
-231.8
 30
0.0
 40
0.8500000000001364
  0
CIRCLE
  5
21B
330
4A4
100
AcDbEntity
  8
DATA
  6
Continuous
 62
     7
100
AcDbCircle
 10
-82.4124121075663
 20
-229.0
 30
0.0
 40
0.849999999999909
  0
CIRCLE
  5
21C
330
4A4
100
AcDbEntity
  8
DATA
  6
Continuous
 62
     7
100
AcDbCircle
 10
-79.61241210756634
 20
-234.6
 30
0.0
 40
0.849999999999909
  0
CIRCLE
  5
21D
330
4A4
100
AcDbEntity
  8
DATA
  6
Continuous
 62
     7
100
AcDbCircle
 10
-78.21241210756648
 20
-231.8
 30
0.0
 40
0.8500000000001364
  0
CIRCLE
  5
21E
330
4A4
100
AcDbEntity
  8
DATA
  6
Continuous
 62
     7
100
AcDbCircle
 10
-79.61241210756634
 20
-229.0
 30
0.0
 40
0.849999999999909
  0
CIRCLE
  5
21F
330
4A4
100
AcDbEntity
  8
DATA
  6
Continuous
 62
     7
100
AcDbCircle
 10
-75.4124121075663
 20
-237.4
 30
0.0
 40
0.849999999999909
  0
CIRCLE
  5
220
330
4A4
100
AcDbEntity
  8
DATA
  6
Continuous
 62
     7
100
AcDbCircle
 10
-76.8124121075664
 20
-234.6
 30
0.0
 40
0.849999999999909
  0
CIRCLE
  5
221
330
4A4
100
AcDbEntity
  8
DATA
  6
Continuous
 62
     7
100
AcDbCircle
 10
-75.4124121075663
 20
-231.8
 30
0.0
 40
0.849999999999909
  0
CIRCLE
  5
222
330
4A4
100
AcDbEntity
  8
DATA
  6
Continuous
 62
     7
100
AcDbCircle
 10
-76.8124121075664
 20
-229.0
 30
0.0
 40
0.849999999999909
  0
CIRCLE
  5
223
330
4A4
100
AcDbEntity
  8
DATA
  6
Continuous
 62
     7
100
AcDbCircle
 10
-72.61241210756634
 20
-243.0
 30
0.0
 40
0.849999999999909
  0
CIRCLE
  5
224
330
4A4
100
AcDbEntity
  8
DATA
  6
Continuous
 62
     7
100
AcDbCircle
 10
-74.01241210756643
 20
-240.2
 30
0.0
 40
0.8500000000001364
  0
CIRCLE
  5
225
330
4A4
100
AcDbEntity
  8
DATA
  6
Continuous
 62
     7
100
AcDbCircle
 10
-72.61241210756634
 20
-237.4
 30
0.0
 40
0.849999999999909
  0
CIRCLE
  5
226
330
4A4
100
AcDbEntity
  8
DATA
  6
Continuous
 62
     7
100
AcDbCircle
 10
-74.01241210756643
 20
-234.6
 30
0.0
 40
0.8500000000001364
  0
CIRCLE
  5
227
330
4A4
100
AcDbEntity
  8
DATA
  6
Continuous
 62
     7
100
AcDbCircle
 10
-72.61241210756634
 20
-231.8
 30
0.0
 40
0.849999999999909
  0
CIRCLE
  5
228
330
4A4
100
AcDbEntity
  8
DATA
  6
Continuous
 62
     7
100
AcDbCircle
 10
-74.01241210756643
 20
-229.0
 30
0.0
 40
0.8500000000001364
  0
CIRCLE
  5
229
330
4A4
100
AcDbEntity
  8
DATA
  6
Continuous
 62
     7
100
AcDbCircle
 10
-69.81241210756639
 20
-243.0
 30
0.0
 40
0.849999999999909
  0
CIRCLE
  5
22A
330
4A4
100
AcDbEntity
  8
DATA
  6
Continuous
 62
     7
100
AcDbCircle
 10
-71.21241210756648
 20
-240.2
 30
0.0
 40
0.8500000000001364
  0
CIRCLE
  5
22B
330
4A4
100
AcDbEntity
  8
DATA
  6
Continuous
 62
     7
100
AcDbCircle
 10
-69.81241210756639
 20
-237.4
 30
0.0
 40
0.849999999999909
  0
CIRCLE
  5
22C
330
4A4
100
AcDbEntity
  8
DATA
  6
Continuous
 62
     7
100
AcDbCircle
 10
-71.21241210756648
 20
-234.6
 30
0.0
 40
0.8500000000001364
  0
CIRCLE
  5
22D
330
4A4
100
AcDbEntity
  8
DATA
  6
Continuous
 62
     7
100
AcDbCircle
 10
-69.81241210756639
 20
-231.8
 30
0.0
 40
0.849999999999909
  0
CIRCLE
  5
22E
330
4A4
100
AcDbEntity
  8
DATA
  6
Continuous
 62
     7
100
AcDbCircle
 10
-71.21241210756648
 20
-229.0
 30
0.0
 40
0.8500000000001364
  0
CIRCLE
  5
22F
330
4A4
100
AcDbEntity
  8
DATA
  6
Continuous
 62
     7
100
AcDbCircle
 10
-67.01241210756643
 20
-243.0
 30
0.0
 40
0.8500000000001364
  0
CIRCLE
  5
230
330
4A4
100
AcDbEntity
  8
DATA
  6
Continuous
 62
     7
100
AcDbCircle
 10
-68.4124121075663
 20
-240.2
 30
0.0
 40
0.849999999999909
  0
CIRCLE
  5
231
330
4A4
100
AcDbEntity
  8
DATA
  6
Continuous
 62
     7
100
AcDbCircle
 10
-67.01241210756643
 20
-237.4
 30
0.0
 40
0.8500000000001364
  0
CIRCLE
  5
232
330
4A4
100
AcDbEntity
  8
DATA
  6
Continuous
 62
     7
100
AcDbCircle
 10
-68.4124121075663
 20
-234.6
 30
0.0
 40
0.849999999999909
  0
CIRCLE
  5
233
330
4A4
100
AcDbEntity
  8
DATA
  6
Continuous
 62
     7
100
AcDbCircle
 10
-67.01241210756643
 20
-231.8
 30
0.0
 40
0.8500000000001364
  0
CIRCLE
  5
234
330
4A4
100
AcDbEntity
  8
DATA
  6
Continuous
 62
     7
100
AcDbCircle
 10
-68.4124121075663
 20
-229.0
 30
0.0
 40
0.849999999999909
  0
CIRCLE
  5
235
330
4A4
100
AcDbEntity
  8
DATA
  6
Continuous
 62
     7
100
AcDbCircle
 10
-64.21241210756647
 20
-243.0
 30
0.0
 40
0.8500000000001364
  0
CIRCLE
  5
236
330
4A4
100
AcDbEntity
  8
DATA
  6
Continuous
 62
     7
100
AcDbCircle
 10
-65.61241210756634
 20
-240.2
 30
0.0
 40
0.849999999999909
  0
CIRCLE
  5
237
330
4A4
100
AcDbEntity
  8
DATA
  6
Continuous
 62
     7
100
AcDbCircle
 10
-64.21241210756647
 20
-237.4
 30
0.0
 40
0.8500000000001364
  0
CIRCLE
  5
238
330
4A4
100
AcDbEntity
  8
DATA
  6
Continuous
 62
     7
100
AcDbCircle
 10
-65.61241210756634
 20
-234.6
 30
0.0
 40
0.849999999999909
  0
CIRCLE
  5
239
330
4A4
100
AcDbEntity
  8
DATA
  6
Continuous
 62
     7
100
AcDbCircle
 10
-64.21241210756647
 20
-231.8
 30
0.0
 40
0.8500000000001364
  0
CIRCLE
  5
23A
330
4A4
100
AcDbEntity
  8
DATA
  6
Continuous
 62
     7
100
AcDbCircle
 10
-65.61241210756634
 20
-229.0
 30
0.0
 40
0.849999999999909
  0
CIRCLE
  5
23B
330
4A4
100
AcDbEntity
  8
DATA
  6
Continuous
 62
     7
100
AcDbCircle
 10
-61.41241210756629
 20
-243.0
 30
0.0
 40
0.849999999999909
  0
CIRCLE
  5
23C
330
4A4
100
AcDbEntity
  8
DATA
  6
Continuous
 62
     7
100
AcDbCircle
 10
-62.8124121075664
 20
-240.2
 30
0.0
 40
0.849999999999909
  0
CIRCLE
  5
23D
330
4A4
100
AcDbEntity
  8
DATA
  6
Continuous
 62
     7
100
AcDbCircle
 10
-61.41241210756629
 20
-237.4
 30
0.0
 40
0.849999999999909
  0
CIRCLE
  5
23E
330
4A4
100
AcDbEntity
  8
DATA
  6
Continuous
 62
     7
100
AcDbCircle
 10
-62.8124121075664
 20
-234.6
 30
0.0
 40
0.849999999999909
  0
CIRCLE
  5
23F
330
4A4
100
AcDbEntity
  8
DATA
  6
Continuous
 62
     7
100
AcDbCircle
 10
-61.41241210756629
 20
-231.8
 30
0.0
 40
0.849999999999909
  0
CIRCLE
  5
240
330
4A4
100
AcDbEntity
  8
DATA
  6
Continuous
 62
     7
100
AcDbCircle
 10
-62.8124121075664
 20
-229.0
 30
0.0
 40
0.849999999999909
  0
CIRCLE
  5
241
330
4A4
100
AcDbEntity
  8
DATA
  6
Continuous
 62
     7
100
AcDbCircle
 10
-58.61241210756634
 20
-243.0
 30
0.0
 40
0.849999999999909
  0
CIRCLE
  5
242
330
4A4
100
AcDbEntity
  8
DATA
  6
Continuous
 62
     7
100
AcDbCircle
 10
-60.01241210756643
 20
-240.2
 30
0.0
 40
0.8500000000001364
  0
CIRCLE
  5
243
330
4A4
100
AcDbEntity
  8
DATA
  6
Continuous
 62
     7
100
AcDbCircle
 10
-58.61241210756634
 20
-237.4
 30
0.0
 40
0.849999999999909
  0
CIRCLE
  5
244
330
4A4
100
AcDbEntity
  8
DATA
  6
Continuous
 62
     7
100
AcDbCircle
 10
-60.01241210756643
 20
-234.6
 30
0.0
 40
0.8500000000001364
  0
CIRCLE
  5
245
330
4A4
100
AcDbEntity
  8
DATA
  6
Continuous
 62
     7
100
AcDbCircle
 10
-58.61241210756634
 20
-231.8
 30
0.0
 40
0.849999999999909
  0
CIRCLE
  5
246
330
4A4
100
AcDbEntity
  8
DATA
  6
Continuous
 62
     7
100
AcDbCircle
 10
-60.01241210756643
 20
-229.0
 30
0.0
 40
0.8500000000001364
  0
CIRCLE
  5
247
330
4A4
100
AcDbEntity
  8
DATA
  6
Continuous
 62
     7
100
AcDbCircle
 10
-55.8124121075664
 20
-243.0
 30
0.0
 40
0.849999999999909
  0
CIRCLE
  5
248
330
4A4
100
AcDbEntity
  8
DATA
  6
Continuous
 62
     7
100
AcDbCircle
 10
-57.21241210756648
 20
-240.2
 30
0.0
 40
0.8500000000001364
  0
CIRCLE
  5
249
330
4A4
100
AcDbEntity
  8
DATA
  6
Continuous
 62
     7
100
AcDbCircle
 10
-55.8124121075664
 20
-237.4
 30
0.0
 40
0.849999999999909
  0
CIRCLE
  5
24A
330
4A4
100
AcDbEntity
  8
DATA
  6
Continuous
 62
     7
100
AcDbCircle
 10
-57.21241210756648
 20
-234.6
 30
0.0
 40
0.8500000000001364
  0
CIRCLE
  5
24B
330
4A4
100
AcDbEntity
  8
DATA
  6
Continuous
 62
     7
100
AcDbCircle
 10
-55.8124121075664
 20
-231.8
 30
0.0
 40
0.849999999999909
  0
CIRCLE
  5
24C
330
4A4
100
AcDbEntity
  8
DATA
  6
Continuous
 62
     7
100
AcDbCircle
 10
-57.21241210756648
 20
-229.0
 30
0.0
 40
0.8500000000001364
  0
CIRCLE
  5
24D
330
4A4
100
AcDbEntity
  8
DATA
  6
Continuous
 62
     7
100
AcDbCircle
 10
-53.01241210756643
 20
-243.0
 30
0.0
 40
0.8500000000001364
  0
CIRCLE
  5
24E
330
4A4
100
AcDbEntity
  8
DATA
  6
Continuous
 62
     7
100
AcDbCircle
 10
-54.41241210756629
 20
-240.2
 30
0.0
 40
0.849999999999909
  0
CIRCLE
  5
24F
330
4A4
100
AcDbEntity
  8
DATA
  6
Continuous
 62
     7
100
AcDbCircle
 10
-53.01241210756643
 20
-237.4
 30
0.0
 40
0.8500000000001364
  0
CIRCLE
  5
250
330
4A4
100
AcDbEntity
  8
DATA
  6
Continuous
 62
     7
100
AcDbCircle
 10
-54.41241210756629
 20
-234.6
 30
0.0
 40
0.849999999999909
  0
CIRCLE
  5
251
330
4A4
100
AcDbEntity
  8
DATA
  6
Continuous
 62
     7
100
AcDbCircle
 10
-53.01241210756643
 20
-231.8
 30
0.0
 40
0.8500000000001364
  0
CIRCLE
  5
252
330
4A4
100
AcDbEntity
  8
DATA
  6
Continuous
 62
     7
100
AcDbCircle
 10
-54.41241210756629
 20
-229.0
 30
0.0
 40
0.849999999999909
  0
CIRCLE
  5
253
330
4A4
100
AcDbEntity
  8
DATA
  6
Continuous
 62
     7
100
AcDbCircle
 10
-50.21241210756648
 20
-243.0
 30
0.0
 40
0.849999999999909
  0
CIRCLE
  5
254
330
4A4
100
AcDbEntity
  8
DATA
  6
Continuous
 62
     7
100
AcDbCircle
 10
-51.61241210756656
 20
-240.2
 30
0.0
 40
0.8500000000001364
  0
CIRCLE
  5
255
330
4A4
100
AcDbEntity
  8
DATA
  6
Continuous
 62
     7
100
AcDbCircle
 10
-50.21241210756648
 20
-237.4
 30
0.0
 40
0.849999999999909
  0
CIRCLE
  5
256
330
4A4
100
AcDbEntity
  8
DATA
  6
Continuous
 62
     7
100
AcDbCircle
 10
-51.61241210756656
 20
-234.6
 30
0.0
 40
0.8500000000001364
  0
CIRCLE
  5
257
330
4A4
100
AcDbEntity
  8
DATA
  6
Continuous
 62
     7
100
AcDbCircle
 10
-50.21241210756648
 20
-231.8
 30
0.0
 40
0.849999999999909
  0
CIRCLE
  5
258
330
4A4
100
AcDbEntity
  8
DATA
  6
Continuous
 62
     7
100
AcDbCircle
 10
-51.61241210756656
 20
-229.0
 30
0.0
 40
0.8500000000001364
  0
CIRCLE
  5
259
330
4A4
100
AcDbEntity
  8
DATA
  6
Continuous
 62
     7
100
AcDbCircle
 10
-48.81241210756684
 20
-234.6
 30
0.0
 40
0.849999999999909
  0
CIRCLE
  5
25A
330
4A4
100
AcDbEntity
  8
DATA
  6
Continuous
 62
     7
100
AcDbCircle
 10
-47.41241210756721
 20
-231.8
 30
0.0
 40
0.849999999999909
  0
CIRCLE
  5
25B
330
4A4
100
AcDbEntity
  8
DATA
  6
Continuous
 62
     7
100
AcDbCircle
 10
-48.81241210756684
 20
-229.0
 30
0.0
 40
0.849999999999909
  0
CIRCLE
  5
25C
330
4A4
100
AcDbEntity
  8
DATA
  6
Continuous
 62
     7
100
AcDbCircle
 10
-46.01241210756735
 20
-234.6
 30
0.0
 40
0.849999999999909
  0
CIRCLE
  5
25D
330
4A4
100
AcDbEntity
  8
DATA
  6
Continuous
 62
     7
100
AcDbCircle
 10
-44.61241210756747
 20
-231.8
 30
0.0
 40
0.8500000000001364
  0
CIRCLE
  5
25E
330
4A4
100
AcDbEntity
  8
DATA
  6
Continuous
 62
     7
100
AcDbCircle
 10
-46.01241210756735
 20
-229.0
 30
0.0
 40
0.849999999999909
  0
CIRCLE
  5
25F
330
4A4
100
AcDbEntity
  8
DATA
  6
Continuous
 62
     7
100
AcDbCircle
 10
-43.21241210756738
 20
-234.6
 30
0.0
 40
0.849999999999909
  0
CIRCLE
  5
260
330
4A4
100
AcDbEntity
  8
DATA
  6
Continuous
 62
     7
100
AcDbCircle
 10
-41.81241210756753
 20
-231.8
 30
0.0
 40
0.8500000000001364
  0
CIRCLE
  5
261
330
4A4
100
AcDbEntity
  8
DATA
  6
Continuous
 62
     7
100
AcDbCircle
 10
-43.21241210756738
 20
-229.0
 30
0.0
 40
0.849999999999909
  0
CIRCLE
  5
262
330
4A4
100
AcDbEntity
  8
DATA
  6
Continuous
 62
     7
100
AcDbCircle
 10
-40.41241210756743
 20
-234.6
 30
0.0
 40
0.8500000000001364
  0
CIRCLE
  5
263
330
4A4
100
AcDbEntity
  8
DATA
  6
Continuous
 62
     7
100
AcDbCircle
 10
-39.01241210756735
 20
-231.8
 30
0.0
 40
0.849999999999909
  0
CIRCLE
  5
264
330
4A4
100
AcDbEntity
  8
DATA
  6
Continuous
 62
     7
100
AcDbCircle
 10
-40.41241210756743
 20
-229.0
 30
0.0
 40
0.8500000000001364
  0
CIRCLE
  5
265
330
4A4
100
AcDbEntity
  8
DATA
  6
Continuous
 62
     7
100
AcDbCircle
 10
-37.61241210756748
 20
-234.6
 30
0.0
 40
0.8500000000001364
  0
CIRCLE
  5
266
330
4A4
100
AcDbEntity
  8
DATA
  6
Continuous
 62
     7
100
AcDbCircle
 10
-36.21241210756738
 20
-231.8
 30
0.0
 40
0.849999999999909
  0
CIRCLE
  5
267
330
4A4
100
AcDbEntity
  8
DATA
  6
Continuous
 62
     7
100
AcDbCircle
 10
-37.61241210756748
 20
-229.0
 30
0.0
 40
0.8500000000001364
  0
CIRCLE
  5
268
330
4A4
100
AcDbEntity
  8
DATA
  6
Continuous
 62
     7
100
AcDbCircle
 10
-34.81241210756753
 20
-234.6
 30
0.0
 40
0.8500000000001364
  0
CIRCLE
  5
269
330
4A4
100
AcDbEntity
  8
DATA
  6
Continuous
 62
     7
100
AcDbCircle
 10
-33.41241210756744
 20
-231.8
 30
0.0
 40
0.8500000000001364
  0
CIRCLE
  5
26A
330
4A4
100
AcDbEntity
  8
DATA
  6
Continuous
 62
     7
100
AcDbCircle
 10
-34.81241210756753
 20
-229.0
 30
0.0
 40
0.8500000000001364
  0
CIRCLE
  5
26B
330
4A4
100
AcDbEntity
  8
DATA
  6
Continuous
 62
     7
100
AcDbCircle
 10
-30.61241210756748
 20
-243.0
 30
0.0
 40
0.8500000000001364
  0
CIRCLE
  5
26C
330
4A4
100
AcDbEntity
  8
DATA
  6
Continuous
 62
     7
100
AcDbCircle
 10
-30.61241210756748
 20
-237.4
 30
0.0
 40
0.8500000000001364
  0
CIRCLE
  5
26D
330
4A4
100
AcDbEntity
  8
DATA
  6
Continuous
 62
     7
100
AcDbCircle
 10
-32.01241210756734
 20
-234.6
 30
0.0
 40
0.849999999999909
  0
CIRCLE
  5
26E
330
4A4
100
AcDbEntity
  8
DATA
  6
Continuous
 62
     7
100
AcDbCircle
 10
-30.61241210756748
 20
-231.8
 30
0.0
 40
0.8500000000001364
  0
CIRCLE
  5
26F
330
4A4
100
AcDbEntity
  8
DATA
  6
Continuous
 62
     7
100
AcDbCircle
 10
-32.01241210756734
 20
-229.0
 30
0.0
 40
0.849999999999909
  0
CIRCLE
  5
270
330
4A4
100
AcDbEntity
  8
DATA
  6
Continuous
 62
     7
100
AcDbCircle
 10
-27.81241210756753
 20
-243.0
 30
0.0
 40
0.8500000000001364
  0
CIRCLE
  5
271
330
4A4
100
AcDbEntity
  8
DATA
  6
Continuous
 62
     7
100
AcDbCircle
 10
-29.21241210756739
 20
-240.2
 30
0.0
 40
0.849999999999909
  0
CIRCLE
  5
272
330
4A4
100
AcDbEntity
  8
DATA
  6
Continuous
 62
     7
100
AcDbCircle
 10
-27.81241210756753
 20
-237.4
 30
0.0
 40
0.8500000000001364
  0
CIRCLE
  5
273
330
4A4
100
AcDbEntity
  8
DATA
  6
Continuous
 62
     7
100
AcDbCircle
 10
-29.21241210756739
 20
-234.6
 30
0.0
 40
0.849999999999909
  0
CIRCLE
  5
274
330
4A4
100
AcDbEntity
  8
DATA
  6
Continuous
 62
     7
100
AcDbCircle
 10
-27.81241210756753
 20
-231.8
 30
0.0
 40
0.8500000000001364
  0
CIRCLE
  5
275
330
4A4
100
AcDbEntity
  8
DATA
  6
Continuous
 62
     7
100
AcDbCircle
 10
-29.21241210756739
 20
-229.0
 30
0.0
 40
0.849999999999909
  0
CIRCLE
  5
276
330
4A4
100
AcDbEntity
  8
DATA
  6
Continuous
 62
     7
100
AcDbCircle
 10
-26.41241210756744
 20
-240.2
 30
0.0
 40
0.849999999999909
  0
CIRCLE
  5
277
330
4A4
100
AcDbEntity
  8
DATA
  6
Continuous
 62
     7
100
AcDbCircle
 10
-25.01241210756758
 20
-237.4
 30
0.0
 40
0.8500000000001364
  0
CIRCLE
  5
278
330
4A4
100
AcDbEntity
  8
DATA
  6
Continuous
 62
     7
100
AcDbCircle
 10
-26.41241210756744
 20
-234.6
 30
0.0
 40
0.849999999999909
  0
CIRCLE
  5
279
330
4A4
100
AcDbEntity
  8
DATA
  6
Continuous
 62
     7
100
AcDbCircle
 10
-25.01241210756758
 20
-231.8
 30
0.0
 40
0.8500000000001364
  0
CIRCLE
  5
27A
330
4A4
100
AcDbEntity
  8
DATA
  6
Continuous
 62
     7
100
AcDbCircle
 10
-26.41241210756744
 20
-229.0
 30
0.0
 40
0.849999999999909
  0
CIRCLE
  5
27B
330
4A4
100
AcDbEntity
  8
DATA
  6
Continuous
 62
     7
100
AcDbCircle
 10
-23.61241210756748
 20
-240.2
 30
0.0
 40
0.8500000000001364
  0
CIRCLE
  5
27C
330
4A4
100
AcDbEntity
  8
DATA
  6
Continuous
 62
     7
100
AcDbCircle
 10
-23.61241210756748
 20
-234.6
 30
0.0
 40
0.8500000000001364
  0
CIRCLE
  5
27D
330
4A4
100
AcDbEntity
  8
DATA
  6
Continuous
 62
     7
100
AcDbCircle
 10
-23.61241210756748
 20
-229.0
 30
0.0
 40
0.8500000000001364
  0
CIRCLE
  5
27E
330
4A4
100
AcDbEntity
  8
DATA
  6
Continuous
 62
     7
100
AcDbCircle
 10
-100.6124121075663
 20
-243.0
 30
0.0
 40
0.849999999999909
  0
CIRCLE
  5
27F
330
4A4
100
AcDbEntity
  8
DATA
  6
Continuous
 62
     7
100
AcDbCircle
 10
-102.0124121075664
 20
-240.2
 30
0.0
 40
0.8500000000001364
  0
CIRCLE
  5
280
330
4A4
100
AcDbEntity
  8
DATA
  6
Continuous
 62
     7
100
AcDbCircle
 10
-100.6124121075663
 20
-237.4
 30
0.0
 40
0.849999999999909
  0
CIRCLE
  5
281
330
4A4
100
AcDbEntity
  8
DATA
  6
Continuous
 62
     7
100
AcDbCircle
 10
-102.0124121075664
 20
-234.6
 30
0.0
 40
0.8500000000001364
  0
CIRCLE
  5
282
330
4A4
100
AcDbEntity
  8
DATA
  6
Continuous
 62
     7
100
AcDbCircle
 10
-100.6124121075663
 20
-231.8
 30
0.0
 40
0.849999999999909
  0
CIRCLE
  5
283
330
4A4
100
AcDbEntity
  8
DATA
  6
Continuous
 62
     7
100
AcDbCircle
 10
-102.0124121075664
 20
-229.0
 30
0.0
 40
0.8500000000001364
  0
CIRCLE
  5
284
330
4A4
100
AcDbEntity
  8
DATA
  6
Continuous
 62
     7
100
AcDbCircle
 10
-103.4124121075663
 20
-243.0
 30
0.0
 40
0.849999999999909
  0
CIRCLE
  5
285
330
4A4
100
AcDbEntity
  8
DATA
  6
Continuous
 62
     7
100
AcDbCircle
 10
-103.4124121075663
 20
-237.4
 30
0.0
 40
0.849999999999909
  0
CIRCLE
  5
286
330
4A4
100
AcDbEntity
  8
DATA
  6
Continuous
 62
     7
100
AcDbCircle
 10
-103.4124121075663
 20
-231.8
 30
0.0
 40
0.849999999999909
  0
CIRCLE
  5
287
330
4A4
100
AcDbEntity
  8
DATA
  6
Continuous
 62
     7
100
AcDbCircle
 10
-33.41241210756744
 20
-243.0
 30
0.0
 40
0.8500000000001364
  0
CIRCLE
  5
288
330
4A4
100
AcDbEntity
  8
DATA
  6
Continuous
 62
     7
100
AcDbCircle
 10
-33.41241210756744
 20
-237.4
 30
0.0
 40
0.8500000000001364
  0
CIRCLE
  5
289
330
4A4
100
AcDbEntity
  8
DATA
  6
Continuous
 62
     7
100
AcDbCircle
 10
-32.01241210756757
 20
-240.2
 30
0.0
 40
0.8500000000001364
  0
CIRCLE
  5
28A
330
4A4
100
AcDbEntity
  8
DATA
  6
Continuous
 62
     7
100
AcDbCircle
 10
-75.4124121075663
 20
-243.0
 30
0.0
 40
0.849999999999909
  0
CIRCLE
  5
28B
330
4A4
100
AcDbEntity
  8
DATA
  6
Continuous
 62
     7
100
AcDbCircle
 10
-78.21241210756648
 20
-237.4
 30
0.0
 40
0.8500000000001364
  0
CIRCLE
  5
28C
330
4A4
100
AcDbEntity
  8
DATA
  6
Continuous
 62
     7
100
AcDbCircle
 10
-76.8124121075664
 20
-240.2
 30
0.0
 40
0.849999999999909
  0
CIRCLE
  5
28D
330
4A4
100
AcDbEntity
  8
DATA
  6
Continuous
 62
     7
100
AcDbCircle
 10
-78.21241210756648
 20
-243.0
 30
0.0
 40
0.8500000000001364
  0
ARC
  5
28E
330
4A4
100
AcDbEntity
  8
DATA
  6
Continuous
 62
     7
100
AcDbCircle
 10
-104.75
 20
-224.5
 30
0.0
 40
1.5
100
AcDbArc
 50
90.0
 51
180.0
  0
CIRCLE
  5
28F
330
4A4
100
AcDbEntity
  8
DATA
  6
Continuous
 62
     7
100
AcDbCircle
 10
-89.41241210756629
 20
-243.0
 30
0.0
 40
0.849999999999909
  0
CIRCLE
  5
290
330
4A4
100
AcDbEntity
  8
DATA
  6
Continuous
 62
     7
100
AcDbCircle
 10
-90.81241210756642
 20
-240.2
 30
0.0
 40
0.849999999999909
  0
CIRCLE
  5
291
330
4A4
100
AcDbEntity
  8
DATA
  6
Continuous
 62
     7
100
AcDbCircle
 10
-89.41241210756629
 20
-237.4
 30
0.0
 40
0.849999999999909
  0
CIRCLE
  5
292
330
4A4
100
AcDbEntity
  8
DATA
  6
Continuous
 62
     7
100
AcDbCircle
 10
-81.01241210756644
 20
-237.4
 30
0.0
 40
0.8500000000001364
  0
CIRCLE
  5
293
330
4A4
100
AcDbEntity
  8
DATA
  6
Continuous
 62
     7
100
AcDbCircle
 10
-79.61241210756657
 20
-240.2
 30
0.0
 40
0.8500000000001364
  0
CIRCLE
  5
294
330
4A4
100
AcDbEntity
  8
DATA
  6
Continuous
 62
     7
100
AcDbCircle
 10
-81.01241210756644
 20
-243.0
 30
0.0
 40
0.8500000000001364
  0
CIRCLE
  5
295
330
4A4
100
AcDbEntity
  8
DATA
  6
Continuous
 62
     7
100
AcDbCircle
 10
-47.41241210756629
 20
-243.0
 30
0.0
 40
0.8499999999996816
  0
CIRCLE
  5
296
330
4A4
100
AcDbEntity
  8
DATA
  6
Continuous
 62
     7
100
AcDbCircle
 10
-48.81241210756639
 20
-240.2
 30
0.0
 40
0.849999999999909
  0
CIRCLE
  5
297
330
4A4
100
AcDbEntity
  8
DATA
  6
Continuous
 62
     7
100
AcDbCircle
 10
-47.41241210756629
 20
-237.4
 30
0.0
 40
0.8499999999996816
  0
CIRCLE
  5
298
330
4A4
100
AcDbEntity
  8
DATA
  6
Continuous
 62
     7
100
AcDbCircle
 10
-36.21241210756738
 20
-243.0
 30
0.0
 40
0.849999999999909
  0
CIRCLE
  5
299
330
4A4
100
AcDbEntity
  8
DATA
  6
Continuous
 62
     7
100
AcDbCircle
 10
-36.21241210756738
 20
-237.4
 30
0.0
 40
0.849999999999909
  0
CIRCLE
  5
29A
330
4A4
100
AcDbEntity
  8
DATA
  6
Continuous
 62
     7
100
AcDbCircle
 10
-34.81241210756753
 20
-240.2
 30
0.0
 40
0.8500000000001364
  0
LINE
  5
29B
330
4A4
100
AcDbEntity
  8
DATA
  6
Continuous
 62
     7
100
AcDbLine
 10
45.0
 20
-48.0
 30
0.0
 11
45.0
 21
-49.5
 31
0.0
  0
LINE
  5
29C
330
4A4
100
AcDbEntity
  8
DATA
  6
Continuous
 62
     7
100
AcDbLine
 10
55.5
 20
-48.0
 30
0.0
 11
45.0
 21
-48.0
 31
0.0
  0
LINE
  5
29D
330
4A4
100
AcDbEntity
  8
DATA
  6
Continuous
 62
     7
100
AcDbLine
 10
155.0
 20
-49.5
 30
0.0
 11
155.0
 21
-48.0
 31
0.0
  0
LINE
  5
29E
330
4A4
100
AcDbEntity
  8
DATA
  6
Continuous
 62
     7
100
AcDbLine
 10
57.0
 20
-75.0
 30
0.0
 11
143.0
 21
-75.0
 31
0.0
  0
LINE
  5
29F
330
4A4
100
AcDbEntity
  8
DATA
  6
Continuous
 62
     7
100
AcDbLine
 10
55.5
 20
-73.5
 30
0.0
 11
55.5
 21
-51.0
 31
0.0
  0
LINE
  5
2A0
330
4A4
100
AcDbEntity
  8
DATA
  6
Continuous
 62
     7
100
AcDbLine
 10
144.5
 20
-73.5
 30
0.0
 11
144.5
 21
-51.0
 31
0.0
  0
LINE
  5
2A1
330
4A4
100
AcDbEntity
  8
DATA
  6
Continuous
 62
     7
100
AcDbLine
 10
54.0
 20
-49.5
 30
0.0
 11
45.0
 21
-49.5
 31
0.0
  0
LINE
  5
2A2
330
4A4
100
AcDbEntity
  8
DATA
  6
Continuous
 62
     7
100
AcDbLine
 10
57.0
 20
-72.0
 30
0.0
 11
57.0
 21
-48.0
 31
0.0
  0
LINE
  5
2A3
330
4A4
100
AcDbEntity
  8
DATA
  6
Continuous
 62
     7
100
AcDbLine
 10
143.0
 20
-72.0
 30
0.0
 11
143.0
 21
-48.0
 31
0.0
  0
ARC
  5
2A4
330
4A4
100
AcDbEntity
  8
DATA
  6
Continuous
 62
     7
100
AcDbCircle
 10
54.0
 20
-51.0
 30
0.0
 40
1.5
100
AcDbArc
 50
0.0
 51
90.0
  0
ARC
  5
2A5
330
4A4
100
AcDbEntity
  8
DATA
  6
Continuous
 62
     7
100
AcDbCircle
 10
55.5
 20
-49.5
 30
0.0
 40
1.5
100
AcDbArc
 50
0.0
 51
90.0
  0
LINE
  5
2A6
330
4A4
100
AcDbEntity
  8
DATA
  6
Continuous
 62
     7
100
AcDbLine
 10
144.5
 20
-48.0
 30
0.0
 11
155.0
 21
-48.0
 31
0.0
  0
LINE
  5
2A7
330
4A4
100
AcDbEntity
  8
DATA
  6
Continuous
 62
     7
100
AcDbLine
 10
146.0
 20
-49.5
 30
0.0
 11
155.0
 21
-49.5
 31
0.0
  0
ARC
  5
2A8
330
4A4
100
AcDbEntity
  8
DATA
  6
Continuous
 62
     7
100
AcDbCircle
 10
146.0
 20
-51.0
 30
0.0
 40
1.5
100
AcDbArc
 50
90.0
 51
180.0
  0
ARC
  5
2A9
330
4A4
100
AcDbEntity
  8
DATA
  6
Continuous
 62
     7
100
AcDbCircle
 10
144.5
 20
-49.5
 30
0.0
 40
1.5
100
AcDbArc
 50
90.0
 51
180.0
  0
LINE
  5
2AA
330
4A4
100
AcDbEntity
  8
DATA
  6
Continuous
 62
     7
100
AcDbLine
 10
57.0
 20
-48.0
 30
0.0
 11
143.0
 21
-48.0
 31
0.0
  0
ARC
  5
2AB
330
4A4
100
AcDbEntity
  8
DATA
  6
Continuous
 62
     7
100
AcDbCircle
 10
57.0
 20
-73.5
 30
0.0
 40
1.5
100
AcDbArc
 50
180.0
 51
270.0
  0
ARC
  5
2AC
330
4A4
100
AcDbEntity
  8
DATA
  6
Continuous
 62
     7
100
AcDbCircle
 10
143.0
 20
-73.5
 30
0.0
 40
1.5
100
AcDbArc
 50
270.0
 51
0.0
  0
CIRCLE
  5
2AD
330
4A4
100
AcDbEntity
  8
DATA
  6
Continuous
 62
     7
100
AcDbCircle
 10
126.5
 20
-62.0
 30
0.0
 40
6.450000000000045
  0
LWPOLYLINE
  5
2AE
330
4A4
100
AcDbEntity
  8
DATA
  6
Continuous
 62
     7
100
AcDbPolyline
 90
        6
 70
     1
 43
0.0
 10
99.0
 20
-66.55662432702593
 10
96.5
 20
-65.11324865405185
 10
94.0
 20
-66.55662432702593
 10
94.0
 20
-69.44337567297407
 10
96.5
 20
-70.88675134594814
 10
99.0
 20
-69.44337567297407
  0
LWPOLYLINE
  5
2B7
330
4A4
100
AcDbEntity
  8
DATA
  6
Continuous
 62
     7
100
AcDbPolyline
 90
        4
 70
     0
 43
0.0
 10
88.49999999999999
 20
-57.51590123757106
 10
88.49999999999999
 20
-61.51590123757106
 10
104.5
 20
-61.51590123757106
 10
104.5
 20
-57.51590123757106
  0
LINE
  5
2BE
330
4A4
100
AcDbEntity
  8
DATA
  6
Continuous
 62
     7
100
AcDbLine
 10
101.9999999999998
 20
-55.51590123757105
 30
0.0
 11
91.00000000000035
 21
-55.51590123757105
 31
0.0
  0
ARC
  5
2BF
330
4A4
100
AcDbEntity
  8
DATA
  6
Continuous
 62
     7
100
AcDbCircle
 10
87.23081632653064
 20
-53.36692164573438
 30
0.0
 40
4.338762363909595
100
AcDbArc
 50
287.0090081320969
 51
330.3106083760832
  0
ARC
  5
2C0
330
4A4
100
AcDbEntity
  8
DATA
  6
Continuous
 62
     7
100
AcDbCircle
 10
105.7691836734695
 20
-53.36692164573438
 30
0.0
 40
4.338762363909792
100
AcDbArc
 50
209.6893916239153
 51
252.9909918679003
  0
CIRCLE
  5
2C1
330
4A4
100
AcDbEntity
  8
DATA
  6
Continuous
 62
     7
100
AcDbCircle
 10
96.5
 20
-68.0
 30
0.0
 40
1.200000000000045
  0
LINE
  5
2C2
330
4A4
100
AcDbEntity
  8
DATA
  6
Continuous
 62
     7
100
AcDbLine
 10
67.5
 20
-61.51590123757106
 30
0.0
 11
67.5
 21
-54.11590123757105
 31
0.0
  0
LINE
  5
2C3
330
4A4
100
AcDbEntity
  8
DATA
  6
Continuous
 62
     7
100
AcDbLine
 10
79.39999999999997
 20
-61.51590123757106
 30
0.0
 11
67.5
 21
-61.51590123757106
 31
0.0
  0
LINE
  5
2C4
330
4A4
100
AcDbEntity
  8
DATA
  6
Continuous
 62
     7
100
AcDbLine
 10
79.39999999999997
 20
-54.11590123757105
 30
0.0
 11
79.39999999999997
 21
-61.51590123757106
 31
0.0
  0
LINE
  5
2C5
330
4A4
100
AcDbEntity
  8
DATA
  6
Continuous
 62
     7
100
AcDbLine
 10
67.5
 20
-54.11590123757105
 30
0.0
 11
79.39999999999997
 21
-54.11590123757105
 31
0.0
  0
LWPOLYLINE
  5
2C6
330
4A4
100
AcDbEntity
  8
DATA
  6
Continuous
 62
     7
100
AcDbPolyline
 90
        4
 70
     1
 43
0.0
 10
69.70000000000005
 20
-56.86590123757105
 10
70.20000000000004
 20
-56.86590123757105
 10
70.20000000000004
 20
-57.36590123757105
 10
69.70000000000005
 20
-57.36590123757105
  0
LWPOLYLINE
  5
2CD
330
4A4
100
AcDbEntity
  8
DATA
  6
Continuous
 62
     7
100
AcDbPolyline
 90
        4
 70
     1
 43
0.0
 10
73.20000000000003
 20
-56.86590123757105
 10
73.70000000000003
 20
-56.86590123757105
 10
73.70000000000003
 20
-57.36590123757105
 10
73.20000000000003
 20
-57.36590123757105
  0
LWPOLYLINE
  5
2D4
330
4A4
100
AcDbEntity
  8
DATA
  6
Continuous
 62
     7
100
AcDbPolyline
 90
        4
 70
     1
 43
0.0
 10
76.70000000000003
 20
-56.86590123757105
 10
77.20000000000003
 20
-56.86590123757105
 10
77.20000000000003
 20
-57.36590123757105
 10
76.70000000000003
 20
-57.36590123757105
  0
LINE
  5
2DB
330
4A4
100
AcDbEntity
  8
DATA
  6
Continuous
 62
     7
100
AcDbLine
 10
68.5
 20
-55.11590123757105
 30
0.0
 11
71.54999999999995
 21
-55.11590123757105
 31
0.0
  0
LINE
  5
2DC
330
4A4
100
AcDbEntity
  8
DATA
  6
Continuous
 62
     7
100
AcDbLine
 10
71.85000000000002
 20
-55.11590123757105
 30
0.0
 11
75.04999999999995
 21
-55.11590123757105
 31
0.0
  0
LINE
  5
2DD
330
4A4
100
AcDbEntity
  8
DATA
  6
Continuous
 62
     7
100
AcDbLine
 10
75.34999999999993
 20
-55.11590123757105
 30
0.0
 11
78.39999999999998
 21
-55.11590123757105
 31
0.0
  0
LINE
  5
2DE
330
4A4
100
AcDbEntity
  8
DATA
  6
Continuous
 62
     7
100
AcDbLine
 10
68.5
 20
-60.71590123757107
 30
0.0
 11
68.5
 21
-60.45991545153236
 31
0.0
  0
LINE
  5
2DF
330
4A4
100
AcDbEntity
  8
DATA
  6
Continuous
 62
     7
100
AcDbLine
 10
68.5
 20
-59.11590123757108
 30
0.0
 11
68.5
 21
-55.11590123757105
 31
0.0
  0
LINE
  5
2E0
330
4A4
100
AcDbEntity
  8
DATA
  6
Continuous
 62
     7
100
AcDbLine
 10
78.39999999999998
 20
-55.11590123757105
 30
0.0
 11
78.39999999999998
 21
-59.11590123757108
 31
0.0
  0
LINE
  5
2E1
330
4A4
100
AcDbEntity
  8
DATA
  6
Continuous
 62
     7
100
AcDbLine
 10
78.39999999999998
 20
-60.45991545153236
 30
0.0
 11
78.39999999999998
 21
-60.71590123757107
 31
0.0
  0
LINE
  5
2E2
330
4A4
100
AcDbEntity
  8
DATA
  6
Continuous
 62
     7
100
AcDbLine
 10
68.5
 20
-59.11590123757108
 30
0.0
 11
69.25
 21
-59.11590123757108
 31
0.0
  0
LINE
  5
2E3
330
4A4
100
AcDbEntity
  8
DATA
  6
Continuous
 62
     7
100
AcDbLine
 10
70.64999999999997
 20
-59.11590123757108
 30
0.0
 11
71.54999999999995
 21
-59.11590123757108
 31
0.0
  0
LINE
  5
2E4
330
4A4
100
AcDbEntity
  8
DATA
  6
Continuous
 62
     7
100
AcDbLine
 10
71.85000000000002
 20
-59.11590123757108
 30
0.0
 11
72.75
 21
-59.11590123757108
 31
0.0
  0
LINE
  5
2E5
330
4A4
100
AcDbEntity
  8
DATA
  6
Continuous
 62
     7
100
AcDbLine
 10
74.14999999999986
 20
-59.11590123757108
 30
0.0
 11
75.04999999999995
 21
-59.11590123757108
 31
0.0
  0
LINE
  5
2E6
330
4A4
100
AcDbEntity
  8
DATA
  6
Continuous
 62
     7
100
AcDbLine
 10
75.35000000000002
 20
-59.11590123757108
 30
0.0
 11
76.25
 21
-59.11590123757108
 31
0.0
  0
LINE
  5
2E7
330
4A4
100
AcDbEntity
  8
DATA
  6
Continuous
 62
     7
100
AcDbLine
 10
77.65000000000009
 20
-59.11590123757108
 30
0.0
 11
78.39999999999998
 21
-59.11590123757108
 31
0.0
  0
LINE
  5
2E8
330
4A4
100
AcDbEntity
  8
DATA
  6
Continuous
 62
     7
100
AcDbLine
 10
78.39999999999986
 20
-60.71590123757107
 30
0.0
 11
75.35715229977871
 21
-60.71590123757107
 31
0.0
  0
LINE
  5
2E9
330
4A4
100
AcDbEntity
  8
DATA
  6
Continuous
 62
     7
100
AcDbLine
 10
75.04284770022104
 20
-60.71590123757107
 30
0.0
 11
71.85715229977882
 21
-60.71590123757107
 31
0.0
  0
LINE
  5
2EA
330
4A4
100
AcDbEntity
  8
DATA
  6
Continuous
 62
     7
100
AcDbLine
 10
71.54284770022126
 20
-60.71590123757107
 30
0.0
 11
68.5
 21
-60.71590123757107
 31
0.0
  0
LINE
  5
2EB
330
4A4
100
AcDbEntity
  8
DATA
  6
Continuous
 62
     7
100
AcDbLine
 10
69.95000000000004
 20
-55.11590123757105
 30
0.0
 11
71.54999999999995
 21
-55.11590123757105
 31
0.0
  0
LINE
  5
2EC
330
4A4
100
AcDbEntity
  8
DATA
  6
Continuous
 62
     7
100
AcDbLine
 10
71.85000000000002
 20
-55.11590123757105
 30
0.0
 11
73.45000000000003
 21
-55.11590123757105
 31
0.0
  0
LINE
  5
2ED
330
4A4
100
AcDbEntity
  8
DATA
  6
Continuous
 62
     7
100
AcDbLine
 10
70.64999999999997
 20
-59.11590123757108
 30
0.0
 11
71.54284770022126
 21
-60.71590123757107
 31
0.0
  0
LINE
  5
2EE
330
4A4
100
AcDbEntity
  8
DATA
  6
Continuous
 62
     7
100
AcDbLine
 10
72.75
 20
-59.11590123757108
 30
0.0
 11
71.85715229977882
 21
-60.71590123757104
 31
0.0
  0
LINE
  5
2EF
330
4A4
100
AcDbEntity
  8
DATA
  6
Continuous
 62
     7
100
AcDbLine
 10
76.25
 20
-59.11590123757108
 30
0.0
 11
75.35715229977881
 21
-60.71590123757107
 31
0.0
  0
LINE
  5
2F0
330
4A4
100
AcDbEntity
  8
DATA
  6
Continuous
 62
     7
100
AcDbLine
 10
74.14999999999998
 20
-59.11590123757108
 30
0.0
 11
75.04284770022126
 21
-60.71590123757104
 31
0.0
  0
LINE
  5
2F1
330
4A4
100
AcDbEntity
  8
DATA
  6
Continuous
 62
     7
100
AcDbLine
 10
69.25
 20
-59.11590123757108
 30
0.0
 11
68.5
 21
-60.45991545153236
 31
0.0
  0
LINE
  5
2F2
330
4A4
100
AcDbEntity
  8
DATA
  6
Continuous
 62
     7
100
AcDbLine
 10
77.64999999999997
 20
-59.11590123757108
 30
0.0
 11
78.39999999999998
 21
-60.45991545153236
 31
0.0
  0
LINE
  5
2F3
330
4A4
100
AcDbEntity
  8
DATA
  6
Continuous
 62
     7
100
AcDbLine
 10
71.54999999999995
 20
-55.11590123757105
 30
0.0
 11
71.54999999999995
 21
-59.11590123757108
 31
0.0
  0
LINE
  5
2F4
330
4A4
100
AcDbEntity
  8
DATA
  6
Continuous
 62
     7
100
AcDbLine
 10
71.85000000000002
 20
-55.11590123757105
 30
0.0
 11
71.85000000000002
 21
-59.11590123757108
 31
0.0
  0
LINE
  5
2F5
330
4A4
100
AcDbEntity
  8
DATA
  6
Continuous
 62
     7
100
AcDbLine
 10
75.34999999999993
 20
-55.11590123757105
 30
0.0
 11
75.34999999999993
 21
-59.11590123757108
 31
0.0
  0
LINE
  5
2F6
330
4A4
100
AcDbEntity
  8
DATA
  6
Continuous
 62
     7
100
AcDbLine
 10
75.04999999999995
 20
-55.11590123757105
 30
0.0
 11
75.04999999999995
 21
-59.11590123757108
 31
0.0
  0
LINE
  5
2F7
330
4A4
100
AcDbEntity
  8
DATA
  6
Continuous
 62
     7
100
AcDbLine
 10
91.60000000000001
 20
-58.21350514072596
 30
0.0
 11
91.60000000000001
 21
-57.81350514072596
 31
0.0
  0
LINE
  5
2F8
330
4A4
100
AcDbEntity
  8
DATA
  6
Continuous
 62
     7
100
AcDbLine
 10
101.4
 20
-58.21350514072596
 30
0.0
 11
91.60000000000001
 21
-58.21350514072596
 31
0.0
  0
LINE
  5
2F9
330
4A4
100
AcDbEntity
  8
DATA
  6
Continuous
 62
     7
100
AcDbLine
 10
101.4
 20
-57.81350514072596
 30
0.0
 11
101.4
 21
-58.21350514072596
 31
0.0
  0
LINE
  5
2FA
330
4A4
100
AcDbEntity
  8
DATA
  6
Continuous
 62
     7
100
AcDbLine
 10
91.60000000000001
 20
-57.81350514072596
 30
0.0
 11
101.4
 21
-57.81350514072596
 31
0.0
  0
CIRCLE
  5
2FB
330
4A4
100
AcDbEntity
  8
DATA
  6
Continuous
 62
     7
100
AcDbCircle
 10
114.5
 20
-60.0
 30
0.0
 40
1.5
  0
CIRCLE
  5
2FC
330
4A4
100
AcDbEntity
  8
DATA
  6
Continuous
 62
     7
100
AcDbCircle
 10
124.7
 20
-60.19999999999999
 30
0.0
 40
0.75
  0
CIRCLE
  5
2FD
330
4A4
100
AcDbEntity
  8
DATA
  6
Continuous
 62
     7
100
AcDbCircle
 10
128.2999999999999
 20
-60.19999999999999
 30
0.0
 40
0.75
  0
CIRCLE
  5
2FE
330
4A4
100
AcDbEntity
  8
DATA
  6
Continuous
 62
     7
100
AcDbCircle
 10
124.7
 20
-63.80000000000001
 30
0.0
 40
0.75
  0
CIRCLE
  5
2FF
330
4A4
100
AcDbEntity
  8
DATA
  6
Continuous
 62
     7
100
AcDbCircle
 10
128.2999999999999
 20
-63.80000000000001
 30
0.0
 40
0.75
  0
CIRCLE
  5
300
330
4A4
100
AcDbEntity
  8
DATA
  6
Continuous
 62
     7
100
AcDbCircle
 10
126.5
 20
-62.0
 30
0.0
 40
4.950000000000045
  0
ARC
  5
301
330
4A4
100
AcDbEntity
  8
DATA
  6
Continuous
 62
     7
100
AcDbCircle
 10
126.5
 20
-62.00000000000023
 30
0.0
 40
4.550000000000217
100
AcDbArc
 50
128.719297322238
 51
167.303875422697
  0
ARC
  5
302
330
4A4
100
AcDbEntity
  8
DATA
  6
Continuous
 62
     7
100
AcDbCircle
 10
126.5
 20
-62.00000000000023
 30
0.0
 40
4.550000000000231
100
AcDbArc
 50
192.6961245773029
 51
252.7402973585285
  0
ARC
  5
303
330
4A4
100
AcDbEntity
  8
DATA
  6
Continuous
 62
     7
100
AcDbCircle
 10
126.5
 20
-62.00000000000023
 30
0.0
 40
4.550000000000217
100
AcDbArc
 50
287.2597026414717
 51
347.303875422697
  0
ARC
  5
304
330
4A4
100
AcDbEntity
  8
DATA
  6
Continuous
 62
     7
100
AcDbCircle
 10
126.5
 20
-62.00000000000023
 30
0.0
 40
4.550000000000231
100
AcDbArc
 50
12.69612457730288
 51
51.28070267776111
  0
LINE
  5
305
330
4A4
100
AcDbEntity
  8
DATA
  6
Continuous
 62
     7
100
AcDbLine
 10
123.6539501058484
 20
-58.44999999999998
 30
0.0
 11
129.3460498941515
 21
-58.44999999999998
 31
0.0
  0
LINE
  5
306
330
4A4
100
AcDbEntity
  8
DATA
  6
Continuous
 62
     7
100
AcDbLine
 10
127.8500000000001
 20
-65.14999999999997
 30
0.0
 11
127.8500000000001
 21
-66.34511219648053
 31
0.0
  0
LINE
  5
307
330
4A4
100
AcDbEntity
  8
DATA
  6
Continuous
 62
     7
100
AcDbLine
 10
125.15
 20
-65.14999999999997
 30
0.0
 11
127.8500000000001
 21
-65.14999999999997
 31
0.0
  0
LINE
  5
308
330
4A4
100
AcDbEntity
  8
DATA
  6
Continuous
 62
     7
100
AcDbLine
 10
125.15
 20
-66.34511219648058
 30
0.0
 11
125.15
 21
-65.14999999999997
 31
0.0
  0
LINE
  5
309
330
4A4
100
AcDbEntity
  8
DATA
  6
Continuous
 62
     7
100
AcDbLine
 10
122.825
 20
-61.00000000000022
 30
0.0
 11
122.0612501760065
 21
-61.00000000000022
 31
0.0
  0
LINE
  5
30A
330
4A4
100
AcDbEntity
  8
DATA
  6
Continuous
 62
     7
100
AcDbLine
 10
122.825
 20
-63.00000000000022
 30
0.0
 11
122.0612501760065
 21
-63.00000000000022
 31
0.0
  0
LINE
  5
30B
330
4A4
100
AcDbEntity
  8
DATA
  6
Continuous
 62
     7
100
AcDbLine
 10
122.825
 20
-63.00000000000022
 30
0.0
 11
122.825
 21
-61.00000000000022
 31
0.0
  0
LINE
  5
30C
330
4A4
100
AcDbEntity
  8
DATA
  6
Continuous
 62
     7
100
AcDbLine
 10
130.1749999999999
 20
-61.00000000000022
 30
0.0
 11
130.9387498239935
 21
-61.00000000000022
 31
0.0
  0
LINE
  5
30D
330
4A4
100
AcDbEntity
  8
DATA
  6
Continuous
 62
     7
100
AcDbLine
 10
130.1749999999999
 20
-63.00000000000022
 30
0.0
 11
130.9387498239935
 21
-63.00000000000022
 31
0.0
  0
LINE
  5
30E
330
4A4
100
AcDbEntity
  8
DATA
  6
Continuous
 62
     7
100
AcDbLine
 10
130.1749999999999
 20
-63.00000000000022
 30
0.0
 11
130.1749999999999
 21
-61.00000000000022
 31
0.0
  0
LINE
  5
30F
330
4A4
100
AcDbEntity
  8
DATA
  6
Continuous
 62
     7
100
AcDbLine
 10
126.2
 20
-57.05909927239985
 30
0.0
 11
126.2
 21
-55.55698052152565
 31
0.0
  0
LINE
  5
310
330
4A4
100
AcDbEntity
  8
DATA
  6
Continuous
 62
     7
100
AcDbLine
 10
126.8
 20
-55.55698052152565
 30
0.0
 11
126.8
 21
-57.05909927239985
 31
0.0
  0
CIRCLE
  5
311
330
4A4
100
AcDbEntity
  8
DATA
  6
Continuous
 62
     7
100
AcDbCircle
 10
126.5
 20
-62.00000000000023
 30
0.0
 40
5.050000000000209
  0
TEXT
  5
312
330
4A4
100
AcDbEntity
  8
DATA
 62
     7
100
AcDbText
 10
78.60635257892237
 20
-49.79400865380842
 30
0.0
 40
2.606145833333332
  1
RS-232
 50
180.0
 41
0.7
 72
     1
 11
73.43749667614459
 21
-51.09708157047509
 31
0.0
100
AcDbText
 73
     2
  0
TEXT
  5
313
330
4A4
100
AcDbEntity
  8
DATA
 62
     7
100
AcDbText
 10
103.9237247415288
 20
-49.79400865380842
 30
0.0
 40
2.606145833333332
  1
HDMI-Out
 50
180.0
 41
0.7
 72
     1
 11
97.2346171026399
 21
-51.09708157047509
 31
0.0
100
AcDbText
 73
     2
  0
TEXT
  5
314
330
4A4
100
AcDbEntity
  8
DATA
 62
     7
100
AcDbText
 10
131.6077794143482
 20
-49.79400865380842
 30
0.0
 40
2.606145833333332
  1
24V DC
 50
180.0
 41
0.7
 72
     1
 11
126.4997335810149
 21
-51.09708157047509
 31
0.0
100
AcDbText
 73
     2
  0
LINE
  5
315
330
4A4
100
AcDbEntity
  8
DATA
  6
Continuous
 62
     7
100
AcDbLine
 10
58.5
 20
-73.5
 30
0.0
 11
141.5
 21
-73.5
 31
0.0
  0
ARC
  5
316
330
4A4
100
AcDbEntity
  8
DATA
  6
Continuous
 62
     7
100
AcDbCircle
 10
58.5
 20
-72.0
 30
0.0
 40
1.5
100
AcDbArc
 50
180.0
 51
270.0
  0
ARC
  5
317
330
4A4
100
AcDbEntity
  8
DATA
  6
Continuous
 62
     7
100
AcDbCircle
 10
141.5
 20
-72.0
 30
0.0
 40
1.5
100
AcDbArc
 50
270.0
 51
0.0
  0
LINE
  5
318
330
4A4
100
AcDbEntity
  8
DATA
  6
Continuous
 62
     7
100
AcDbLine
 10
45.0
 20
-167.75
 30
0.0
 11
45.0
 21
-94.74999999999999
 31
0.0
  0
LINE
  5
319
330
4A4
100
AcDbEntity
  8
DATA
  6
Continuous
 62
     7
100
AcDbLine
 10
149.0
 20
-173.75
 30
0.0
 11
51.0
 21
-173.75
 31
0.0
  0
LINE
  5
31A
330
4A4
100
AcDbEntity
  8
DATA
  6
Continuous
 62
     7
100
AcDbLine
 10
155.0
 20
-167.75
 30
0.0
 11
155.0
 21
-94.74999999999999
 31
0.0
  0
LINE
  5
31B
330
4A4
100
AcDbEntity
  8
DATA
  6
Continuous
 62
     7
100
AcDbLine
 10
149.0
 20
-88.75
 30
0.0
 11
51.0
 21
-88.75
 31
0.0
  0
LINE
  5
31C
330
4A4
100
AcDbEntity
  8
DATA
  6
Continuous
 62
     7
100
AcDbLine
 10
55.5
 20
-173.75
 30
0.0
 11
55.5
 21
-88.75
 31
0.0
  0
LINE
  5
31D
330
4A4
100
AcDbEntity
  8
DATA
  6
Continuous
 62
     7
100
AcDbLine
 10
144.5
 20
-173.75
 30
0.0
 11
144.5
 21
-88.75
 31
0.0
  0
LINE
  5
31E
330
4A4
100
AcDbEntity
  8
DATA
  6
Continuous
 62
     7
100
AcDbLine
 10
67.5
 20
-174.55
 30
0.0
 11
83.49999999999999
 21
-174.55
 31
0.0
  0
LINE
  5
31F
330
4A4
100
AcDbEntity
  8
DATA
  6
Continuous
 62
     7
100
AcDbLine
 10
67.5
 20
-174.55
 30
0.0
 11
67.5
 21
-173.75
 31
0.0
  0
LINE
  5
320
330
4A4
100
AcDbEntity
  8
DATA
  6
Continuous
 62
     7
100
AcDbLine
 10
83.49999999999999
 20
-174.55
 30
0.0
 11
83.49999999999999
 21
-173.75
 31
0.0
  0
ARC
  5
321
330
4A4
100
AcDbEntity
  8
DATA
  6
Continuous
 62
     7
100
AcDbCircle
 10
51.0
 20
-94.74999999999999
 30
0.0
 40
6.0
100
AcDbArc
 50
90.0
 51
180.0
  0
ARC
  5
322
330
4A4
100
AcDbEntity
  8
DATA
  6
Continuous
 62
     7
100
AcDbCircle
 10
149.0
 20
-94.74999999999999
 30
0.0
 40
6.0
100
AcDbArc
 50
0.0
 51
90.0
  0
ARC
  5
323
330
4A4
100
AcDbEntity
  8
DATA
  6
Continuous
 62
     7
100
AcDbCircle
 10
51.0
 20
-167.75
 30
0.0
 40
6.0
100
AcDbArc
 50
180.0
 51
270.0
  0
ARC
  5
324
330
4A4
100
AcDbEntity
  8
DATA
  6
Continuous
 62
     7
100
AcDbCircle
 10
149.0
 20
-167.75
 30
0.0
 40
6.0
100
AcDbArc
 50
270.0
 51
0.0
  0
LINE
  5
325
330
4A4
100
AcDbEntity
  8
DATA
  6
Continuous
 62
     7
100
AcDbLine
 10
111.5
 20
-173.95
 30
0.0
 11
111.5
 21
-173.75
 31
0.0
  0
LINE
  5
326
330
4A4
100
AcDbEntity
  8
DATA
  6
Continuous
 62
     7
100
AcDbLine
 10
116.5
 20
-173.95
 30
0.0
 11
116.5
 21
-173.75
 31
0.0
  0
LINE
  5
327
330
4A4
100
AcDbEntity
  8
DATA
  6
Continuous
 62
     7
100
AcDbLine
 10
124.0
 20
-173.95
 30
0.0
 11
124.0
 21
-173.75
 31
0.0
  0
LINE
  5
328
330
4A4
100
AcDbEntity
  8
DATA
  6
Continuous
 62
     7
100
AcDbLine
 10
129.0
 20
-173.95
 30
0.0
 11
129.0
 21
-173.75
 31
0.0
  0
LINE
  5
329
330
4A4
100
AcDbEntity
  8
DATA
  6
Continuous
 62
     7
100
AcDbLine
 10
111.5
 20
-173.95
 30
0.0
 11
116.5
 21
-173.95
 31
0.0
  0
LINE
  5
32A
330
4A4
100
AcDbEntity
  8
DATA
  6
Continuous
 62
     7
100
AcDbLine
 10
124.0
 20
-173.95
 30
0.0
 11
129.0
 21
-173.95
 31
0.0
  0
LINE
  5
32B
330
4A4
100
AcDbEntity
  8
DATA
  6
Continuous
 62
     7
100
AcDbLine
 10
94.0
 20
-82.75
 30
0.0
 11
99.0
 21
-82.75
 31
0.0
  0
LINE
  5
32C
330
4A4
100
AcDbEntity
  8
DATA
  6
Continuous
 62
     7
100
AcDbLine
 10
96.5
 20
-88.75
 30
0.0
 11
96.5
 21
-82.75
 31
0.0
  0
LINE
  5
32D
330
4A4
100
AcDbEntity
  8
DATA
  6
Continuous
 62
     7
100
AcDbLine
 10
94.0
 20
-88.75
 30
0.0
 11
94.0
 21
-82.75
 31
0.0
  0
LINE
  5
32E
330
4A4
100
AcDbEntity
  8
DATA
  6
Continuous
 62
     7
100
AcDbLine
 10
99.0
 20
-82.75
 30
0.0
 11
99.0
 21
-88.75
 31
0.0
  0
LINE
  5
32F
330
4A4
100
AcDbEntity
  8
DATA
  6
STYLE_07
 62
     7
100
AcDbLine
 10
37.5
 20
-131.25
 30
0.0
 11
162.5
 21
-131.25
 31
0.0
  0
LINE
  5
330
330
4A4
100
AcDbEntity
  8
DATA
  6
Continuous
 62
     7
100
AcDbLine
 10
67.5
 20
-88.25000000000001
 30
0.0
 11
67.5
 21
-88.75
 31
0.0
  0
LINE
  5
331
330
4A4
100
AcDbEntity
  8
DATA
  6
Continuous
 62
     7
100
AcDbLine
 10
79.39999999999997
 20
-88.25000000000001
 30
0.0
 11
79.39999999999997
 21
-88.75
 31
0.0
  0
LINE
  5
332
330
4A4
100
AcDbEntity
  8
DATA
  6
Continuous
 62
     7
100
AcDbLine
 10
67.5
 20
-88.25000000000001
 30
0.0
 11
79.39999999999997
 21
-88.25000000000001
 31
0.0
  0
ARC
  5
333
330
4A4
100
AcDbEntity
  8
DATA
  6
Continuous
 62
     7
100
AcDbCircle
 10
114.5
 20
-89.0214802935945
 30
0.0
 40
1.500000000000079
100
AcDbArc
 50
10.42724701741127
 51
169.5727529825887
  0
LINE
  5
334
330
4A4
100
AcDbEntity
  8
DATA
  6
Continuous
 62
     7
100
AcDbLine
 10
120.0499999999999
 20
-88.45
 30
0.0
 11
120.0499999999999
 21
-88.75
 31
0.0
  0
LINE
  5
335
330
4A4
100
AcDbEntity
  8
DATA
  6
Continuous
 62
     7
100
AcDbLine
 10
132.95
 20
-88.45
 30
0.0
 11
132.95
 21
-88.75
 31
0.0
  0
LINE
  5
336
330
4A4
100
AcDbEntity
  8
DATA
  6
Continuous
 62
     7
100
AcDbLine
 10
120.0499999999999
 20
-88.45
 30
0.0
 11
132.95
 21
-88.45
 31
0.0
  0
ARC
  5
337
330
4A4
100
AcDbEntity
  8
DATA
  6
Continuous
 62
     7
100
AcDbCircle
 10
50.5
 20
-104.0
 30
0.0
 40
2.0
100
AcDbArc
 50
0.0
 51
180.0
  0
ARC
  5
338
330
4A4
100
AcDbEntity
  8
DATA
  6
Continuous
 62
     7
100
AcDbCircle
 10
50.5
 20
-106.0
 30
0.0
 40
2.0
100
AcDbArc
 50
180.0
 51
0.0
  0
LINE
  5
339
330
4A4
100
AcDbEntity
  8
DATA
  6
Continuous
 62
     7
100
AcDbLine
 10
48.5
 20
-106.0
 30
0.0
 11
48.5
 21
-104.0
 31
0.0
  0
LINE
  5
33A
330
4A4
100
AcDbEntity
  8
DATA
  6
Continuous
 62
     7
100
AcDbLine
 10
52.5
 20
-106.0
 30
0.0
 11
52.5
 21
-104.0
 31
0.0
  0
ARC
  5
33B
330
4A4
100
AcDbEntity
  8
DATA
  6
Continuous
 62
     7
100
AcDbCircle
 10
149.5
 20
-104.0
 30
0.0
 40
2.0
100
AcDbArc
 50
0.0
 51
180.0
  0
ARC
  5
33C
330
4A4
100
AcDbEntity
  8
DATA
  6
Continuous
 62
     7
100
AcDbCircle
 10
149.5
 20
-106.0
 30
0.0
 40
2.0
100
AcDbArc
 50
180.0
 51
0.0
  0
LINE
  5
33D
330
4A4
100
AcDbEntity
  8
DATA
  6
Continuous
 62
     7
100
AcDbLine
 10
151.5
 20
-106.0
 30
0.0
 11
151.5
 21
-104.0
 31
0.0
  0
LINE
  5
33E
330
4A4
100
AcDbEntity
  8
DATA
  6
Continuous
 62
     7
100
AcDbLine
 10
147.5
 20
-106.0
 30
0.0
 11
147.5
 21
-104.0
 31
0.0
  0
ARC
  5
33F
330
4A4
100
AcDbEntity
  8
DATA
  6
Continuous
 62
     7
100
AcDbCircle
 10
50.5
 20
-158.5
 30
0.0
 40
2.0
100
AcDbArc
 50
180.0
 51
0.0
  0
ARC
  5
340
330
4A4
100
AcDbEntity
  8
DATA
  6
Continuous
 62
     7
100
AcDbCircle
 10
50.5
 20
-156.5
 30
0.0
 40
2.0
100
AcDbArc
 50
0.0
 51
180.0
  0
LINE
  5
341
330
4A4
100
AcDbEntity
  8
DATA
  6
Continuous
 62
     7
100
AcDbLine
 10
48.5
 20
-156.5
 30
0.0
 11
48.5
 21
-158.5
 31
0.0
  0
LINE
  5
342
330
4A4
100
AcDbEntity
  8
DATA
  6
Continuous
 62
     7
100
AcDbLine
 10
52.5
 20
-156.5
 30
0.0
 11
52.5
 21
-158.5
 31
0.0
  0
ARC
  5
343
330
4A4
100
AcDbEntity
  8
DATA
  6
Continuous
 62
     7
100
AcDbCircle
 10
149.5
 20
-158.5
 30
0.0
 40
2.0
100
AcDbArc
 50
180.0
 51
0.0
  0
ARC
  5
344
330
4A4
100
AcDbEntity
  8
DATA
  6
Continuous
 62
     7
100
AcDbCircle
 10
149.5
 20
-156.5
 30
0.0
 40
2.0
100
AcDbArc
 50
0.0
 51
180.0
  0
LINE
  5
345
330
4A4
100
AcDbEntity
  8
DATA
  6
Continuous
 62
     7
100
AcDbLine
 10
151.5
 20
-156.5
 30
0.0
 11
151.5
 21
-158.5
 31
0.0
  0
LINE
  5
346
330
4A4
100
AcDbEntity
  8
DATA
  6
Continuous
 62
     7
100
AcDbLine
 10
147.5
 20
-156.5
 30
0.0
 11
147.5
 21
-158.5
 31
0.0
  0
ARC
  5
347
330
4A4
100
AcDbEntity
  8
DATA
  6
Continuous
 62
     7
100
AcDbCircle
 10
50.5
 20
-130.25
 30
0.0
 40
2.0
100
AcDbArc
 50
0.0
 51
180.0
  0
ARC
  5
348
330
4A4
100
AcDbEntity
  8
DATA
  6
Continuous
 62
     7
100
AcDbCircle
 10
50.5
 20
-132.25
 30
0.0
 40
2.0
100
AcDbArc
 50
180.0
 51
0.0
  0
LINE
  5
349
330
4A4
100
AcDbEntity
  8
DATA
  6
Continuous
 62
     7
100
AcDbLine
 10
48.5
 20
-132.25
 30
0.0
 11
48.5
 21
-130.25
 31
0.0
  0
LINE
  5
34A
330
4A4
100
AcDbEntity
  8
DATA
  6
Continuous
 62
     7
100
AcDbLine
 10
52.5
 20
-132.25
 30
0.0
 11
52.5
 21
-130.25
 31
0.0
  0
ARC
  5
34B
330
4A4
100
AcDbEntity
  8
DATA
  6
Continuous
 62
     7
100
AcDbCircle
 10
149.5
 20
-130.25
 30
0.0
 40
2.0
100
AcDbArc
 50
0.0
 51
180.0
  0
ARC
  5
34C
330
4A4
100
AcDbEntity
  8
DATA
  6
Continuous
 62
     7
100
AcDbCircle
 10
149.5
 20
-132.25
 30
0.0
 40
2.0
100
AcDbArc
 50
180.0
 51
0.0
  0
LINE
  5
34D
330
4A4
100
AcDbEntity
  8
DATA
  6
Continuous
 62
     7
100
AcDbLine
 10
151.5
 20
-132.25
 30
0.0
 11
151.5
 21
-130.25
 31
0.0
  0
LINE
  5
34E
330
4A4
100
AcDbEntity
  8
DATA
  6
Continuous
 62
     7
100
AcDbLine
 10
147.5
 20
-132.25
 30
0.0
 11
147.5
 21
-130.25
 31
0.0
  0
LINE
  5
34F
330
4A4
100
AcDbEntity
  8
DATA
  6
Continuous
 62
     7
100
AcDbLine
 10
45.0
 20
-250.0
 30
0.0
 11
45.0
 21
-248.5
 31
0.0
  0
LINE
  5
350
330
4A4
100
AcDbEntity
  8
DATA
  6
Continuous
 62
     7
100
AcDbLine
 10
55.5
 20
-250.0
 30
0.0
 11
45.0
 21
-250.0
 31
0.0
  0
LINE
  5
351
330
4A4
100
AcDbEntity
  8
DATA
  6
Continuous
 62
     7
100
AcDbLine
 10
155.0
 20
-248.5
 30
0.0
 11
155.0
 21
-250.0
 31
0.0
  0
LINE
  5
352
330
4A4
100
AcDbEntity
  8
DATA
  6
Continuous
 62
     7
100
AcDbLine
 10
57.0
 20
-223.0
 30
0.0
 11
143.0
 21
-223.0
 31
0.0
  0
LINE
  5
353
330
4A4
100
AcDbEntity
  8
DATA
  6
Continuous
 62
     7
100
AcDbLine
 10
55.5
 20
-224.5
 30
0.0
 11
55.5
 21
-247.0
 31
0.0
  0
LINE
  5
354
330
4A4
100
AcDbEntity
  8
DATA
  6
Continuous
 62
     7
100
AcDbLine
 10
144.5
 20
-224.5
 30
0.0
 11
144.5
 21
-247.0
 31
0.0
  0
LINE
  5
355
330
4A4
100
AcDbEntity
  8
DATA
  6
Continuous
 62
     7
100
AcDbLine
 10
54.0
 20
-248.5
 30
0.0
 11
45.0
 21
-248.5
 31
0.0
  0
LINE
  5
356
330
4A4
100
AcDbEntity
  8
DATA
  6
Continuous
 62
     7
100
AcDbLine
 10
57.0
 20
-224.5
 30
0.0
 11
57.0
 21
-250.0
 31
0.0
  0
LINE
  5
357
330
4A4
100
AcDbEntity
  8
DATA
  6
Continuous
 62
     7
100
AcDbLine
 10
143.0
 20
-224.5
 30
0.0
 11
143.0
 21
-250.0
 31
0.0
  0
ARC
  5
358
330
4A4
100
AcDbEntity
  8
DATA
  6
Continuous
 62
     7
100
AcDbCircle
 10
54.0
 20
-247.0
 30
0.0
 40
1.5
100
AcDbArc
 50
270.0
 51
0.0
  0
ARC
  5
359
330
4A4
100
AcDbEntity
  8
DATA
  6
Continuous
 62
     7
100
AcDbCircle
 10
55.5
 20
-248.5
 30
0.0
 40
1.5
100
AcDbArc
 50
270.0
 51
0.0
  0
LINE
  5
35A
330
4A4
100
AcDbEntity
  8
DATA
  6
Continuous
 62
     7
100
AcDbLine
 10
144.5
 20
-250.0
 30
0.0
 11
155.0
 21
-250.0
 31
0.0
  0
LINE
  5
35B
330
4A4
100
AcDbEntity
  8
DATA
  6
Continuous
 62
     7
100
AcDbLine
 10
146.0
 20
-248.5
 30
0.0
 11
155.0
 21
-248.5
 31
0.0
  0
ARC
  5
35C
330
4A4
100
AcDbEntity
  8
DATA
  6
Continuous
 62
     7
100
AcDbCircle
 10
146.0
 20
-247.0
 30
0.0
 40
1.5
100
AcDbArc
 50
180.0
 51
270.0
  0
ARC
  5
35D
330
4A4
100
AcDbEntity
  8
DATA
  6
Continuous
 62
     7
100
AcDbCircle
 10
144.5
 20
-248.5
 30
0.0
 40
1.5
100
AcDbArc
 50
180.0
 51
270.0
  0
LINE
  5
35E
330
4A4
100
AcDbEntity
  8
DATA
  6
Continuous
 62
     7
100
AcDbLine
 10
57.0
 20
-250.0
 30
0.0
 11
143.0
 21
-250.0
 31
0.0
  0
ARC
  5
35F
330
4A4
100
AcDbEntity
  8
DATA
  6
Continuous
 62
     7
100
AcDbCircle
 10
57.0
 20
-224.5
 30
0.0
 40
1.5
100
AcDbArc
 50
90.0
 51
180.0
  0
ARC
  5
360
330
4A4
100
AcDbEntity
  8
DATA
  6
Continuous
 62
     7
100
AcDbCircle
 10
143.0
 20
-224.5
 30
0.0
 40
1.5
100
AcDbArc
 50
0.0
 51
90.0
  0
LINE
  5
361
330
4A4
100
AcDbEntity
  8
DATA
  6
Continuous
 62
     7
100
AcDbLine
 10
67.5
 20
-230.0
 30
0.0
 11
67.5
 21
-244.0
 31
0.0
  0
LINE
  5
362
330
4A4
100
AcDbEntity
  8
DATA
  6
Continuous
 62
     7
100
AcDbLine
 10
67.5
 20
-244.0
 30
0.0
 11
83.49999999999999
 21
-244.0
 31
0.0
  0
LINE
  5
363
330
4A4
100
AcDbEntity
  8
DATA
  6
Continuous
 62
     7
100
AcDbLine
 10
83.49999999999999
 20
-230.0
 30
0.0
 11
83.49999999999999
 21
-244.0
 31
0.0
  0
LINE
  5
364
330
4A4
100
AcDbEntity
  8
DATA
  6
Continuous
 62
     7
100
AcDbLine
 10
67.5
 20
-230.0
 30
0.0
 11
83.49999999999999
 21
-230.0
 31
0.0
  0
LINE
  5
365
330
4A4
100
AcDbEntity
  8
DATA
  6
Continuous
 62
     7
100
AcDbLine
 10
69.0
 20
-232.2
 30
0.0
 11
82.0
 21
-232.2
 31
0.0
  0
LINE
  5
366
330
4A4
100
AcDbEntity
  8
DATA
  6
Continuous
 62
     7
100
AcDbLine
 10
69.0
 20
-232.2
 30
0.0
 11
69.0
 21
-240.8
 31
0.0
  0
LINE
  5
367
330
4A4
100
AcDbEntity
  8
DATA
  6
Continuous
 62
     7
100
AcDbLine
 10
82.0
 20
-232.2
 30
0.0
 11
82.0
 21
-240.8
 31
0.0
  0
LINE
  5
368
330
4A4
100
AcDbEntity
  8
DATA
  6
Continuous
 62
     7
100
AcDbLine
 10
73.0
 20
-244.0
 30
0.0
 11
73.0
 21
-243.2550129396166
 31
0.0
  0
LINE
  5
369
330
4A4
100
AcDbEntity
  8
DATA
  6
Continuous
 62
     7
100
AcDbLine
 10
78.0
 20
-243.2550129396166
 30
0.0
 11
78.0
 21
-244.0
 31
0.0
  0
LINE
  5
36A
330
4A4
100
AcDbEntity
  8
DATA
  6
Continuous
 62
     7
100
AcDbLine
 10
69.0
 20
-240.8
 30
0.0
 11
71.40000000000009
 21
-240.8
 31
0.0
  0
LINE
  5
36B
330
4A4
100
AcDbEntity
  8
DATA
  6
Continuous
 62
     7
100
AcDbLine
 10
71.40000000000009
 20
-243.2550129396166
 30
0.0
 11
71.40000000000009
 21
-240.8
 31
0.0
  0
LINE
  5
36C
330
4A4
100
AcDbEntity
  8
DATA
  6
Continuous
 62
     7
100
AcDbLine
 10
71.40000000000009
 20
-243.2550129396166
 30
0.0
 11
73.0
 21
-243.2550129396166
 31
0.0
  0
LINE
  5
36D
330
4A4
100
AcDbEntity
  8
DATA
  6
Continuous
 62
     7
100
AcDbLine
 10
82.0
 20
-240.8
 30
0.0
 11
79.59999999999992
 21
-240.8
 31
0.0
  0
LINE
  5
36E
330
4A4
100
AcDbEntity
  8
DATA
  6
Continuous
 62
     7
100
AcDbLine
 10
79.59999999999992
 20
-243.2550129396166
 30
0.0
 11
79.59999999999992
 21
-240.8
 31
0.0
  0
LINE
  5
36F
330
4A4
100
AcDbEntity
  8
DATA
  6
Continuous
 62
     7
100
AcDbLine
 10
79.59999999999992
 20
-243.2550129396166
 30
0.0
 11
78.0
 21
-243.2550129396166
 31
0.0
  0
LINE
  5
370
330
4A4
100
AcDbEntity
  8
DATA
  6
Continuous
 62
     7
100
AcDbLine
 10
73.0
 20
-243.7596816220732
 30
0.0
 11
78.0
 21
-243.7596816220732
 31
0.0
  0
CIRCLE
  5
371
330
4A4
100
AcDbEntity
  8
DATA
  6
Continuous
 62
     7
100
AcDbCircle
 10
114.0
 20
-241.0
 30
0.0
 40
2.5
  0
CIRCLE
  5
372
330
4A4
100
AcDbEntity
  8
DATA
  6
Continuous
 62
     7
100
AcDbCircle
 10
114.0
 20
-241.0
 30
0.0
 40
1.700000000000045
  0
CIRCLE
  5
373
330
4A4
100
AcDbEntity
  8
DATA
  6
Continuous
 62
     7
100
AcDbCircle
 10
126.5
 20
-241.0
 30
0.0
 40
2.5
  0
CIRCLE
  5
374
330
4A4
100
AcDbEntity
  8
DATA
  6
Continuous
 62
     7
100
AcDbCircle
 10
126.5
 20
-241.0
 30
0.0
 40
1.700000000000045
  0
TEXT
  5
375
330
4A4
100
AcDbEntity
  8
DATA
 62
     7
100
AcDbText
 10
72.77245072899106
 20
-248.6360259365384
 30
0.0
 40
2.606145833333332
  1
Link
 41
0.7
 72
     1
 11
75.50890385399106
 21
-247.3329530198717
 31
0.0
100
AcDbText
 73
     2
  0
TEXT
  5
376
330
4A4
100
AcDbEntity
  8
DATA
 62
     7
100
AcDbText
 10
105.5532121852011
 20
-248.6360259365384
 30
0.0
 40
2.606145833333332
  1
IR In/Ext
 41
0.7
 72
     1
 11
112.4855601018678
 21
-247.3329530198717
 31
0.0
100
AcDbText
 73
     2
  0
TEXT
  5
377
330
4A4
100
AcDbEntity
  8
DATA
 62
     7
100
AcDbText
 10
122.4208484838873
 20
-248.6360259365384
 30
0.0
 40
2.606145833333332
  1
IR Out
 41
0.7
 72
     1
 11
126.9207936227762
 21
-247.3329530198717
 31
0.0
100
AcDbText
 73
     2
  0
TEXT
  5
378
330
4A4
100
AcDbEntity
  8
DATA
 62
     7
100
AcDbText
 10
119.3694837093762
 20
-227.0831171314076
 30
0.0
 40
2.606145833333332
  1
GTB-UHD-HBT-R
 41
0.7
 11
119.3694837093762
 21
-224.4769712980743
 31
0.0
100
AcDbText
 73
     3
  0
LINE
  5
379
330
4A4
100
AcDbEntity
  8
DATA
  6
Continuous
 62
     7
100
AcDbLine
 10
162.5
 20
-250.0
 30
0.0
 11
247.5
 21
-250.0
 31
0.0
  0
LINE
  5
37A
330
4A4
100
AcDbEntity
  8
DATA
  6
Continuous
 62
     7
100
AcDbLine
 10
164.0
 20
-223.0
 30
0.0
 11
247.5
 21
-223.0
 31
0.0
  0
LINE
  5
37B
330
4A4
100
AcDbEntity
  8
DATA
  6
Continuous
 62
     7
100
AcDbLine
 10
162.5
 20
-250.0
 30
0.0
 11
162.5
 21
-224.5
 31
0.0
  0
LINE
  5
37C
330
4A4
100
AcDbEntity
  8
DATA
  6
Continuous
 62
     7
100
AcDbLine
 10
247.5
 20
-250.0
 30
0.0
 11
247.5
 21
-223.0
 31
0.0
  0
LINE
  5
37D
330
4A4
100
AcDbEntity
  8
DATA
  6
Continuous
 62
     7
100
AcDbLine
 10
162.5
 20
-248.5
 30
0.0
 11
247.5
 21
-248.5
 31
0.0
  0
CIRCLE
  5
37E
330
4A4
100
AcDbEntity
  8
DATA
  6
Continuous
 62
     7
100
AcDbCircle
 10
183.5
 20
-242.0
 30
0.0
 40
2.5
  0
LINE
  5
37F
330
4A4
100
AcDbEntity
  8
DATA
  6
Continuous
 62
     7
100
AcDbLine
 10
182.1847053562034
 20
-242.0
 30
0.0
 11
184.8152946437965
 21
-242.0
 31
0.0
  0
LINE
  5
380
330
4A4
100
AcDbEntity
  8
DATA
  6
Continuous
 62
     7
100
AcDbLine
 10
183.5
 20
-243.3152946437966
 30
0.0
 11
183.5
 21
-240.6847053562034
 31
0.0
  0
CIRCLE
  5
381
330
4A4
100
AcDbEntity
  8
DATA
  6
Continuous
 62
     7
100
AcDbCircle
 10
226.5
 20
-242.0
 30
0.0
 40
2.5
  0
LINE
  5
382
330
4A4
100
AcDbEntity
  8
DATA
  6
Continuous
 62
     7
100
AcDbLine
 10
227.8152946437965
 20
-242.0
 30
0.0
 11
225.1847053562034
 21
-242.0
 31
0.0
  0
LINE
  5
383
330
4A4
100
AcDbEntity
  8
DATA
  6
Continuous
 62
     7
100
AcDbLine
 10
226.5
 20
-243.3152946437966
 30
0.0
 11
226.5
 21
-240.6847053562034
 31
0.0
  0
LINE
  5
384
330
4A4
100
AcDbEntity
  8
DATA
  6
Continuous
 62
     7
100
AcDbLine
 10
253.5
 20
-227.5000000000001
 30
0.0
 11
253.5
 21
-232.5
 31
0.0
  0
LINE
  5
385
330
4A4
100
AcDbEntity
  8
DATA
  6
Continuous
 62
     7
100
AcDbLine
 10
247.8
 20
-230.0
 30
0.0
 11
253.5
 21
-230.0
 31
0.0
  0
LINE
  5
386
330
4A4
100
AcDbEntity
  8
DATA
  6
Continuous
 62
     7
100
AcDbLine
 10
247.5
 20
-227.5
 30
0.0
 11
253.5
 21
-227.5
 31
0.0
  0
LINE
  5
387
330
4A4
100
AcDbEntity
  8
DATA
  6
Continuous
 62
     7
100
AcDbLine
 10
253.5
 20
-232.5
 30
0.0
 11
247.8
 21
-232.5
 31
0.0
  0
LINE
  5
388
330
4A4
100
AcDbEntity
  8
DATA
  6
Continuous
 62
     7
100
AcDbLine
 10
247.8
 20
-229.55
 30
0.0
 11
247.8
 21
-242.45
 31
0.0
  0
LINE
  5
389
330
4A4
100
AcDbEntity
  8
DATA
  6
Continuous
 62
     7
100
AcDbLine
 10
247.8
 20
-229.55
 30
0.0
 11
247.5
 21
-229.55
 31
0.0
  0
LINE
  5
38A
330
4A4
100
AcDbEntity
  8
DATA
  6
Continuous
 62
     7
100
AcDbLine
 10
247.8
 20
-242.45
 30
0.0
 11
247.5
 21
-242.45
 31
0.0
  0
LINE
  5
38B
330
4A4
100
AcDbEntity
  8
DATA
  6
Continuous
 62
     7
100
AcDbLine
 10
248.0
 20
-236.4840987624289
 30
0.0
 11
248.0
 21
-236.7311422459549
 31
0.0
  0
LINE
  5
38C
330
4A4
100
AcDbEntity
  8
DATA
  6
Continuous
 62
     7
100
AcDbLine
 10
248.0
 20
-239.2688577540498
 30
0.0
 11
248.0
 21
-243.8840987624289
 31
0.0
  0
LINE
  5
38D
330
4A4
100
AcDbEntity
  8
DATA
  6
Continuous
 62
     7
100
AcDbLine
 10
248.0
 20
-236.484098762429
 30
0.0
 11
247.8
 21
-236.484098762429
 31
0.0
  0
LINE
  5
38E
330
4A4
100
AcDbEntity
  8
DATA
  6
Continuous
 62
     7
100
AcDbLine
 10
248.0
 20
-243.8840987624289
 30
0.0
 11
247.5
 21
-243.8840987624289
 31
0.0
  0
ARC
  5
38F
330
4A4
100
AcDbEntity
  8
DATA
  6
Continuous
 62
     7
100
AcDbCircle
 10
247.1999999999994
 20
-238.0000000000024
 30
0.0
 40
1.500000000002392
100
AcDbArc
 50
293.5781784781866
 51
66.4218215218134
  0
CIRCLE
  5
390
330
4A4
100
AcDbEntity
  8
DATA
  6
Continuous
 62
     7
100
AcDbCircle
 10
170.9375878924336
 20
-243.0
 30
0.0
 40
0.849999999999909
  0
CIRCLE
  5
391
330
4A4
100
AcDbEntity
  8
DATA
  6
Continuous
 62
     7
100
AcDbCircle
 10
169.5375878924335
 20
-240.2
 30
0.0
 40
0.8500000000001364
  0
CIRCLE
  5
392
330
4A4
100
AcDbEntity
  8
DATA
  6
Continuous
 62
     7
100
AcDbCircle
 10
170.9375878924336
 20
-237.4
 30
0.0
 40
0.849999999999909
  0
CIRCLE
  5
393
330
4A4
100
AcDbEntity
  8
DATA
  6
Continuous
 62
     7
100
AcDbCircle
 10
169.5375878924335
 20
-234.6
 30
0.0
 40
0.8500000000001364
  0
CIRCLE
  5
394
330
4A4
100
AcDbEntity
  8
DATA
  6
Continuous
 62
     7
100
AcDbCircle
 10
170.9375878924336
 20
-231.8
 30
0.0
 40
0.849999999999909
  0
CIRCLE
  5
395
330
4A4
100
AcDbEntity
  8
DATA
  6
Continuous
 62
     7
100
AcDbCircle
 10
169.5375878924335
 20
-229.0
 30
0.0
 40
0.8500000000001364
  0
CIRCLE
  5
396
330
4A4
100
AcDbEntity
  8
DATA
  6
Continuous
 62
     7
100
AcDbCircle
 10
173.7375878924335
 20
-243.0
 30
0.0
 40
0.8500000000001364
  0
CIRCLE
  5
397
330
4A4
100
AcDbEntity
  8
DATA
  6
Continuous
 62
     7
100
AcDbCircle
 10
172.3375878924337
 20
-240.2
 30
0.0
 40
0.849999999999909
  0
CIRCLE
  5
398
330
4A4
100
AcDbEntity
  8
DATA
  6
Continuous
 62
     7
100
AcDbCircle
 10
173.7375878924335
 20
-237.4
 30
0.0
 40
0.8500000000001364
  0
CIRCLE
  5
399
330
4A4
100
AcDbEntity
  8
DATA
  6
Continuous
 62
     7
100
AcDbCircle
 10
172.3375878924337
 20
-234.6
 30
0.0
 40
0.849999999999909
  0
CIRCLE
  5
39A
330
4A4
100
AcDbEntity
  8
DATA
  6
Continuous
 62
     7
100
AcDbCircle
 10
173.7375878924335
 20
-231.8
 30
0.0
 40
0.8500000000001364
  0
CIRCLE
  5
39B
330
4A4
100
AcDbEntity
  8
DATA
  6
Continuous
 62
     7
100
AcDbCircle
 10
172.3375878924337
 20
-229.0
 30
0.0
 40
0.849999999999909
  0
CIRCLE
  5
39C
330
4A4
100
AcDbEntity
  8
DATA
  6
Continuous
 62
     7
100
AcDbCircle
 10
176.5375878924335
 20
-243.0
 30
0.0
 40
0.8500000000001364
  0
CIRCLE
  5
39D
330
4A4
100
AcDbEntity
  8
DATA
  6
Continuous
 62
     7
100
AcDbCircle
 10
175.1375878924336
 20
-240.2
 30
0.0
 40
0.849999999999909
  0
CIRCLE
  5
39E
330
4A4
100
AcDbEntity
  8
DATA
  6
Continuous
 62
     7
100
AcDbCircle
 10
176.5375878924335
 20
-237.4
 30
0.0
 40
0.8500000000001364
  0
CIRCLE
  5
39F
330
4A4
100
AcDbEntity
  8
DATA
  6
Continuous
 62
     7
100
AcDbCircle
 10
175.1375878924336
 20
-234.6
 30
0.0
 40
0.849999999999909
  0
CIRCLE
  5
3A0
330
4A4
100
AcDbEntity
  8
DATA
  6
Continuous
 62
     7
100
AcDbCircle
 10
176.5375878924335
 20
-231.8
 30
0.0
 40
0.8500000000001364
  0
CIRCLE
  5
3A1
330
4A4
100
AcDbEntity
  8
DATA
  6
Continuous
 62
     7
100
AcDbCircle
 10
175.1375878924336
 20
-229.0
 30
0.0
 40
0.849999999999909
  0
CIRCLE
  5
3A2
330
4A4
100
AcDbEntity
  8
DATA
  6
Continuous
 62
     7
100
AcDbCircle
 10
177.9375878924336
 20
-234.6
 30
0.0
 40
0.849999999999909
  0
CIRCLE
  5
3A3
330
4A4
100
AcDbEntity
  8
DATA
  6
Continuous
 62
     7
100
AcDbCircle
 10
179.3375878924337
 20
-231.8
 30
0.0
 40
0.849999999999909
  0
CIRCLE
  5
3A4
330
4A4
100
AcDbEntity
  8
DATA
  6
Continuous
 62
     7
100
AcDbCircle
 10
177.9375878924336
 20
-229.0
 30
0.0
 40
0.849999999999909
  0
CIRCLE
  5
3A5
330
4A4
100
AcDbEntity
  8
DATA
  6
Continuous
 62
     7
100
AcDbCircle
 10
180.7375878924336
 20
-234.6
 30
0.0
 40
0.8500000000001364
  0
CIRCLE
  5
3A6
330
4A4
100
AcDbEntity
  8
DATA
  6
Continuous
 62
     7
100
AcDbCircle
 10
182.1375878924337
 20
-231.8
 30
0.0
 40
0.849999999999909
  0
CIRCLE
  5
3A7
330
4A4
100
AcDbEntity
  8
DATA
  6
Continuous
 62
     7
100
AcDbCircle
 10
180.7375878924336
 20
-229.0
 30
0.0
 40
0.8500000000001364
  0
CIRCLE
  5
3A8
330
4A4
100
AcDbEntity
  8
DATA
  6
Continuous
 62
     7
100
AcDbCircle
 10
183.5375878924335
 20
-234.6
 30
0.0
 40
0.8500000000001364
  0
CIRCLE
  5
3A9
330
4A4
100
AcDbEntity
  8
DATA
  6
Continuous
 62
     7
100
AcDbCircle
 10
184.9375878924336
 20
-231.8
 30
0.0
 40
0.849999999999909
  0
CIRCLE
  5
3AA
330
4A4
100
AcDbEntity
  8
DATA
  6
Continuous
 62
     7
100
AcDbCircle
 10
183.5375878924335
 20
-229.0
 30
0.0
 40
0.8500000000001364
  0
CIRCLE
  5
3AB
330
4A4
100
AcDbEntity
  8
DATA
  6
Continuous
 62
     7
100
AcDbCircle
 10
186.3375878924337
 20
-234.6
 30
0.0
 40
0.849999999999909
  0
CIRCLE
  5
3AC
330
4A4
100
AcDbEntity
  8
DATA
  6
Continuous
 62
     7
100
AcDbCircle
 10
187.7375878924336
 20
-231.8
 30
0.0
 40
0.8500000000001364
  0
CIRCLE
  5
3AD
330
4A4
100
AcDbEntity
  8
DATA
  6
Continuous
 62
     7
100
AcDbCircle
 10
186.3375878924337
 20
-229.0
 30
0.0
 40
0.849999999999909
  0
CIRCLE
  5
3AE
330
4A4
100
AcDbEntity
  8
DATA
  6
Continuous
 62
     7
100
AcDbCircle
 10
189.1375878924337
 20
-234.6
 30
0.0
 40
0.849999999999909
  0
CIRCLE
  5
3AF
330
4A4
100
AcDbEntity
  8
DATA
  6
Continuous
 62
     7
100
AcDbCircle
 10
190.5375878924335
 20
-231.8
 30
0.0
 40
0.8500000000001364
  0
CIRCLE
  5
3B0
330
4A4
100
AcDbEntity
  8
DATA
  6
Continuous
 62
     7
100
AcDbCircle
 10
189.1375878924337
 20
-229.0
 30
0.0
 40
0.849999999999909
  0
CIRCLE
  5
3B1
330
4A4
100
AcDbEntity
  8
DATA
  6
Continuous
 62
     7
100
AcDbCircle
 10
193.3375878924337
 20
-237.4
 30
0.0
 40
0.849999999999909
  0
CIRCLE
  5
3B2
330
4A4
100
AcDbEntity
  8
DATA
  6
Continuous
 62
     7
100
AcDbCircle
 10
191.9375878924336
 20
-234.6
 30
0.0
 40
0.849999999999909
  0
CIRCLE
  5
3B3
330
4A4
100
AcDbEntity
  8
DATA
  6
Continuous
 62
     7
100
AcDbCircle
 10
193.3375878924337
 20
-231.8
 30
0.0
 40
0.849999999999909
  0
CIRCLE
  5
3B4
330
4A4
100
AcDbEntity
  8
DATA
  6
Continuous
 62
     7
100
AcDbCircle
 10
191.9375878924336
 20
-229.0
 30
0.0
 40
0.849999999999909
  0
CIRCLE
  5
3B5
330
4A4
100
AcDbEntity
  8
DATA
  6
Continuous
 62
     7
100
AcDbCircle
 10
196.1375878924337
 20
-243.0
 30
0.0
 40
0.849999999999909
  0
CIRCLE
  5
3B6
330
4A4
100
AcDbEntity
  8
DATA
  6
Continuous
 62
     7
100
AcDbCircle
 10
194.7375878924336
 20
-240.2
 30
0.0
 40
0.8500000000001364
  0
CIRCLE
  5
3B7
330
4A4
100
AcDbEntity
  8
DATA
  6
Continuous
 62
     7
100
AcDbCircle
 10
196.1375878924337
 20
-237.4
 30
0.0
 40
0.849999999999909
  0
CIRCLE
  5
3B8
330
4A4
100
AcDbEntity
  8
DATA
  6
Continuous
 62
     7
100
AcDbCircle
 10
194.7375878924336
 20
-234.6
 30
0.0
 40
0.8500000000001364
  0
CIRCLE
  5
3B9
330
4A4
100
AcDbEntity
  8
DATA
  6
Continuous
 62
     7
100
AcDbCircle
 10
196.1375878924337
 20
-231.8
 30
0.0
 40
0.849999999999909
  0
CIRCLE
  5
3BA
330
4A4
100
AcDbEntity
  8
DATA
  6
Continuous
 62
     7
100
AcDbCircle
 10
194.7375878924336
 20
-229.0
 30
0.0
 40
0.8500000000001364
  0
CIRCLE
  5
3BB
330
4A4
100
AcDbEntity
  8
DATA
  6
Continuous
 62
     7
100
AcDbCircle
 10
198.9375878924336
 20
-243.0
 30
0.0
 40
0.849999999999909
  0
CIRCLE
  5
3BC
330
4A4
100
AcDbEntity
  8
DATA
  6
Continuous
 62
     7
100
AcDbCircle
 10
197.5375878924335
 20
-240.2
 30
0.0
 40
0.8500000000001364
  0
CIRCLE
  5
3BD
330
4A4
100
AcDbEntity
  8
DATA
  6
Continuous
 62
     7
100
AcDbCircle
 10
198.9375878924336
 20
-237.4
 30
0.0
 40
0.849999999999909
  0
CIRCLE
  5
3BE
330
4A4
100
AcDbEntity
  8
DATA
  6
Continuous
 62
     7
100
AcDbCircle
 10
197.5375878924335
 20
-234.6
 30
0.0
 40
0.8500000000001364
  0
CIRCLE
  5
3BF
330
4A4
100
AcDbEntity
  8
DATA
  6
Continuous
 62
     7
100
AcDbCircle
 10
198.9375878924336
 20
-231.8
 30
0.0
 40
0.849999999999909
  0
CIRCLE
  5
3C0
330
4A4
100
AcDbEntity
  8
DATA
  6
Continuous
 62
     7
100
AcDbCircle
 10
197.5375878924335
 20
-229.0
 30
0.0
 40
0.8500000000001364
  0
CIRCLE
  5
3C1
330
4A4
100
AcDbEntity
  8
DATA
  6
Continuous
 62
     7
100
AcDbCircle
 10
201.7375878924336
 20
-243.0
 30
0.0
 40
0.8500000000001364
  0
CIRCLE
  5
3C2
330
4A4
100
AcDbEntity
  8
DATA
  6
Continuous
 62
     7
100
AcDbCircle
 10
200.3375878924337
 20
-240.2
 30
0.0
 40
0.849999999999909
  0
CIRCLE
  5
3C3
330
4A4
100
AcDbEntity
  8
DATA
  6
Continuous
 62
     7
100
AcDbCircle
 10
201.7375878924336
 20
-237.4
 30
0.0
 40
0.8500000000001364
  0
CIRCLE
  5
3C4
330
4A4
100
AcDbEntity
  8
DATA
  6
Continuous
 62
     7
100
AcDbCircle
 10
200.3375878924337
 20
-234.6
 30
0.0
 40
0.849999999999909
  0
CIRCLE
  5
3C5
330
4A4
100
AcDbEntity
  8
DATA
  6
Continuous
 62
     7
100
AcDbCircle
 10
201.7375878924336
 20
-231.8
 30
0.0
 40
0.8500000000001364
  0
CIRCLE
  5
3C6
330
4A4
100
AcDbEntity
  8
DATA
  6
Continuous
 62
     7
100
AcDbCircle
 10
200.3375878924337
 20
-229.0
 30
0.0
 40
0.849999999999909
  0
CIRCLE
  5
3C7
330
4A4
100
AcDbEntity
  8
DATA
  6
Continuous
 62
     7
100
AcDbCircle
 10
204.5375878924335
 20
-243.0
 30
0.0
 40
0.8500000000001364
  0
CIRCLE
  5
3C8
330
4A4
100
AcDbEntity
  8
DATA
  6
Continuous
 62
     7
100
AcDbCircle
 10
203.1375878924337
 20
-240.2
 30
0.0
 40
0.849999999999909
  0
CIRCLE
  5
3C9
330
4A4
100
AcDbEntity
  8
DATA
  6
Continuous
 62
     7
100
AcDbCircle
 10
204.5375878924335
 20
-237.4
 30
0.0
 40
0.8500000000001364
  0
CIRCLE
  5
3CA
330
4A4
100
AcDbEntity
  8
DATA
  6
Continuous
 62
     7
100
AcDbCircle
 10
203.1375878924337
 20
-234.6
 30
0.0
 40
0.849999999999909
  0
CIRCLE
  5
3CB
330
4A4
100
AcDbEntity
  8
DATA
  6
Continuous
 62
     7
100
AcDbCircle
 10
204.5375878924335
 20
-231.8
 30
0.0
 40
0.8500000000001364
  0
CIRCLE
  5
3CC
330
4A4
100
AcDbEntity
  8
DATA
  6
Continuous
 62
     7
100
AcDbCircle
 10
203.1375878924337
 20
-229.0
 30
0.0
 40
0.849999999999909
  0
CIRCLE
  5
3CD
330
4A4
100
AcDbEntity
  8
DATA
  6
Continuous
 62
     7
100
AcDbCircle
 10
207.3375878924337
 20
-243.0
 30
0.0
 40
0.849999999999909
  0
CIRCLE
  5
3CE
330
4A4
100
AcDbEntity
  8
DATA
  6
Continuous
 62
     7
100
AcDbCircle
 10
205.9375878924336
 20
-240.2
 30
0.0
 40
0.849999999999909
  0
CIRCLE
  5
3CF
330
4A4
100
AcDbEntity
  8
DATA
  6
Continuous
 62
     7
100
AcDbCircle
 10
207.3375878924337
 20
-237.4
 30
0.0
 40
0.849999999999909
  0
CIRCLE
  5
3D0
330
4A4
100
AcDbEntity
  8
DATA
  6
Continuous
 62
     7
100
AcDbCircle
 10
205.9375878924336
 20
-234.6
 30
0.0
 40
0.849999999999909
  0
CIRCLE
  5
3D1
330
4A4
100
AcDbEntity
  8
DATA
  6
Continuous
 62
     7
100
AcDbCircle
 10
207.3375878924337
 20
-231.8
 30
0.0
 40
0.849999999999909
  0
CIRCLE
  5
3D2
330
4A4
100
AcDbEntity
  8
DATA
  6
Continuous
 62
     7
100
AcDbCircle
 10
205.9375878924336
 20
-229.0
 30
0.0
 40
0.849999999999909
  0
CIRCLE
  5
3D3
330
4A4
100
AcDbEntity
  8
DATA
  6
Continuous
 62
     7
100
AcDbCircle
 10
210.1375878924337
 20
-243.0
 30
0.0
 40
0.849999999999909
  0
CIRCLE
  5
3D4
330
4A4
100
AcDbEntity
  8
DATA
  6
Continuous
 62
     7
100
AcDbCircle
 10
208.7375878924336
 20
-240.2
 30
0.0
 40
0.8500000000001364
  0
CIRCLE
  5
3D5
330
4A4
100
AcDbEntity
  8
DATA
  6
Continuous
 62
     7
100
AcDbCircle
 10
210.1375878924337
 20
-237.4
 30
0.0
 40
0.849999999999909
  0
CIRCLE
  5
3D6
330
4A4
100
AcDbEntity
  8
DATA
  6
Continuous
 62
     7
100
AcDbCircle
 10
208.7375878924336
 20
-234.6
 30
0.0
 40
0.8500000000001364
  0
CIRCLE
  5
3D7
330
4A4
100
AcDbEntity
  8
DATA
  6
Continuous
 62
     7
100
AcDbCircle
 10
210.1375878924337
 20
-231.8
 30
0.0
 40
0.849999999999909
  0
CIRCLE
  5
3D8
330
4A4
100
AcDbEntity
  8
DATA
  6
Continuous
 62
     7
100
AcDbCircle
 10
208.7375878924336
 20
-229.0
 30
0.0
 40
0.8500000000001364
  0
CIRCLE
  5
3D9
330
4A4
100
AcDbEntity
  8
DATA
  6
Continuous
 62
     7
100
AcDbCircle
 10
212.9375878924336
 20
-243.0
 30
0.0
 40
0.849999999999909
  0
CIRCLE
  5
3DA
330
4A4
100
AcDbEntity
  8
DATA
  6
Continuous
 62
     7
100
AcDbCircle
 10
211.5375878924335
 20
-240.2
 30
0.0
 40
0.8500000000001364
  0
CIRCLE
  5
3DB
330
4A4
100
AcDbEntity
  8
DATA
  6
Continuous
 62
     7
100
AcDbCircle
 10
212.9375878924336
 20
-237.4
 30
0.0
 40
0.849999999999909
  0
CIRCLE
  5
3DC
330
4A4
100
AcDbEntity
  8
DATA
  6
Continuous
 62
     7
100
AcDbCircle
 10
211.5375878924335
 20
-234.6
 30
0.0
 40
0.8500000000001364
  0
CIRCLE
  5
3DD
330
4A4
100
AcDbEntity
  8
DATA
  6
Continuous
 62
     7
100
AcDbCircle
 10
212.9375878924336
 20
-231.8
 30
0.0
 40
0.849999999999909
  0
CIRCLE
  5
3DE
330
4A4
100
AcDbEntity
  8
DATA
  6
Continuous
 62
     7
100
AcDbCircle
 10
211.5375878924335
 20
-229.0
 30
0.0
 40
0.8500000000001364
  0
CIRCLE
  5
3DF
330
4A4
100
AcDbEntity
  8
DATA
  6
Continuous
 62
     7
100
AcDbCircle
 10
215.7375878924336
 20
-243.0
 30
0.0
 40
0.8500000000001364
  0
CIRCLE
  5
3E0
330
4A4
100
AcDbEntity
  8
DATA
  6
Continuous
 62
     7
100
AcDbCircle
 10
214.3375878924337
 20
-240.2
 30
0.0
 40
0.849999999999909
  0
CIRCLE
  5
3E1
330
4A4
100
AcDbEntity
  8
DATA
  6
Continuous
 62
     7
100
AcDbCircle
 10
215.7375878924336
 20
-237.4
 30
0.0
 40
0.8500000000001364
  0
CIRCLE
  5
3E2
330
4A4
100
AcDbEntity
  8
DATA
  6
Continuous
 62
     7
100
AcDbCircle
 10
214.3375878924337
 20
-234.6
 30
0.0
 40
0.849999999999909
  0
CIRCLE
  5
3E3
330
4A4
100
AcDbEntity
  8
DATA
  6
Continuous
 62
     7
100
AcDbCircle
 10
215.7375878924336
 20
-231.8
 30
0.0
 40
0.8500000000001364
  0
CIRCLE
  5
3E4
330
4A4
100
AcDbEntity
  8
DATA
  6
Continuous
 62
     7
100
AcDbCircle
 10
214.3375878924337
 20
-229.0
 30
0.0
 40
0.849999999999909
  0
CIRCLE
  5
3E5
330
4A4
100
AcDbEntity
  8
DATA
  6
Continuous
 62
     7
100
AcDbCircle
 10
218.5375878924336
 20
-243.0
 30
0.0
 40
0.849999999999909
  0
CIRCLE
  5
3E6
330
4A4
100
AcDbEntity
  8
DATA
  6
Continuous
 62
     7
100
AcDbCircle
 10
217.1375878924334
 20
-240.2
 30
0.0
 40
0.8500000000001364
  0
CIRCLE
  5
3E7
330
4A4
100
AcDbEntity
  8
DATA
  6
Continuous
 62
     7
100
AcDbCircle
 10
218.5375878924336
 20
-237.4
 30
0.0
 40
0.849999999999909
  0
CIRCLE
  5
3E8
330
4A4
100
AcDbEntity
  8
DATA
  6
Continuous
 62
     7
100
AcDbCircle
 10
217.1375878924334
 20
-234.6
 30
0.0
 40
0.8500000000001364
  0
CIRCLE
  5
3E9
330
4A4
100
AcDbEntity
  8
DATA
  6
Continuous
 62
     7
100
AcDbCircle
 10
218.5375878924336
 20
-231.8
 30
0.0
 40
0.849999999999909
  0
CIRCLE
  5
3EA
330
4A4
100
AcDbEntity
  8
DATA
  6
Continuous
 62
     7
100
AcDbCircle
 10
217.1375878924334
 20
-229.0
 30
0.0
 40
0.8500000000001364
  0
CIRCLE
  5
3EB
330
4A4
100
AcDbEntity
  8
DATA
  6
Continuous
 62
     7
100
AcDbCircle
 10
219.9375878924332
 20
-234.6
 30
0.0
 40
0.849999999999909
  0
CIRCLE
  5
3EC
330
4A4
100
AcDbEntity
  8
DATA
  6
Continuous
 62
     7
100
AcDbCircle
 10
221.3375878924328
 20
-231.8
 30
0.0
 40
0.849999999999909
  0
CIRCLE
  5
3ED
330
4A4
100
AcDbEntity
  8
DATA
  6
Continuous
 62
     7
100
AcDbCircle
 10
219.9375878924332
 20
-229.0
 30
0.0
 40
0.849999999999909
  0
CIRCLE
  5
3EE
330
4A4
100
AcDbEntity
  8
DATA
  6
Continuous
 62
     7
100
AcDbCircle
 10
222.7375878924326
 20
-234.6
 30
0.0
 40
0.849999999999909
  0
CIRCLE
  5
3EF
330
4A4
100
AcDbEntity
  8
DATA
  6
Continuous
 62
     7
100
AcDbCircle
 10
224.1375878924325
 20
-231.8
 30
0.0
 40
0.8500000000001364
  0
CIRCLE
  5
3F0
330
4A4
100
AcDbEntity
  8
DATA
  6
Continuous
 62
     7
100
AcDbCircle
 10
222.7375878924326
 20
-229.0
 30
0.0
 40
0.849999999999909
  0
CIRCLE
  5
3F1
330
4A4
100
AcDbEntity
  8
DATA
  6
Continuous
 62
     7
100
AcDbCircle
 10
225.5375878924326
 20
-234.6
 30
0.0
 40
0.849999999999909
  0
CIRCLE
  5
3F2
330
4A4
100
AcDbEntity
  8
DATA
  6
Continuous
 62
     7
100
AcDbCircle
 10
226.9375878924325
 20
-231.8
 30
0.0
 40
0.8500000000001364
  0
CIRCLE
  5
3F3
330
4A4
100
AcDbEntity
  8
DATA
  6
Continuous
 62
     7
100
AcDbCircle
 10
225.5375878924326
 20
-229.0
 30
0.0
 40
0.849999999999909
  0
CIRCLE
  5
3F4
330
4A4
100
AcDbEntity
  8
DATA
  6
Continuous
 62
     7
100
AcDbCircle
 10
228.3375878924326
 20
-234.6
 30
0.0
 40
0.8500000000001364
  0
CIRCLE
  5
3F5
330
4A4
100
AcDbEntity
  8
DATA
  6
Continuous
 62
     7
100
AcDbCircle
 10
229.7375878924326
 20
-231.8
 30
0.0
 40
0.849999999999909
  0
CIRCLE
  5
3F6
330
4A4
100
AcDbEntity
  8
DATA
  6
Continuous
 62
     7
100
AcDbCircle
 10
228.3375878924326
 20
-229.0
 30
0.0
 40
0.8500000000001364
  0
CIRCLE
  5
3F7
330
4A4
100
AcDbEntity
  8
DATA
  6
Continuous
 62
     7
100
AcDbCircle
 10
231.1375878924325
 20
-234.6
 30
0.0
 40
0.8500000000001364
  0
CIRCLE
  5
3F8
330
4A4
100
AcDbEntity
  8
DATA
  6
Continuous
 62
     7
100
AcDbCircle
 10
232.5375878924326
 20
-231.8
 30
0.0
 40
0.849999999999909
  0
CIRCLE
  5
3F9
330
4A4
100
AcDbEntity
  8
DATA
  6
Continuous
 62
     7
100
AcDbCircle
 10
231.1375878924325
 20
-229.0
 30
0.0
 40
0.8500000000001364
  0
CIRCLE
  5
3FA
330
4A4
100
AcDbEntity
  8
DATA
  6
Continuous
 62
     7
100
AcDbCircle
 10
233.9375878924325
 20
-234.6
 30
0.0
 40
0.8500000000001364
  0
CIRCLE
  5
3FB
330
4A4
100
AcDbEntity
  8
DATA
  6
Continuous
 62
     7
100
AcDbCircle
 10
235.3375878924325
 20
-231.8
 30
0.0
 40
0.8500000000001364
  0
CIRCLE
  5
3FC
330
4A4
100
AcDbEntity
  8
DATA
  6
Continuous
 62
     7
100
AcDbCircle
 10
233.9375878924325
 20
-229.0
 30
0.0
 40
0.8500000000001364
  0
CIRCLE
  5
3FD
330
4A4
100
AcDbEntity
  8
DATA
  6
Continuous
 62
     7
100
AcDbCircle
 10
238.1375878924325
 20
-243.0
 30
0.0
 40
0.8500000000001364
  0
CIRCLE
  5
3FE
330
4A4
100
AcDbEntity
  8
DATA
  6
Continuous
 62
     7
100
AcDbCircle
 10
238.1375878924325
 20
-237.4
 30
0.0
 40
0.8500000000001364
  0
CIRCLE
  5
3FF
330
4A4
100
AcDbEntity
  8
DATA
  6
Continuous
 62
     7
100
AcDbCircle
 10
236.7375878924326
 20
-234.6
 30
0.0
 40
0.849999999999909
  0
CIRCLE
  5
400
330
4A4
100
AcDbEntity
  8
DATA
  6
Continuous
 62
     7
100
AcDbCircle
 10
238.1375878924325
 20
-231.8
 30
0.0
 40
0.8500000000001364
  0
CIRCLE
  5
401
330
4A4
100
AcDbEntity
  8
DATA
  6
Continuous
 62
     7
100
AcDbCircle
 10
236.7375878924326
 20
-229.0
 30
0.0
 40
0.849999999999909
  0
CIRCLE
  5
402
330
4A4
100
AcDbEntity
  8
DATA
  6
Continuous
 62
     7
100
AcDbCircle
 10
240.9375878924325
 20
-243.0
 30
0.0
 40
0.8500000000001364
  0
CIRCLE
  5
403
330
4A4
100
AcDbEntity
  8
DATA
  6
Continuous
 62
     7
100
AcDbCircle
 10
239.5375878924326
 20
-240.2
 30
0.0
 40
0.849999999999909
  0
CIRCLE
  5
404
330
4A4
100
AcDbEntity
  8
DATA
  6
Continuous
 62
     7
100
AcDbCircle
 10
240.9375878924325
 20
-237.4
 30
0.0
 40
0.8500000000001364
  0
CIRCLE
  5
405
330
4A4
100
AcDbEntity
  8
DATA
  6
Continuous
 62
     7
100
AcDbCircle
 10
239.5375878924326
 20
-234.6
 30
0.0
 40
0.849999999999909
  0
CIRCLE
  5
406
330
4A4
100
AcDbEntity
  8
DATA
  6
Continuous
 62
     7
100
AcDbCircle
 10
240.9375878924325
 20
-231.8
 30
0.0
 40
0.8500000000001364
  0
CIRCLE
  5
407
330
4A4
100
AcDbEntity
  8
DATA
  6
Continuous
 62
     7
100
AcDbCircle
 10
239.5375878924326
 20
-229.0
 30
0.0
 40
0.849999999999909
  0
CIRCLE
  5
408
330
4A4
100
AcDbEntity
  8
DATA
  6
Continuous
 62
     7
100
AcDbCircle
 10
242.3375878924326
 20
-240.2
 30
0.0
 40
0.849999999999909
  0
CIRCLE
  5
409
330
4A4
100
AcDbEntity
  8
DATA
  6
Continuous
 62
     7
100
AcDbCircle
 10
243.7375878924324
 20
-237.4
 30
0.0
 40
0.8500000000001364
  0
CIRCLE
  5
40A
330
4A4
100
AcDbEntity
  8
DATA
  6
Continuous
 62
     7
100
AcDbCircle
 10
242.3375878924326
 20
-234.6
 30
0.0
 40
0.849999999999909
  0
CIRCLE
  5
40B
330
4A4
100
AcDbEntity
  8
DATA
  6
Continuous
 62
     7
100
AcDbCircle
 10
243.7375878924324
 20
-231.8
 30
0.0
 40
0.8500000000001364
  0
CIRCLE
  5
40C
330
4A4
100
AcDbEntity
  8
DATA
  6
Continuous
 62
     7
100
AcDbCircle
 10
242.3375878924326
 20
-229.0
 30
0.0
 40
0.849999999999909
  0
CIRCLE
  5
40D
330
4A4
100
AcDbEntity
  8
DATA
  6
Continuous
 62
     7
100
AcDbCircle
 10
245.1375878924325
 20
-240.2
 30
0.0
 40
0.8500000000001364
  0
CIRCLE
  5
40E
330
4A4
100
AcDbEntity
  8
DATA
  6
Continuous
 62
     7
100
AcDbCircle
 10
245.1375878924325
 20
-234.6
 30
0.0
 40
0.8500000000001364
  0
CIRCLE
  5
40F
330
4A4
100
AcDbEntity
  8
DATA
  6
Continuous
 62
     7
100
AcDbCircle
 10
245.1375878924325
 20
-229.0
 30
0.0
 40
0.8500000000001364
  0
CIRCLE
  5
410
330
4A4
100
AcDbEntity
  8
DATA
  6
Continuous
 62
     7
100
AcDbCircle
 10
168.1375878924336
 20
-243.0
 30
0.0
 40
0.849999999999909
  0
CIRCLE
  5
411
330
4A4
100
AcDbEntity
  8
DATA
  6
Continuous
 62
     7
100
AcDbCircle
 10
166.7375878924335
 20
-240.2
 30
0.0
 40
0.8500000000001364
  0
CIRCLE
  5
412
330
4A4
100
AcDbEntity
  8
DATA
  6
Continuous
 62
     7
100
AcDbCircle
 10
168.1375878924336
 20
-237.4
 30
0.0
 40
0.849999999999909
  0
CIRCLE
  5
413
330
4A4
100
AcDbEntity
  8
DATA
  6
Continuous
 62
     7
100
AcDbCircle
 10
166.7375878924335
 20
-234.6
 30
0.0
 40
0.8500000000001364
  0
CIRCLE
  5
414
330
4A4
100
AcDbEntity
  8
DATA
  6
Continuous
 62
     7
100
AcDbCircle
 10
168.1375878924336
 20
-231.8
 30
0.0
 40
0.849999999999909
  0
CIRCLE
  5
415
330
4A4
100
AcDbEntity
  8
DATA
  6
Continuous
 62
     7
100
AcDbCircle
 10
166.7375878924335
 20
-229.0
 30
0.0
 40
0.8500000000001364
  0
CIRCLE
  5
416
330
4A4
100
AcDbEntity
  8
DATA
  6
Continuous
 62
     7
100
AcDbCircle
 10
165.3375878924336
 20
-243.0
 30
0.0
 40
0.849999999999909
  0
CIRCLE
  5
417
330
4A4
100
AcDbEntity
  8
DATA
  6
Continuous
 62
     7
100
AcDbCircle
 10
165.3375878924336
 20
-237.4
 30
0.0
 40
0.849999999999909
  0
CIRCLE
  5
418
330
4A4
100
AcDbEntity
  8
DATA
  6
Continuous
 62
     7
100
AcDbCircle
 10
165.3375878924336
 20
-231.8
 30
0.0
 40
0.849999999999909
  0
CIRCLE
  5
419
330
4A4
100
AcDbEntity
  8
DATA
  6
Continuous
 62
     7
100
AcDbCircle
 10
235.3375878924325
 20
-243.0
 30
0.0
 40
0.8500000000001364
  0
CIRCLE
  5
41A
330
4A4
100
AcDbEntity
  8
DATA
  6
Continuous
 62
     7
100
AcDbCircle
 10
235.3375878924325
 20
-237.4
 30
0.0
 40
0.8500000000001364
  0
CIRCLE
  5
41B
330
4A4
100
AcDbEntity
  8
DATA
  6
Continuous
 62
     7
100
AcDbCircle
 10
236.7375878924324
 20
-240.2
 30
0.0
 40
0.8500000000001364
  0
CIRCLE
  5
41C
330
4A4
100
AcDbEntity
  8
DATA
  6
Continuous
 62
     7
100
AcDbCircle
 10
193.3375878924337
 20
-243.0
 30
0.0
 40
0.849999999999909
  0
CIRCLE
  5
41D
330
4A4
100
AcDbEntity
  8
DATA
  6
Continuous
 62
     7
100
AcDbCircle
 10
190.5375878924335
 20
-237.4
 30
0.0
 40
0.8500000000001364
  0
CIRCLE
  5
41E
330
4A4
100
AcDbEntity
  8
DATA
  6
Continuous
 62
     7
100
AcDbCircle
 10
191.9375878924336
 20
-240.2
 30
0.0
 40
0.849999999999909
  0
CIRCLE
  5
41F
330
4A4
100
AcDbEntity
  8
DATA
  6
Continuous
 62
     7
100
AcDbCircle
 10
190.5375878924335
 20
-243.0
 30
0.0
 40
0.8500000000001364
  0
ARC
  5
420
330
4A4
100
AcDbEntity
  8
DATA
  6
Continuous
 62
     7
100
AcDbCircle
 10
164.0
 20
-224.5
 30
0.0
 40
1.5
100
AcDbArc
 50
90.0
 51
180.0
  0
CIRCLE
  5
421
330
4A4
100
AcDbEntity
  8
DATA
  6
Continuous
 62
     7
100
AcDbCircle
 10
179.3375878924337
 20
-243.0
 30
0.0
 40
0.849999999999909
  0
CIRCLE
  5
422
330
4A4
100
AcDbEntity
  8
DATA
  6
Continuous
 62
     7
100
AcDbCircle
 10
177.9375878924336
 20
-240.2
 30
0.0
 40
0.849999999999909
  0
CIRCLE
  5
423
330
4A4
100
AcDbEntity
  8
DATA
  6
Continuous
 62
     7
100
AcDbCircle
 10
179.3375878924337
 20
-237.4
 30
0.0
 40
0.849999999999909
  0
CIRCLE
  5
424
330
4A4
100
AcDbEntity
  8
DATA
  6
Continuous
 62
     7
100
AcDbCircle
 10
187.7375878924336
 20
-237.4
 30
0.0
 40
0.8500000000001364
  0
CIRCLE
  5
425
330
4A4
100
AcDbEntity
  8
DATA
  6
Continuous
 62
     7
100
AcDbCircle
 10
189.1375878924334
 20
-240.2
 30
0.0
 40
0.8500000000001364
  0
CIRCLE
  5
426
330
4A4
100
AcDbEntity
  8
DATA
  6
Continuous
 62
     7
100
AcDbCircle
 10
187.7375878924336
 20
-243.0
 30
0.0
 40
0.8500000000001364
  0
CIRCLE
  5
427
330
4A4
100
AcDbEntity
  8
DATA
  6
Continuous
 62
     7
100
AcDbCircle
 10
221.3375878924337
 20
-243.0
 30
0.0
 40
0.8499999999996816
  0
CIRCLE
  5
428
330
4A4
100
AcDbEntity
  8
DATA
  6
Continuous
 62
     7
100
AcDbCircle
 10
219.9375878924336
 20
-240.2
 30
0.0
 40
0.849999999999909
  0
CIRCLE
  5
429
330
4A4
100
AcDbEntity
  8
DATA
  6
Continuous
 62
     7
100
AcDbCircle
 10
221.3375878924337
 20
-237.4
 30
0.0
 40
0.8499999999996816
  0
CIRCLE
  5
42A
330
4A4
100
AcDbEntity
  8
DATA
  6
Continuous
 62
     7
100
AcDbCircle
 10
232.5375878924326
 20
-243.0
 30
0.0
 40
0.849999999999909
  0
CIRCLE
  5
42B
330
4A4
100
AcDbEntity
  8
DATA
  6
Continuous
 62
     7
100
AcDbCircle
 10
232.5375878924326
 20
-237.4
 30
0.0
 40
0.849999999999909
  0
CIRCLE
  5
42C
330
4A4
100
AcDbEntity
  8
DATA
  6
Continuous
 62
     7
100
AcDbCircle
 10
233.9375878924325
 20
-240.2
 30
0.0
 40
0.8500000000001364
  0
TEXT
  5
42D
330
4A4
100
AcDbEntity
  8
DATA
 62
     7
100
AcDbText
 10
142.4999999999999
 20
-339.0326244444445
 30
0.0
 40
6.515364583333332
  1
4K UHD HDMI延長機
 41
0.7
 11
142.4999999999999
 21
-332.5172598611112
 31
0.0
100
AcDbText
 73
     3
  0
TEXT
  5
42E
330
4A4
100
AcDbEntity
  8
DATA
 62
     7
100
AcDbText
 10
118.0923381257217
 20
-53.21317667388722
 30
0.0
 40
2.1891625
  1
Power
 50
180.0
 41
0.7
 72
     1
 11
114.5167060423884
 21
-54.30775792388722
 31
0.0
100
AcDbText
 73
     2
  0
TEXT
  5
42F
330
4A4
100
AcDbEntity
  8
DATA
 62
     7
100
AcDbText
 10
116.8153266673884
 20
-50.36837667388723
 30
0.0
 40
2.1891625
  1
Link
 50
180.0
 41
0.7
 72
     1
 11
114.5167060423884
 21
-51.46295792388722
 31
0.0
100
AcDbText
 73
     2
  0
CIRCLE
  5
430
330
4A4
100
AcDbEntity
  8
DATA
  6
Continuous
 62
     7
100
AcDbCircle
 10
-154.25
 20
-60.0
 30
0.0
 40
1.5
  0
TEXT
  5
431
330
4A4
100
AcDbEntity
  8
DATA
 62
     7
100
AcDbText
 10
-150.6576618742782
 20
-53.21317667388722
 30
0.0
 40
2.1891625
  1
Power
 50
180.0
 41
0.7
 72
     1
 11
-154.2332939576116
 21
-54.30775792388722
 31
0.0
100
AcDbText
 73
     2
  0
TEXT
  5
432
330
4A4
100
AcDbEntity
  8
DATA
 62
     7
100
AcDbText
 10
-151.9346733326116
 20
-50.36837667388723
 30
0.0
 40
2.1891625
  1
Link
 50
180.0
 41
0.7
 72
     1
 11
-154.2332939576116
 21
-51.46295792388722
 31
0.0
100
AcDbText
 73
     2
  0
LINE
  5
433
330
4A4
100
AcDbEntity
  8
DATA
  6
Continuous
 62
     7
100
AcDbLine
 10
-3.125
 20
-31.25
 30
0.0
 11
-3.125
 21
-300.0
 31
0.0
  0
ENDSEC
  0
SECTION
  2
OBJECTS
  0
DICTIONARY
  5
441
330
0
100
AcDbDictionary
281
     1
  3
ACAD_CIP_PREVIOUS_PRODUCT_INFO
350
4BC
  3
ACAD_COLOR
350
497
  3
ACAD_DETAILVIEWSTYLE
350
49E
  3
ACAD_GROUP
350
442
  3
ACAD_LAYOUT
350
496
  3
ACAD_MATERIAL
350
445
  3
ACAD_MLEADERSTYLE
350
49A
  3
ACAD_MLINESTYLE
350
493
  3
ACAD_PLOTSETTINGS
350
495
  3
ACAD_PLOTSTYLENAME
350
443
  3
ACAD_SCALELIST
350
477
  3
ACAD_SECTIONVIEWSTYLE
350
49C
  3
ACAD_TABLESTYLE
350
498
  3
ACAD_VISUALSTYLE
350
45E
  3
ACDB_RECOMPOSE_DATA
350
4D4
  3
AcDbVariableDictionary
350
4C7
  3
DWGPROPS
350
4D5
  0
DICTIONARY
  5
4BD
330
489
100
AcDbDictionary
280
     1
281
     1
  3
ADSK_XREC_LAYER_RECONCILED
360
4BE
  0
DICTIONARY
  5
4BF
330
4A8
100
AcDbDictionary
280
     1
281
     1
  3
ADSK_XREC_LAYER_RECONCILED
360
4C0
  0
DICTIONARY
  5
4C1
330
4B4
100
AcDbDictionary
280
     1
281
     1
  3
ADSK_XREC_LAYER_RECONCILED
360
4C2
  0
DICTIONARY
  5
4C3
330
4B5
100
AcDbDictionary
280
     1
281
     1
  3
ADSK_XREC_LAYER_RECONCILED
360
4C4
  0
DICTIONARY
  5
4C5
330
4B6
100
AcDbDictionary
280
     1
281
     1
  3
ADSK_XREC_LAYER_RECONCILED
360
4C6
  0
XRECORD
  5
4BC
102
{ACAD_REACTORS
330
441
102
}
330
441
100
AcDbXrecord
280
     1
300
ACDLT
300
2018
300

  0
DICTIONARY
  5
497
102
{ACAD_REACTORS
330
441
102
}
330
441
100
AcDbDictionary
281
     1
  0
DICTIONARY
  5
49E
102
{ACAD_REACTORS
330
441
102
}
330
441
100
AcDbDictionary
281
     1
  3
Imperial24
350
49F
  0
DICTIONARY
  5
442
102
{ACAD_REACTORS
330
441
102
}
330
441
100
AcDbDictionary
281
     1
  0
DICTIONARY
  5
496
102
{ACAD_REACTORS
330
441
102
}
330
441
100
AcDbDictionary
281
     1
  3
Model
350
4A7
  3
レイアウト1
350
4A3
  0
DICTIONARY
  5
445
102
{ACAD_REACTORS
330
441
102
}
330
441
100
AcDbDictionary
281
     1
  3
ByBlock
350
44E
  3
ByLayer
350
446
  3
Global
350
456
  0
DICTIONARY
  5
49A
102
{ACAD_REACTORS
330
441
102
}
330
441
100
AcDbDictionary
281
     1
  3
Standard
350
49B
  0
DICTIONARY
  5
493
102
{ACAD_REACTORS
330
441
102
}
330
441
100
AcDbDictionary
281
     1
  3
Standard
350
494
  0
DICTIONARY
  5
495
102
{ACAD_REACTORS
330
441
102
}
330
441
100
AcDbDictionary
281
     1
  0
ACDBDICTIONARYWDFLT
  5
443
102
{ACAD_REACTORS
330
441
102
}
330
441
100
AcDbDictionary
281
     1
  3
Normal
350
444
100
AcDbDictionaryWithDefault
340
444
  0
DICTIONARY
  5
477
102
{ACAD_REACTORS
330
441
102
}
330
441
100
AcDbDictionary
281
     1
  3
A0
350
478
  3
A1
350
479
  3
A2
350
47A
  3
A3
350
47B
  3
A4
350
47C
  3
A5
350
47D
  3
A6
350
47E
  3
A7
350
47F
  3
A8
350
480
  3
A9
350
481
  3
B0
350
482
  3
B1
350
483
  3
B2
350
484
  3
B3
350
485
  3
B4
350
486
  3
B5
350
487
  3
B6
350
488
  0
DICTIONARY
  5
49C
102
{ACAD_REACTORS
330
441
102
}
330
441
100
AcDbDictionary
281
     1
  3
Imperial24
350
49D
  0
DICTIONARY
  5
498
102
{ACAD_REACTORS
330
441
102
}
330
441
100
AcDbDictionary
281
     1
  3
Standard
350
499
  0
DICTIONARY
  5
45E
102
{ACAD_REACTORS
330
441
102
}
330
441
100
AcDbDictionary
281
     1
  3
2dWireframe
350
464
  3
Basic
350
463
  3
Brighten
350
46A
  3
ColorChange
350
46E
  3
Conceptual
350
467
  3
Dim
350
469
  3
EdgeColorOff
350
476
  3
Facepattern
350
46D
  3
Flat
350
45F
  3
FlatWithEdges
350
460
  3
Gouraud
350
461
  3
GouraudWithEdges
350
462
  3
Hidden
350
466
  3
JitterOff
350
474
  3
Linepattern
350
46C
  3
OverhangOff
350
475
  3
Realistic
350
468
  3
Shaded
350
473
  3
Shaded with edges
350
472
  3
Shades of Gray
350
46F
  3
Sketchy
350
470
  3
Thicken
350
46B
  3
Wireframe
350
465
  3
X-Ray
350
471
  0
XRECORD
  5
4D4
102
{ACAD_REACTORS
330
441
102
}
330
441
100
AcDbXrecord
280
     1
 90
        1
330
499
  0
DICTIONARY
  5
4C7
102
{ACAD_REACTORS
330
441
102
}
330
441
100
AcDbDictionary
281
     1
  3
CANNOSCALE
350
4CC
  3
CMLEADERSTYLE
350
4C9
  3
CTABLESTYLE
350
4C8
  3
CVIEWDETAILSTYLE
350
4CA
  3
CVIEWSECTIONSTYLE
350
4CB
  3
DIMASSOC
350
4CF
  3
INDEXCTL
350
4CE
  3
SORTENTS
350
4CD
  3
XCLIPFRAME
350
4D0
  0
XRECORD
  5
4D5
102
{ACAD_REACTORS
330
441
102
}
330
441
100
AcDbXrecord
280
     1
  1
DWGPROPS COOKIE
  2

  3

  4

  6

  7

  8
sasaki_n
  9

300
=
301
=
302
=
303
=
304
=
305
=
306
=
307
=
308
=
309
=
 40
0.0005439814814815
 41
2457961.758634259
 42
2457961.759525463
  1

 90
        0
  0
XRECORD
  5
4BE
102
{ACAD_REACTORS
330
4BD
102
}
330
4BD
100
AcDbXrecord
280
     1
290
     1
  0
XRECORD
  5
4C0
102
{ACAD_REACTORS
330
4BF
102
}
330
4BF
100
AcDbXrecord
280
     1
290
     1
  0
XRECORD
  5
4C2
102
{ACAD_REACTORS
330
4C1
102
}
330
4C1
100
AcDbXrecord
280
     1
290
     1
  0
XRECORD
  5
4C4
102
{ACAD_REACTORS
330
4C3
102
}
330
4C3
100
AcDbXrecord
280
     1
290
     1
  0
XRECORD
  5
4C6
102
{ACAD_REACTORS
330
4C5
102
}
330
4C5
100
AcDbXrecord
280
     1
290
     1
  0
ACDBDETAILVIEWSTYLE
  5
49F
102
{ACAD_XDICTIONARY
360
50D
102
}
102
{ACAD_REACTORS
330
49E
102
}
330
49E
100
AcDbModelDocViewStyle
 70
     0
  3
Imperial24
290
     0
100
AcDbDetailViewStyle
 70
     0
 71
     0
 90
        3
 71
     1
340
48A
 40
0.24
340
0
 40
0.24
300

 40
0.36
280
     3
 71
     2
340
491
 90
       25
 71
     3
340
48A
 40
0.24
 90
        1
 40
0.75
 90
        1
300
%<\AcVar ViewType \f "%tc1">% %<\AcVar ViewDetailId>%\PSCALE %<\AcVar ViewScale \f "%sn">%
 71
     4
340
491
 90
       25
340
491
 90
       25
280
     0
  0
LAYOUT
  5
4A7
102
{ACAD_XDICTIONARY
360
511
102
}
102
{ACAD_REACTORS
330
496
102
}
330
496
100
AcDbPlotSettings
  1

  2
DocuPrint 3000-3
  4

  6

 40
0.0
 41
0.0
 42
0.0
 43
0.0
 44
0.0
 45
0.0
 46
0.0
 47
0.0
 48
0.0
 49
0.0
140
0.0
141
0.0
142
1.0
143
1.0
 70
  1712
 72
     0
 73
     0
 74
     0
  7

 75
     0
147
1.0
148
0.0
149
0.0
100
AcDbLayout
  1
Model
 70
     1
 71
     0
 10
0.0
 20
0.0
 11
12.0
 21
9.0
 12
0.0
 22
0.0
 32
0.0
 14
0.0
 24
0.0
 34
0.0
 15
0.0
 25
0.0
 35
0.0
146
0.0
 13
0.0
 23
0.0
 33
0.0
 16
1.0
 26
0.0
 36
0.0
 17
0.0
 27
1.0
 37
0.0
 76
     0
330
4A4
331
4A9
  0
LAYOUT
  5
4A3
102
{ACAD_XDICTIONARY
360
50F
102
}
102
{ACAD_REACTORS
330
496
102
}
330
496
100
AcDbPlotSettings
  1

  2
DocuPrint 3000-3
  4

  6

 40
0.0
 41
0.0
 42
0.0
 43
0.0
 44
0.0
 45
0.0
 46
0.0
 47
0.0
 48
0.0
 49
0.0
140
0.0
141
0.0
142
1.0
143
1.0
 70
   688
 72
     0
 73
     0
 74
     5
  7

 75
    16
147
1.0
148
0.0
149
0.0
100
AcDbLayout
  1
レイアウト1
 70
     0
 71
     1
 10
0.0
 20
0.0
 11
12.0
 21
9.0
 12
0.0
 22
0.0
 32
0.0
 14
1.000000000000000E+20
 24
1.000000000000000E+20
 34
1.000000000000000E+20
 15
-1.000000000000000E+20
 25
-1.000000000000000E+20
 35
-1.000000000000000E+20
146
0.0
 13
0.0
 23
0.0
 33
0.0
 16
1.0
 26
0.0
 36
0.0
 17
0.0
 27
1.0
 37
0.0
 76
     0
330
4A0
  0
MATERIAL
  5
44E
102
{ACAD_XDICTIONARY
360
44F
102
}
102
{ACAD_REACTORS
330
445
102
}
330
445
100
AcDbMaterial
  1
ByBlock
 72
     0
 43
0.0208333333333333
 43
0.0
 43
0.0
 43
0.0
 43
0.0
 43
0.0208333333333333
 43
0.0
 43
0.0
 43
0.0
 43
0.0
 43
1.0
 43
0.0
 43
0.0
 43
0.0
 43
0.0
 43
1.0
 77
     0
 47
0.0208333333333333
 47
0.0
 47
0.0
 47
0.0
 47
0.0
 47
0.0208333333333333
 47
0.0
 47
0.0
 47
0.0
 47
0.0
 47
1.0
 47
0.0
 47
0.0
 47
0.0
 47
0.0
 47
1.0
171
     0
 49
0.0208333333333333
 49
0.0
 49
0.0
 49
0.0
 49
0.0
 49
0.0208333333333333
 49
0.0
 49
0.0
 49
0.0
 49
0.0
 49
1.0
 49
0.0
 49
0.0
 49
0.0
 49
0.0
 49
1.0
175
     0
142
0.0208333333333333
142
0.0
142
0.0
142
0.0
142
0.0
142
0.0208333333333333
142
0.0
142
0.0
142
0.0
142
0.0
142
1.0
142
0.0
142
0.0
142
0.0
142
0.0
142
1.0
179
     0
144
0.0208333333333333
144
0.0
144
0.0
144
0.0
144
0.0
144
0.0208333333333333
144
0.0
144
0.0
144
0.0
144
0.0
144
1.0
144
0.0
144
0.0
144
0.0
144
0.0
144
1.0
147
0.0208333333333333
147
0.0
147
0.0
147
0.0
147
0.0
147
0.0208333333333333
147
0.0
147
0.0
147
0.0
147
0.0
147
1.0
147
0.0
147
0.0
147
0.0
147
0.0
147
1.0
  0
MATERIAL
  5
446
102
{ACAD_XDICTIONARY
360
447
102
}
102
{ACAD_REACTORS
330
445
102
}
330
445
100
AcDbMaterial
  1
ByLayer
 72
     0
 43
0.0208333333333333
 43
0.0
 43
0.0
 43
0.0
 43
0.0
 43
0.0208333333333333
 43
0.0
 43
0.0
 43
0.0
 43
0.0
 43
1.0
 43
0.0
 43
0.0
 43
0.0
 43
0.0
 43
1.0
 77
     0
 47
0.0208333333333333
 47
0.0
 47
0.0
 47
0.0
 47
0.0
 47
0.0208333333333333
 47
0.0
 47
0.0
 47
0.0
 47
0.0
 47
1.0
 47
0.0
 47
0.0
 47
0.0
 47
0.0
 47
1.0
171
     0
 49
0.0208333333333333
 49
0.0
 49
0.0
 49
0.0
 49
0.0
 49
0.0208333333333333
 49
0.0
 49
0.0
 49
0.0
 49
0.0
 49
1.0
 49
0.0
 49
0.0
 49
0.0
 49
0.0
 49
1.0
175
     0
142
0.0208333333333333
142
0.0
142
0.0
142
0.0
142
0.0
142
0.0208333333333333
142
0.0
142
0.0
142
0.0
142
0.0
142
1.0
142
0.0
142
0.0
142
0.0
142
0.0
142
1.0
179
     0
144
0.0208333333333333
144
0.0
144
0.0
144
0.0
144
0.0
144
0.0208333333333333
144
0.0
144
0.0
144
0.0
144
0.0
144
1.0
144
0.0
144
0.0
144
0.0
144
0.0
144
1.0
147
0.0208333333333333
147
0.0
147
0.0
147
0.0
147
0.0
147
0.0208333333333333
147
0.0
147
0.0
147
0.0
147
0.0
147
1.0
147
0.0
147
0.0
147
0.0
147
0.0
147
1.0
  0
MATERIAL
  5
456
102
{ACAD_XDICTIONARY
360
457
102
}
102
{ACAD_REACTORS
330
445
102
}
330
445
100
AcDbMaterial
  1
Global
 72
     0
 43
0.0208333333333333
 43
0.0
 43
0.0
 43
0.0
 43
0.0
 43
0.0208333333333333
 43
0.0
 43
0.0
 43
0.0
 43
0.0
 43
1.0
 43
0.0
 43
0.0
 43
0.0
 43
0.0
 43
1.0
 77
     0
 47
0.0208333333333333
 47
0.0
 47
0.0
 47
0.0
 47
0.0
 47
0.0208333333333333
 47
0.0
 47
0.0
 47
0.0
 47
0.0
 47
1.0
 47
0.0
 47
0.0
 47
0.0
 47
0.0
 47
1.0
171
     0
 49
0.0208333333333333
 49
0.0
 49
0.0
 49
0.0
 49
0.0
 49
0.0208333333333333
 49
0.0
 49
0.0
 49
0.0
 49
0.0
 49
1.0
 49
0.0
 49
0.0
 49
0.0
 49
0.0
 49
1.0
175
     0
142
0.0208333333333333
142
0.0
142
0.0
142
0.0
142
0.0
142
0.0208333333333333
142
0.0
142
0.0
142
0.0
142
0.0
142
1.0
142
0.0
142
0.0
142
0.0
142
0.0
142
1.0
179
     0
144
0.0208333333333333
144
0.0
144
0.0
144
0.0
144
0.0
144
0.0208333333333333
144
0.0
144
0.0
144
0.0
144
0.0
144
1.0
144
0.0
144
0.0
144
0.0
144
0.0
144
1.0
147
0.0208333333333333
147
0.0
147
0.0
147
0.0
147
0.0
147
0.0208333333333333
147
0.0
147
0.0
147
0.0
147
0.0
147
1.0
147
0.0
147
0.0
147
0.0
147
0.0
147
1.0
  0
MLEADERSTYLE
  5
49B
102
{ACAD_REACTORS
330
49A
102
}
330
49A
100
AcDbMLeaderStyle
170
     2
171
     1
172
     0
 90
        2
 40
0.0
 41
0.0
173
     1
 91
-1056964608
340
48F
 92
       -2
290
     1
 42
0.09
291
     1
 43
0.36
  3
Standard
 44
0.18
300

342
48A
174
     1
178
     6
175
     1
176
     0
 93
-1056964608
 45
0.18
292
     0
297
     0
 46
0.18
 94
-1056964608
 47
1.0
 49
1.0
140
1.0
293
     1
141
0.0
294
     1
177
     0
142
1.0
295
     0
296
     0
143
0.125
1001
ACAD_MLEADERVER
1070
     2
  0
MLINESTYLE
  5
494
102
{ACAD_REACTORS
330
493
102
}
330
493
100
AcDbMlineStyle
  2
STANDARD
 70
     0
  3

 62
   256
 51
90.0
 52
90.0
 71
     2
 49
0.5
 62
   256
  6
BYLAYER
 49
-0.5
 62
   256
  6
BYLAYER
  0
ACDBPLACEHOLDER
  5
444
102
{ACAD_REACTORS
330
443
102
}
330
443
  0
SCALE
  5
478
102
{ACAD_REACTORS
330
477
102
}
330
477
100
AcDbScale
 70
     0
300
1:1
140
1.0
141
1.0
290
     1
  0
SCALE
  5
479
102
{ACAD_REACTORS
330
477
102
}
330
477
100
AcDbScale
 70
     0
300
1/128" = 1'-0"
140
0.0078125
141
12.0
290
     0
  0
SCALE
  5
47A
102
{ACAD_REACTORS
330
477
102
}
330
477
100
AcDbScale
 70
     0
300
1/64" = 1'-0"
140
0.015625
141
12.0
290
     0
  0
SCALE
  5
47B
102
{ACAD_REACTORS
330
477
102
}
330
477
100
AcDbScale
 70
     0
300
1/32" = 1'-0"
140
0.03125
141
12.0
290
     0
  0
SCALE
  5
47C
102
{ACAD_REACTORS
330
477
102
}
330
477
100
AcDbScale
 70
     0
300
1/16" = 1'-0"
140
0.0625
141
12.0
290
     0
  0
SCALE
  5
47D
102
{ACAD_REACTORS
330
477
102
}
330
477
100
AcDbScale
 70
     0
300
3/32" = 1'-0"
140
0.09375
141
12.0
290
     0
  0
SCALE
  5
47E
102
{ACAD_REACTORS
330
477
102
}
330
477
100
AcDbScale
 70
     0
300
1/8" = 1'-0"
140
0.125
141
12.0
290
     0
  0
SCALE
  5
47F
102
{ACAD_REACTORS
330
477
102
}
330
477
100
AcDbScale
 70
     0
300
3/16" = 1'-0"
140
0.1875
141
12.0
290
     0
  0
SCALE
  5
480
102
{ACAD_REACTORS
330
477
102
}
330
477
100
AcDbScale
 70
     0
300
1/4" = 1'-0"
140
0.25
141
12.0
290
     0
  0
SCALE
  5
481
102
{ACAD_REACTORS
330
477
102
}
330
477
100
AcDbScale
 70
     0
300
3/8" = 1'-0"
140
0.375
141
12.0
290
     0
  0
SCALE
  5
482
102
{ACAD_REACTORS
330
477
102
}
330
477
100
AcDbScale
 70
     0
300
1/2" = 1'-0"
140
0.5
141
12.0
290
     0
  0
SCALE
  5
483
102
{ACAD_REACTORS
330
477
102
}
330
477
100
AcDbScale
 70
     0
300
3/4" = 1'-0"
140
0.75
141
12.0
290
     0
  0
SCALE
  5
484
102
{ACAD_REACTORS
330
477
102
}
330
477
100
AcDbScale
 70
     0
300
1" = 1'-0"
140
1.0
141
12.0
290
     0
  0
SCALE
  5
485
102
{ACAD_REACTORS
330
477
102
}
330
477
100
AcDbScale
 70
     0
300
1-1/2" = 1'-0"
140
1.5
141
12.0
290
     0
  0
SCALE
  5
486
102
{ACAD_REACTORS
330
477
102
}
330
477
100
AcDbScale
 70
     0
300
3" = 1'-0"
140
3.0
141
12.0
290
     0
  0
SCALE
  5
487
102
{ACAD_REACTORS
330
477
102
}
330
477
100
AcDbScale
 70
     0
300
6" = 1'-0"
140
6.0
141
12.0
290
     0
  0
SCALE
  5
488
102
{ACAD_REACTORS
330
477
102
}
330
477
100
AcDbScale
 70
     0
300
1'-0" = 1'-0"
140
12.0
141
12.0
290
     0
  0
ACDBSECTIONVIEWSTYLE
  5
49D
102
{ACAD_XDICTIONARY
360
50B
102
}
102
{ACAD_REACTORS
330
49C
102
}
330
49C
100
AcDbModelDocViewStyle
 70
     0
  3
Imperial24
290
     0
100
AcDbSectionViewStyle
 70
     0
 71
     0
 90
       78
 71
     1
340
48A
 40
0.24
340
0
340
0
 40
0.24
300
I, O, Q, S, X, Z
 40
0.48
 90
        3
 40
0.18
 90
        1
 71
     2
340
491
 90
       25
340
491
 90
       50
 40
0.24
 40
0.0
 40
0.24
 71
     3
340
48A
 40
0.24
 90
        1
 40
0.75
 90
        1
300
%<\AcVar ViewType \f "%tc1">% %<\AcVar ViewSectionStartId>%-%<\AcVar ViewSectionEndId>%\PSCALE %<\AcVar ViewScale \f "%sn">%
 71
     4
300
ANSI31
 40
1.0
 90
        0
290
     0
290
     0
 90
        6
 40
0.0
 40
1.570796326794896
 40
0.2617993877991494
 40
1.308996938995747
 40
-0.2617993877991494
 40
1.832595714594046
  0
TABLESTYLE
  5
499
102
{ACAD_XDICTIONARY
360
4D2
102
}
102
{ACAD_REACTORS
330
498
102
}
330
498
100
AcDbTableStyle
  3
Standard
 70
     0
 71
     0
 40
0.06
 41
0.06
280
     0
281
     0
  7
STANDARD
140
0.18
170
     2
 62
     0
 63
     7
283
     0
274
    -2
284
     1
 64
     0
275
    -2
285
     1
 65
     0
276
    -2
286
     1
 66
     0
277
    -2
287
     1
 67
     0
278
    -2
288
     1
 68
     0
279
    -2
289
     1
 69
     0
  7
STANDARD
140
0.25
170
     5
 62
     0
 63
     7
283
     0
274
    -2
284
     1
 64
     0
275
    -2
285
     1
 65
     0
276
    -2
286
     1
 66
     0
277
    -2
287
     1
 67
     0
278
    -2
288
     1
 68
     0
279
    -2
289
     1
 69
     0
  7
STANDARD
140
0.18
170
     5
 62
     0
 63
     7
283
     0
274
    -2
284
     1
 64
     0
275
    -2
285
     1
 65
     0
276
    -2
286
     1
 66
     0
277
    -2
287
     1
 67
     0
278
    -2
288
     1
 68
     0
279
    -2
289
     1
 69
     0
  0
VISUALSTYLE
  5
464
102
{ACAD_XDICTIONARY
360
4E3
102
}
102
{ACAD_REACTORS
330
45E
102
}
330
45E
100
AcDbVisualStyle
  2
2dWireframe
 70
     4
 71
     0
 72
     2
 73
     0
 90
        0
 40
-0.6
 41
-30.0
 62
     5
 63
     7
 74
     1
 91
        4
 64
     7
 65
   257
 75
     1
175
     1
 42
1.0
 92
        0
 66
   257
 43
1.0
 76
     1
 77
     6
 78
     2
 67
     7
 79
     5
170
     0
171
     0
290
     0
174
     0
 93
        1
 44
0.0
173
     0
291
     0
 45
0.0
1001
ACAD
1000
AcDbSavedByObjectVersion
1070
     0
  0
VISUALSTYLE
  5
463
102
{ACAD_XDICTIONARY
360
4E1
102
}
102
{ACAD_REACTORS
330
45E
102
}
330
45E
100
AcDbVisualStyle
  2
Basic
 70
     7
 71
     1
 72
     0
 73
     1
 90
        0
 40
-0.6
 41
-30.0
 62
     5
 63
     7
 74
     0
 91
        4
 64
     7
 65
   257
 75
     1
175
     1
 42
1.0
 92
        8
 66
     7
 43
1.0
 76
     1
 77
     6
 78
     2
 67
     7
 79
     5
170
     0
171
     0
290
     0
174
     0
 93
        1
 44
0.0
173
     0
291
     1
 45
0.0
1001
ACAD
1000
AcDbSavedByObjectVersion
1070
     0
  0
VISUALSTYLE
  5
46A
102
{ACAD_XDICTIONARY
360
4EF
102
}
102
{ACAD_REACTORS
330
45E
102
}
330
45E
100
AcDbVisualStyle
  2
Brighten
 70
    12
 71
     2
 72
     2
 73
     0
 90
        0
 40
-0.6
 41
-30.0
 62
     5
 63
     7
 74
     1
 91
        4
 64
     7
 65
   257
 75
     1
175
     1
 42
1.0
 92
        8
 66
     7
 43
1.0
 76
     1
 77
     6
 78
     2
 67
     7
 79
     5
170
     0
171
     0
290
     0
174
     0
 93
        1
 44
50.0
173
     0
291
     1
 45
0.0
1001
ACAD
1000
AcDbSavedByObjectVersion
1070
     0
  0
VISUALSTYLE
  5
46E
102
{ACAD_XDICTIONARY
360
4F7
102
}
102
{ACAD_REACTORS
330
45E
102
}
330
45E
100
AcDbVisualStyle
  2
ColorChange
 70
    16
 71
     2
 72
     2
 73
     3
 90
        0
 40
-0.6
 41
-30.0
 62
     5
 63
     8
 74
     1
 91
        4
 64
     7
 65
   257
 75
     1
175
     1
 42
1.0
 92
        8
 66
     8
 43
1.0
 76
     1
 77
     6
 78
     2
 67
     7
 79
     5
170
     0
171
     0
290
     0
174
     0
 93
        1
 44
0.0
173
     0
291
     1
 45
0.0
1001
ACAD
1000
AcDbSavedByObjectVersion
1070
     0
  0
VISUALSTYLE
  5
467
102
{ACAD_XDICTIONARY
360
4E9
102
}
102
{ACAD_REACTORS
330
45E
102
}
330
45E
100
AcDbVisualStyle
  2
Conceptual
 70
     9
 71
     3
 72
     2
 73
     0
 90
        0
 40
-0.6
 41
-30.0
 62
     5
 63
     7
 74
     2
 91
        2
 64
     7
 65
   257
 75
     1
175
     1
 42
179.0
 92
        8
 66
     7
 43
1.0
 76
     1
 77
     6
 78
     2
 67
     7
 79
     3
170
     0
171
     0
290
     0
174
     0
 93
        1
 44
0.0
173
     0
291
     0
 45
0.0
1001
ACAD
1000
AcDbSavedByObjectVersion
1070
     0
  0
VISUALSTYLE
  5
469
102
{ACAD_XDICTIONARY
360
4ED
102
}
102
{ACAD_REACTORS
330
45E
102
}
330
45E
100
AcDbVisualStyle
  2
Dim
 70
    11
 71
     2
 72
     2
 73
     0
 90
        0
 40
-0.6
 41
-30.0
 62
     5
 63
     7
 74
     1
 91
        4
 64
     7
 65
   257
 75
     1
175
     1
 42
1.0
 92
        8
 66
     7
 43
1.0
 76
     1
 77
     6
 78
     2
 67
     7
 79
     5
170
     0
171
     0
290
     0
174
     0
 93
        1
 44
-50.0
173
     0
291
     1
 45
0.0
1001
ACAD
1000
AcDbSavedByObjectVersion
1070
     0
  0
VISUALSTYLE
  5
476
102
{ACAD_XDICTIONARY
360
507
102
}
102
{ACAD_REACTORS
330
45E
102
}
330
45E
100
AcDbVisualStyle
  2
EdgeColorOff
 70
    22
 71
     2
 72
     2
 73
     0
 90
        0
 40
-0.6
 41
-30.0
 62
     5
 63
     7
 74
     1
 91
        4
 64
     7
 65
   257
 75
     1
175
     1
 42
1.0
 92
        8
 66
     7
 43
1.0
 76
     1
 77
     6
 78
     2
 67
     7
 79
     5
170
     0
171
     0
290
     0
174
     0
 93
        1
 44
0.0
173
     0
291
     1
 45
0.0
1001
ACAD
1000
AcDbSavedByObjectVersion
1070
     0
  0
VISUALSTYLE
  5
46D
102
{ACAD_XDICTIONARY
360
4F5
102
}
102
{ACAD_REACTORS
330
45E
102
}
330
45E
100
AcDbVisualStyle
  2
Facepattern
 70
    15
 71
     2
 72
     2
 73
     0
 90
        0
 40
-0.6
 41
-30.0
 62
     5
 63
     7
 74
     1
 91
        4
 64
     7
 65
   257
 75
     1
175
     1
 42
1.0
 92
        8
 66
     7
 43
1.0
 76
     1
 77
     6
 78
     2
 67
     7
 79
     5
170
     0
171
     0
290
     0
174
     0
 93
        1
 44
0.0
173
     0
291
     1
 45
0.0
1001
ACAD
1000
AcDbSavedByObjectVersion
1070
     0
  0
VISUALSTYLE
  5
45F
102
{ACAD_XDICTIONARY
360
4D9
102
}
102
{ACAD_REACTORS
330
45E
102
}
330
45E
100
AcDbVisualStyle
  2
Flat
 70
     0
 71
     2
 72
     1
 73
     1
 90
        2
 40
-0.6
 41
30.0
 62
     5
 63
     7
 74
     0
 91
        0
 64
     7
 65
   257
 75
     1
175
     1
 42
1.0
 92
        8
 66
     7
 43
1.0
 76
     1
 77
     6
 78
     2
 67
     7
 79
     5
170
     0
171
     0
290
     0
174
     0
 93
       13
 44
0.0
173
     0
291
     1
 45
0.0
1001
ACAD
1000
AcDbSavedByObjectVersion
1070
     0
  0
VISUALSTYLE
  5
460
102
{ACAD_XDICTIONARY
360
4DB
102
}
102
{ACAD_REACTORS
330
45E
102
}
330
45E
100
AcDbVisualStyle
  2
FlatWithEdges
 70
     1
 71
     2
 72
     1
 73
     1
 90
        2
 40
-0.6
 41
30.0
 62
     5
 63
     7
 74
     1
 91
        0
 64
     7
 65
   257
 75
     1
175
     1
 42
1.0
 92
        0
 66
   257
 43
1.0
 76
     1
 77
     6
 78
     2
 67
     7
 79
     5
170
     0
171
     0
290
     0
174
     0
 93
       13
 44
0.0
173
     0
291
     1
 45
0.0
1001
ACAD
1000
AcDbSavedByObjectVersion
1070
     0
  0
VISUALSTYLE
  5
461
102
{ACAD_XDICTIONARY
360
4DD
102
}
102
{ACAD_REACTORS
330
45E
102
}
330
45E
100
AcDbVisualStyle
  2
Gouraud
 70
     2
 71
     2
 72
     2
 73
     1
 90
        2
 40
-0.6
 41
30.0
 62
     5
 63
     7
 74
     0
 91
        0
 64
     7
 65
   257
 75
     1
175
     1
 42
1.0
 92
        0
 66
     7
 43
1.0
 76
     1
 77
     6
 78
     2
 67
     7
 79
     5
170
     0
171
     0
290
     0
174
     0
 93
       13
 44
0.0
173
     0
291
     1
 45
0.0
1001
ACAD
1000
AcDbSavedByObjectVersion
1070
     0
  0
VISUALSTYLE
  5
462
102
{ACAD_XDICTIONARY
360
4DF
102
}
102
{ACAD_REACTORS
330
45E
102
}
330
45E
100
AcDbVisualStyle
  2
GouraudWithEdges
 70
     3
 71
     2
 72
     2
 73
     1
 90
        2
 40
-0.6
 41
30.0
 62
     5
 63
     7
 74
     1
 91
        0
 64
     7
 65
   257
 75
     1
175
     1
 42
1.0
 92
        0
 66
   257
 43
1.0
 76
     1
 77
     6
 78
     2
 67
     7
 79
     5
170
     0
171
     0
290
     0
174
     0
 93
       13
 44
0.0
173
     0
291
     1
 45
0.0
1001
ACAD
1000
AcDbSavedByObjectVersion
1070
     0
  0
VISUALSTYLE
  5
466
102
{ACAD_XDICTIONARY
360
4E7
102
}
102
{ACAD_REACTORS
330
45E
102
}
330
45E
100
AcDbVisualStyle
  2
Hidden
 70
     6
 71
     1
 72
     2
 73
     2
 90
        0
 40
-0.6
 41
-30.0
 62
     5
 63
     7
 74
     2
 91
        2
 64
     7
 65
   257
 75
     2
175
     1
 42
40.0
 92
        0
 66
   257
 43
1.0
 76
     1
 77
     6
 78
     2
 67
     7
 79
     3
170
     0
171
     0
290
     0
174
     0
 93
        1
 44
0.0
173
     0
291
     0
 45
0.0
1001
ACAD
1000
AcDbSavedByObjectVersion
1070
     0
  0
VISUALSTYLE
  5
474
102
{ACAD_XDICTIONARY
360
503
102
}
102
{ACAD_REACTORS
330
45E
102
}
330
45E
100
AcDbVisualStyle
  2
JitterOff
 70
    20
 71
     2
 72
     2
 73
     0
 90
        0
 40
-0.6
 41
-30.0
 62
     5
 63
     7
 74
     1
 91
        4
 64
     7
 65
   257
 75
     1
175
     1
 42
1.0
 92
       10
 66
     7
 43
1.0
 76
     1
 77
     6
 78
     2
 67
     7
 79
     5
170
     0
171
     0
290
     0
174
     0
 93
        1
 44
0.0
173
     0
291
     1
 45
0.0
1001
ACAD
1000
AcDbSavedByObjectVersion
1070
     0
  0
VISUALSTYLE
  5
46C
102
{ACAD_XDICTIONARY
360
4F3
102
}
102
{ACAD_REACTORS
330
45E
102
}
330
45E
100
AcDbVisualStyle
  2
Linepattern
 70
    14
 71
     2
 72
     2
 73
     0
 90
        0
 40
-0.6
 41
-30.0
 62
     5
 63
     7
 74
     1
 91
        4
 64
     7
 65
   257
 75
     7
175
     7
 42
1.0
 92
        8
 66
     7
 43
1.0
 76
     1
 77
     6
 78
     2
 67
     7
 79
     5
170
     0
171
     0
290
     0
174
     0
 93
        1
 44
0.0
173
     0
291
     1
 45
0.0
1001
ACAD
1000
AcDbSavedByObjectVersion
1070
     0
  0
VISUALSTYLE
  5
475
102
{ACAD_XDICTIONARY
360
505
102
}
102
{ACAD_REACTORS
330
45E
102
}
330
45E
100
AcDbVisualStyle
  2
OverhangOff
 70
    21
 71
     2
 72
     2
 73
     0
 90
        0
 40
-0.6
 41
-30.0
 62
     5
 63
     7
 74
     1
 91
        4
 64
     7
 65
   257
 75
     1
175
     1
 42
1.0
 92
        9
 66
     7
 43
1.0
 76
     1
 77
     6
 78
     2
 67
     7
 79
     5
170
     0
171
     0
290
     0
174
     0
 93
        1
 44
0.0
173
     0
291
     1
 45
0.0
1001
ACAD
1000
AcDbSavedByObjectVersion
1070
     0
  0
VISUALSTYLE
  5
468
102
{ACAD_XDICTIONARY
360
4EB
102
}
102
{ACAD_REACTORS
330
45E
102
}
330
45E
100
AcDbVisualStyle
  2
Realistic
 70
     8
 71
     2
 72
     3
 73
     0
 90
        2
 40
-0.6
 41
30.0
 62
     5
 63
     7
 74
     0
 91
        0
 64
     7
 65
   257
 75
     1
175
     1
 42
1.0
 92
        8
 66
   257
 43
1.0
 76
     1
 77
     6
 78
     2
 67
     7
 79
     3
170
     0
171
     0
290
     0
174
     0
 93
       13
 44
0.0
173
     0
291
     0
 45
0.0
1001
ACAD
1000
AcDbSavedByObjectVersion
1070
     0
  0
VISUALSTYLE
  5
473
102
{ACAD_XDICTIONARY
360
501
102
}
102
{ACAD_REACTORS
330
45E
102
}
330
45E
100
AcDbVisualStyle
  2
Shaded
 70
    27
 71
     2
 72
     2
 73
     1
 90
        2
 40
-0.6
 41
30.0
 62
     5
 63
     7
 74
     0
 91
        4
 64
     7
 65
   257
 75
     1
175
     1
 42
1.0
 92
        8
 66
   257
 43
1.0
 76
     1
 77
     6
 78
     2
 67
     8
 79
     3
170
     0
171
     0
290
     0
174
     0
 93
        5
 44
0.0
173
     0
291
     0
 45
0.0
1001
ACAD
1000
AcDbSavedByObjectVersion
1070
     0
  0
VISUALSTYLE
  5
472
102
{ACAD_XDICTIONARY
360
4FF
102
}
102
{ACAD_REACTORS
330
45E
102
}
330
45E
100
AcDbVisualStyle
  2
Shaded with edges
 70
    26
 71
     2
 72
     2
 73
     1
 90
        2
 40
-0.6
 41
30.0
 62
     5
 63
     7
 74
     1
 91
        2
 64
     7
 65
   257
 75
     2
175
     1
 42
1.0
 92
        8
 66
   257
 43
1.0
 76
     1
 77
     6
 78
     2
 67
     7
 79
     3
170
     0
171
     0
290
     0
174
     0
 93
        5
 44
0.0
173
     0
291
     0
 45
0.0
1001
ACAD
1000
AcDbSavedByObjectVersion
1070
     0
  0
VISUALSTYLE
  5
46F
102
{ACAD_XDICTIONARY
360
4F9
102
}
102
{ACAD_REACTORS
330
45E
102
}
330
45E
100
AcDbVisualStyle
  2
Shades of Gray
 70
    23
 71
     2
 72
     2
 73
     3
 90
        0
 40
-0.6
 41
-30.0
 62
     5
 63
     7
 74
     2
 91
        2
 64
     7
 65
     7
 75
     1
175
     1
 42
40.0
 92
        8
 66
     7
 43
1.0
 76
     1
 77
     6
 78
     2
 67
     7
 79
     3
170
     0
171
     0
290
     0
174
     0
 93
        1
 44
0.0
173
     0
291
     0
 45
0.0
1001
ACAD
1000
AcDbSavedByObjectVersion
1070
     0
  0
VISUALSTYLE
  5
470
102
{ACAD_XDICTIONARY
360
4FB
102
}
102
{ACAD_REACTORS
330
45E
102
}
330
45E
100
AcDbVisualStyle
  2
Sketchy
 70
    24
 71
     1
 72
     2
 73
     2
 90
        0
 40
-0.6
 41
-30.0
 62
     5
 63
     7
 74
     2
 91
        2
 64
     7
 65
     7
 75
     1
175
     1
 42
40.0
 92
       11
 66
     7
 43
1.0
 76
     1
 77
     6
 78
     2
 67
     7
 79
     6
170
     0
171
     0
290
     0
174
     0
 93
        1
 44
0.0
173
     0
291
     0
 45
0.0
1001
ACAD
1000
AcDbSavedByObjectVersion
1070
     0
  0
VISUALSTYLE
  5
46B
102
{ACAD_XDICTIONARY
360
4F1
102
}
102
{ACAD_REACTORS
330
45E
102
}
330
45E
100
AcDbVisualStyle
  2
Thicken
 70
    13
 71
     2
 72
     2
 73
     0
 90
        0
 40
-0.6
 41
-30.0
 62
     5
 63
     7
 74
     1
 91
        4
 64
     7
 65
   257
 75
     1
175
     1
 42
1.0
 92
       12
 66
     7
 43
1.0
 76
     1
 77
     6
 78
     2
 67
     7
 79
     5
170
     0
171
     0
290
     0
174
     0
 93
        1
 44
0.0
173
     0
291
     1
 45
0.0
1001
ACAD
1000
AcDbSavedByObjectVersion
1070
     0
  0
VISUALSTYLE
  5
465
102
{ACAD_XDICTIONARY
360
4E5
102
}
102
{ACAD_REACTORS
330
45E
102
}
330
45E
100
AcDbVisualStyle
  2
Wireframe
 70
     5
 71
     0
 72
     2
 73
     0
 90
        0
 40
-0.6
 41
-30.0
 62
     5
 63
     7
 74
     1
 91
        4
 64
     7
 65
   257
 75
     1
175
     1
 42
1.0
 92
        0
 66
   257
 43
1.0
 76
     1
 77
     6
 78
     2
 67
     7
 79
     3
170
     0
171
     0
290
     0
174
     0
 93
        1
 44
0.0
173
     0
291
     0
 45
0.0
1001
ACAD
1000
AcDbSavedByObjectVersion
1070
     0
  0
VISUALSTYLE
  5
471
102
{ACAD_XDICTIONARY
360
4FD
102
}
102
{ACAD_REACTORS
330
45E
102
}
330
45E
100
AcDbVisualStyle
  2
X-Ray
 70
    25
 71
     2
 72
     2
 73
     1
 90
        1
 40
0.5
 41
-30.0
 62
     5
 63
     7
 74
     1
 91
        0
 64
     7
 65
   257
 75
     1
175
     1
 42
1.0
 92
        8
 66
     7
 43
1.0
 76
     1
 77
     6
 78
     2
 67
     7
 79
     3
170
     0
171
     0
290
     0
174
     0
 93
       13
 44
0.0
173
     0
291
     0
 45
0.0
1001
ACAD
1000
AcDbSavedByObjectVersion
1070
     0
  0
DICTIONARYVAR
  5
4CC
102
{ACAD_REACTORS
330
4C7
102
}
330
4C7
100
DictionaryVariables
280
     0
  1
1:1
  0
DICTIONARYVAR
  5
4C9
102
{ACAD_REACTORS
330
4C7
102
}
330
4C7
100
DictionaryVariables
280
     0
  1
STANDARD
  0
DICTIONARYVAR
  5
4C8
102
{ACAD_REACTORS
330
4C7
102
}
330
4C7
100
DictionaryVariables
280
     0
  1
STANDARD
  0
DICTIONARYVAR
  5
4CA
102
{ACAD_REACTORS
330
4C7
102
}
330
4C7
100
DictionaryVariables
280
     0
  1
Imperial24
  0
DICTIONARYVAR
  5
4CB
102
{ACAD_REACTORS
330
4C7
102
}
330
4C7
100
DictionaryVariables
280
     0
  1
Imperial24
  0
DICTIONARYVAR
  5
4CF
102
{ACAD_REACTORS
330
4C7
102
}
330
4C7
100
DictionaryVariables
280
     0
  1
1
  0
DICTIONARYVAR
  5
4CE
102
{ACAD_REACTORS
330
4C7
102
}
330
4C7
100
DictionaryVariables
280
     0
  1
0
  0
DICTIONARYVAR
  5
4CD
102
{ACAD_REACTORS
330
4C7
102
}
330
4C7
100
DictionaryVariables
280
     0
  1
127
  0
DICTIONARYVAR
  5
4D0
102
{ACAD_REACTORS
330
4C7
102
}
330
4C7
100
DictionaryVariables
280
     0
  1
2
  0
DICTIONARY
  5
50D
330
49F
100
AcDbDictionary
280
     1
281
     1
  3
ACAD_XREC_ROUNDTRIP
360
50E
  0
DICTIONARY
  5
511
330
4A7
100
AcDbDictionary
280
     1
281
     1
  3
ACAD_XREC_ROUNDTRIP
360
512
  0
DICTIONARY
  5
50F
330
4A3
100
AcDbDictionary
280
     1
281
     1
  3
ACAD_XREC_ROUNDTRIP
360
510
  0
DICTIONARY
  5
44F
330
44E
100
AcDbDictionary
280
     1
281
     1
  3
ACAD_XREC_ROUNDTRIP
360
4D7
  3
BUMPTILE
360
451
  3
DIFFUSETILE
360
450
  3
OPACITYTILE
360
454
  3
REFLECTIONTILE
360
453
  3
REFRACTIONTILE
360
455
  3
SPECULARTILE
360
452
  0
DICTIONARY
  5
447
330
446
100
AcDbDictionary
280
     1
281
     1
  3
ACAD_XREC_ROUNDTRIP
360
4D6
  3
BUMPTILE
360
449
  3
DIFFUSETILE
360
448
  3
OPACITYTILE
360
44C
  3
REFLECTIONTILE
360
44B
  3
REFRACTIONTILE
360
44D
  3
SPECULARTILE
360
44A
  0
DICTIONARY
  5
457
330
456
100
AcDbDictionary
280
     1
281
     1
  3
ACAD_XREC_ROUNDTRIP
360
4D8
  3
BUMPTILE
360
459
  3
DIFFUSETILE
360
458
  3
OPACITYTILE
360
45C
  3
REFLECTIONTILE
360
45B
  3
REFRACTIONTILE
360
45D
  3
SPECULARTILE
360
45A
  0
DICTIONARY
  5
50B
330
49D
100
AcDbDictionary
280
     1
281
     1
  3
ACAD_XREC_ROUNDTRIP
360
50C
  0
DICTIONARY
  5
4D2
330
499
100
AcDbDictionary
280
     1
281
     1
  3
ACAD_ROUNDTRIP_2008_TABLESTYLE_CELLSTYLEMAP
360
4D3
  3
ACAD_XREC_ROUNDTRIP
360
509
  0
DICTIONARY
  5
4E3
330
464
100
AcDbDictionary
280
     1
281
     1
  3
ACAD_XREC_ROUNDTRIP
360
4E4
  0
DICTIONARY
  5
4E1
330
463
100
AcDbDictionary
280
     1
281
     1
  3
ACAD_XREC_ROUNDTRIP
360
4E2
  0
DICTIONARY
  5
4EF
330
46A
100
AcDbDictionary
280
     1
281
     1
  3
ACAD_XREC_ROUNDTRIP
360
4F0
  0
DICTIONARY
  5
4F7
330
46E
100
AcDbDictionary
280
     1
281
     1
  3
ACAD_XREC_ROUNDTRIP
360
4F8
  0
DICTIONARY
  5
4E9
330
467
100
AcDbDictionary
280
     1
281
     1
  3
ACAD_XREC_ROUNDTRIP
360
4EA
  0
DICTIONARY
  5
4ED
330
469
100
AcDbDictionary
280
     1
281
     1
  3
ACAD_XREC_ROUNDTRIP
360
4EE
  0
DICTIONARY
  5
507
330
476
100
AcDbDictionary
280
     1
281
     1
  3
ACAD_XREC_ROUNDTRIP
360
508
  0
DICTIONARY
  5
4F5
330
46D
100
AcDbDictionary
280
     1
281
     1
  3
ACAD_XREC_ROUNDTRIP
360
4F6
  0
DICTIONARY
  5
4D9
330
45F
100
AcDbDictionary
280
     1
281
     1
  3
ACAD_XREC_ROUNDTRIP
360
4DA
  0
DICTIONARY
  5
4DB
330
460
100
AcDbDictionary
280
     1
281
     1
  3
ACAD_XREC_ROUNDTRIP
360
4DC
  0
DICTIONARY
  5
4DD
330
461
100
AcDbDictionary
280
     1
281
     1
  3
ACAD_XREC_ROUNDTRIP
360
4DE
  0
DICTIONARY
  5
4DF
330
462
100
AcDbDictionary
280
     1
281
     1
  3
ACAD_XREC_ROUNDTRIP
360
4E0
  0
DICTIONARY
  5
4E7
330
466
100
AcDbDictionary
280
     1
281
     1
  3
ACAD_XREC_ROUNDTRIP
360
4E8
  0
DICTIONARY
  5
503
330
474
100
AcDbDictionary
280
     1
281
     1
  3
ACAD_XREC_ROUNDTRIP
360
504
  0
DICTIONARY
  5
4F3
330
46C
100
AcDbDictionary
280
     1
281
     1
  3
ACAD_XREC_ROUNDTRIP
360
4F4
  0
DICTIONARY
  5
505
330
475
100
AcDbDictionary
280
     1
281
     1
  3
ACAD_XREC_ROUNDTRIP
360
506
  0
DICTIONARY
  5
4EB
330
468
100
AcDbDictionary
280
     1
281
     1
  3
ACAD_XREC_ROUNDTRIP
360
4EC
  0
DICTIONARY
  5
501
330
473
100
AcDbDictionary
280
     1
281
     1
  3
ACAD_XREC_ROUNDTRIP
360
502
  0
DICTIONARY
  5
4FF
330
472
100
AcDbDictionary
280
     1
281
     1
  3
ACAD_XREC_ROUNDTRIP
360
500
  0
DICTIONARY
  5
4F9
330
46F
100
AcDbDictionary
280
     1
281
     1
  3
ACAD_XREC_ROUNDTRIP
360
4FA
  0
DICTIONARY
  5
4FB
330
470
100
AcDbDictionary
280
     1
281
     1
  3
ACAD_XREC_ROUNDTRIP
360
4FC
  0
DICTIONARY
  5
4F1
330
46B
100
AcDbDictionary
280
     1
281
     1
  3
ACAD_XREC_ROUNDTRIP
360
4F2
  0
DICTIONARY
  5
4E5
330
465
100
AcDbDictionary
280
     1
281
     1
  3
ACAD_XREC_ROUNDTRIP
360
4E6
  0
DICTIONARY
  5
4FD
330
471
100
AcDbDictionary
280
     1
281
     1
  3
ACAD_XREC_ROUNDTRIP
360
4FE
  0
XRECORD
  5
50E
102
{ACAD_REACTORS
330
50D
102
}
330
50D
100
AcDbXrecord
280
     1
102
DISPLAYNAME
  1
Imperial24
102
FLAGS
 90
        0
  0
XRECORD
  5
512
102
{ACAD_REACTORS
330
511
102
}
330
511
100
AcDbXrecord
280
     1
102
SHADEPLOT
 70
     0
102
SHADEPLOTRESLEVEL
 70
     2
102
SHADEPLOTCUSTOMDPI
 70
   300
  0
XRECORD
  5
510
102
{ACAD_REACTORS
330
50F
102
}
330
50F
100
AcDbXrecord
280
     1
102
SHADEPLOT
 70
     0
102
SHADEPLOTRESLEVEL
 70
     2
102
SHADEPLOTCUSTOMDPI
 70
   300
  0
XRECORD
  5
4D7
102
{ACAD_REACTORS
330
44F
102
}
330
44F
100
AcDbXrecord
280
     1
102
MATERIAL
148
0.0
149
0.0
149
0.0
 93
        0
 94
      127
282
     0
 72
     0
 77
     0
171
     0
175
     0
179
     0
273
     0
  0
XRECORD
  5
451
102
{ACAD_REACTORS
330
44F
102
}
330
44F
100
AcDbXrecord
280
     1
270
     1
271
     1
  0
XRECORD
  5
450
102
{ACAD_REACTORS
330
44F
102
}
330
44F
100
AcDbXrecord
280
     1
270
     1
271
     1
  0
XRECORD
  5
454
102
{ACAD_REACTORS
330
44F
102
}
330
44F
100
AcDbXrecord
280
     1
270
     1
271
     1
  0
XRECORD
  5
453
102
{ACAD_REACTORS
330
44F
102
}
330
44F
100
AcDbXrecord
280
     1
270
     1
271
     1
  0
XRECORD
  5
455
102
{ACAD_REACTORS
330
44F
102
}
330
44F
100
AcDbXrecord
280
     1
270
     1
271
     1
  0
XRECORD
  5
452
102
{ACAD_REACTORS
330
44F
102
}
330
44F
100
AcDbXrecord
280
     1
270
     1
271
     1
  0
XRECORD
  5
4D6
102
{ACAD_REACTORS
330
447
102
}
330
447
100
AcDbXrecord
280
     1
102
MATERIAL
148
0.0
149
0.0
149
0.0
 93
        0
 94
      127
282
     0
 72
     0
 77
     0
171
     0
175
     0
179
     0
273
     0
  0
XRECORD
  5
449
102
{ACAD_REACTORS
330
447
102
}
330
447
100
AcDbXrecord
280
     1
270
     1
271
     1
  0
XRECORD
  5
448
102
{ACAD_REACTORS
330
447
102
}
330
447
100
AcDbXrecord
280
     1
270
     1
271
     1
  0
XRECORD
  5
44C
102
{ACAD_REACTORS
330
447
102
}
330
447
100
AcDbXrecord
280
     1
270
     1
271
     1
  0
XRECORD
  5
44B
102
{ACAD_REACTORS
330
447
102
}
330
447
100
AcDbXrecord
280
     1
270
     1
271
     1
  0
XRECORD
  5
44D
102
{ACAD_REACTORS
330
447
102
}
330
447
100
AcDbXrecord
280
     1
270
     1
271
     1
  0
XRECORD
  5
44A
102
{ACAD_REACTORS
330
447
102
}
330
447
100
AcDbXrecord
280
     1
270
     1
271
     1
  0
XRECORD
  5
4D8
102
{ACAD_REACTORS
330
457
102
}
330
457
100
AcDbXrecord
280
     1
102
MATERIAL
148
0.0
149
0.0
149
0.0
 93
        0
 94
      127
282
     0
 72
     0
 77
     0
171
     0
175
     0
179
     0
273
     0
  0
XRECORD
  5
459
102
{ACAD_REACTORS
330
457
102
}
330
457
100
AcDbXrecord
280
     1
270
     1
271
     1
  0
XRECORD
  5
458
102
{ACAD_REACTORS
330
457
102
}
330
457
100
AcDbXrecord
280
     1
270
     1
271
     1
  0
XRECORD
  5
45C
102
{ACAD_REACTORS
330
457
102
}
330
457
100
AcDbXrecord
280
     1
270
     1
271
     1
  0
XRECORD
  5
45B
102
{ACAD_REACTORS
330
457
102
}
330
457
100
AcDbXrecord
280
     1
270
     1
271
     1
  0
XRECORD
  5
45D
102
{ACAD_REACTORS
330
457
102
}
330
457
100
AcDbXrecord
280
     1
270
     1
271
     1
  0
XRECORD
  5
45A
102
{ACAD_REACTORS
330
457
102
}
330
457
100
AcDbXrecord
280
     1
270
     1
271
     1
  0
XRECORD
  5
50C
102
{ACAD_REACTORS
330
50B
102
}
330
50B
100
AcDbXrecord
280
     1
102
DISPLAYNAME
  1
Imperial24
102
FLAGS
 90
        0
  0
CELLSTYLEMAP
  5
4D3
102
{ACAD_REACTORS
330
4D2
102
}
330
4D2
100
AcDbCellStyleMap
 90
        3
300
CELLSTYLE
  1
TABLEFORMAT_BEGIN
 90
        5
170
     1
 91
        0
 92
    32768
 62
   257
 93
        1
300
CONTENTFORMAT
  1
CONTENTFORMAT_BEGIN
 90
        0
 91
        0
 92
      512
 93
        0
300

 40
0.0
140
1.0
 94
        5
 62
     0
340
48A
144
0.25
309
CONTENTFORMAT_END
171
     0
 94
        0
309
TABLEFORMAT_END
  1
CELLSTYLE_BEGIN
 90
        1
 91
        1
300
_TITLE
309
CELLSTYLE_END
300
CELLSTYLE
  1
TABLEFORMAT_BEGIN
 90
        5
170
     1
 91
        0
 92
        0
 62
   257
 93
        1
300
CONTENTFORMAT
  1
CONTENTFORMAT_BEGIN
 90
        0
 91
        0
 92
      512
 93
        0
300

 40
0.0
140
1.0
 94
        5
 62
     0
340
48A
144
0.18
309
CONTENTFORMAT_END
171
     0
 94
        0
309
TABLEFORMAT_END
  1
CELLSTYLE_BEGIN
 90
        2
 91
        1
300
_HEADER
309
CELLSTYLE_END
300
CELLSTYLE
  1
TABLEFORMAT_BEGIN
 90
        5
170
     1
 91
        0
 92
        0
 62
   257
 93
        1
300
CONTENTFORMAT
  1
CONTENTFORMAT_BEGIN
 90
        0
 91
        0
 92
      512
 93
        0
300

 40
0.0
140
1.0
 94
        2
 62
     0
340
48A
144
0.18
309
CONTENTFORMAT_END
171
     0
 94
        0
309
TABLEFORMAT_END
  1
CELLSTYLE_BEGIN
 90
        3
 91
        2
300
_DATA
309
CELLSTYLE_END
  0
XRECORD
  5
509
102
{ACAD_REACTORS
330
4D2
102
}
330
4D2
100
AcDbXrecord
280
     1
102
ACAD_ROUNDTRIP_PRE2007_TABLESTYLE
 90
      512
 91
        0
  1

 92
      512
 93
        0
  2

 94
      512
 95
        0
  3

  0
XRECORD
  5
4E4
102
{ACAD_REACTORS
330
4E3
102
}
330
4E3
100
AcDbXrecord
280
     1
102
RTVSPost2010Prop28
280
     1
102
RTVSPost2010PropOp28
 70
     1
102
RTVSPost2010Prop29
280
     1
102
RTVSPost2010PropOp29
 70
     1
102
RTVSPost2010Prop30
280
     0
102
RTVSPost2010PropOp30
 70
     1
102
RTVSPost2010Prop31
280
     0
102
RTVSPost2010PropOp31
 70
     1
102
RTVSPost2010Prop32
280
     0
102
RTVSPost2010PropOp32
 70
     1
102
RTVSPost2010Prop33
280
     0
102
RTVSPost2010PropOp33
 70
     1
102
RTVSPost2010Prop34
280
     0
102
RTVSPost2010PropOp34
 70
     1
102
RTVSPost2010Prop35
280
     0
102
RTVSPost2010PropOp35
 70
     1
102
RTVSPost2010Prop36
280
     0
102
RTVSPost2010PropOp36
 70
     1
102
RTVSPost2010Prop37
 90
       50
102
RTVSPost2010PropOp37
 70
     1
102
RTVSPost2010Prop38
140
0.0
102
RTVSPost2010PropOp38
 70
     1
102
RTVSPost2010Prop39
140
1.0
102
RTVSPost2010PropOp39
 70
     1
102
RTVSPost2010Prop40
 90
        0
102
RTVSPost2010PropOp40
 70
     1
102
RTVSPost2010Prop41ColorIndex
 90
       18
102
RTVSPost2010Prop41ColorRGB
 90
        0
102
RTVSPost2010PropOp41
 70
     1
102
RTVSPost2010Prop42
 90
       50
102
RTVSPost2010PropOp42
 70
     1
102
RTVSPost2010Prop43
 90
        3
102
RTVSPost2010PropOp43
 70
     1
102
RTVSPost2010Prop44ColorIndex
 90
        5
102
RTVSPost2010Prop44ColorRGB
 90
      255
102
RTVSPost2010PropOp44
 70
     1
102
RTVSPost2010Prop45
280
     0
102
RTVSPost2010PropOp45
 70
     1
102
RTVSPost2010Prop46
 90
       50
102
RTVSPost2010PropOp46
 70
     1
102
RTVSPost2010Prop47
 90
       50
102
RTVSPost2010PropOp47
 70
     1
102
RTVSPost2010Prop48
 90
       50
102
RTVSPost2010PropOp48
 70
     1
102
RTVSPost2010Prop49
280
     0
102
RTVSPost2010PropOp49
 70
     1
102
RTVSPost2010Prop50
 90
       50
102
RTVSPost2010PropOp50
 70
     1
102
RTVSPost2010Prop51ColorIndex
 90
      256
102
RTVSPost2010Prop51ColorRGB
 90
-16777216
102
RTVSPost2010PropOp51
 70
     0
102
RTVSPost2010Prop52
140
1.0
102
RTVSPost2010PropOp52
 70
     0
102
RTVSPost2010Prop53
 90
        2
102
RTVSPost2010PropOp53
 70
     1
102
RTVSPost2010Prop54
  1
strokes_ogs.tif
102
RTVSPost2010PropOp54
 70
     1
102
RTVSPost2010Prop55
280
     0
102
RTVSPost2010PropOp55
 70
     1
102
RTVSPost2010Prop56
140
1.0
102
RTVSPost2010PropOp56
 70
     1
102
RTVSPost2010Prop57
140
1.0
102
RTVSPost2010PropOp57
 70
     1
102
RTVSPropertyOp0
 70
     1
102
RTVSPropertyOp1
 70
     1
102
RTVSPropertyOp2
 70
     1
102
RTVSPropertyOp3
 70
     1
102
RTVSPropertyOp4
 70
     1
102
RTVSPropertyOp5
 70
     1
102
RTVSPropertyOp6
 70
     1
102
RTVSPropertyOp7
 70
     1
102
RTVSPropertyOp8
 70
     1
102
RTVSPropertyOp9
 70
     1
102
RTVSPropertyOp10
 70
     1
102
RTVSPropertyOp11
 70
     1
102
RTVSPropertyOp12
 70
     1
102
RTVSPropertyOp13
 70
     1
102
RTVSPropertyOp14
 70
     1
102
RTVSPropertyOp15
 70
     1
102
RTVSPropertyOp16
 70
     1
102
RTVSPropertyOp17
 70
     1
102
RTVSPropertyOp18
 70
     1
102
RTVSPropertyOp19
 70
     1
102
RTVSPropertyOp20
 70
     1
102
RTVSPropertyOp21
 70
     1
102
RTVSPropertyOp22
 70
     1
102
RTVSPropertyOp23
 70
     1
102
RTVSPropertyOp24
 70
     1
102
RTVSPropertyOp25
 70
     1
102
RTVSPropertyOp26
 70
     1
102
RTVSPropertyOp27
 70
     1
102
RTVSPropertyOp28
 70
     1
102
RTVSPropertyOp29
 70
     1
102
RTVSPropertyOp30
 70
     1
102
RTVSPropertyOp31
 70
     1
102
RTVSPropertyOp32
 70
     1
102
RTVSPropertyOp33
 70
     1
102
RTVSPropertyOp34
 70
     1
102
RTVSPropertyOp35
 70
     1
102
RTVSPropertyOp36
 70
     1
102
RTVSPropertyOp37
 70
     1
102
RTVSPropertyOp38
 70
     1
102
RTVSPropertyOp39
 70
     1
102
RTVSPropertyOp40
 70
     1
102
RTVSPropertyOp41
 70
     1
102
RTVSPropertyOp42
 70
     1
102
RTVSPropertyOp43
 70
     1
102
RTVSPropertyOp44
 70
     1
102
RTVSPropertyOp45
 70
     1
102
RTVSPropertyOp46
 70
     1
102
RTVSPropertyOp47
 70
     1
102
RTVSPropertyOp48
 70
     1
102
RTVSPropertyOp49
 70
     1
102
RTVSPropertyOp50
 70
     1
102
RTVSPropertyOp51
 70
     0
102
RTVSPropertyOp52
 70
     0
102
RTVSPropertyOp53
 70
     1
102
RTVSPropertyOp54
 70
     1
102
RTVSPropertyOp55
 70
     1
102
RTVSPropertyOp56
 70
     1
102
RTVSPropertyOp57
 70
     1
102
RTVSPropertyOp58
 70
     1
102
RTVSPropertyOp59
 70
     1
102
RTVSPropertyOp60
 70
     1
102
RTVSPropertyOp61
 70
     1
102
RTVSPropertyOp62
 70
     1
  0
XRECORD
  5
4E2
102
{ACAD_REACTORS
330
4E1
102
}
330
4E1
100
AcDbXrecord
280
     1
102
RTVSPost2010Prop28
280
     0
102
RTVSPost2010PropOp28
 70
     1
102
RTVSPost2010Prop29
280
     1
102
RTVSPost2010PropOp29
 70
     1
102
RTVSPost2010Prop30
280
     1
102
RTVSPost2010PropOp30
 70
     1
102
RTVSPost2010Prop31
280
     0
102
RTVSPost2010PropOp31
 70
     1
102
RTVSPost2010Prop32
280
     0
102
RTVSPost2010PropOp32
 70
     1
102
RTVSPost2010Prop33
280
     0
102
RTVSPost2010PropOp33
 70
     1
102
RTVSPost2010Prop34
280
     0
102
RTVSPost2010PropOp34
 70
     1
102
RTVSPost2010Prop35
280
     0
102
RTVSPost2010PropOp35
 70
     1
102
RTVSPost2010Prop36
280
     0
102
RTVSPost2010PropOp36
 70
     1
102
RTVSPost2010Prop37
 90
       50
102
RTVSPost2010PropOp37
 70
     1
102
RTVSPost2010Prop38
140
0.0
102
RTVSPost2010PropOp38
 70
     1
102
RTVSPost2010Prop39
140
1.0
102
RTVSPost2010PropOp39
 70
     1
102
RTVSPost2010Prop40
 90
        0
102
RTVSPost2010PropOp40
 70
     1
102
RTVSPost2010Prop41ColorIndex
 90
       18
102
RTVSPost2010Prop41ColorRGB
 90
        0
102
RTVSPost2010PropOp41
 70
     1
102
RTVSPost2010Prop42
 90
       50
102
RTVSPost2010PropOp42
 70
     1
102
RTVSPost2010Prop43
 90
        3
102
RTVSPost2010PropOp43
 70
     1
102
RTVSPost2010Prop44ColorIndex
 90
        5
102
RTVSPost2010Prop44ColorRGB
 90
      255
102
RTVSPost2010PropOp44
 70
     1
102
RTVSPost2010Prop45
280
     0
102
RTVSPost2010PropOp45
 70
     1
102
RTVSPost2010Prop46
 90
       50
102
RTVSPost2010PropOp46
 70
     1
102
RTVSPost2010Prop47
 90
       50
102
RTVSPost2010PropOp47
 70
     1
102
RTVSPost2010Prop48
 90
       50
102
RTVSPost2010PropOp48
 70
     1
102
RTVSPost2010Prop49
280
     0
102
RTVSPost2010PropOp49
 70
     1
102
RTVSPost2010Prop50
 90
       50
102
RTVSPost2010PropOp50
 70
     1
102
RTVSPost2010Prop51ColorIndex
 90
      256
102
RTVSPost2010Prop51ColorRGB
 90
-16777216
102
RTVSPost2010PropOp51
 70
     0
102
RTVSPost2010Prop52
140
1.0
102
RTVSPost2010PropOp52
 70
     0
102
RTVSPost2010Prop53
 90
        2
102
RTVSPost2010PropOp53
 70
     1
102
RTVSPost2010Prop54
  1
strokes_ogs.tif
102
RTVSPost2010PropOp54
 70
     1
102
RTVSPost2010Prop55
280
     0
102
RTVSPost2010PropOp55
 70
     1
102
RTVSPost2010Prop56
140
1.0
102
RTVSPost2010PropOp56
 70
     1
102
RTVSPost2010Prop57
140
1.0
102
RTVSPost2010PropOp57
 70
     1
102
RTVSPropertyOp0
 70
     1
102
RTVSPropertyOp1
 70
     1
102
RTVSPropertyOp2
 70
     1
102
RTVSPropertyOp3
 70
     1
102
RTVSPropertyOp4
 70
     1
102
RTVSPropertyOp5
 70
     1
102
RTVSPropertyOp6
 70
     1
102
RTVSPropertyOp7
 70
     1
102
RTVSPropertyOp8
 70
     1
102
RTVSPropertyOp9
 70
     1
102
RTVSPropertyOp10
 70
     1
102
RTVSPropertyOp11
 70
     1
102
RTVSPropertyOp12
 70
     1
102
RTVSPropertyOp13
 70
     1
102
RTVSPropertyOp14
 70
     1
102
RTVSPropertyOp15
 70
     1
102
RTVSPropertyOp16
 70
     1
102
RTVSPropertyOp17
 70
     1
102
RTVSPropertyOp18
 70
     1
102
RTVSPropertyOp19
 70
     1
102
RTVSPropertyOp20
 70
     1
102
RTVSPropertyOp21
 70
     1
102
RTVSPropertyOp22
 70
     1
102
RTVSPropertyOp23
 70
     1
102
RTVSPropertyOp24
 70
     1
102
RTVSPropertyOp25
 70
     1
102
RTVSPropertyOp26
 70
     1
102
RTVSPropertyOp27
 70
     1
102
RTVSPropertyOp28
 70
     1
102
RTVSPropertyOp29
 70
     1
102
RTVSPropertyOp30
 70
     1
102
RTVSPropertyOp31
 70
     1
102
RTVSPropertyOp32
 70
     1
102
RTVSPropertyOp33
 70
     1
102
RTVSPropertyOp34
 70
     1
102
RTVSPropertyOp35
 70
     1
102
RTVSPropertyOp36
 70
     1
102
RTVSPropertyOp37
 70
     1
102
RTVSPropertyOp38
 70
     1
102
RTVSPropertyOp39
 70
     1
102
RTVSPropertyOp40
 70
     1
102
RTVSPropertyOp41
 70
     1
102
RTVSPropertyOp42
 70
     1
102
RTVSPropertyOp43
 70
     1
102
RTVSPropertyOp44
 70
     1
102
RTVSPropertyOp45
 70
     1
102
RTVSPropertyOp46
 70
     1
102
RTVSPropertyOp47
 70
     1
102
RTVSPropertyOp48
 70
     1
102
RTVSPropertyOp49
 70
     1
102
RTVSPropertyOp50
 70
     1
102
RTVSPropertyOp51
 70
     0
102
RTVSPropertyOp52
 70
     0
102
RTVSPropertyOp53
 70
     1
102
RTVSPropertyOp54
 70
     1
102
RTVSPropertyOp55
 70
     1
102
RTVSPropertyOp56
 70
     1
102
RTVSPropertyOp57
 70
     1
102
RTVSPropertyOp58
 70
     1
102
RTVSPropertyOp59
 70
     1
102
RTVSPropertyOp60
 70
     1
102
RTVSPropertyOp61
 70
     1
102
RTVSPropertyOp62
 70
     1
  0
XRECORD
  5
4F0
102
{ACAD_REACTORS
330
4EF
102
}
330
4EF
100
AcDbXrecord
280
     1
102
RTVSPost2010Prop28
280
     0
102
RTVSPost2010PropOp28
 70
     1
102
RTVSPost2010Prop29
280
     1
102
RTVSPost2010PropOp29
 70
     1
102
RTVSPost2010Prop30
280
     1
102
RTVSPost2010PropOp30
 70
     1
102
RTVSPost2010Prop31
280
     0
102
RTVSPost2010PropOp31
 70
     1
102
RTVSPost2010Prop32
280
     0
102
RTVSPost2010PropOp32
 70
     1
102
RTVSPost2010Prop33
280
     0
102
RTVSPost2010PropOp33
 70
     1
102
RTVSPost2010Prop34
280
     0
102
RTVSPost2010PropOp34
 70
     1
102
RTVSPost2010Prop35
280
     0
102
RTVSPost2010PropOp35
 70
     1
102
RTVSPost2010Prop36
280
     0
102
RTVSPost2010PropOp36
 70
     1
102
RTVSPost2010Prop37
 90
       50
102
RTVSPost2010PropOp37
 70
     1
102
RTVSPost2010Prop38
140
0.0
102
RTVSPost2010PropOp38
 70
     1
102
RTVSPost2010Prop39
140
1.0
102
RTVSPost2010PropOp39
 70
     1
102
RTVSPost2010Prop40
 90
        0
102
RTVSPost2010PropOp40
 70
     1
102
RTVSPost2010Prop41ColorIndex
 90
       18
102
RTVSPost2010Prop41ColorRGB
 90
        0
102
RTVSPost2010PropOp41
 70
     1
102
RTVSPost2010Prop42
 90
       50
102
RTVSPost2010PropOp42
 70
     1
102
RTVSPost2010Prop43
 90
        3
102
RTVSPost2010PropOp43
 70
     1
102
RTVSPost2010Prop44ColorIndex
 90
        5
102
RTVSPost2010Prop44ColorRGB
 90
      255
102
RTVSPost2010PropOp44
 70
     1
102
RTVSPost2010Prop45
280
     0
102
RTVSPost2010PropOp45
 70
     1
102
RTVSPost2010Prop46
 90
       50
102
RTVSPost2010PropOp46
 70
     1
102
RTVSPost2010Prop47
 90
       50
102
RTVSPost2010PropOp47
 70
     1
102
RTVSPost2010Prop48
 90
       50
102
RTVSPost2010PropOp48
 70
     1
102
RTVSPost2010Prop49
280
     0
102
RTVSPost2010PropOp49
 70
     1
102
RTVSPost2010Prop50
 90
       50
102
RTVSPost2010PropOp50
 70
     1
102
RTVSPost2010Prop51ColorIndex
 90
      256
102
RTVSPost2010Prop51ColorRGB
 90
-16777216
102
RTVSPost2010PropOp51
 70
     0
102
RTVSPost2010Prop52
140
1.0
102
RTVSPost2010PropOp52
 70
     0
102
RTVSPost2010Prop53
 90
        2
102
RTVSPost2010PropOp53
 70
     1
102
RTVSPost2010Prop54
  1
strokes_ogs.tif
102
RTVSPost2010PropOp54
 70
     1
102
RTVSPost2010Prop55
280
     0
102
RTVSPost2010PropOp55
 70
     1
102
RTVSPost2010Prop56
140
1.0
102
RTVSPost2010PropOp56
 70
     1
102
RTVSPost2010Prop57
140
1.0
102
RTVSPost2010PropOp57
 70
     1
102
RTVSPropertyOp0
 70
     1
102
RTVSPropertyOp1
 70
     1
102
RTVSPropertyOp2
 70
     1
102
RTVSPropertyOp3
 70
     1
102
RTVSPropertyOp4
 70
     1
102
RTVSPropertyOp5
 70
     1
102
RTVSPropertyOp6
 70
     1
102
RTVSPropertyOp7
 70
     1
102
RTVSPropertyOp8
 70
     1
102
RTVSPropertyOp9
 70
     1
102
RTVSPropertyOp10
 70
     1
102
RTVSPropertyOp11
 70
     1
102
RTVSPropertyOp12
 70
     1
102
RTVSPropertyOp13
 70
     1
102
RTVSPropertyOp14
 70
     1
102
RTVSPropertyOp15
 70
     1
102
RTVSPropertyOp16
 70
     1
102
RTVSPropertyOp17
 70
     1
102
RTVSPropertyOp18
 70
     1
102
RTVSPropertyOp19
 70
     1
102
RTVSPropertyOp20
 70
     1
102
RTVSPropertyOp21
 70
     1
102
RTVSPropertyOp22
 70
     1
102
RTVSPropertyOp23
 70
     1
102
RTVSPropertyOp24
 70
     1
102
RTVSPropertyOp25
 70
     1
102
RTVSPropertyOp26
 70
     1
102
RTVSPropertyOp27
 70
     1
102
RTVSPropertyOp28
 70
     1
102
RTVSPropertyOp29
 70
     1
102
RTVSPropertyOp30
 70
     1
102
RTVSPropertyOp31
 70
     1
102
RTVSPropertyOp32
 70
     1
102
RTVSPropertyOp33
 70
     1
102
RTVSPropertyOp34
 70
     1
102
RTVSPropertyOp35
 70
     1
102
RTVSPropertyOp36
 70
     1
102
RTVSPropertyOp37
 70
     1
102
RTVSPropertyOp38
 70
     1
102
RTVSPropertyOp39
 70
     1
102
RTVSPropertyOp40
 70
     1
102
RTVSPropertyOp41
 70
     1
102
RTVSPropertyOp42
 70
     1
102
RTVSPropertyOp43
 70
     1
102
RTVSPropertyOp44
 70
     1
102
RTVSPropertyOp45
 70
     1
102
RTVSPropertyOp46
 70
     1
102
RTVSPropertyOp47
 70
     1
102
RTVSPropertyOp48
 70
     1
102
RTVSPropertyOp49
 70
     1
102
RTVSPropertyOp50
 70
     1
102
RTVSPropertyOp51
 70
     0
102
RTVSPropertyOp52
 70
     0
102
RTVSPropertyOp53
 70
     1
102
RTVSPropertyOp54
 70
     1
102
RTVSPropertyOp55
 70
     1
102
RTVSPropertyOp56
 70
     1
102
RTVSPropertyOp57
 70
     1
102
RTVSPropertyOp58
 70
     1
102
RTVSPropertyOp59
 70
     1
102
RTVSPropertyOp60
 70
     1
102
RTVSPropertyOp61
 70
     1
102
RTVSPropertyOp62
 70
     1
  0
XRECORD
  5
4F8
102
{ACAD_REACTORS
330
4F7
102
}
330
4F7
100
AcDbXrecord
280
     1
102
RTVSPost2010Prop28
280
     0
102
RTVSPost2010PropOp28
 70
     1
102
RTVSPost2010Prop29
280
     1
102
RTVSPost2010PropOp29
 70
     1
102
RTVSPost2010Prop30
280
     1
102
RTVSPost2010PropOp30
 70
     1
102
RTVSPost2010Prop31
280
     0
102
RTVSPost2010PropOp31
 70
     1
102
RTVSPost2010Prop32
280
     0
102
RTVSPost2010PropOp32
 70
     1
102
RTVSPost2010Prop33
280
     0
102
RTVSPost2010PropOp33
 70
     1
102
RTVSPost2010Prop34
280
     0
102
RTVSPost2010PropOp34
 70
     1
102
RTVSPost2010Prop35
280
     0
102
RTVSPost2010PropOp35
 70
     1
102
RTVSPost2010Prop36
280
     0
102
RTVSPost2010PropOp36
 70
     1
102
RTVSPost2010Prop37
 90
       50
102
RTVSPost2010PropOp37
 70
     1
102
RTVSPost2010Prop38
140
0.0
102
RTVSPost2010PropOp38
 70
     1
102
RTVSPost2010Prop39
140
1.0
102
RTVSPost2010PropOp39
 70
     1
102
RTVSPost2010Prop40
 90
        0
102
RTVSPost2010PropOp40
 70
     1
102
RTVSPost2010Prop41ColorIndex
 90
       18
102
RTVSPost2010Prop41ColorRGB
 90
        0
102
RTVSPost2010PropOp41
 70
     1
102
RTVSPost2010Prop42
 90
       50
102
RTVSPost2010PropOp42
 70
     1
102
RTVSPost2010Prop43
 90
        3
102
RTVSPost2010PropOp43
 70
     1
102
RTVSPost2010Prop44ColorIndex
 90
        5
102
RTVSPost2010Prop44ColorRGB
 90
      255
102
RTVSPost2010PropOp44
 70
     1
102
RTVSPost2010Prop45
280
     0
102
RTVSPost2010PropOp45
 70
     1
102
RTVSPost2010Prop46
 90
       50
102
RTVSPost2010PropOp46
 70
     1
102
RTVSPost2010Prop47
 90
       50
102
RTVSPost2010PropOp47
 70
     1
102
RTVSPost2010Prop48
 90
       50
102
RTVSPost2010PropOp48
 70
     1
102
RTVSPost2010Prop49
280
     0
102
RTVSPost2010PropOp49
 70
     1
102
RTVSPost2010Prop50
 90
       50
102
RTVSPost2010PropOp50
 70
     1
102
RTVSPost2010Prop51ColorIndex
 90
      256
102
RTVSPost2010Prop51ColorRGB
 90
-16777216
102
RTVSPost2010PropOp51
 70
     0
102
RTVSPost2010Prop52
140
1.0
102
RTVSPost2010PropOp52
 70
     0
102
RTVSPost2010Prop53
 90
        2
102
RTVSPost2010PropOp53
 70
     1
102
RTVSPost2010Prop54
  1
strokes_ogs.tif
102
RTVSPost2010PropOp54
 70
     1
102
RTVSPost2010Prop55
280
     0
102
RTVSPost2010PropOp55
 70
     1
102
RTVSPost2010Prop56
140
1.0
102
RTVSPost2010PropOp56
 70
     1
102
RTVSPost2010Prop57
140
1.0
102
RTVSPost2010PropOp57
 70
     1
102
RTVSPropertyOp0
 70
     1
102
RTVSPropertyOp1
 70
     1
102
RTVSPropertyOp2
 70
     1
102
RTVSPropertyOp3
 70
     1
102
RTVSPropertyOp4
 70
     1
102
RTVSPropertyOp5
 70
     1
102
RTVSPropertyOp6
 70
     1
102
RTVSPropertyOp7
 70
     1
102
RTVSPropertyOp8
 70
     1
102
RTVSPropertyOp9
 70
     1
102
RTVSPropertyOp10
 70
     1
102
RTVSPropertyOp11
 70
     1
102
RTVSPropertyOp12
 70
     1
102
RTVSPropertyOp13
 70
     1
102
RTVSPropertyOp14
 70
     1
102
RTVSPropertyOp15
 70
     1
102
RTVSPropertyOp16
 70
     1
102
RTVSPropertyOp17
 70
     1
102
RTVSPropertyOp18
 70
     1
102
RTVSPropertyOp19
 70
     1
102
RTVSPropertyOp20
 70
     1
102
RTVSPropertyOp21
 70
     1
102
RTVSPropertyOp22
 70
     1
102
RTVSPropertyOp23
 70
     1
102
RTVSPropertyOp24
 70
     1
102
RTVSPropertyOp25
 70
     1
102
RTVSPropertyOp26
 70
     1
102
RTVSPropertyOp27
 70
     1
102
RTVSPropertyOp28
 70
     1
102
RTVSPropertyOp29
 70
     1
102
RTVSPropertyOp30
 70
     1
102
RTVSPropertyOp31
 70
     1
102
RTVSPropertyOp32
 70
     1
102
RTVSPropertyOp33
 70
     1
102
RTVSPropertyOp34
 70
     1
102
RTVSPropertyOp35
 70
     1
102
RTVSPropertyOp36
 70
     1
102
RTVSPropertyOp37
 70
     1
102
RTVSPropertyOp38
 70
     1
102
RTVSPropertyOp39
 70
     1
102
RTVSPropertyOp40
 70
     1
102
RTVSPropertyOp41
 70
     1
102
RTVSPropertyOp42
 70
     1
102
RTVSPropertyOp43
 70
     1
102
RTVSPropertyOp44
 70
     1
102
RTVSPropertyOp45
 70
     1
102
RTVSPropertyOp46
 70
     1
102
RTVSPropertyOp47
 70
     1
102
RTVSPropertyOp48
 70
     1
102
RTVSPropertyOp49
 70
     1
102
RTVSPropertyOp50
 70
     1
102
RTVSPropertyOp51
 70
     0
102
RTVSPropertyOp52
 70
     0
102
RTVSPropertyOp53
 70
     1
102
RTVSPropertyOp54
 70
     1
102
RTVSPropertyOp55
 70
     1
102
RTVSPropertyOp56
 70
     1
102
RTVSPropertyOp57
 70
     1
102
RTVSPropertyOp58
 70
     1
102
RTVSPropertyOp59
 70
     1
102
RTVSPropertyOp60
 70
     1
102
RTVSPropertyOp61
 70
     1
102
RTVSPropertyOp62
 70
     1
  0
XRECORD
  5
4EA
102
{ACAD_REACTORS
330
4E9
102
}
330
4E9
100
AcDbXrecord
280
     1
102
RTVSPost2010Prop28
280
     0
102
RTVSPost2010PropOp28
 70
     1
102
RTVSPost2010Prop29
280
     1
102
RTVSPost2010PropOp29
 70
     1
102
RTVSPost2010Prop30
280
     1
102
RTVSPost2010PropOp30
 70
     1
102
RTVSPost2010Prop31
280
     0
102
RTVSPost2010PropOp31
 70
     1
102
RTVSPost2010Prop32
280
     0
102
RTVSPost2010PropOp32
 70
     1
102
RTVSPost2010Prop33
280
     0
102
RTVSPost2010PropOp33
 70
     1
102
RTVSPost2010Prop34
280
     0
102
RTVSPost2010PropOp34
 70
     1
102
RTVSPost2010Prop35
280
     0
102
RTVSPost2010PropOp35
 70
     1
102
RTVSPost2010Prop36
280
     0
102
RTVSPost2010PropOp36
 70
     1
102
RTVSPost2010Prop37
 90
       50
102
RTVSPost2010PropOp37
 70
     1
102
RTVSPost2010Prop38
140
0.0
102
RTVSPost2010PropOp38
 70
     1
102
RTVSPost2010Prop39
140
1.0
102
RTVSPost2010PropOp39
 70
     1
102
RTVSPost2010Prop40
 90
        0
102
RTVSPost2010PropOp40
 70
     1
102
RTVSPost2010Prop41ColorIndex
 90
       18
102
RTVSPost2010Prop41ColorRGB
 90
        0
102
RTVSPost2010PropOp41
 70
     1
102
RTVSPost2010Prop42
 90
       50
102
RTVSPost2010PropOp42
 70
     1
102
RTVSPost2010Prop43
 90
        3
102
RTVSPost2010PropOp43
 70
     1
102
RTVSPost2010Prop44ColorIndex
 90
        5
102
RTVSPost2010Prop44ColorRGB
 90
      255
102
RTVSPost2010PropOp44
 70
     1
102
RTVSPost2010Prop45
280
     0
102
RTVSPost2010PropOp45
 70
     1
102
RTVSPost2010Prop46
 90
       50
102
RTVSPost2010PropOp46
 70
     1
102
RTVSPost2010Prop47
 90
       50
102
RTVSPost2010PropOp47
 70
     1
102
RTVSPost2010Prop48
 90
       50
102
RTVSPost2010PropOp48
 70
     1
102
RTVSPost2010Prop49
280
     0
102
RTVSPost2010PropOp49
 70
     1
102
RTVSPost2010Prop50
 90
       50
102
RTVSPost2010PropOp50
 70
     1
102
RTVSPost2010Prop51ColorIndex
 90
      256
102
RTVSPost2010Prop51ColorRGB
 90
-16777216
102
RTVSPost2010PropOp51
 70
     0
102
RTVSPost2010Prop52
140
1.0
102
RTVSPost2010PropOp52
 70
     0
102
RTVSPost2010Prop53
 90
        2
102
RTVSPost2010PropOp53
 70
     1
102
RTVSPost2010Prop54
  1
strokes_ogs.tif
102
RTVSPost2010PropOp54
 70
     1
102
RTVSPost2010Prop55
280
     0
102
RTVSPost2010PropOp55
 70
     1
102
RTVSPost2010Prop56
140
1.0
102
RTVSPost2010PropOp56
 70
     1
102
RTVSPost2010Prop57
140
1.0
102
RTVSPost2010PropOp57
 70
     1
102
RTVSPropertyOp0
 70
     1
102
RTVSPropertyOp1
 70
     1
102
RTVSPropertyOp2
 70
     1
102
RTVSPropertyOp3
 70
     1
102
RTVSPropertyOp4
 70
     1
102
RTVSPropertyOp5
 70
     1
102
RTVSPropertyOp6
 70
     1
102
RTVSPropertyOp7
 70
     1
102
RTVSPropertyOp8
 70
     1
102
RTVSPropertyOp9
 70
     1
102
RTVSPropertyOp10
 70
     1
102
RTVSPropertyOp11
 70
     1
102
RTVSPropertyOp12
 70
     1
102
RTVSPropertyOp13
 70
     1
102
RTVSPropertyOp14
 70
     1
102
RTVSPropertyOp15
 70
     1
102
RTVSPropertyOp16
 70
     1
102
RTVSPropertyOp17
 70
     1
102
RTVSPropertyOp18
 70
     1
102
RTVSPropertyOp19
 70
     1
102
RTVSPropertyOp20
 70
     1
102
RTVSPropertyOp21
 70
     1
102
RTVSPropertyOp22
 70
     1
102
RTVSPropertyOp23
 70
     1
102
RTVSPropertyOp24
 70
     1
102
RTVSPropertyOp25
 70
     1
102
RTVSPropertyOp26
 70
     1
102
RTVSPropertyOp27
 70
     1
102
RTVSPropertyOp28
 70
     1
102
RTVSPropertyOp29
 70
     1
102
RTVSPropertyOp30
 70
     1
102
RTVSPropertyOp31
 70
     1
102
RTVSPropertyOp32
 70
     1
102
RTVSPropertyOp33
 70
     1
102
RTVSPropertyOp34
 70
     1
102
RTVSPropertyOp35
 70
     1
102
RTVSPropertyOp36
 70
     1
102
RTVSPropertyOp37
 70
     1
102
RTVSPropertyOp38
 70
     1
102
RTVSPropertyOp39
 70
     1
102
RTVSPropertyOp40
 70
     1
102
RTVSPropertyOp41
 70
     1
102
RTVSPropertyOp42
 70
     1
102
RTVSPropertyOp43
 70
     1
102
RTVSPropertyOp44
 70
     1
102
RTVSPropertyOp45
 70
     1
102
RTVSPropertyOp46
 70
     1
102
RTVSPropertyOp47
 70
     1
102
RTVSPropertyOp48
 70
     1
102
RTVSPropertyOp49
 70
     1
102
RTVSPropertyOp50
 70
     1
102
RTVSPropertyOp51
 70
     0
102
RTVSPropertyOp52
 70
     0
102
RTVSPropertyOp53
 70
     1
102
RTVSPropertyOp54
 70
     1
102
RTVSPropertyOp55
 70
     1
102
RTVSPropertyOp56
 70
     1
102
RTVSPropertyOp57
 70
     1
102
RTVSPropertyOp58
 70
     1
102
RTVSPropertyOp59
 70
     1
102
RTVSPropertyOp60
 70
     1
102
RTVSPropertyOp61
 70
     1
102
RTVSPropertyOp62
 70
     1
  0
XRECORD
  5
4EE
102
{ACAD_REACTORS
330
4ED
102
}
330
4ED
100
AcDbXrecord
280
     1
102
RTVSPost2010Prop28
280
     0
102
RTVSPost2010PropOp28
 70
     1
102
RTVSPost2010Prop29
280
     1
102
RTVSPost2010PropOp29
 70
     1
102
RTVSPost2010Prop30
280
     1
102
RTVSPost2010PropOp30
 70
     1
102
RTVSPost2010Prop31
280
     0
102
RTVSPost2010PropOp31
 70
     1
102
RTVSPost2010Prop32
280
     0
102
RTVSPost2010PropOp32
 70
     1
102
RTVSPost2010Prop33
280
     0
102
RTVSPost2010PropOp33
 70
     1
102
RTVSPost2010Prop34
280
     0
102
RTVSPost2010PropOp34
 70
     1
102
RTVSPost2010Prop35
280
     0
102
RTVSPost2010PropOp35
 70
     1
102
RTVSPost2010Prop36
280
     0
102
RTVSPost2010PropOp36
 70
     1
102
RTVSPost2010Prop37
 90
       50
102
RTVSPost2010PropOp37
 70
     1
102
RTVSPost2010Prop38
140
0.0
102
RTVSPost2010PropOp38
 70
     1
102
RTVSPost2010Prop39
140
1.0
102
RTVSPost2010PropOp39
 70
     1
102
RTVSPost2010Prop40
 90
        0
102
RTVSPost2010PropOp40
 70
     1
102
RTVSPost2010Prop41ColorIndex
 90
       18
102
RTVSPost2010Prop41ColorRGB
 90
        0
102
RTVSPost2010PropOp41
 70
     1
102
RTVSPost2010Prop42
 90
       50
102
RTVSPost2010PropOp42
 70
     1
102
RTVSPost2010Prop43
 90
        3
102
RTVSPost2010PropOp43
 70
     1
102
RTVSPost2010Prop44ColorIndex
 90
        5
102
RTVSPost2010Prop44ColorRGB
 90
      255
102
RTVSPost2010PropOp44
 70
     1
102
RTVSPost2010Prop45
280
     0
102
RTVSPost2010PropOp45
 70
     1
102
RTVSPost2010Prop46
 90
       50
102
RTVSPost2010PropOp46
 70
     1
102
RTVSPost2010Prop47
 90
       50
102
RTVSPost2010PropOp47
 70
     1
102
RTVSPost2010Prop48
 90
       50
102
RTVSPost2010PropOp48
 70
     1
102
RTVSPost2010Prop49
280
     0
102
RTVSPost2010PropOp49
 70
     1
102
RTVSPost2010Prop50
 90
       50
102
RTVSPost2010PropOp50
 70
     1
102
RTVSPost2010Prop51ColorIndex
 90
      256
102
RTVSPost2010Prop51ColorRGB
 90
-16777216
102
RTVSPost2010PropOp51
 70
     0
102
RTVSPost2010Prop52
140
1.0
102
RTVSPost2010PropOp52
 70
     0
102
RTVSPost2010Prop53
 90
        2
102
RTVSPost2010PropOp53
 70
     1
102
RTVSPost2010Prop54
  1
strokes_ogs.tif
102
RTVSPost2010PropOp54
 70
     1
102
RTVSPost2010Prop55
280
     0
102
RTVSPost2010PropOp55
 70
     1
102
RTVSPost2010Prop56
140
1.0
102
RTVSPost2010PropOp56
 70
     1
102
RTVSPost2010Prop57
140
1.0
102
RTVSPost2010PropOp57
 70
     1
102
RTVSPropertyOp0
 70
     1
102
RTVSPropertyOp1
 70
     1
102
RTVSPropertyOp2
 70
     1
102
RTVSPropertyOp3
 70
     1
102
RTVSPropertyOp4
 70
     1
102
RTVSPropertyOp5
 70
     1
102
RTVSPropertyOp6
 70
     1
102
RTVSPropertyOp7
 70
     1
102
RTVSPropertyOp8
 70
     1
102
RTVSPropertyOp9
 70
     1
102
RTVSPropertyOp10
 70
     1
102
RTVSPropertyOp11
 70
     1
102
RTVSPropertyOp12
 70
     1
102
RTVSPropertyOp13
 70
     1
102
RTVSPropertyOp14
 70
     1
102
RTVSPropertyOp15
 70
     1
102
RTVSPropertyOp16
 70
     1
102
RTVSPropertyOp17
 70
     1
102
RTVSPropertyOp18
 70
     1
102
RTVSPropertyOp19
 70
     1
102
RTVSPropertyOp20
 70
     1
102
RTVSPropertyOp21
 70
     1
102
RTVSPropertyOp22
 70
     1
102
RTVSPropertyOp23
 70
     1
102
RTVSPropertyOp24
 70
     1
102
RTVSPropertyOp25
 70
     1
102
RTVSPropertyOp26
 70
     1
102
RTVSPropertyOp27
 70
     1
102
RTVSPropertyOp28
 70
     1
102
RTVSPropertyOp29
 70
     1
102
RTVSPropertyOp30
 70
     1
102
RTVSPropertyOp31
 70
     1
102
RTVSPropertyOp32
 70
     1
102
RTVSPropertyOp33
 70
     1
102
RTVSPropertyOp34
 70
     1
102
RTVSPropertyOp35
 70
     1
102
RTVSPropertyOp36
 70
     1
102
RTVSPropertyOp37
 70
     1
102
RTVSPropertyOp38
 70
     1
102
RTVSPropertyOp39
 70
     1
102
RTVSPropertyOp40
 70
     1
102
RTVSPropertyOp41
 70
     1
102
RTVSPropertyOp42
 70
     1
102
RTVSPropertyOp43
 70
     1
102
RTVSPropertyOp44
 70
     1
102
RTVSPropertyOp45
 70
     1
102
RTVSPropertyOp46
 70
     1
102
RTVSPropertyOp47
 70
     1
102
RTVSPropertyOp48
 70
     1
102
RTVSPropertyOp49
 70
     1
102
RTVSPropertyOp50
 70
     1
102
RTVSPropertyOp51
 70
     0
102
RTVSPropertyOp52
 70
     0
102
RTVSPropertyOp53
 70
     1
102
RTVSPropertyOp54
 70
     1
102
RTVSPropertyOp55
 70
     1
102
RTVSPropertyOp56
 70
     1
102
RTVSPropertyOp57
 70
     1
102
RTVSPropertyOp58
 70
     1
102
RTVSPropertyOp59
 70
     1
102
RTVSPropertyOp60
 70
     1
102
RTVSPropertyOp61
 70
     1
102
RTVSPropertyOp62
 70
     1
  0
XRECORD
  5
508
102
{ACAD_REACTORS
330
507
102
}
330
507
100
AcDbXrecord
280
     1
102
RTVSPost2010Prop28
280
     0
102
RTVSPost2010PropOp28
 70
     1
102
RTVSPost2010Prop29
280
     1
102
RTVSPost2010PropOp29
 70
     1
102
RTVSPost2010Prop30
280
     1
102
RTVSPost2010PropOp30
 70
     1
102
RTVSPost2010Prop31
280
     0
102
RTVSPost2010PropOp31
 70
     1
102
RTVSPost2010Prop32
280
     0
102
RTVSPost2010PropOp32
 70
     1
102
RTVSPost2010Prop33
280
     0
102
RTVSPost2010PropOp33
 70
     1
102
RTVSPost2010Prop34
280
     0
102
RTVSPost2010PropOp34
 70
     1
102
RTVSPost2010Prop35
280
     0
102
RTVSPost2010PropOp35
 70
     1
102
RTVSPost2010Prop36
280
     0
102
RTVSPost2010PropOp36
 70
     1
102
RTVSPost2010Prop37
 90
       50
102
RTVSPost2010PropOp37
 70
     0
102
RTVSPost2010Prop38
140
0.0
102
RTVSPost2010PropOp38
 70
     0
102
RTVSPost2010Prop39
140
1.0
102
RTVSPost2010PropOp39
 70
     0
102
RTVSPost2010Prop40
 90
        0
102
RTVSPost2010PropOp40
 70
     0
102
RTVSPost2010Prop41ColorIndex
 90
       18
102
RTVSPost2010Prop41ColorRGB
 90
        0
102
RTVSPost2010PropOp41
 70
     0
102
RTVSPost2010Prop42
 90
       50
102
RTVSPost2010PropOp42
 70
     0
102
RTVSPost2010Prop43
 90
        3
102
RTVSPost2010PropOp43
 70
     0
102
RTVSPost2010Prop44ColorIndex
 90
        5
102
RTVSPost2010Prop44ColorRGB
 90
      255
102
RTVSPost2010PropOp44
 70
     0
102
RTVSPost2010Prop45
280
     0
102
RTVSPost2010PropOp45
 70
     1
102
RTVSPost2010Prop46
 90
       50
102
RTVSPost2010PropOp46
 70
     0
102
RTVSPost2010Prop47
 90
       50
102
RTVSPost2010PropOp47
 70
     0
102
RTVSPost2010Prop48
 90
       50
102
RTVSPost2010PropOp48
 70
     0
102
RTVSPost2010Prop49
280
     0
102
RTVSPost2010PropOp49
 70
     1
102
RTVSPost2010Prop50
 90
       50
102
RTVSPost2010PropOp50
 70
     0
102
RTVSPost2010Prop51ColorIndex
 90
      256
102
RTVSPost2010Prop51ColorRGB
 90
-16777216
102
RTVSPost2010PropOp51
 70
     0
102
RTVSPost2010Prop52
140
1.0
102
RTVSPost2010PropOp52
 70
     0
102
RTVSPost2010Prop53
 90
        2
102
RTVSPost2010PropOp53
 70
     0
102
RTVSPost2010Prop54
  1
strokes_ogs.tif
102
RTVSPost2010PropOp54
 70
     0
102
RTVSPost2010Prop55
280
     0
102
RTVSPost2010PropOp55
 70
     1
102
RTVSPost2010Prop56
140
1.0
102
RTVSPost2010PropOp56
 70
     0
102
RTVSPost2010Prop57
140
1.0
102
RTVSPost2010PropOp57
 70
     0
102
RTVSPropertyOp0
 70
     0
102
RTVSPropertyOp1
 70
     0
102
RTVSPropertyOp2
 70
     0
102
RTVSPropertyOp3
 70
     0
102
RTVSPropertyOp4
 70
     0
102
RTVSPropertyOp5
 70
     0
102
RTVSPropertyOp6
 70
     0
102
RTVSPropertyOp7
 70
     0
102
RTVSPropertyOp8
 70
     0
102
RTVSPropertyOp9
 70
     0
102
RTVSPropertyOp10
 70
     0
102
RTVSPropertyOp11
 70
     0
102
RTVSPropertyOp12
 70
     0
102
RTVSPropertyOp13
 70
     0
102
RTVSPropertyOp14
 70
     2
102
RTVSPropertyOp15
 70
     0
102
RTVSPropertyOp16
 70
     0
102
RTVSPropertyOp17
 70
     0
102
RTVSPropertyOp18
 70
     0
102
RTVSPropertyOp19
 70
     0
102
RTVSPropertyOp20
 70
     0
102
RTVSPropertyOp21
 70
     0
102
RTVSPropertyOp22
 70
     0
102
RTVSPropertyOp23
 70
     0
102
RTVSPropertyOp24
 70
     0
102
RTVSPropertyOp25
 70
     0
102
RTVSPropertyOp26
 70
     0
102
RTVSPropertyOp27
 70
     0
102
RTVSPropertyOp28
 70
     1
102
RTVSPropertyOp29
 70
     1
102
RTVSPropertyOp30
 70
     1
102
RTVSPropertyOp31
 70
     1
102
RTVSPropertyOp32
 70
     1
102
RTVSPropertyOp33
 70
     1
102
RTVSPropertyOp34
 70
     1
102
RTVSPropertyOp35
 70
     1
102
RTVSPropertyOp36
 70
     1
102
RTVSPropertyOp37
 70
     0
102
RTVSPropertyOp38
 70
     0
102
RTVSPropertyOp39
 70
     0
102
RTVSPropertyOp40
 70
     0
102
RTVSPropertyOp41
 70
     0
102
RTVSPropertyOp42
 70
     0
102
RTVSPropertyOp43
 70
     0
102
RTVSPropertyOp44
 70
     0
102
RTVSPropertyOp45
 70
     1
102
RTVSPropertyOp46
 70
     0
102
RTVSPropertyOp47
 70
     0
102
RTVSPropertyOp48
 70
     0
102
RTVSPropertyOp49
 70
     1
102
RTVSPropertyOp50
 70
     0
102
RTVSPropertyOp51
 70
     0
102
RTVSPropertyOp52
 70
     0
102
RTVSPropertyOp53
 70
     0
102
RTVSPropertyOp54
 70
     0
102
RTVSPropertyOp55
 70
     1
102
RTVSPropertyOp56
 70
     0
102
RTVSPropertyOp57
 70
     0
102
RTVSPropertyOp58
 70
     0
102
RTVSPropertyOp59
 70
     0
102
RTVSPropertyOp60
 70
     0
102
RTVSPropertyOp61
 70
     0
102
RTVSPropertyOp62
 70
     0
  0
XRECORD
  5
4F6
102
{ACAD_REACTORS
330
4F5
102
}
330
4F5
100
AcDbXrecord
280
     1
102
RTVSPost2010Prop28
280
     0
102
RTVSPost2010PropOp28
 70
     1
102
RTVSPost2010Prop29
280
     1
102
RTVSPost2010PropOp29
 70
     1
102
RTVSPost2010Prop30
280
     1
102
RTVSPost2010PropOp30
 70
     1
102
RTVSPost2010Prop31
280
     0
102
RTVSPost2010PropOp31
 70
     1
102
RTVSPost2010Prop32
280
     0
102
RTVSPost2010PropOp32
 70
     1
102
RTVSPost2010Prop33
280
     0
102
RTVSPost2010PropOp33
 70
     1
102
RTVSPost2010Prop34
280
     0
102
RTVSPost2010PropOp34
 70
     1
102
RTVSPost2010Prop35
280
     0
102
RTVSPost2010PropOp35
 70
     1
102
RTVSPost2010Prop36
280
     0
102
RTVSPost2010PropOp36
 70
     1
102
RTVSPost2010Prop37
 90
       50
102
RTVSPost2010PropOp37
 70
     1
102
RTVSPost2010Prop38
140
0.0
102
RTVSPost2010PropOp38
 70
     1
102
RTVSPost2010Prop39
140
1.0
102
RTVSPost2010PropOp39
 70
     1
102
RTVSPost2010Prop40
 90
        0
102
RTVSPost2010PropOp40
 70
     1
102
RTVSPost2010Prop41ColorIndex
 90
       18
102
RTVSPost2010Prop41ColorRGB
 90
        0
102
RTVSPost2010PropOp41
 70
     1
102
RTVSPost2010Prop42
 90
       50
102
RTVSPost2010PropOp42
 70
     1
102
RTVSPost2010Prop43
 90
        3
102
RTVSPost2010PropOp43
 70
     1
102
RTVSPost2010Prop44ColorIndex
 90
        5
102
RTVSPost2010Prop44ColorRGB
 90
      255
102
RTVSPost2010PropOp44
 70
     1
102
RTVSPost2010Prop45
280
     0
102
RTVSPost2010PropOp45
 70
     1
102
RTVSPost2010Prop46
 90
       50
102
RTVSPost2010PropOp46
 70
     1
102
RTVSPost2010Prop47
 90
       50
102
RTVSPost2010PropOp47
 70
     1
102
RTVSPost2010Prop48
 90
       50
102
RTVSPost2010PropOp48
 70
     1
102
RTVSPost2010Prop49
280
     0
102
RTVSPost2010PropOp49
 70
     1
102
RTVSPost2010Prop50
 90
       50
102
RTVSPost2010PropOp50
 70
     1
102
RTVSPost2010Prop51ColorIndex
 90
      256
102
RTVSPost2010Prop51ColorRGB
 90
-16777216
102
RTVSPost2010PropOp51
 70
     0
102
RTVSPost2010Prop52
140
1.0
102
RTVSPost2010PropOp52
 70
     0
102
RTVSPost2010Prop53
 90
        2
102
RTVSPost2010PropOp53
 70
     1
102
RTVSPost2010Prop54
  1
strokes_ogs.tif
102
RTVSPost2010PropOp54
 70
     1
102
RTVSPost2010Prop55
280
     0
102
RTVSPost2010PropOp55
 70
     1
102
RTVSPost2010Prop56
140
1.0
102
RTVSPost2010PropOp56
 70
     1
102
RTVSPost2010Prop57
140
1.0
102
RTVSPost2010PropOp57
 70
     1
102
RTVSPropertyOp0
 70
     1
102
RTVSPropertyOp1
 70
     1
102
RTVSPropertyOp2
 70
     1
102
RTVSPropertyOp3
 70
     1
102
RTVSPropertyOp4
 70
     1
102
RTVSPropertyOp5
 70
     1
102
RTVSPropertyOp6
 70
     1
102
RTVSPropertyOp7
 70
     1
102
RTVSPropertyOp8
 70
     1
102
RTVSPropertyOp9
 70
     1
102
RTVSPropertyOp10
 70
     1
102
RTVSPropertyOp11
 70
     1
102
RTVSPropertyOp12
 70
     1
102
RTVSPropertyOp13
 70
     1
102
RTVSPropertyOp14
 70
     1
102
RTVSPropertyOp15
 70
     1
102
RTVSPropertyOp16
 70
     1
102
RTVSPropertyOp17
 70
     1
102
RTVSPropertyOp18
 70
     1
102
RTVSPropertyOp19
 70
     1
102
RTVSPropertyOp20
 70
     1
102
RTVSPropertyOp21
 70
     1
102
RTVSPropertyOp22
 70
     1
102
RTVSPropertyOp23
 70
     1
102
RTVSPropertyOp24
 70
     1
102
RTVSPropertyOp25
 70
     1
102
RTVSPropertyOp26
 70
     1
102
RTVSPropertyOp27
 70
     1
102
RTVSPropertyOp28
 70
     1
102
RTVSPropertyOp29
 70
     1
102
RTVSPropertyOp30
 70
     1
102
RTVSPropertyOp31
 70
     1
102
RTVSPropertyOp32
 70
     1
102
RTVSPropertyOp33
 70
     1
102
RTVSPropertyOp34
 70
     1
102
RTVSPropertyOp35
 70
     1
102
RTVSPropertyOp36
 70
     1
102
RTVSPropertyOp37
 70
     1
102
RTVSPropertyOp38
 70
     1
102
RTVSPropertyOp39
 70
     1
102
RTVSPropertyOp40
 70
     1
102
RTVSPropertyOp41
 70
     1
102
RTVSPropertyOp42
 70
     1
102
RTVSPropertyOp43
 70
     1
102
RTVSPropertyOp44
 70
     1
102
RTVSPropertyOp45
 70
     1
102
RTVSPropertyOp46
 70
     1
102
RTVSPropertyOp47
 70
     1
102
RTVSPropertyOp48
 70
     1
102
RTVSPropertyOp49
 70
     1
102
RTVSPropertyOp50
 70
     1
102
RTVSPropertyOp51
 70
     0
102
RTVSPropertyOp52
 70
     0
102
RTVSPropertyOp53
 70
     1
102
RTVSPropertyOp54
 70
     1
102
RTVSPropertyOp55
 70
     1
102
RTVSPropertyOp56
 70
     1
102
RTVSPropertyOp57
 70
     1
102
RTVSPropertyOp58
 70
     1
102
RTVSPropertyOp59
 70
     1
102
RTVSPropertyOp60
 70
     1
102
RTVSPropertyOp61
 70
     1
102
RTVSPropertyOp62
 70
     1
  0
XRECORD
  5
4DA
102
{ACAD_REACTORS
330
4D9
102
}
330
4D9
100
AcDbXrecord
280
     1
102
RTVSPost2010Prop28
280
     0
102
RTVSPost2010PropOp28
 70
     1
102
RTVSPost2010Prop29
280
     1
102
RTVSPost2010PropOp29
 70
     1
102
RTVSPost2010Prop30
280
     1
102
RTVSPost2010PropOp30
 70
     1
102
RTVSPost2010Prop31
280
     0
102
RTVSPost2010PropOp31
 70
     1
102
RTVSPost2010Prop32
280
     0
102
RTVSPost2010PropOp32
 70
     1
102
RTVSPost2010Prop33
280
     0
102
RTVSPost2010PropOp33
 70
     1
102
RTVSPost2010Prop34
280
     0
102
RTVSPost2010PropOp34
 70
     1
102
RTVSPost2010Prop35
280
     0
102
RTVSPost2010PropOp35
 70
     1
102
RTVSPost2010Prop36
280
     0
102
RTVSPost2010PropOp36
 70
     1
102
RTVSPost2010Prop37
 90
       50
102
RTVSPost2010PropOp37
 70
     1
102
RTVSPost2010Prop38
140
0.0
102
RTVSPost2010PropOp38
 70
     1
102
RTVSPost2010Prop39
140
1.0
102
RTVSPost2010PropOp39
 70
     1
102
RTVSPost2010Prop40
 90
        0
102
RTVSPost2010PropOp40
 70
     1
102
RTVSPost2010Prop41ColorIndex
 90
       18
102
RTVSPost2010Prop41ColorRGB
 90
        0
102
RTVSPost2010PropOp41
 70
     1
102
RTVSPost2010Prop42
 90
       50
102
RTVSPost2010PropOp42
 70
     1
102
RTVSPost2010Prop43
 90
        3
102
RTVSPost2010PropOp43
 70
     1
102
RTVSPost2010Prop44ColorIndex
 90
        5
102
RTVSPost2010Prop44ColorRGB
 90
      255
102
RTVSPost2010PropOp44
 70
     1
102
RTVSPost2010Prop45
280
     0
102
RTVSPost2010PropOp45
 70
     1
102
RTVSPost2010Prop46
 90
       50
102
RTVSPost2010PropOp46
 70
     1
102
RTVSPost2010Prop47
 90
       50
102
RTVSPost2010PropOp47
 70
     1
102
RTVSPost2010Prop48
 90
       50
102
RTVSPost2010PropOp48
 70
     1
102
RTVSPost2010Prop49
280
     0
102
RTVSPost2010PropOp49
 70
     1
102
RTVSPost2010Prop50
 90
       50
102
RTVSPost2010PropOp50
 70
     1
102
RTVSPost2010Prop51ColorIndex
 90
      256
102
RTVSPost2010Prop51ColorRGB
 90
-16777216
102
RTVSPost2010PropOp51
 70
     0
102
RTVSPost2010Prop52
140
1.0
102
RTVSPost2010PropOp52
 70
     0
102
RTVSPost2010Prop53
 90
        2
102
RTVSPost2010PropOp53
 70
     1
102
RTVSPost2010Prop54
  1
strokes_ogs.tif
102
RTVSPost2010PropOp54
 70
     1
102
RTVSPost2010Prop55
280
     0
102
RTVSPost2010PropOp55
 70
     1
102
RTVSPost2010Prop56
140
1.0
102
RTVSPost2010PropOp56
 70
     1
102
RTVSPost2010Prop57
140
1.0
102
RTVSPost2010PropOp57
 70
     1
102
RTVSPropertyOp0
 70
     1
102
RTVSPropertyOp1
 70
     1
102
RTVSPropertyOp2
 70
     1
102
RTVSPropertyOp3
 70
     1
102
RTVSPropertyOp4
 70
     1
102
RTVSPropertyOp5
 70
     1
102
RTVSPropertyOp6
 70
     1
102
RTVSPropertyOp7
 70
     1
102
RTVSPropertyOp8
 70
     1
102
RTVSPropertyOp9
 70
     1
102
RTVSPropertyOp10
 70
     1
102
RTVSPropertyOp11
 70
     1
102
RTVSPropertyOp12
 70
     1
102
RTVSPropertyOp13
 70
     1
102
RTVSPropertyOp14
 70
     1
102
RTVSPropertyOp15
 70
     1
102
RTVSPropertyOp16
 70
     1
102
RTVSPropertyOp17
 70
     1
102
RTVSPropertyOp18
 70
     1
102
RTVSPropertyOp19
 70
     1
102
RTVSPropertyOp20
 70
     1
102
RTVSPropertyOp21
 70
     1
102
RTVSPropertyOp22
 70
     1
102
RTVSPropertyOp23
 70
     1
102
RTVSPropertyOp24
 70
     1
102
RTVSPropertyOp25
 70
     1
102
RTVSPropertyOp26
 70
     1
102
RTVSPropertyOp27
 70
     1
102
RTVSPropertyOp28
 70
     1
102
RTVSPropertyOp29
 70
     1
102
RTVSPropertyOp30
 70
     1
102
RTVSPropertyOp31
 70
     1
102
RTVSPropertyOp32
 70
     1
102
RTVSPropertyOp33
 70
     1
102
RTVSPropertyOp34
 70
     1
102
RTVSPropertyOp35
 70
     1
102
RTVSPropertyOp36
 70
     1
102
RTVSPropertyOp37
 70
     1
102
RTVSPropertyOp38
 70
     1
102
RTVSPropertyOp39
 70
     1
102
RTVSPropertyOp40
 70
     1
102
RTVSPropertyOp41
 70
     1
102
RTVSPropertyOp42
 70
     1
102
RTVSPropertyOp43
 70
     1
102
RTVSPropertyOp44
 70
     1
102
RTVSPropertyOp45
 70
     1
102
RTVSPropertyOp46
 70
     1
102
RTVSPropertyOp47
 70
     1
102
RTVSPropertyOp48
 70
     1
102
RTVSPropertyOp49
 70
     1
102
RTVSPropertyOp50
 70
     1
102
RTVSPropertyOp51
 70
     0
102
RTVSPropertyOp52
 70
     0
102
RTVSPropertyOp53
 70
     1
102
RTVSPropertyOp54
 70
     1
102
RTVSPropertyOp55
 70
     1
102
RTVSPropertyOp56
 70
     1
102
RTVSPropertyOp57
 70
     1
102
RTVSPropertyOp58
 70
     1
102
RTVSPropertyOp59
 70
     1
102
RTVSPropertyOp60
 70
     1
102
RTVSPropertyOp61
 70
     1
102
RTVSPropertyOp62
 70
     1
  0
XRECORD
  5
4DC
102
{ACAD_REACTORS
330
4DB
102
}
330
4DB
100
AcDbXrecord
280
     1
102
RTVSPost2010Prop28
280
     0
102
RTVSPost2010PropOp28
 70
     1
102
RTVSPost2010Prop29
280
     1
102
RTVSPost2010PropOp29
 70
     1
102
RTVSPost2010Prop30
280
     1
102
RTVSPost2010PropOp30
 70
     1
102
RTVSPost2010Prop31
280
     0
102
RTVSPost2010PropOp31
 70
     1
102
RTVSPost2010Prop32
280
     0
102
RTVSPost2010PropOp32
 70
     1
102
RTVSPost2010Prop33
280
     0
102
RTVSPost2010PropOp33
 70
     1
102
RTVSPost2010Prop34
280
     0
102
RTVSPost2010PropOp34
 70
     1
102
RTVSPost2010Prop35
280
     0
102
RTVSPost2010PropOp35
 70
     1
102
RTVSPost2010Prop36
280
     0
102
RTVSPost2010PropOp36
 70
     1
102
RTVSPost2010Prop37
 90
       50
102
RTVSPost2010PropOp37
 70
     1
102
RTVSPost2010Prop38
140
0.0
102
RTVSPost2010PropOp38
 70
     1
102
RTVSPost2010Prop39
140
1.0
102
RTVSPost2010PropOp39
 70
     1
102
RTVSPost2010Prop40
 90
        0
102
RTVSPost2010PropOp40
 70
     1
102
RTVSPost2010Prop41ColorIndex
 90
       18
102
RTVSPost2010Prop41ColorRGB
 90
        0
102
RTVSPost2010PropOp41
 70
     1
102
RTVSPost2010Prop42
 90
       50
102
RTVSPost2010PropOp42
 70
     1
102
RTVSPost2010Prop43
 90
        3
102
RTVSPost2010PropOp43
 70
     1
102
RTVSPost2010Prop44ColorIndex
 90
        5
102
RTVSPost2010Prop44ColorRGB
 90
      255
102
RTVSPost2010PropOp44
 70
     1
102
RTVSPost2010Prop45
280
     0
102
RTVSPost2010PropOp45
 70
     1
102
RTVSPost2010Prop46
 90
       50
102
RTVSPost2010PropOp46
 70
     1
102
RTVSPost2010Prop47
 90
       50
102
RTVSPost2010PropOp47
 70
     1
102
RTVSPost2010Prop48
 90
       50
102
RTVSPost2010PropOp48
 70
     1
102
RTVSPost2010Prop49
280
     0
102
RTVSPost2010PropOp49
 70
     1
102
RTVSPost2010Prop50
 90
       50
102
RTVSPost2010PropOp50
 70
     1
102
RTVSPost2010Prop51ColorIndex
 90
      256
102
RTVSPost2010Prop51ColorRGB
 90
-16777216
102
RTVSPost2010PropOp51
 70
     0
102
RTVSPost2010Prop52
140
1.0
102
RTVSPost2010PropOp52
 70
     0
102
RTVSPost2010Prop53
 90
        2
102
RTVSPost2010PropOp53
 70
     1
102
RTVSPost2010Prop54
  1
strokes_ogs.tif
102
RTVSPost2010PropOp54
 70
     1
102
RTVSPost2010Prop55
280
     0
102
RTVSPost2010PropOp55
 70
     1
102
RTVSPost2010Prop56
140
1.0
102
RTVSPost2010PropOp56
 70
     1
102
RTVSPost2010Prop57
140
1.0
102
RTVSPost2010PropOp57
 70
     1
102
RTVSPropertyOp0
 70
     1
102
RTVSPropertyOp1
 70
     1
102
RTVSPropertyOp2
 70
     1
102
RTVSPropertyOp3
 70
     1
102
RTVSPropertyOp4
 70
     1
102
RTVSPropertyOp5
 70
     1
102
RTVSPropertyOp6
 70
     1
102
RTVSPropertyOp7
 70
     1
102
RTVSPropertyOp8
 70
     1
102
RTVSPropertyOp9
 70
     1
102
RTVSPropertyOp10
 70
     1
102
RTVSPropertyOp11
 70
     1
102
RTVSPropertyOp12
 70
     1
102
RTVSPropertyOp13
 70
     1
102
RTVSPropertyOp14
 70
     1
102
RTVSPropertyOp15
 70
     1
102
RTVSPropertyOp16
 70
     1
102
RTVSPropertyOp17
 70
     1
102
RTVSPropertyOp18
 70
     1
102
RTVSPropertyOp19
 70
     1
102
RTVSPropertyOp20
 70
     1
102
RTVSPropertyOp21
 70
     1
102
RTVSPropertyOp22
 70
     1
102
RTVSPropertyOp23
 70
     1
102
RTVSPropertyOp24
 70
     1
102
RTVSPropertyOp25
 70
     1
102
RTVSPropertyOp26
 70
     1
102
RTVSPropertyOp27
 70
     1
102
RTVSPropertyOp28
 70
     1
102
RTVSPropertyOp29
 70
     1
102
RTVSPropertyOp30
 70
     1
102
RTVSPropertyOp31
 70
     1
102
RTVSPropertyOp32
 70
     1
102
RTVSPropertyOp33
 70
     1
102
RTVSPropertyOp34
 70
     1
102
RTVSPropertyOp35
 70
     1
102
RTVSPropertyOp36
 70
     1
102
RTVSPropertyOp37
 70
     1
102
RTVSPropertyOp38
 70
     1
102
RTVSPropertyOp39
 70
     1
102
RTVSPropertyOp40
 70
     1
102
RTVSPropertyOp41
 70
     1
102
RTVSPropertyOp42
 70
     1
102
RTVSPropertyOp43
 70
     1
102
RTVSPropertyOp44
 70
     1
102
RTVSPropertyOp45
 70
     1
102
RTVSPropertyOp46
 70
     1
102
RTVSPropertyOp47
 70
     1
102
RTVSPropertyOp48
 70
     1
102
RTVSPropertyOp49
 70
     1
102
RTVSPropertyOp50
 70
     1
102
RTVSPropertyOp51
 70
     0
102
RTVSPropertyOp52
 70
     0
102
RTVSPropertyOp53
 70
     1
102
RTVSPropertyOp54
 70
     1
102
RTVSPropertyOp55
 70
     1
102
RTVSPropertyOp56
 70
     1
102
RTVSPropertyOp57
 70
     1
102
RTVSPropertyOp58
 70
     1
102
RTVSPropertyOp59
 70
     1
102
RTVSPropertyOp60
 70
     1
102
RTVSPropertyOp61
 70
     1
102
RTVSPropertyOp62
 70
     1
  0
XRECORD
  5
4DE
102
{ACAD_REACTORS
330
4DD
102
}
330
4DD
100
AcDbXrecord
280
     1
102
RTVSPost2010Prop28
280
     0
102
RTVSPost2010PropOp28
 70
     1
102
RTVSPost2010Prop29
280
     1
102
RTVSPost2010PropOp29
 70
     1
102
RTVSPost2010Prop30
280
     1
102
RTVSPost2010PropOp30
 70
     1
102
RTVSPost2010Prop31
280
     0
102
RTVSPost2010PropOp31
 70
     1
102
RTVSPost2010Prop32
280
     0
102
RTVSPost2010PropOp32
 70
     1
102
RTVSPost2010Prop33
280
     0
102
RTVSPost2010PropOp33
 70
     1
102
RTVSPost2010Prop34
280
     0
102
RTVSPost2010PropOp34
 70
     1
102
RTVSPost2010Prop35
280
     0
102
RTVSPost2010PropOp35
 70
     1
102
RTVSPost2010Prop36
280
     0
102
RTVSPost2010PropOp36
 70
     1
102
RTVSPost2010Prop37
 90
       50
102
RTVSPost2010PropOp37
 70
     1
102
RTVSPost2010Prop38
140
0.0
102
RTVSPost2010PropOp38
 70
     1
102
RTVSPost2010Prop39
140
1.0
102
RTVSPost2010PropOp39
 70
     1
102
RTVSPost2010Prop40
 90
        0
102
RTVSPost2010PropOp40
 70
     1
102
RTVSPost2010Prop41ColorIndex
 90
       18
102
RTVSPost2010Prop41ColorRGB
 90
        0
102
RTVSPost2010PropOp41
 70
     1
102
RTVSPost2010Prop42
 90
       50
102
RTVSPost2010PropOp42
 70
     1
102
RTVSPost2010Prop43
 90
        3
102
RTVSPost2010PropOp43
 70
     1
102
RTVSPost2010Prop44ColorIndex
 90
        5
102
RTVSPost2010Prop44ColorRGB
 90
      255
102
RTVSPost2010PropOp44
 70
     1
102
RTVSPost2010Prop45
280
     0
102
RTVSPost2010PropOp45
 70
     1
102
RTVSPost2010Prop46
 90
       50
102
RTVSPost2010PropOp46
 70
     1
102
RTVSPost2010Prop47
 90
       50
102
RTVSPost2010PropOp47
 70
     1
102
RTVSPost2010Prop48
 90
       50
102
RTVSPost2010PropOp48
 70
     1
102
RTVSPost2010Prop49
280
     0
102
RTVSPost2010PropOp49
 70
     1
102
RTVSPost2010Prop50
 90
       50
102
RTVSPost2010PropOp50
 70
     1
102
RTVSPost2010Prop51ColorIndex
 90
      256
102
RTVSPost2010Prop51ColorRGB
 90
-16777216
102
RTVSPost2010PropOp51
 70
     0
102
RTVSPost2010Prop52
140
1.0
102
RTVSPost2010PropOp52
 70
     0
102
RTVSPost2010Prop53
 90
        2
102
RTVSPost2010PropOp53
 70
     1
102
RTVSPost2010Prop54
  1
strokes_ogs.tif
102
RTVSPost2010PropOp54
 70
     1
102
RTVSPost2010Prop55
280
     0
102
RTVSPost2010PropOp55
 70
     1
102
RTVSPost2010Prop56
140
1.0
102
RTVSPost2010PropOp56
 70
     1
102
RTVSPost2010Prop57
140
1.0
102
RTVSPost2010PropOp57
 70
     1
102
RTVSPropertyOp0
 70
     1
102
RTVSPropertyOp1
 70
     1
102
RTVSPropertyOp2
 70
     1
102
RTVSPropertyOp3
 70
     1
102
RTVSPropertyOp4
 70
     1
102
RTVSPropertyOp5
 70
     1
102
RTVSPropertyOp6
 70
     1
102
RTVSPropertyOp7
 70
     1
102
RTVSPropertyOp8
 70
     1
102
RTVSPropertyOp9
 70
     1
102
RTVSPropertyOp10
 70
     1
102
RTVSPropertyOp11
 70
     1
102
RTVSPropertyOp12
 70
     1
102
RTVSPropertyOp13
 70
     1
102
RTVSPropertyOp14
 70
     1
102
RTVSPropertyOp15
 70
     1
102
RTVSPropertyOp16
 70
     1
102
RTVSPropertyOp17
 70
     1
102
RTVSPropertyOp18
 70
     1
102
RTVSPropertyOp19
 70
     1
102
RTVSPropertyOp20
 70
     1
102
RTVSPropertyOp21
 70
     1
102
RTVSPropertyOp22
 70
     1
102
RTVSPropertyOp23
 70
     1
102
RTVSPropertyOp24
 70
     1
102
RTVSPropertyOp25
 70
     1
102
RTVSPropertyOp26
 70
     1
102
RTVSPropertyOp27
 70
     1
102
RTVSPropertyOp28
 70
     1
102
RTVSPropertyOp29
 70
     1
102
RTVSPropertyOp30
 70
     1
102
RTVSPropertyOp31
 70
     1
102
RTVSPropertyOp32
 70
     1
102
RTVSPropertyOp33
 70
     1
102
RTVSPropertyOp34
 70
     1
102
RTVSPropertyOp35
 70
     1
102
RTVSPropertyOp36
 70
     1
102
RTVSPropertyOp37
 70
     1
102
RTVSPropertyOp38
 70
     1
102
RTVSPropertyOp39
 70
     1
102
RTVSPropertyOp40
 70
     1
102
RTVSPropertyOp41
 70
     1
102
RTVSPropertyOp42
 70
     1
102
RTVSPropertyOp43
 70
     1
102
RTVSPropertyOp44
 70
     1
102
RTVSPropertyOp45
 70
     1
102
RTVSPropertyOp46
 70
     1
102
RTVSPropertyOp47
 70
     1
102
RTVSPropertyOp48
 70
     1
102
RTVSPropertyOp49
 70
     1
102
RTVSPropertyOp50
 70
     1
102
RTVSPropertyOp51
 70
     0
102
RTVSPropertyOp52
 70
     0
102
RTVSPropertyOp53
 70
     1
102
RTVSPropertyOp54
 70
     1
102
RTVSPropertyOp55
 70
     1
102
RTVSPropertyOp56
 70
     1
102
RTVSPropertyOp57
 70
     1
102
RTVSPropertyOp58
 70
     1
102
RTVSPropertyOp59
 70
     1
102
RTVSPropertyOp60
 70
     1
102
RTVSPropertyOp61
 70
     1
102
RTVSPropertyOp62
 70
     1
  0
XRECORD
  5
4E0
102
{ACAD_REACTORS
330
4DF
102
}
330
4DF
100
AcDbXrecord
280
     1
102
RTVSPost2010Prop28
280
     0
102
RTVSPost2010PropOp28
 70
     1
102
RTVSPost2010Prop29
280
     1
102
RTVSPost2010PropOp29
 70
     1
102
RTVSPost2010Prop30
280
     1
102
RTVSPost2010PropOp30
 70
     1
102
RTVSPost2010Prop31
280
     0
102
RTVSPost2010PropOp31
 70
     1
102
RTVSPost2010Prop32
280
     0
102
RTVSPost2010PropOp32
 70
     1
102
RTVSPost2010Prop33
280
     0
102
RTVSPost2010PropOp33
 70
     1
102
RTVSPost2010Prop34
280
     0
102
RTVSPost2010PropOp34
 70
     1
102
RTVSPost2010Prop35
280
     0
102
RTVSPost2010PropOp35
 70
     1
102
RTVSPost2010Prop36
280
     0
102
RTVSPost2010PropOp36
 70
     1
102
RTVSPost2010Prop37
 90
       50
102
RTVSPost2010PropOp37
 70
     1
102
RTVSPost2010Prop38
140
0.0
102
RTVSPost2010PropOp38
 70
     1
102
RTVSPost2010Prop39
140
1.0
102
RTVSPost2010PropOp39
 70
     1
102
RTVSPost2010Prop40
 90
        0
102
RTVSPost2010PropOp40
 70
     1
102
RTVSPost2010Prop41ColorIndex
 90
       18
102
RTVSPost2010Prop41ColorRGB
 90
        0
102
RTVSPost2010PropOp41
 70
     1
102
RTVSPost2010Prop42
 90
       50
102
RTVSPost2010PropOp42
 70
     1
102
RTVSPost2010Prop43
 90
        3
102
RTVSPost2010PropOp43
 70
     1
102
RTVSPost2010Prop44ColorIndex
 90
        5
102
RTVSPost2010Prop44ColorRGB
 90
      255
102
RTVSPost2010PropOp44
 70
     1
102
RTVSPost2010Prop45
280
     0
102
RTVSPost2010PropOp45
 70
     1
102
RTVSPost2010Prop46
 90
       50
102
RTVSPost2010PropOp46
 70
     1
102
RTVSPost2010Prop47
 90
       50
102
RTVSPost2010PropOp47
 70
     1
102
RTVSPost2010Prop48
 90
       50
102
RTVSPost2010PropOp48
 70
     1
102
RTVSPost2010Prop49
280
     0
102
RTVSPost2010PropOp49
 70
     1
102
RTVSPost2010Prop50
 90
       50
102
RTVSPost2010PropOp50
 70
     1
102
RTVSPost2010Prop51ColorIndex
 90
      256
102
RTVSPost2010Prop51ColorRGB
 90
-16777216
102
RTVSPost2010PropOp51
 70
     0
102
RTVSPost2010Prop52
140
1.0
102
RTVSPost2010PropOp52
 70
     0
102
RTVSPost2010Prop53
 90
        2
102
RTVSPost2010PropOp53
 70
     1
102
RTVSPost2010Prop54
  1
strokes_ogs.tif
102
RTVSPost2010PropOp54
 70
     1
102
RTVSPost2010Prop55
280
     0
102
RTVSPost2010PropOp55
 70
     1
102
RTVSPost2010Prop56
140
1.0
102
RTVSPost2010PropOp56
 70
     1
102
RTVSPost2010Prop57
140
1.0
102
RTVSPost2010PropOp57
 70
     1
102
RTVSPropertyOp0
 70
     1
102
RTVSPropertyOp1
 70
     1
102
RTVSPropertyOp2
 70
     1
102
RTVSPropertyOp3
 70
     1
102
RTVSPropertyOp4
 70
     1
102
RTVSPropertyOp5
 70
     1
102
RTVSPropertyOp6
 70
     1
102
RTVSPropertyOp7
 70
     1
102
RTVSPropertyOp8
 70
     1
102
RTVSPropertyOp9
 70
     1
102
RTVSPropertyOp10
 70
     1
102
RTVSPropertyOp11
 70
     1
102
RTVSPropertyOp12
 70
     1
102
RTVSPropertyOp13
 70
     1
102
RTVSPropertyOp14
 70
     1
102
RTVSPropertyOp15
 70
     1
102
RTVSPropertyOp16
 70
     1
102
RTVSPropertyOp17
 70
     1
102
RTVSPropertyOp18
 70
     1
102
RTVSPropertyOp19
 70
     1
102
RTVSPropertyOp20
 70
     1
102
RTVSPropertyOp21
 70
     1
102
RTVSPropertyOp22
 70
     1
102
RTVSPropertyOp23
 70
     1
102
RTVSPropertyOp24
 70
     1
102
RTVSPropertyOp25
 70
     1
102
RTVSPropertyOp26
 70
     1
102
RTVSPropertyOp27
 70
     1
102
RTVSPropertyOp28
 70
     1
102
RTVSPropertyOp29
 70
     1
102
RTVSPropertyOp30
 70
     1
102
RTVSPropertyOp31
 70
     1
102
RTVSPropertyOp32
 70
     1
102
RTVSPropertyOp33
 70
     1
102
RTVSPropertyOp34
 70
     1
102
RTVSPropertyOp35
 70
     1
102
RTVSPropertyOp36
 70
     1
102
RTVSPropertyOp37
 70
     1
102
RTVSPropertyOp38
 70
     1
102
RTVSPropertyOp39
 70
     1
102
RTVSPropertyOp40
 70
     1
102
RTVSPropertyOp41
 70
     1
102
RTVSPropertyOp42
 70
     1
102
RTVSPropertyOp43
 70
     1
102
RTVSPropertyOp44
 70
     1
102
RTVSPropertyOp45
 70
     1
102
RTVSPropertyOp46
 70
     1
102
RTVSPropertyOp47
 70
     1
102
RTVSPropertyOp48
 70
     1
102
RTVSPropertyOp49
 70
     1
102
RTVSPropertyOp50
 70
     1
102
RTVSPropertyOp51
 70
     0
102
RTVSPropertyOp52
 70
     0
102
RTVSPropertyOp53
 70
     1
102
RTVSPropertyOp54
 70
     1
102
RTVSPropertyOp55
 70
     1
102
RTVSPropertyOp56
 70
     1
102
RTVSPropertyOp57
 70
     1
102
RTVSPropertyOp58
 70
     1
102
RTVSPropertyOp59
 70
     1
102
RTVSPropertyOp60
 70
     1
102
RTVSPropertyOp61
 70
     1
102
RTVSPropertyOp62
 70
     1
  0
XRECORD
  5
4E8
102
{ACAD_REACTORS
330
4E7
102
}
330
4E7
100
AcDbXrecord
280
     1
102
RTVSPost2010Prop28
280
     0
102
RTVSPost2010PropOp28
 70
     1
102
RTVSPost2010Prop29
280
     1
102
RTVSPost2010PropOp29
 70
     1
102
RTVSPost2010Prop30
280
     1
102
RTVSPost2010PropOp30
 70
     1
102
RTVSPost2010Prop31
280
     0
102
RTVSPost2010PropOp31
 70
     1
102
RTVSPost2010Prop32
280
     0
102
RTVSPost2010PropOp32
 70
     1
102
RTVSPost2010Prop33
280
     0
102
RTVSPost2010PropOp33
 70
     1
102
RTVSPost2010Prop34
280
     0
102
RTVSPost2010PropOp34
 70
     1
102
RTVSPost2010Prop35
280
     0
102
RTVSPost2010PropOp35
 70
     1
102
RTVSPost2010Prop36
280
     0
102
RTVSPost2010PropOp36
 70
     1
102
RTVSPost2010Prop37
 90
       50
102
RTVSPost2010PropOp37
 70
     1
102
RTVSPost2010Prop38
140
0.0
102
RTVSPost2010PropOp38
 70
     1
102
RTVSPost2010Prop39
140
1.0
102
RTVSPost2010PropOp39
 70
     1
102
RTVSPost2010Prop40
 90
        0
102
RTVSPost2010PropOp40
 70
     1
102
RTVSPost2010Prop41ColorIndex
 90
       18
102
RTVSPost2010Prop41ColorRGB
 90
        0
102
RTVSPost2010PropOp41
 70
     1
102
RTVSPost2010Prop42
 90
       50
102
RTVSPost2010PropOp42
 70
     1
102
RTVSPost2010Prop43
 90
        3
102
RTVSPost2010PropOp43
 70
     1
102
RTVSPost2010Prop44ColorIndex
 90
        5
102
RTVSPost2010Prop44ColorRGB
 90
      255
102
RTVSPost2010PropOp44
 70
     1
102
RTVSPost2010Prop45
280
     0
102
RTVSPost2010PropOp45
 70
     1
102
RTVSPost2010Prop46
 90
       50
102
RTVSPost2010PropOp46
 70
     1
102
RTVSPost2010Prop47
 90
       50
102
RTVSPost2010PropOp47
 70
     1
102
RTVSPost2010Prop48
 90
       50
102
RTVSPost2010PropOp48
 70
     1
102
RTVSPost2010Prop49
280
     0
102
RTVSPost2010PropOp49
 70
     1
102
RTVSPost2010Prop50
 90
       50
102
RTVSPost2010PropOp50
 70
     1
102
RTVSPost2010Prop51ColorIndex
 90
      256
102
RTVSPost2010Prop51ColorRGB
 90
-16777216
102
RTVSPost2010PropOp51
 70
     0
102
RTVSPost2010Prop52
140
1.0
102
RTVSPost2010PropOp52
 70
     0
102
RTVSPost2010Prop53
 90
        2
102
RTVSPost2010PropOp53
 70
     1
102
RTVSPost2010Prop54
  1
strokes_ogs.tif
102
RTVSPost2010PropOp54
 70
     1
102
RTVSPost2010Prop55
280
     0
102
RTVSPost2010PropOp55
 70
     1
102
RTVSPost2010Prop56
140
1.0
102
RTVSPost2010PropOp56
 70
     1
102
RTVSPost2010Prop57
140
1.0
102
RTVSPost2010PropOp57
 70
     1
102
RTVSPropertyOp0
 70
     1
102
RTVSPropertyOp1
 70
     1
102
RTVSPropertyOp2
 70
     1
102
RTVSPropertyOp3
 70
     1
102
RTVSPropertyOp4
 70
     1
102
RTVSPropertyOp5
 70
     1
102
RTVSPropertyOp6
 70
     1
102
RTVSPropertyOp7
 70
     1
102
RTVSPropertyOp8
 70
     1
102
RTVSPropertyOp9
 70
     1
102
RTVSPropertyOp10
 70
     1
102
RTVSPropertyOp11
 70
     1
102
RTVSPropertyOp12
 70
     1
102
RTVSPropertyOp13
 70
     1
102
RTVSPropertyOp14
 70
     1
102
RTVSPropertyOp15
 70
     1
102
RTVSPropertyOp16
 70
     1
102
RTVSPropertyOp17
 70
     1
102
RTVSPropertyOp18
 70
     1
102
RTVSPropertyOp19
 70
     1
102
RTVSPropertyOp20
 70
     1
102
RTVSPropertyOp21
 70
     1
102
RTVSPropertyOp22
 70
     1
102
RTVSPropertyOp23
 70
     1
102
RTVSPropertyOp24
 70
     1
102
RTVSPropertyOp25
 70
     1
102
RTVSPropertyOp26
 70
     1
102
RTVSPropertyOp27
 70
     1
102
RTVSPropertyOp28
 70
     1
102
RTVSPropertyOp29
 70
     1
102
RTVSPropertyOp30
 70
     1
102
RTVSPropertyOp31
 70
     1
102
RTVSPropertyOp32
 70
     1
102
RTVSPropertyOp33
 70
     1
102
RTVSPropertyOp34
 70
     1
102
RTVSPropertyOp35
 70
     1
102
RTVSPropertyOp36
 70
     1
102
RTVSPropertyOp37
 70
     1
102
RTVSPropertyOp38
 70
     1
102
RTVSPropertyOp39
 70
     1
102
RTVSPropertyOp40
 70
     1
102
RTVSPropertyOp41
 70
     1
102
RTVSPropertyOp42
 70
     1
102
RTVSPropertyOp43
 70
     1
102
RTVSPropertyOp44
 70
     1
102
RTVSPropertyOp45
 70
     1
102
RTVSPropertyOp46
 70
     1
102
RTVSPropertyOp47
 70
     1
102
RTVSPropertyOp48
 70
     1
102
RTVSPropertyOp49
 70
     1
102
RTVSPropertyOp50
 70
     1
102
RTVSPropertyOp51
 70
     0
102
RTVSPropertyOp52
 70
     0
102
RTVSPropertyOp53
 70
     1
102
RTVSPropertyOp54
 70
     1
102
RTVSPropertyOp55
 70
     1
102
RTVSPropertyOp56
 70
     1
102
RTVSPropertyOp57
 70
     1
102
RTVSPropertyOp58
 70
     1
102
RTVSPropertyOp59
 70
     1
102
RTVSPropertyOp60
 70
     1
102
RTVSPropertyOp61
 70
     1
102
RTVSPropertyOp62
 70
     1
  0
XRECORD
  5
504
102
{ACAD_REACTORS
330
503
102
}
330
503
100
AcDbXrecord
280
     1
102
RTVSPost2010Prop28
280
     0
102
RTVSPost2010PropOp28
 70
     1
102
RTVSPost2010Prop29
280
     1
102
RTVSPost2010PropOp29
 70
     1
102
RTVSPost2010Prop30
280
     1
102
RTVSPost2010PropOp30
 70
     1
102
RTVSPost2010Prop31
280
     0
102
RTVSPost2010PropOp31
 70
     1
102
RTVSPost2010Prop32
280
     0
102
RTVSPost2010PropOp32
 70
     1
102
RTVSPost2010Prop33
280
     0
102
RTVSPost2010PropOp33
 70
     1
102
RTVSPost2010Prop34
280
     0
102
RTVSPost2010PropOp34
 70
     1
102
RTVSPost2010Prop35
280
     0
102
RTVSPost2010PropOp35
 70
     1
102
RTVSPost2010Prop36
280
     0
102
RTVSPost2010PropOp36
 70
     1
102
RTVSPost2010Prop37
 90
       50
102
RTVSPost2010PropOp37
 70
     0
102
RTVSPost2010Prop38
140
0.0
102
RTVSPost2010PropOp38
 70
     0
102
RTVSPost2010Prop39
140
1.0
102
RTVSPost2010PropOp39
 70
     0
102
RTVSPost2010Prop40
 90
        0
102
RTVSPost2010PropOp40
 70
     0
102
RTVSPost2010Prop41ColorIndex
 90
       18
102
RTVSPost2010Prop41ColorRGB
 90
        0
102
RTVSPost2010PropOp41
 70
     0
102
RTVSPost2010Prop42
 90
       50
102
RTVSPost2010PropOp42
 70
     0
102
RTVSPost2010Prop43
 90
        3
102
RTVSPost2010PropOp43
 70
     0
102
RTVSPost2010Prop44ColorIndex
 90
        5
102
RTVSPost2010Prop44ColorRGB
 90
      255
102
RTVSPost2010PropOp44
 70
     0
102
RTVSPost2010Prop45
280
     0
102
RTVSPost2010PropOp45
 70
     1
102
RTVSPost2010Prop46
 90
       50
102
RTVSPost2010PropOp46
 70
     0
102
RTVSPost2010Prop47
 90
       50
102
RTVSPost2010PropOp47
 70
     0
102
RTVSPost2010Prop48
 90
       50
102
RTVSPost2010PropOp48
 70
     0
102
RTVSPost2010Prop49
280
     0
102
RTVSPost2010PropOp49
 70
     1
102
RTVSPost2010Prop50
 90
       50
102
RTVSPost2010PropOp50
 70
     0
102
RTVSPost2010Prop51ColorIndex
 90
      256
102
RTVSPost2010Prop51ColorRGB
 90
-16777216
102
RTVSPost2010PropOp51
 70
     0
102
RTVSPost2010Prop52
140
1.0
102
RTVSPost2010PropOp52
 70
     0
102
RTVSPost2010Prop53
 90
        2
102
RTVSPost2010PropOp53
 70
     0
102
RTVSPost2010Prop54
  1
strokes_ogs.tif
102
RTVSPost2010PropOp54
 70
     0
102
RTVSPost2010Prop55
280
     0
102
RTVSPost2010PropOp55
 70
     1
102
RTVSPost2010Prop56
140
1.0
102
RTVSPost2010PropOp56
 70
     0
102
RTVSPost2010Prop57
140
1.0
102
RTVSPost2010PropOp57
 70
     0
102
RTVSPropertyOp0
 70
     0
102
RTVSPropertyOp1
 70
     0
102
RTVSPropertyOp2
 70
     0
102
RTVSPropertyOp3
 70
     0
102
RTVSPropertyOp4
 70
     0
102
RTVSPropertyOp5
 70
     0
102
RTVSPropertyOp6
 70
     0
102
RTVSPropertyOp7
 70
     0
102
RTVSPropertyOp8
 70
     0
102
RTVSPropertyOp9
 70
     0
102
RTVSPropertyOp10
 70
     0
102
RTVSPropertyOp11
 70
     0
102
RTVSPropertyOp12
 70
     0
102
RTVSPropertyOp13
 70
     0
102
RTVSPropertyOp14
 70
     2
102
RTVSPropertyOp15
 70
     0
102
RTVSPropertyOp16
 70
     0
102
RTVSPropertyOp17
 70
     0
102
RTVSPropertyOp18
 70
     0
102
RTVSPropertyOp19
 70
     0
102
RTVSPropertyOp20
 70
     0
102
RTVSPropertyOp21
 70
     0
102
RTVSPropertyOp22
 70
     0
102
RTVSPropertyOp23
 70
     0
102
RTVSPropertyOp24
 70
     0
102
RTVSPropertyOp25
 70
     0
102
RTVSPropertyOp26
 70
     0
102
RTVSPropertyOp27
 70
     0
102
RTVSPropertyOp28
 70
     1
102
RTVSPropertyOp29
 70
     1
102
RTVSPropertyOp30
 70
     1
102
RTVSPropertyOp31
 70
     1
102
RTVSPropertyOp32
 70
     1
102
RTVSPropertyOp33
 70
     1
102
RTVSPropertyOp34
 70
     1
102
RTVSPropertyOp35
 70
     1
102
RTVSPropertyOp36
 70
     1
102
RTVSPropertyOp37
 70
     0
102
RTVSPropertyOp38
 70
     0
102
RTVSPropertyOp39
 70
     0
102
RTVSPropertyOp40
 70
     0
102
RTVSPropertyOp41
 70
     0
102
RTVSPropertyOp42
 70
     0
102
RTVSPropertyOp43
 70
     0
102
RTVSPropertyOp44
 70
     0
102
RTVSPropertyOp45
 70
     1
102
RTVSPropertyOp46
 70
     0
102
RTVSPropertyOp47
 70
     0
102
RTVSPropertyOp48
 70
     0
102
RTVSPropertyOp49
 70
     1
102
RTVSPropertyOp50
 70
     0
102
RTVSPropertyOp51
 70
     0
102
RTVSPropertyOp52
 70
     0
102
RTVSPropertyOp53
 70
     0
102
RTVSPropertyOp54
 70
     0
102
RTVSPropertyOp55
 70
     1
102
RTVSPropertyOp56
 70
     0
102
RTVSPropertyOp57
 70
     0
102
RTVSPropertyOp58
 70
     0
102
RTVSPropertyOp59
 70
     0
102
RTVSPropertyOp60
 70
     0
102
RTVSPropertyOp61
 70
     0
102
RTVSPropertyOp62
 70
     0
  0
XRECORD
  5
4F4
102
{ACAD_REACTORS
330
4F3
102
}
330
4F3
100
AcDbXrecord
280
     1
102
RTVSPost2010Prop28
280
     0
102
RTVSPost2010PropOp28
 70
     1
102
RTVSPost2010Prop29
280
     1
102
RTVSPost2010PropOp29
 70
     1
102
RTVSPost2010Prop30
280
     1
102
RTVSPost2010PropOp30
 70
     1
102
RTVSPost2010Prop31
280
     0
102
RTVSPost2010PropOp31
 70
     1
102
RTVSPost2010Prop32
280
     0
102
RTVSPost2010PropOp32
 70
     1
102
RTVSPost2010Prop33
280
     0
102
RTVSPost2010PropOp33
 70
     1
102
RTVSPost2010Prop34
280
     0
102
RTVSPost2010PropOp34
 70
     1
102
RTVSPost2010Prop35
280
     0
102
RTVSPost2010PropOp35
 70
     1
102
RTVSPost2010Prop36
280
     0
102
RTVSPost2010PropOp36
 70
     1
102
RTVSPost2010Prop37
 90
       50
102
RTVSPost2010PropOp37
 70
     1
102
RTVSPost2010Prop38
140
0.0
102
RTVSPost2010PropOp38
 70
     1
102
RTVSPost2010Prop39
140
1.0
102
RTVSPost2010PropOp39
 70
     1
102
RTVSPost2010Prop40
 90
        0
102
RTVSPost2010PropOp40
 70
     1
102
RTVSPost2010Prop41ColorIndex
 90
       18
102
RTVSPost2010Prop41ColorRGB
 90
        0
102
RTVSPost2010PropOp41
 70
     1
102
RTVSPost2010Prop42
 90
       50
102
RTVSPost2010PropOp42
 70
     1
102
RTVSPost2010Prop43
 90
        3
102
RTVSPost2010PropOp43
 70
     1
102
RTVSPost2010Prop44ColorIndex
 90
        5
102
RTVSPost2010Prop44ColorRGB
 90
      255
102
RTVSPost2010PropOp44
 70
     1
102
RTVSPost2010Prop45
280
     0
102
RTVSPost2010PropOp45
 70
     1
102
RTVSPost2010Prop46
 90
       50
102
RTVSPost2010PropOp46
 70
     1
102
RTVSPost2010Prop47
 90
       50
102
RTVSPost2010PropOp47
 70
     1
102
RTVSPost2010Prop48
 90
       50
102
RTVSPost2010PropOp48
 70
     1
102
RTVSPost2010Prop49
280
     0
102
RTVSPost2010PropOp49
 70
     1
102
RTVSPost2010Prop50
 90
       50
102
RTVSPost2010PropOp50
 70
     1
102
RTVSPost2010Prop51ColorIndex
 90
      256
102
RTVSPost2010Prop51ColorRGB
 90
-16777216
102
RTVSPost2010PropOp51
 70
     0
102
RTVSPost2010Prop52
140
1.0
102
RTVSPost2010PropOp52
 70
     0
102
RTVSPost2010Prop53
 90
        2
102
RTVSPost2010PropOp53
 70
     1
102
RTVSPost2010Prop54
  1
strokes_ogs.tif
102
RTVSPost2010PropOp54
 70
     1
102
RTVSPost2010Prop55
280
     0
102
RTVSPost2010PropOp55
 70
     1
102
RTVSPost2010Prop56
140
1.0
102
RTVSPost2010PropOp56
 70
     1
102
RTVSPost2010Prop57
140
1.0
102
RTVSPost2010PropOp57
 70
     1
102
RTVSPropertyOp0
 70
     1
102
RTVSPropertyOp1
 70
     1
102
RTVSPropertyOp2
 70
     1
102
RTVSPropertyOp3
 70
     1
102
RTVSPropertyOp4
 70
     1
102
RTVSPropertyOp5
 70
     1
102
RTVSPropertyOp6
 70
     1
102
RTVSPropertyOp7
 70
     1
102
RTVSPropertyOp8
 70
     1
102
RTVSPropertyOp9
 70
     1
102
RTVSPropertyOp10
 70
     1
102
RTVSPropertyOp11
 70
     1
102
RTVSPropertyOp12
 70
     1
102
RTVSPropertyOp13
 70
     1
102
RTVSPropertyOp14
 70
     1
102
RTVSPropertyOp15
 70
     1
102
RTVSPropertyOp16
 70
     1
102
RTVSPropertyOp17
 70
     1
102
RTVSPropertyOp18
 70
     1
102
RTVSPropertyOp19
 70
     1
102
RTVSPropertyOp20
 70
     1
102
RTVSPropertyOp21
 70
     1
102
RTVSPropertyOp22
 70
     1
102
RTVSPropertyOp23
 70
     1
102
RTVSPropertyOp24
 70
     1
102
RTVSPropertyOp25
 70
     1
102
RTVSPropertyOp26
 70
     1
102
RTVSPropertyOp27
 70
     1
102
RTVSPropertyOp28
 70
     1
102
RTVSPropertyOp29
 70
     1
102
RTVSPropertyOp30
 70
     1
102
RTVSPropertyOp31
 70
     1
102
RTVSPropertyOp32
 70
     1
102
RTVSPropertyOp33
 70
     1
102
RTVSPropertyOp34
 70
     1
102
RTVSPropertyOp35
 70
     1
102
RTVSPropertyOp36
 70
     1
102
RTVSPropertyOp37
 70
     1
102
RTVSPropertyOp38
 70
     1
102
RTVSPropertyOp39
 70
     1
102
RTVSPropertyOp40
 70
     1
102
RTVSPropertyOp41
 70
     1
102
RTVSPropertyOp42
 70
     1
102
RTVSPropertyOp43
 70
     1
102
RTVSPropertyOp44
 70
     1
102
RTVSPropertyOp45
 70
     1
102
RTVSPropertyOp46
 70
     1
102
RTVSPropertyOp47
 70
     1
102
RTVSPropertyOp48
 70
     1
102
RTVSPropertyOp49
 70
     1
102
RTVSPropertyOp50
 70
     1
102
RTVSPropertyOp51
 70
     0
102
RTVSPropertyOp52
 70
     0
102
RTVSPropertyOp53
 70
     1
102
RTVSPropertyOp54
 70
     1
102
RTVSPropertyOp55
 70
     1
102
RTVSPropertyOp56
 70
     1
102
RTVSPropertyOp57
 70
     1
102
RTVSPropertyOp58
 70
     1
102
RTVSPropertyOp59
 70
     1
102
RTVSPropertyOp60
 70
     1
102
RTVSPropertyOp61
 70
     1
102
RTVSPropertyOp62
 70
     1
  0
XRECORD
  5
506
102
{ACAD_REACTORS
330
505
102
}
330
505
100
AcDbXrecord
280
     1
102
RTVSPost2010Prop28
280
     0
102
RTVSPost2010PropOp28
 70
     1
102
RTVSPost2010Prop29
280
     1
102
RTVSPost2010PropOp29
 70
     1
102
RTVSPost2010Prop30
280
     1
102
RTVSPost2010PropOp30
 70
     1
102
RTVSPost2010Prop31
280
     0
102
RTVSPost2010PropOp31
 70
     1
102
RTVSPost2010Prop32
280
     0
102
RTVSPost2010PropOp32
 70
     1
102
RTVSPost2010Prop33
280
     0
102
RTVSPost2010PropOp33
 70
     1
102
RTVSPost2010Prop34
280
     0
102
RTVSPost2010PropOp34
 70
     1
102
RTVSPost2010Prop35
280
     0
102
RTVSPost2010PropOp35
 70
     1
102
RTVSPost2010Prop36
280
     0
102
RTVSPost2010PropOp36
 70
     1
102
RTVSPost2010Prop37
 90
       50
102
RTVSPost2010PropOp37
 70
     0
102
RTVSPost2010Prop38
140
0.0
102
RTVSPost2010PropOp38
 70
     0
102
RTVSPost2010Prop39
140
1.0
102
RTVSPost2010PropOp39
 70
     0
102
RTVSPost2010Prop40
 90
        0
102
RTVSPost2010PropOp40
 70
     0
102
RTVSPost2010Prop41ColorIndex
 90
       18
102
RTVSPost2010Prop41ColorRGB
 90
        0
102
RTVSPost2010PropOp41
 70
     0
102
RTVSPost2010Prop42
 90
       50
102
RTVSPost2010PropOp42
 70
     0
102
RTVSPost2010Prop43
 90
        3
102
RTVSPost2010PropOp43
 70
     0
102
RTVSPost2010Prop44ColorIndex
 90
        5
102
RTVSPost2010Prop44ColorRGB
 90
      255
102
RTVSPost2010PropOp44
 70
     0
102
RTVSPost2010Prop45
280
     0
102
RTVSPost2010PropOp45
 70
     1
102
RTVSPost2010Prop46
 90
       50
102
RTVSPost2010PropOp46
 70
     0
102
RTVSPost2010Prop47
 90
       50
102
RTVSPost2010PropOp47
 70
     0
102
RTVSPost2010Prop48
 90
       50
102
RTVSPost2010PropOp48
 70
     0
102
RTVSPost2010Prop49
280
     0
102
RTVSPost2010PropOp49
 70
     1
102
RTVSPost2010Prop50
 90
       50
102
RTVSPost2010PropOp50
 70
     0
102
RTVSPost2010Prop51ColorIndex
 90
      256
102
RTVSPost2010Prop51ColorRGB
 90
-16777216
102
RTVSPost2010PropOp51
 70
     0
102
RTVSPost2010Prop52
140
1.0
102
RTVSPost2010PropOp52
 70
     0
102
RTVSPost2010Prop53
 90
        2
102
RTVSPost2010PropOp53
 70
     0
102
RTVSPost2010Prop54
  1
strokes_ogs.tif
102
RTVSPost2010PropOp54
 70
     0
102
RTVSPost2010Prop55
280
     0
102
RTVSPost2010PropOp55
 70
     1
102
RTVSPost2010Prop56
140
1.0
102
RTVSPost2010PropOp56
 70
     0
102
RTVSPost2010Prop57
140
1.0
102
RTVSPost2010PropOp57
 70
     0
102
RTVSPropertyOp0
 70
     0
102
RTVSPropertyOp1
 70
     0
102
RTVSPropertyOp2
 70
     0
102
RTVSPropertyOp3
 70
     0
102
RTVSPropertyOp4
 70
     0
102
RTVSPropertyOp5
 70
     0
102
RTVSPropertyOp6
 70
     0
102
RTVSPropertyOp7
 70
     0
102
RTVSPropertyOp8
 70
     0
102
RTVSPropertyOp9
 70
     0
102
RTVSPropertyOp10
 70
     0
102
RTVSPropertyOp11
 70
     0
102
RTVSPropertyOp12
 70
     0
102
RTVSPropertyOp13
 70
     0
102
RTVSPropertyOp14
 70
     2
102
RTVSPropertyOp15
 70
     0
102
RTVSPropertyOp16
 70
     0
102
RTVSPropertyOp17
 70
     0
102
RTVSPropertyOp18
 70
     0
102
RTVSPropertyOp19
 70
     0
102
RTVSPropertyOp20
 70
     0
102
RTVSPropertyOp21
 70
     0
102
RTVSPropertyOp22
 70
     0
102
RTVSPropertyOp23
 70
     0
102
RTVSPropertyOp24
 70
     0
102
RTVSPropertyOp25
 70
     0
102
RTVSPropertyOp26
 70
     0
102
RTVSPropertyOp27
 70
     0
102
RTVSPropertyOp28
 70
     1
102
RTVSPropertyOp29
 70
     1
102
RTVSPropertyOp30
 70
     1
102
RTVSPropertyOp31
 70
     1
102
RTVSPropertyOp32
 70
     1
102
RTVSPropertyOp33
 70
     1
102
RTVSPropertyOp34
 70
     1
102
RTVSPropertyOp35
 70
     1
102
RTVSPropertyOp36
 70
     1
102
RTVSPropertyOp37
 70
     0
102
RTVSPropertyOp38
 70
     0
102
RTVSPropertyOp39
 70
     0
102
RTVSPropertyOp40
 70
     0
102
RTVSPropertyOp41
 70
     0
102
RTVSPropertyOp42
 70
     0
102
RTVSPropertyOp43
 70
     0
102
RTVSPropertyOp44
 70
     0
102
RTVSPropertyOp45
 70
     1
102
RTVSPropertyOp46
 70
     0
102
RTVSPropertyOp47
 70
     0
102
RTVSPropertyOp48
 70
     0
102
RTVSPropertyOp49
 70
     1
102
RTVSPropertyOp50
 70
     0
102
RTVSPropertyOp51
 70
     0
102
RTVSPropertyOp52
 70
     0
102
RTVSPropertyOp53
 70
     0
102
RTVSPropertyOp54
 70
     0
102
RTVSPropertyOp55
 70
     1
102
RTVSPropertyOp56
 70
     0
102
RTVSPropertyOp57
 70
     0
102
RTVSPropertyOp58
 70
     0
102
RTVSPropertyOp59
 70
     0
102
RTVSPropertyOp60
 70
     0
102
RTVSPropertyOp61
 70
     0
102
RTVSPropertyOp62
 70
     0
  0
XRECORD
  5
4EC
102
{ACAD_REACTORS
330
4EB
102
}
330
4EB
100
AcDbXrecord
280
     1
102
RTVSPost2010Prop28
280
     0
102
RTVSPost2010PropOp28
 70
     1
102
RTVSPost2010Prop29
280
     1
102
RTVSPost2010PropOp29
 70
     1
102
RTVSPost2010Prop30
280
     1
102
RTVSPost2010PropOp30
 70
     1
102
RTVSPost2010Prop31
280
     0
102
RTVSPost2010PropOp31
 70
     1
102
RTVSPost2010Prop32
280
     0
102
RTVSPost2010PropOp32
 70
     1
102
RTVSPost2010Prop33
280
     0
102
RTVSPost2010PropOp33
 70
     1
102
RTVSPost2010Prop34
280
     0
102
RTVSPost2010PropOp34
 70
     1
102
RTVSPost2010Prop35
280
     0
102
RTVSPost2010PropOp35
 70
     1
102
RTVSPost2010Prop36
280
     0
102
RTVSPost2010PropOp36
 70
     1
102
RTVSPost2010Prop37
 90
       50
102
RTVSPost2010PropOp37
 70
     1
102
RTVSPost2010Prop38
140
0.0
102
RTVSPost2010PropOp38
 70
     1
102
RTVSPost2010Prop39
140
1.0
102
RTVSPost2010PropOp39
 70
     1
102
RTVSPost2010Prop40
 90
        0
102
RTVSPost2010PropOp40
 70
     1
102
RTVSPost2010Prop41ColorIndex
 90
       18
102
RTVSPost2010Prop41ColorRGB
 90
        0
102
RTVSPost2010PropOp41
 70
     1
102
RTVSPost2010Prop42
 90
       50
102
RTVSPost2010PropOp42
 70
     1
102
RTVSPost2010Prop43
 90
        3
102
RTVSPost2010PropOp43
 70
     1
102
RTVSPost2010Prop44ColorIndex
 90
        5
102
RTVSPost2010Prop44ColorRGB
 90
      255
102
RTVSPost2010PropOp44
 70
     1
102
RTVSPost2010Prop45
280
     0
102
RTVSPost2010PropOp45
 70
     1
102
RTVSPost2010Prop46
 90
       50
102
RTVSPost2010PropOp46
 70
     1
102
RTVSPost2010Prop47
 90
       50
102
RTVSPost2010PropOp47
 70
     1
102
RTVSPost2010Prop48
 90
       50
102
RTVSPost2010PropOp48
 70
     1
102
RTVSPost2010Prop49
280
     0
102
RTVSPost2010PropOp49
 70
     1
102
RTVSPost2010Prop50
 90
       50
102
RTVSPost2010PropOp50
 70
     1
102
RTVSPost2010Prop51ColorIndex
 90
      256
102
RTVSPost2010Prop51ColorRGB
 90
-16777216
102
RTVSPost2010PropOp51
 70
     0
102
RTVSPost2010Prop52
140
1.0
102
RTVSPost2010PropOp52
 70
     0
102
RTVSPost2010Prop53
 90
        2
102
RTVSPost2010PropOp53
 70
     1
102
RTVSPost2010Prop54
  1
strokes_ogs.tif
102
RTVSPost2010PropOp54
 70
     1
102
RTVSPost2010Prop55
280
     0
102
RTVSPost2010PropOp55
 70
     1
102
RTVSPost2010Prop56
140
1.0
102
RTVSPost2010PropOp56
 70
     1
102
RTVSPost2010Prop57
140
1.0
102
RTVSPost2010PropOp57
 70
     1
102
RTVSPropertyOp0
 70
     1
102
RTVSPropertyOp1
 70
     1
102
RTVSPropertyOp2
 70
     1
102
RTVSPropertyOp3
 70
     1
102
RTVSPropertyOp4
 70
     1
102
RTVSPropertyOp5
 70
     1
102
RTVSPropertyOp6
 70
     1
102
RTVSPropertyOp7
 70
     1
102
RTVSPropertyOp8
 70
     1
102
RTVSPropertyOp9
 70
     1
102
RTVSPropertyOp10
 70
     1
102
RTVSPropertyOp11
 70
     1
102
RTVSPropertyOp12
 70
     1
102
RTVSPropertyOp13
 70
     1
102
RTVSPropertyOp14
 70
     1
102
RTVSPropertyOp15
 70
     1
102
RTVSPropertyOp16
 70
     1
102
RTVSPropertyOp17
 70
     1
102
RTVSPropertyOp18
 70
     1
102
RTVSPropertyOp19
 70
     1
102
RTVSPropertyOp20
 70
     1
102
RTVSPropertyOp21
 70
     1
102
RTVSPropertyOp22
 70
     1
102
RTVSPropertyOp23
 70
     1
102
RTVSPropertyOp24
 70
     1
102
RTVSPropertyOp25
 70
     1
102
RTVSPropertyOp26
 70
     1
102
RTVSPropertyOp27
 70
     1
102
RTVSPropertyOp28
 70
     1
102
RTVSPropertyOp29
 70
     1
102
RTVSPropertyOp30
 70
     1
102
RTVSPropertyOp31
 70
     1
102
RTVSPropertyOp32
 70
     1
102
RTVSPropertyOp33
 70
     1
102
RTVSPropertyOp34
 70
     1
102
RTVSPropertyOp35
 70
     1
102
RTVSPropertyOp36
 70
     1
102
RTVSPropertyOp37
 70
     1
102
RTVSPropertyOp38
 70
     1
102
RTVSPropertyOp39
 70
     1
102
RTVSPropertyOp40
 70
     1
102
RTVSPropertyOp41
 70
     1
102
RTVSPropertyOp42
 70
     1
102
RTVSPropertyOp43
 70
     1
102
RTVSPropertyOp44
 70
     1
102
RTVSPropertyOp45
 70
     1
102
RTVSPropertyOp46
 70
     1
102
RTVSPropertyOp47
 70
     1
102
RTVSPropertyOp48
 70
     1
102
RTVSPropertyOp49
 70
     1
102
RTVSPropertyOp50
 70
     1
102
RTVSPropertyOp51
 70
     0
102
RTVSPropertyOp52
 70
     0
102
RTVSPropertyOp53
 70
     1
102
RTVSPropertyOp54
 70
     1
102
RTVSPropertyOp55
 70
     1
102
RTVSPropertyOp56
 70
     1
102
RTVSPropertyOp57
 70
     1
102
RTVSPropertyOp58
 70
     1
102
RTVSPropertyOp59
 70
     1
102
RTVSPropertyOp60
 70
     1
102
RTVSPropertyOp61
 70
     1
102
RTVSPropertyOp62
 70
     1
  0
XRECORD
  5
502
102
{ACAD_REACTORS
330
501
102
}
330
501
100
AcDbXrecord
280
     1
102
RTVSPost2010Prop28
280
     0
102
RTVSPost2010PropOp28
 70
     1
102
RTVSPost2010Prop29
280
     1
102
RTVSPost2010PropOp29
 70
     1
102
RTVSPost2010Prop30
280
     1
102
RTVSPost2010PropOp30
 70
     1
102
RTVSPost2010Prop31
280
     0
102
RTVSPost2010PropOp31
 70
     1
102
RTVSPost2010Prop32
280
     0
102
RTVSPost2010PropOp32
 70
     1
102
RTVSPost2010Prop33
280
     0
102
RTVSPost2010PropOp33
 70
     1
102
RTVSPost2010Prop34
280
     0
102
RTVSPost2010PropOp34
 70
     1
102
RTVSPost2010Prop35
280
     0
102
RTVSPost2010PropOp35
 70
     1
102
RTVSPost2010Prop36
280
     0
102
RTVSPost2010PropOp36
 70
     1
102
RTVSPost2010Prop37
 90
       50
102
RTVSPost2010PropOp37
 70
     1
102
RTVSPost2010Prop38
140
0.0
102
RTVSPost2010PropOp38
 70
     1
102
RTVSPost2010Prop39
140
1.0
102
RTVSPost2010PropOp39
 70
     1
102
RTVSPost2010Prop40
 90
        0
102
RTVSPost2010PropOp40
 70
     1
102
RTVSPost2010Prop41ColorIndex
 90
       18
102
RTVSPost2010Prop41ColorRGB
 90
        0
102
RTVSPost2010PropOp41
 70
     1
102
RTVSPost2010Prop42
 90
       50
102
RTVSPost2010PropOp42
 70
     1
102
RTVSPost2010Prop43
 90
        3
102
RTVSPost2010PropOp43
 70
     1
102
RTVSPost2010Prop44ColorIndex
 90
        5
102
RTVSPost2010Prop44ColorRGB
 90
      255
102
RTVSPost2010PropOp44
 70
     1
102
RTVSPost2010Prop45
280
     0
102
RTVSPost2010PropOp45
 70
     1
102
RTVSPost2010Prop46
 90
       50
102
RTVSPost2010PropOp46
 70
     1
102
RTVSPost2010Prop47
 90
       50
102
RTVSPost2010PropOp47
 70
     1
102
RTVSPost2010Prop48
 90
       50
102
RTVSPost2010PropOp48
 70
     1
102
RTVSPost2010Prop49
280
     0
102
RTVSPost2010PropOp49
 70
     1
102
RTVSPost2010Prop50
 90
       50
102
RTVSPost2010PropOp50
 70
     1
102
RTVSPost2010Prop51ColorIndex
 90
      256
102
RTVSPost2010Prop51ColorRGB
 90
-16777216
102
RTVSPost2010PropOp51
 70
     0
102
RTVSPost2010Prop52
140
1.0
102
RTVSPost2010PropOp52
 70
     0
102
RTVSPost2010Prop53
 90
        2
102
RTVSPost2010PropOp53
 70
     1
102
RTVSPost2010Prop54
  1
strokes_ogs.tif
102
RTVSPost2010PropOp54
 70
     1
102
RTVSPost2010Prop55
280
     0
102
RTVSPost2010PropOp55
 70
     1
102
RTVSPost2010Prop56
140
1.0
102
RTVSPost2010PropOp56
 70
     1
102
RTVSPost2010Prop57
140
1.0
102
RTVSPost2010PropOp57
 70
     1
102
RTVSPropertyOp0
 70
     1
102
RTVSPropertyOp1
 70
     1
102
RTVSPropertyOp2
 70
     1
102
RTVSPropertyOp3
 70
     1
102
RTVSPropertyOp4
 70
     1
102
RTVSPropertyOp5
 70
     1
102
RTVSPropertyOp6
 70
     1
102
RTVSPropertyOp7
 70
     1
102
RTVSPropertyOp8
 70
     1
102
RTVSPropertyOp9
 70
     1
102
RTVSPropertyOp10
 70
     1
102
RTVSPropertyOp11
 70
     1
102
RTVSPropertyOp12
 70
     1
102
RTVSPropertyOp13
 70
     1
102
RTVSPropertyOp14
 70
     1
102
RTVSPropertyOp15
 70
     1
102
RTVSPropertyOp16
 70
     1
102
RTVSPropertyOp17
 70
     1
102
RTVSPropertyOp18
 70
     1
102
RTVSPropertyOp19
 70
     1
102
RTVSPropertyOp20
 70
     1
102
RTVSPropertyOp21
 70
     1
102
RTVSPropertyOp22
 70
     1
102
RTVSPropertyOp23
 70
     1
102
RTVSPropertyOp24
 70
     1
102
RTVSPropertyOp25
 70
     1
102
RTVSPropertyOp26
 70
     1
102
RTVSPropertyOp27
 70
     1
102
RTVSPropertyOp28
 70
     1
102
RTVSPropertyOp29
 70
     1
102
RTVSPropertyOp30
 70
     1
102
RTVSPropertyOp31
 70
     1
102
RTVSPropertyOp32
 70
     1
102
RTVSPropertyOp33
 70
     1
102
RTVSPropertyOp34
 70
     1
102
RTVSPropertyOp35
 70
     1
102
RTVSPropertyOp36
 70
     1
102
RTVSPropertyOp37
 70
     1
102
RTVSPropertyOp38
 70
     1
102
RTVSPropertyOp39
 70
     1
102
RTVSPropertyOp40
 70
     1
102
RTVSPropertyOp41
 70
     1
102
RTVSPropertyOp42
 70
     1
102
RTVSPropertyOp43
 70
     1
102
RTVSPropertyOp44
 70
     1
102
RTVSPropertyOp45
 70
     1
102
RTVSPropertyOp46
 70
     1
102
RTVSPropertyOp47
 70
     1
102
RTVSPropertyOp48
 70
     1
102
RTVSPropertyOp49
 70
     1
102
RTVSPropertyOp50
 70
     1
102
RTVSPropertyOp51
 70
     0
102
RTVSPropertyOp52
 70
     0
102
RTVSPropertyOp53
 70
     1
102
RTVSPropertyOp54
 70
     1
102
RTVSPropertyOp55
 70
     1
102
RTVSPropertyOp56
 70
     1
102
RTVSPropertyOp57
 70
     1
102
RTVSPropertyOp58
 70
     1
102
RTVSPropertyOp59
 70
     1
102
RTVSPropertyOp60
 70
     1
102
RTVSPropertyOp61
 70
     1
102
RTVSPropertyOp62
 70
     1
  0
XRECORD
  5
500
102
{ACAD_REACTORS
330
4FF
102
}
330
4FF
100
AcDbXrecord
280
     1
102
RTVSPost2010Prop28
280
     0
102
RTVSPost2010PropOp28
 70
     1
102
RTVSPost2010Prop29
280
     1
102
RTVSPost2010PropOp29
 70
     1
102
RTVSPost2010Prop30
280
     1
102
RTVSPost2010PropOp30
 70
     1
102
RTVSPost2010Prop31
280
     0
102
RTVSPost2010PropOp31
 70
     1
102
RTVSPost2010Prop32
280
     0
102
RTVSPost2010PropOp32
 70
     1
102
RTVSPost2010Prop33
280
     0
102
RTVSPost2010PropOp33
 70
     1
102
RTVSPost2010Prop34
280
     0
102
RTVSPost2010PropOp34
 70
     1
102
RTVSPost2010Prop35
280
     0
102
RTVSPost2010PropOp35
 70
     1
102
RTVSPost2010Prop36
280
     0
102
RTVSPost2010PropOp36
 70
     1
102
RTVSPost2010Prop37
 90
       50
102
RTVSPost2010PropOp37
 70
     1
102
RTVSPost2010Prop38
140
0.0
102
RTVSPost2010PropOp38
 70
     1
102
RTVSPost2010Prop39
140
1.0
102
RTVSPost2010PropOp39
 70
     1
102
RTVSPost2010Prop40
 90
        0
102
RTVSPost2010PropOp40
 70
     1
102
RTVSPost2010Prop41ColorIndex
 90
       18
102
RTVSPost2010Prop41ColorRGB
 90
        0
102
RTVSPost2010PropOp41
 70
     1
102
RTVSPost2010Prop42
 90
       50
102
RTVSPost2010PropOp42
 70
     1
102
RTVSPost2010Prop43
 90
        3
102
RTVSPost2010PropOp43
 70
     1
102
RTVSPost2010Prop44ColorIndex
 90
        5
102
RTVSPost2010Prop44ColorRGB
 90
      255
102
RTVSPost2010PropOp44
 70
     1
102
RTVSPost2010Prop45
280
     0
102
RTVSPost2010PropOp45
 70
     1
102
RTVSPost2010Prop46
 90
       50
102
RTVSPost2010PropOp46
 70
     1
102
RTVSPost2010Prop47
 90
       50
102
RTVSPost2010PropOp47
 70
     1
102
RTVSPost2010Prop48
 90
       50
102
RTVSPost2010PropOp48
 70
     1
102
RTVSPost2010Prop49
280
     0
102
RTVSPost2010PropOp49
 70
     1
102
RTVSPost2010Prop50
 90
       50
102
RTVSPost2010PropOp50
 70
     1
102
RTVSPost2010Prop51ColorIndex
 90
      256
102
RTVSPost2010Prop51ColorRGB
 90
-16777216
102
RTVSPost2010PropOp51
 70
     0
102
RTVSPost2010Prop52
140
1.0
102
RTVSPost2010PropOp52
 70
     0
102
RTVSPost2010Prop53
 90
        2
102
RTVSPost2010PropOp53
 70
     1
102
RTVSPost2010Prop54
  1
strokes_ogs.tif
102
RTVSPost2010PropOp54
 70
     1
102
RTVSPost2010Prop55
280
     0
102
RTVSPost2010PropOp55
 70
     1
102
RTVSPost2010Prop56
140
1.0
102
RTVSPost2010PropOp56
 70
     1
102
RTVSPost2010Prop57
140
1.0
102
RTVSPost2010PropOp57
 70
     1
102
RTVSPropertyOp0
 70
     1
102
RTVSPropertyOp1
 70
     1
102
RTVSPropertyOp2
 70
     1
102
RTVSPropertyOp3
 70
     1
102
RTVSPropertyOp4
 70
     1
102
RTVSPropertyOp5
 70
     1
102
RTVSPropertyOp6
 70
     1
102
RTVSPropertyOp7
 70
     1
102
RTVSPropertyOp8
 70
     1
102
RTVSPropertyOp9
 70
     1
102
RTVSPropertyOp10
 70
     1
102
RTVSPropertyOp11
 70
     1
102
RTVSPropertyOp12
 70
     1
102
RTVSPropertyOp13
 70
     1
102
RTVSPropertyOp14
 70
     1
102
RTVSPropertyOp15
 70
     1
102
RTVSPropertyOp16
 70
     1
102
RTVSPropertyOp17
 70
     1
102
RTVSPropertyOp18
 70
     1
102
RTVSPropertyOp19
 70
     1
102
RTVSPropertyOp20
 70
     1
102
RTVSPropertyOp21
 70
     1
102
RTVSPropertyOp22
 70
     1
102
RTVSPropertyOp23
 70
     1
102
RTVSPropertyOp24
 70
     1
102
RTVSPropertyOp25
 70
     1
102
RTVSPropertyOp26
 70
     1
102
RTVSPropertyOp27
 70
     1
102
RTVSPropertyOp28
 70
     1
102
RTVSPropertyOp29
 70
     1
102
RTVSPropertyOp30
 70
     1
102
RTVSPropertyOp31
 70
     1
102
RTVSPropertyOp32
 70
     1
102
RTVSPropertyOp33
 70
     1
102
RTVSPropertyOp34
 70
     1
102
RTVSPropertyOp35
 70
     1
102
RTVSPropertyOp36
 70
     1
102
RTVSPropertyOp37
 70
     1
102
RTVSPropertyOp38
 70
     1
102
RTVSPropertyOp39
 70
     1
102
RTVSPropertyOp40
 70
     1
102
RTVSPropertyOp41
 70
     1
102
RTVSPropertyOp42
 70
     1
102
RTVSPropertyOp43
 70
     1
102
RTVSPropertyOp44
 70
     1
102
RTVSPropertyOp45
 70
     1
102
RTVSPropertyOp46
 70
     1
102
RTVSPropertyOp47
 70
     1
102
RTVSPropertyOp48
 70
     1
102
RTVSPropertyOp49
 70
     1
102
RTVSPropertyOp50
 70
     1
102
RTVSPropertyOp51
 70
     0
102
RTVSPropertyOp52
 70
     0
102
RTVSPropertyOp53
 70
     1
102
RTVSPropertyOp54
 70
     1
102
RTVSPropertyOp55
 70
     1
102
RTVSPropertyOp56
 70
     1
102
RTVSPropertyOp57
 70
     1
102
RTVSPropertyOp58
 70
     1
102
RTVSPropertyOp59
 70
     1
102
RTVSPropertyOp60
 70
     1
102
RTVSPropertyOp61
 70
     1
102
RTVSPropertyOp62
 70
     1
  0
XRECORD
  5
4FA
102
{ACAD_REACTORS
330
4F9
102
}
330
4F9
100
AcDbXrecord
280
     1
102
RTVSPost2010Prop28
280
     0
102
RTVSPost2010PropOp28
 70
     1
102
RTVSPost2010Prop29
280
     1
102
RTVSPost2010PropOp29
 70
     1
102
RTVSPost2010Prop30
280
     1
102
RTVSPost2010PropOp30
 70
     1
102
RTVSPost2010Prop31
280
     0
102
RTVSPost2010PropOp31
 70
     1
102
RTVSPost2010Prop32
280
     0
102
RTVSPost2010PropOp32
 70
     1
102
RTVSPost2010Prop33
280
     0
102
RTVSPost2010PropOp33
 70
     1
102
RTVSPost2010Prop34
280
     0
102
RTVSPost2010PropOp34
 70
     1
102
RTVSPost2010Prop35
280
     0
102
RTVSPost2010PropOp35
 70
     1
102
RTVSPost2010Prop36
280
     0
102
RTVSPost2010PropOp36
 70
     1
102
RTVSPost2010Prop37
 90
       50
102
RTVSPost2010PropOp37
 70
     1
102
RTVSPost2010Prop38
140
0.0
102
RTVSPost2010PropOp38
 70
     1
102
RTVSPost2010Prop39
140
1.0
102
RTVSPost2010PropOp39
 70
     1
102
RTVSPost2010Prop40
 90
        0
102
RTVSPost2010PropOp40
 70
     1
102
RTVSPost2010Prop41ColorIndex
 90
       18
102
RTVSPost2010Prop41ColorRGB
 90
        0
102
RTVSPost2010PropOp41
 70
     1
102
RTVSPost2010Prop42
 90
       50
102
RTVSPost2010PropOp42
 70
     1
102
RTVSPost2010Prop43
 90
        3
102
RTVSPost2010PropOp43
 70
     1
102
RTVSPost2010Prop44ColorIndex
 90
        5
102
RTVSPost2010Prop44ColorRGB
 90
      255
102
RTVSPost2010PropOp44
 70
     1
102
RTVSPost2010Prop45
280
     0
102
RTVSPost2010PropOp45
 70
     1
102
RTVSPost2010Prop46
 90
       50
102
RTVSPost2010PropOp46
 70
     1
102
RTVSPost2010Prop47
 90
       50
102
RTVSPost2010PropOp47
 70
     1
102
RTVSPost2010Prop48
 90
       50
102
RTVSPost2010PropOp48
 70
     1
102
RTVSPost2010Prop49
280
     0
102
RTVSPost2010PropOp49
 70
     1
102
RTVSPost2010Prop50
 90
       50
102
RTVSPost2010PropOp50
 70
     1
102
RTVSPost2010Prop51ColorIndex
 90
      256
102
RTVSPost2010Prop51ColorRGB
 90
-16777216
102
RTVSPost2010PropOp51
 70
     0
102
RTVSPost2010Prop52
140
1.0
102
RTVSPost2010PropOp52
 70
     0
102
RTVSPost2010Prop53
 90
        2
102
RTVSPost2010PropOp53
 70
     1
102
RTVSPost2010Prop54
  1
strokes_ogs.tif
102
RTVSPost2010PropOp54
 70
     1
102
RTVSPost2010Prop55
280
     0
102
RTVSPost2010PropOp55
 70
     1
102
RTVSPost2010Prop56
140
1.0
102
RTVSPost2010PropOp56
 70
     1
102
RTVSPost2010Prop57
140
1.0
102
RTVSPost2010PropOp57
 70
     1
102
RTVSPropertyOp0
 70
     1
102
RTVSPropertyOp1
 70
     1
102
RTVSPropertyOp2
 70
     1
102
RTVSPropertyOp3
 70
     1
102
RTVSPropertyOp4
 70
     1
102
RTVSPropertyOp5
 70
     1
102
RTVSPropertyOp6
 70
     1
102
RTVSPropertyOp7
 70
     1
102
RTVSPropertyOp8
 70
     1
102
RTVSPropertyOp9
 70
     1
102
RTVSPropertyOp10
 70
     1
102
RTVSPropertyOp11
 70
     1
102
RTVSPropertyOp12
 70
     1
102
RTVSPropertyOp13
 70
     1
102
RTVSPropertyOp14
 70
     1
102
RTVSPropertyOp15
 70
     1
102
RTVSPropertyOp16
 70
     1
102
RTVSPropertyOp17
 70
     1
102
RTVSPropertyOp18
 70
     1
102
RTVSPropertyOp19
 70
     1
102
RTVSPropertyOp20
 70
     1
102
RTVSPropertyOp21
 70
     1
102
RTVSPropertyOp22
 70
     1
102
RTVSPropertyOp23
 70
     1
102
RTVSPropertyOp24
 70
     1
102
RTVSPropertyOp25
 70
     1
102
RTVSPropertyOp26
 70
     1
102
RTVSPropertyOp27
 70
     1
102
RTVSPropertyOp28
 70
     1
102
RTVSPropertyOp29
 70
     1
102
RTVSPropertyOp30
 70
     1
102
RTVSPropertyOp31
 70
     1
102
RTVSPropertyOp32
 70
     1
102
RTVSPropertyOp33
 70
     1
102
RTVSPropertyOp34
 70
     1
102
RTVSPropertyOp35
 70
     1
102
RTVSPropertyOp36
 70
     1
102
RTVSPropertyOp37
 70
     1
102
RTVSPropertyOp38
 70
     1
102
RTVSPropertyOp39
 70
     1
102
RTVSPropertyOp40
 70
     1
102
RTVSPropertyOp41
 70
     1
102
RTVSPropertyOp42
 70
     1
102
RTVSPropertyOp43
 70
     1
102
RTVSPropertyOp44
 70
     1
102
RTVSPropertyOp45
 70
     1
102
RTVSPropertyOp46
 70
     1
102
RTVSPropertyOp47
 70
     1
102
RTVSPropertyOp48
 70
     1
102
RTVSPropertyOp49
 70
     1
102
RTVSPropertyOp50
 70
     1
102
RTVSPropertyOp51
 70
     0
102
RTVSPropertyOp52
 70
     0
102
RTVSPropertyOp53
 70
     1
102
RTVSPropertyOp54
 70
     1
102
RTVSPropertyOp55
 70
     1
102
RTVSPropertyOp56
 70
     1
102
RTVSPropertyOp57
 70
     1
102
RTVSPropertyOp58
 70
     1
102
RTVSPropertyOp59
 70
     1
102
RTVSPropertyOp60
 70
     1
102
RTVSPropertyOp61
 70
     1
102
RTVSPropertyOp62
 70
     1
  0
XRECORD
  5
4FC
102
{ACAD_REACTORS
330
4FB
102
}
330
4FB
100
AcDbXrecord
280
     1
102
RTVSPost2010Prop28
280
     0
102
RTVSPost2010PropOp28
 70
     1
102
RTVSPost2010Prop29
280
     1
102
RTVSPost2010PropOp29
 70
     1
102
RTVSPost2010Prop30
280
     1
102
RTVSPost2010PropOp30
 70
     1
102
RTVSPost2010Prop31
280
     0
102
RTVSPost2010PropOp31
 70
     1
102
RTVSPost2010Prop32
280
     0
102
RTVSPost2010PropOp32
 70
     1
102
RTVSPost2010Prop33
280
     0
102
RTVSPost2010PropOp33
 70
     1
102
RTVSPost2010Prop34
280
     0
102
RTVSPost2010PropOp34
 70
     1
102
RTVSPost2010Prop35
280
     0
102
RTVSPost2010PropOp35
 70
     1
102
RTVSPost2010Prop36
280
     0
102
RTVSPost2010PropOp36
 70
     1
102
RTVSPost2010Prop37
 90
       50
102
RTVSPost2010PropOp37
 70
     1
102
RTVSPost2010Prop38
140
0.0
102
RTVSPost2010PropOp38
 70
     1
102
RTVSPost2010Prop39
140
1.0
102
RTVSPost2010PropOp39
 70
     1
102
RTVSPost2010Prop40
 90
        0
102
RTVSPost2010PropOp40
 70
     1
102
RTVSPost2010Prop41ColorIndex
 90
       18
102
RTVSPost2010Prop41ColorRGB
 90
        0
102
RTVSPost2010PropOp41
 70
     1
102
RTVSPost2010Prop42
 90
       50
102
RTVSPost2010PropOp42
 70
     1
102
RTVSPost2010Prop43
 90
        3
102
RTVSPost2010PropOp43
 70
     1
102
RTVSPost2010Prop44ColorIndex
 90
        5
102
RTVSPost2010Prop44ColorRGB
 90
      255
102
RTVSPost2010PropOp44
 70
     1
102
RTVSPost2010Prop45
280
     0
102
RTVSPost2010PropOp45
 70
     1
102
RTVSPost2010Prop46
 90
       50
102
RTVSPost2010PropOp46
 70
     1
102
RTVSPost2010Prop47
 90
       50
102
RTVSPost2010PropOp47
 70
     1
102
RTVSPost2010Prop48
 90
       50
102
RTVSPost2010PropOp48
 70
     1
102
RTVSPost2010Prop49
280
     0
102
RTVSPost2010PropOp49
 70
     1
102
RTVSPost2010Prop50
 90
       50
102
RTVSPost2010PropOp50
 70
     1
102
RTVSPost2010Prop51ColorIndex
 90
      256
102
RTVSPost2010Prop51ColorRGB
 90
-16777216
102
RTVSPost2010PropOp51
 70
     0
102
RTVSPost2010Prop52
140
1.0
102
RTVSPost2010PropOp52
 70
     0
102
RTVSPost2010Prop53
 90
        2
102
RTVSPost2010PropOp53
 70
     1
102
RTVSPost2010Prop54
  1
strokes_ogs.tif
102
RTVSPost2010PropOp54
 70
     1
102
RTVSPost2010Prop55
280
     0
102
RTVSPost2010PropOp55
 70
     1
102
RTVSPost2010Prop56
140
1.0
102
RTVSPost2010PropOp56
 70
     1
102
RTVSPost2010Prop57
140
1.0
102
RTVSPost2010PropOp57
 70
     1
102
RTVSPropertyOp0
 70
     1
102
RTVSPropertyOp1
 70
     1
102
RTVSPropertyOp2
 70
     1
102
RTVSPropertyOp3
 70
     1
102
RTVSPropertyOp4
 70
     1
102
RTVSPropertyOp5
 70
     1
102
RTVSPropertyOp6
 70
     1
102
RTVSPropertyOp7
 70
     1
102
RTVSPropertyOp8
 70
     1
102
RTVSPropertyOp9
 70
     1
102
RTVSPropertyOp10
 70
     1
102
RTVSPropertyOp11
 70
     1
102
RTVSPropertyOp12
 70
     1
102
RTVSPropertyOp13
 70
     1
102
RTVSPropertyOp14
 70
     1
102
RTVSPropertyOp15
 70
     1
102
RTVSPropertyOp16
 70
     1
102
RTVSPropertyOp17
 70
     1
102
RTVSPropertyOp18
 70
     1
102
RTVSPropertyOp19
 70
     1
102
RTVSPropertyOp20
 70
     1
102
RTVSPropertyOp21
 70
     1
102
RTVSPropertyOp22
 70
     1
102
RTVSPropertyOp23
 70
     1
102
RTVSPropertyOp24
 70
     1
102
RTVSPropertyOp25
 70
     1
102
RTVSPropertyOp26
 70
     1
102
RTVSPropertyOp27
 70
     1
102
RTVSPropertyOp28
 70
     1
102
RTVSPropertyOp29
 70
     1
102
RTVSPropertyOp30
 70
     1
102
RTVSPropertyOp31
 70
     1
102
RTVSPropertyOp32
 70
     1
102
RTVSPropertyOp33
 70
     1
102
RTVSPropertyOp34
 70
     1
102
RTVSPropertyOp35
 70
     1
102
RTVSPropertyOp36
 70
     1
102
RTVSPropertyOp37
 70
     1
102
RTVSPropertyOp38
 70
     1
102
RTVSPropertyOp39
 70
     1
102
RTVSPropertyOp40
 70
     1
102
RTVSPropertyOp41
 70
     1
102
RTVSPropertyOp42
 70
     1
102
RTVSPropertyOp43
 70
     1
102
RTVSPropertyOp44
 70
     1
102
RTVSPropertyOp45
 70
     1
102
RTVSPropertyOp46
 70
     1
102
RTVSPropertyOp47
 70
     1
102
RTVSPropertyOp48
 70
     1
102
RTVSPropertyOp49
 70
     1
102
RTVSPropertyOp50
 70
     1
102
RTVSPropertyOp51
 70
     0
102
RTVSPropertyOp52
 70
     0
102
RTVSPropertyOp53
 70
     1
102
RTVSPropertyOp54
 70
     1
102
RTVSPropertyOp55
 70
     1
102
RTVSPropertyOp56
 70
     1
102
RTVSPropertyOp57
 70
     1
102
RTVSPropertyOp58
 70
     1
102
RTVSPropertyOp59
 70
     1
102
RTVSPropertyOp60
 70
     1
102
RTVSPropertyOp61
 70
     1
102
RTVSPropertyOp62
 70
     1
  0
XRECORD
  5
4F2
102
{ACAD_REACTORS
330
4F1
102
}
330
4F1
100
AcDbXrecord
280
     1
102
RTVSPost2010Prop28
280
     0
102
RTVSPost2010PropOp28
 70
     1
102
RTVSPost2010Prop29
280
     1
102
RTVSPost2010PropOp29
 70
     1
102
RTVSPost2010Prop30
280
     1
102
RTVSPost2010PropOp30
 70
     1
102
RTVSPost2010Prop31
280
     0
102
RTVSPost2010PropOp31
 70
     1
102
RTVSPost2010Prop32
280
     0
102
RTVSPost2010PropOp32
 70
     1
102
RTVSPost2010Prop33
280
     0
102
RTVSPost2010PropOp33
 70
     1
102
RTVSPost2010Prop34
280
     0
102
RTVSPost2010PropOp34
 70
     1
102
RTVSPost2010Prop35
280
     0
102
RTVSPost2010PropOp35
 70
     1
102
RTVSPost2010Prop36
280
     0
102
RTVSPost2010PropOp36
 70
     1
102
RTVSPost2010Prop37
 90
       50
102
RTVSPost2010PropOp37
 70
     1
102
RTVSPost2010Prop38
140
0.0
102
RTVSPost2010PropOp38
 70
     1
102
RTVSPost2010Prop39
140
1.0
102
RTVSPost2010PropOp39
 70
     1
102
RTVSPost2010Prop40
 90
        0
102
RTVSPost2010PropOp40
 70
     1
102
RTVSPost2010Prop41ColorIndex
 90
       18
102
RTVSPost2010Prop41ColorRGB
 90
        0
102
RTVSPost2010PropOp41
 70
     1
102
RTVSPost2010Prop42
 90
       50
102
RTVSPost2010PropOp42
 70
     1
102
RTVSPost2010Prop43
 90
        3
102
RTVSPost2010PropOp43
 70
     1
102
RTVSPost2010Prop44ColorIndex
 90
        5
102
RTVSPost2010Prop44ColorRGB
 90
      255
102
RTVSPost2010PropOp44
 70
     1
102
RTVSPost2010Prop45
280
     0
102
RTVSPost2010PropOp45
 70
     1
102
RTVSPost2010Prop46
 90
       50
102
RTVSPost2010PropOp46
 70
     1
102
RTVSPost2010Prop47
 90
       50
102
RTVSPost2010PropOp47
 70
     1
102
RTVSPost2010Prop48
 90
       50
102
RTVSPost2010PropOp48
 70
     1
102
RTVSPost2010Prop49
280
     0
102
RTVSPost2010PropOp49
 70
     1
102
RTVSPost2010Prop50
 90
       50
102
RTVSPost2010PropOp50
 70
     1
102
RTVSPost2010Prop51ColorIndex
 90
      256
102
RTVSPost2010Prop51ColorRGB
 90
-16777216
102
RTVSPost2010PropOp51
 70
     0
102
RTVSPost2010Prop52
140
1.0
102
RTVSPost2010PropOp52
 70
     0
102
RTVSPost2010Prop53
 90
        2
102
RTVSPost2010PropOp53
 70
     1
102
RTVSPost2010Prop54
  1
strokes_ogs.tif
102
RTVSPost2010PropOp54
 70
     1
102
RTVSPost2010Prop55
280
     0
102
RTVSPost2010PropOp55
 70
     1
102
RTVSPost2010Prop56
140
1.0
102
RTVSPost2010PropOp56
 70
     1
102
RTVSPost2010Prop57
140
1.0
102
RTVSPost2010PropOp57
 70
     1
102
RTVSPropertyOp0
 70
     1
102
RTVSPropertyOp1
 70
     1
102
RTVSPropertyOp2
 70
     1
102
RTVSPropertyOp3
 70
     1
102
RTVSPropertyOp4
 70
     1
102
RTVSPropertyOp5
 70
     1
102
RTVSPropertyOp6
 70
     1
102
RTVSPropertyOp7
 70
     1
102
RTVSPropertyOp8
 70
     1
102
RTVSPropertyOp9
 70
     1
102
RTVSPropertyOp10
 70
     1
102
RTVSPropertyOp11
 70
     1
102
RTVSPropertyOp12
 70
     1
102
RTVSPropertyOp13
 70
     1
102
RTVSPropertyOp14
 70
     1
102
RTVSPropertyOp15
 70
     1
102
RTVSPropertyOp16
 70
     1
102
RTVSPropertyOp17
 70
     1
102
RTVSPropertyOp18
 70
     1
102
RTVSPropertyOp19
 70
     1
102
RTVSPropertyOp20
 70
     1
102
RTVSPropertyOp21
 70
     1
102
RTVSPropertyOp22
 70
     1
102
RTVSPropertyOp23
 70
     1
102
RTVSPropertyOp24
 70
     1
102
RTVSPropertyOp25
 70
     1
102
RTVSPropertyOp26
 70
     1
102
RTVSPropertyOp27
 70
     1
102
RTVSPropertyOp28
 70
     1
102
RTVSPropertyOp29
 70
     1
102
RTVSPropertyOp30
 70
     1
102
RTVSPropertyOp31
 70
     1
102
RTVSPropertyOp32
 70
     1
102
RTVSPropertyOp33
 70
     1
102
RTVSPropertyOp34
 70
     1
102
RTVSPropertyOp35
 70
     1
102
RTVSPropertyOp36
 70
     1
102
RTVSPropertyOp37
 70
     1
102
RTVSPropertyOp38
 70
     1
102
RTVSPropertyOp39
 70
     1
102
RTVSPropertyOp40
 70
     1
102
RTVSPropertyOp41
 70
     1
102
RTVSPropertyOp42
 70
     1
102
RTVSPropertyOp43
 70
     1
102
RTVSPropertyOp44
 70
     1
102
RTVSPropertyOp45
 70
     1
102
RTVSPropertyOp46
 70
     1
102
RTVSPropertyOp47
 70
     1
102
RTVSPropertyOp48
 70
     1
102
RTVSPropertyOp49
 70
     1
102
RTVSPropertyOp50
 70
     1
102
RTVSPropertyOp51
 70
     0
102
RTVSPropertyOp52
 70
     0
102
RTVSPropertyOp53
 70
     1
102
RTVSPropertyOp54
 70
     1
102
RTVSPropertyOp55
 70
     1
102
RTVSPropertyOp56
 70
     1
102
RTVSPropertyOp57
 70
     1
102
RTVSPropertyOp58
 70
     1
102
RTVSPropertyOp59
 70
     1
102
RTVSPropertyOp60
 70
     1
102
RTVSPropertyOp61
 70
     1
102
RTVSPropertyOp62
 70
     1
  0
XRECORD
  5
4E6
102
{ACAD_REACTORS
330
4E5
102
}
330
4E5
100
AcDbXrecord
280
     1
102
RTVSPost2010Prop28
280
     0
102
RTVSPost2010PropOp28
 70
     1
102
RTVSPost2010Prop29
280
     1
102
RTVSPost2010PropOp29
 70
     1
102
RTVSPost2010Prop30
280
     1
102
RTVSPost2010PropOp30
 70
     1
102
RTVSPost2010Prop31
280
     0
102
RTVSPost2010PropOp31
 70
     1
102
RTVSPost2010Prop32
280
     0
102
RTVSPost2010PropOp32
 70
     1
102
RTVSPost2010Prop33
280
     0
102
RTVSPost2010PropOp33
 70
     1
102
RTVSPost2010Prop34
280
     0
102
RTVSPost2010PropOp34
 70
     1
102
RTVSPost2010Prop35
280
     0
102
RTVSPost2010PropOp35
 70
     1
102
RTVSPost2010Prop36
280
     0
102
RTVSPost2010PropOp36
 70
     1
102
RTVSPost2010Prop37
 90
       50
102
RTVSPost2010PropOp37
 70
     1
102
RTVSPost2010Prop38
140
0.0
102
RTVSPost2010PropOp38
 70
     1
102
RTVSPost2010Prop39
140
1.0
102
RTVSPost2010PropOp39
 70
     1
102
RTVSPost2010Prop40
 90
        0
102
RTVSPost2010PropOp40
 70
     1
102
RTVSPost2010Prop41ColorIndex
 90
       18
102
RTVSPost2010Prop41ColorRGB
 90
        0
102
RTVSPost2010PropOp41
 70
     1
102
RTVSPost2010Prop42
 90
       50
102
RTVSPost2010PropOp42
 70
     1
102
RTVSPost2010Prop43
 90
        3
102
RTVSPost2010PropOp43
 70
     1
102
RTVSPost2010Prop44ColorIndex
 90
        5
102
RTVSPost2010Prop44ColorRGB
 90
      255
102
RTVSPost2010PropOp44
 70
     1
102
RTVSPost2010Prop45
280
     0
102
RTVSPost2010PropOp45
 70
     1
102
RTVSPost2010Prop46
 90
       50
102
RTVSPost2010PropOp46
 70
     1
102
RTVSPost2010Prop47
 90
       50
102
RTVSPost2010PropOp47
 70
     1
102
RTVSPost2010Prop48
 90
       50
102
RTVSPost2010PropOp48
 70
     1
102
RTVSPost2010Prop49
280
     0
102
RTVSPost2010PropOp49
 70
     1
102
RTVSPost2010Prop50
 90
       50
102
RTVSPost2010PropOp50
 70
     1
102
RTVSPost2010Prop51ColorIndex
 90
      256
102
RTVSPost2010Prop51ColorRGB
 90
-16777216
102
RTVSPost2010PropOp51
 70
     0
102
RTVSPost2010Prop52
140
1.0
102
RTVSPost2010PropOp52
 70
     0
102
RTVSPost2010Prop53
 90
        2
102
RTVSPost2010PropOp53
 70
     1
102
RTVSPost2010Prop54
  1
strokes_ogs.tif
102
RTVSPost2010PropOp54
 70
     1
102
RTVSPost2010Prop55
280
     0
102
RTVSPost2010PropOp55
 70
     1
102
RTVSPost2010Prop56
140
1.0
102
RTVSPost2010PropOp56
 70
     1
102
RTVSPost2010Prop57
140
1.0
102
RTVSPost2010PropOp57
 70
     1
102
RTVSPropertyOp0
 70
     1
102
RTVSPropertyOp1
 70
     1
102
RTVSPropertyOp2
 70
     1
102
RTVSPropertyOp3
 70
     1
102
RTVSPropertyOp4
 70
     1
102
RTVSPropertyOp5
 70
     1
102
RTVSPropertyOp6
 70
     1
102
RTVSPropertyOp7
 70
     1
102
RTVSPropertyOp8
 70
     1
102
RTVSPropertyOp9
 70
     1
102
RTVSPropertyOp10
 70
     1
102
RTVSPropertyOp11
 70
     1
102
RTVSPropertyOp12
 70
     1
102
RTVSPropertyOp13
 70
     1
102
RTVSPropertyOp14
 70
     1
102
RTVSPropertyOp15
 70
     1
102
RTVSPropertyOp16
 70
     1
102
RTVSPropertyOp17
 70
     1
102
RTVSPropertyOp18
 70
     1
102
RTVSPropertyOp19
 70
     1
102
RTVSPropertyOp20
 70
     1
102
RTVSPropertyOp21
 70
     1
102
RTVSPropertyOp22
 70
     1
102
RTVSPropertyOp23
 70
     1
102
RTVSPropertyOp24
 70
     1
102
RTVSPropertyOp25
 70
     1
102
RTVSPropertyOp26
 70
     1
102
RTVSPropertyOp27
 70
     1
102
RTVSPropertyOp28
 70
     1
102
RTVSPropertyOp29
 70
     1
102
RTVSPropertyOp30
 70
     1
102
RTVSPropertyOp31
 70
     1
102
RTVSPropertyOp32
 70
     1
102
RTVSPropertyOp33
 70
     1
102
RTVSPropertyOp34
 70
     1
102
RTVSPropertyOp35
 70
     1
102
RTVSPropertyOp36
 70
     1
102
RTVSPropertyOp37
 70
     1
102
RTVSPropertyOp38
 70
     1
102
RTVSPropertyOp39
 70
     1
102
RTVSPropertyOp40
 70
     1
102
RTVSPropertyOp41
 70
     1
102
RTVSPropertyOp42
 70
     1
102
RTVSPropertyOp43
 70
     1
102
RTVSPropertyOp44
 70
     1
102
RTVSPropertyOp45
 70
     1
102
RTVSPropertyOp46
 70
     1
102
RTVSPropertyOp47
 70
     1
102
RTVSPropertyOp48
 70
     1
102
RTVSPropertyOp49
 70
     1
102
RTVSPropertyOp50
 70
     1
102
RTVSPropertyOp51
 70
     0
102
RTVSPropertyOp52
 70
     0
102
RTVSPropertyOp53
 70
     1
102
RTVSPropertyOp54
 70
     1
102
RTVSPropertyOp55
 70
     1
102
RTVSPropertyOp56
 70
     1
102
RTVSPropertyOp57
 70
     1
102
RTVSPropertyOp58
 70
     1
102
RTVSPropertyOp59
 70
     1
102
RTVSPropertyOp60
 70
     1
102
RTVSPropertyOp61
 70
     1
102
RTVSPropertyOp62
 70
     1
  0
XRECORD
  5
4FE
102
{ACAD_REACTORS
330
4FD
102
}
330
4FD
100
AcDbXrecord
280
     1
102
RTVSPost2010Prop28
280
     0
102
RTVSPost2010PropOp28
 70
     1
102
RTVSPost2010Prop29
280
     1
102
RTVSPost2010PropOp29
 70
     1
102
RTVSPost2010Prop30
280
     1
102
RTVSPost2010PropOp30
 70
     1
102
RTVSPost2010Prop31
280
     0
102
RTVSPost2010PropOp31
 70
     1
102
RTVSPost2010Prop32
280
     0
102
RTVSPost2010PropOp32
 70
     1
102
RTVSPost2010Prop33
280
     0
102
RTVSPost2010PropOp33
 70
     1
102
RTVSPost2010Prop34
280
     0
102
RTVSPost2010PropOp34
 70
     1
102
RTVSPost2010Prop35
280
     0
102
RTVSPost2010PropOp35
 70
     1
102
RTVSPost2010Prop36
280
     0
102
RTVSPost2010PropOp36
 70
     1
102
RTVSPost2010Prop37
 90
       50
102
RTVSPost2010PropOp37
 70
     1
102
RTVSPost2010Prop38
140
0.0
102
RTVSPost2010PropOp38
 70
     1
102
RTVSPost2010Prop39
140
1.0
102
RTVSPost2010PropOp39
 70
     1
102
RTVSPost2010Prop40
 90
        0
102
RTVSPost2010PropOp40
 70
     1
102
RTVSPost2010Prop41ColorIndex
 90
       18
102
RTVSPost2010Prop41ColorRGB
 90
        0
102
RTVSPost2010PropOp41
 70
     1
102
RTVSPost2010Prop42
 90
       50
102
RTVSPost2010PropOp42
 70
     1
102
RTVSPost2010Prop43
 90
        3
102
RTVSPost2010PropOp43
 70
     1
102
RTVSPost2010Prop44ColorIndex
 90
        5
102
RTVSPost2010Prop44ColorRGB
 90
      255
102
RTVSPost2010PropOp44
 70
     1
102
RTVSPost2010Prop45
280
     0
102
RTVSPost2010PropOp45
 70
     1
102
RTVSPost2010Prop46
 90
       50
102
RTVSPost2010PropOp46
 70
     1
102
RTVSPost2010Prop47
 90
       50
102
RTVSPost2010PropOp47
 70
     1
102
RTVSPost2010Prop48
 90
       50
102
RTVSPost2010PropOp48
 70
     1
102
RTVSPost2010Prop49
280
     0
102
RTVSPost2010PropOp49
 70
     1
102
RTVSPost2010Prop50
 90
       50
102
RTVSPost2010PropOp50
 70
     1
102
RTVSPost2010Prop51ColorIndex
 90
      256
102
RTVSPost2010Prop51ColorRGB
 90
-16777216
102
RTVSPost2010PropOp51
 70
     0
102
RTVSPost2010Prop52
140
1.0
102
RTVSPost2010PropOp52
 70
     0
102
RTVSPost2010Prop53
 90
        2
102
RTVSPost2010PropOp53
 70
     1
102
RTVSPost2010Prop54
  1
strokes_ogs.tif
102
RTVSPost2010PropOp54
 70
     1
102
RTVSPost2010Prop55
280
     0
102
RTVSPost2010PropOp55
 70
     1
102
RTVSPost2010Prop56
140
1.0
102
RTVSPost2010PropOp56
 70
     1
102
RTVSPost2010Prop57
140
1.0
102
RTVSPost2010PropOp57
 70
     1
102
RTVSPropertyOp0
 70
     1
102
RTVSPropertyOp1
 70
     1
102
RTVSPropertyOp2
 70
     1
102
RTVSPropertyOp3
 70
     1
102
RTVSPropertyOp4
 70
     1
102
RTVSPropertyOp5
 70
     1
102
RTVSPropertyOp6
 70
     1
102
RTVSPropertyOp7
 70
     1
102
RTVSPropertyOp8
 70
     1
102
RTVSPropertyOp9
 70
     1
102
RTVSPropertyOp10
 70
     1
102
RTVSPropertyOp11
 70
     1
102
RTVSPropertyOp12
 70
     1
102
RTVSPropertyOp13
 70
     1
102
RTVSPropertyOp14
 70
     1
102
RTVSPropertyOp15
 70
     1
102
RTVSPropertyOp16
 70
     1
102
RTVSPropertyOp17
 70
     1
102
RTVSPropertyOp18
 70
     1
102
RTVSPropertyOp19
 70
     1
102
RTVSPropertyOp20
 70
     1
102
RTVSPropertyOp21
 70
     1
102
RTVSPropertyOp22
 70
     1
102
RTVSPropertyOp23
 70
     1
102
RTVSPropertyOp24
 70
     1
102
RTVSPropertyOp25
 70
     1
102
RTVSPropertyOp26
 70
     1
102
RTVSPropertyOp27
 70
     1
102
RTVSPropertyOp28
 70
     1
102
RTVSPropertyOp29
 70
     1
102
RTVSPropertyOp30
 70
     1
102
RTVSPropertyOp31
 70
     1
102
RTVSPropertyOp32
 70
     1
102
RTVSPropertyOp33
 70
     1
102
RTVSPropertyOp34
 70
     1
102
RTVSPropertyOp35
 70
     1
102
RTVSPropertyOp36
 70
     1
102
RTVSPropertyOp37
 70
     1
102
RTVSPropertyOp38
 70
     1
102
RTVSPropertyOp39
 70
     1
102
RTVSPropertyOp40
 70
     1
102
RTVSPropertyOp41
 70
     1
102
RTVSPropertyOp42
 70
     1
102
RTVSPropertyOp43
 70
     1
102
RTVSPropertyOp44
 70
     1
102
RTVSPropertyOp45
 70
     1
102
RTVSPropertyOp46
 70
     1
102
RTVSPropertyOp47
 70
     1
102
RTVSPropertyOp48
 70
     1
102
RTVSPropertyOp49
 70
     1
102
RTVSPropertyOp50
 70
     1
102
RTVSPropertyOp51
 70
     0
102
RTVSPropertyOp52
 70
     0
102
RTVSPropertyOp53
 70
     1
102
RTVSPropertyOp54
 70
     1
102
RTVSPropertyOp55
 70
     1
102
RTVSPropertyOp56
 70
     1
102
RTVSPropertyOp57
 70
     1
102
RTVSPropertyOp58
 70
     1
102
RTVSPropertyOp59
 70
     1
102
RTVSPropertyOp60
 70
     1
102
RTVSPropertyOp61
 70
     1
102
RTVSPropertyOp62
 70
     1
  0
ENDSEC
  0
EOF
