  0
SECTION
  2
HEADER
  9
$ACADVER
  1
AC1015
  9
$ACADMAINTVER
 70
    20
  9
$DWGCODEPAGE
  3
ANSI_932
  9
$INSBASE
 10
0.0
 20
0.0
 30
0.0
  9
$EXTMIN
 10
-450.0274637248687
 20
-673.741789319462
 30
-0.0015258207003583
  9
$EXTMAX
 10
450.0274679158201
 20
664.0758878675033
 30
0.0000000349246037
  9
$LIMMIN
 10
0.0
 20
0.0
  9
$LIMMAX
 10
0.0
 20
0.0
  9
$ORTHOMODE
 70
     0
  9
$REGENMODE
 70
     1
  9
$FILLMODE
 70
     1
  9
$QTEXTMODE
 70
     0
  9
$MIRRTEXT
 70
     1
  9
$LTSCALE
 40
25.4
  9
$ATTMODE
 70
     1
  9
$TEXTSIZE
 40
0.0
  9
$TRACEWID
 40
1.0
  9
$TEXTSTYLE
  7
STANDARD
  9
$CLAYER
  8
DATA
  9
$CELTYPE
  6
ByLayer
  9
$CECOLOR
 62
   256
  9
$CELTSCALE
 40
1.0
  9
$DISPSILH
 70
     0
  9
$DIMSCALE
 40
1.0
  9
$DIMASZ
 40
0.18
  9
$DIMEXO
 40
0.0625
  9
$DIMDLI
 40
0.38
  9
$DIMRND
 40
0.0
  9
$DIMDLE
 40
0.0
  9
$DIMEXE
 40
0.18
  9
$DIMTP
 40
0.0
  9
$DIMTM
 40
0.0
  9
$DIMTXT
 40
0.18
  9
$DIMCEN
 40
0.09
  9
$DIMTSZ
 40
0.0
  9
$DIMTOL
 70
     0
  9
$DIMLIM
 70
     0
  9
$DIMTIH
 70
     1
  9
$DIMTOH
 70
     1
  9
$DIMSE1
 70
     0
  9
$DIMSE2
 70
     0
  9
$DIMTAD
 70
     0
  9
$DIMZIN
 70
     0
  9
$DIMBLK
  1

  9
$DIMASO
 70
     1
  9
$DIMSHO
 70
     1
  9
$DIMPOST
  1

  9
$DIMAPOST
  1

  9
$DIMALT
 70
     0
  9
$DIMALTD
 70
     2
  9
$DIMALTF
 40
25.4
  9
$DIMLFAC
 40
1.0
  9
$DIMTOFL
 70
     0
  9
$DIMTVP
 40
0.0
  9
$DIMTIX
 70
     0
  9
$DIMSOXD
 70
     0
  9
$DIMSAH
 70
     0
  9
$DIMBLK1
  1

  9
$DIMBLK2
  1

  9
$DIMSTYLE
  2
STANDARD
  9
$DIMCLRD
 70
     0
  9
$DIMCLRE
 70
     0
  9
$DIMCLRT
 70
     0
  9
$DIMTFAC
 40
1.0
  9
$DIMGAP
 40
0.09
  9
$DIMJUST
 70
     0
  9
$DIMSD1
 70
     0
  9
$DIMSD2
 70
     0
  9
$DIMTOLJ
 70
     1
  9
$DIMTZIN
 70
     0
  9
$DIMALTZ
 70
     0
  9
$DIMALTTZ
 70
     0
  9
$DIMUPT
 70
     0
  9
$DIMDEC
 70
     4
  9
$DIMTDEC
 70
     4
  9
$DIMALTU
 70
     2
  9
$DIMALTTD
 70
     2
  9
$DIMTXSTY
  7
STANDARD
  9
$DIMAUNIT
 70
     0
  9
$DIMADEC
 70
     0
  9
$DIMALTRND
 40
0.0
  9
$DIMAZIN
 70
     0
  9
$DIMDSEP
 70
    46
  9
$DIMATFIT
 70
     3
  9
$DIMFRAC
 70
     0
  9
$DIMLDRBLK
  1

  9
$DIMLUNIT
 70
     2
  9
$DIMLWD
 70
    -2
  9
$DIMLWE
 70
    -2
  9
$DIMTMOVE
 70
     0
  9
$LUNITS
 70
     2
  9
$LUPREC
 70
     4
  9
$SKETCHINC
 40
0.1
  9
$FILLETRAD
 40
0.0
  9
$AUNITS
 70
     0
  9
$AUPREC
 70
     0
  9
$MENU
  1
acad
  9
$ELEVATION
 40
0.0
  9
$PELEVATION
 40
0.0
  9
$THICKNESS
 40
0.0
  9
$LIMCHECK
 70
     0
  9
$CHAMFERA
 40
0.0
  9
$CHAMFERB
 40
0.0
  9
$CHAMFERC
 40
0.0
  9
$CHAMFERD
 40
0.0
  9
$SKPOLY
 70
     0
  9
$TDCREATE
 40
2457865.487881945
  9
$TDUCREATE
 40
2457865.112881945
  9
$TDUPDATE
 40
2457865.491342593
  9
$TDUUPDATE
 40
2457865.116342592
  9
$TDINDWG
 40
0.0003009259
  9
$TDUSRTIMER
 40
0.0003009259
  9
$USRTIMER
 70
     1
  9
$ANGBASE
 50
0.0
  9
$ANGDIR
 70
     0
  9
$PDMODE
 70
     1
  9
$PDSIZE
 40
-2.0
  9
$PLINEWID
 40
0.0
  9
$SPLFRAME
 70
     0
  9
$SPLINETYPE
 70
     6
  9
$SPLINESEGS
 70
     8
  9
$HANDSEED
  5
433
  9
$SURFTAB1
 70
     6
  9
$SURFTAB2
 70
     6
  9
$SURFTYPE
 70
     6
  9
$SURFU
 70
     6
  9
$SURFV
 70
     6
  9
$UCSBASE
  2

  9
$UCSNAME
  2

  9
$UCSORG
 10
0.0
 20
0.0
 30
0.0
  9
$UCSXDIR
 10
1.0
 20
0.0
 30
0.0
  9
$UCSYDIR
 10
0.0
 20
1.0
 30
0.0
  9
$UCSORTHOREF
  2

  9
$UCSORTHOVIEW
 70
     0
  9
$UCSORGTOP
 10
0.0
 20
0.0
 30
0.0
  9
$UCSORGBOTTOM
 10
0.0
 20
0.0
 30
0.0
  9
$UCSORGLEFT
 10
0.0
 20
0.0
 30
0.0
  9
$UCSORGRIGHT
 10
0.0
 20
0.0
 30
0.0
  9
$UCSORGFRONT
 10
0.0
 20
0.0
 30
0.0
  9
$UCSORGBACK
 10
0.0
 20
0.0
 30
0.0
  9
$PUCSBASE
  2

  9
$PUCSNAME
  2

  9
$PUCSORG
 10
0.0
 20
0.0
 30
0.0
  9
$PUCSXDIR
 10
1.0
 20
0.0
 30
0.0
  9
$PUCSYDIR
 10
0.0
 20
1.0
 30
0.0
  9
$PUCSORTHOREF
  2

  9
$PUCSORTHOVIEW
 70
     0
  9
$PUCSORGTOP
 10
0.0
 20
0.0
 30
0.0
  9
$PUCSORGBOTTOM
 10
0.0
 20
0.0
 30
0.0
  9
$PUCSORGLEFT
 10
0.0
 20
0.0
 30
0.0
  9
$PUCSORGRIGHT
 10
0.0
 20
0.0
 30
0.0
  9
$PUCSORGFRONT
 10
0.0
 20
0.0
 30
0.0
  9
$PUCSORGBACK
 10
0.0
 20
0.0
 30
0.0
  9
$USERI1
 70
     0
  9
$USERI2
 70
     0
  9
$USERI3
 70
     0
  9
$USERI4
 70
     0
  9
$USERI5
 70
     0
  9
$USERR1
 40
0.0
  9
$USERR2
 40
0.0
  9
$USERR3
 40
0.0
  9
$USERR4
 40
0.0
  9
$USERR5
 40
0.0
  9
$WORLDVIEW
 70
     1
  9
$SHADEDGE
 70
     3
  9
$SHADEDIF
 70
    70
  9
$TILEMODE
 70
     1
  9
$MAXACTVP
 70
    64
  9
$PINSBASE
 10
0.0
 20
0.0
 30
0.0
  9
$PLIMCHECK
 70
     0
  9
$PEXTMIN
 10
1.000000000000000E+20
 20
1.000000000000000E+20
 30
1.000000000000000E+20
  9
$PEXTMAX
 10
-1.000000000000000E+20
 20
-1.000000000000000E+20
 30
-1.000000000000000E+20
  9
$PLIMMIN
 10
0.0
 20
0.0
  9
$PLIMMAX
 10
12.0
 20
9.0
  9
$UNITMODE
 70
     0
  9
$VISRETAIN
 70
     0
  9
$PLINEGEN
 70
     1
  9
$PSLTSCALE
 70
     0
  9
$TREEDEPTH
 70
  3020
  9
$CMLSTYLE
  2
Standard
  9
$CMLJUST
 70
     0
  9
$CMLSCALE
 40
1.0
  9
$PROXYGRAPHICS
 70
     1
  9
$MEASUREMENT
 70
     0
  9
$CELWEIGHT
370
    -1
  9
$ENDCAPS
280
     0
  9
$JOINSTYLE
280
     0
  9
$LWDISPLAY
290
     0
  9
$INSUNITS
 70
     0
  9
$HYPERLINKBASE
  1

  9
$STYLESHEET
  1

  9
$XEDIT
290
     1
  9
$CEPSNTYPE
380
     0
  9
$PSTYLEMODE
290
     1
  9
$FINGERPRINTGUID
  2
{F82D8BA0-429A-2D44-BFC6-81CF61D7151C}
  9
$VERSIONGUID
  2
{05298341-CA9A-7243-9C4F-FC2C7897855E}
  9
$EXTNAMES
290
     1
  9
$PSVPSCALE
 40
0.0
  9
$OLESTARTUP
290
     0
  0
ENDSEC
  0
SECTION
  2
CLASSES
  0
CLASS
  1
ACDBDICTIONARYWDFLT
  2
AcDbDictionaryWithDefault
  3
ObjectDBX Classes
 90
        0
280
     0
281
     0
  0
CLASS
  1
MATERIAL
  2
AcDbMaterial
  3
ObjectDBX Classes
 90
     1153
280
     0
281
     0
  0
CLASS
  1
VISUALSTYLE
  2
AcDbVisualStyle
  3
ObjectDBX Classes
 90
     4095
280
     0
281
     0
  0
CLASS
  1
SCALE
  2
AcDbScale
  3
ObjectDBX Classes
 90
     1153
280
     0
281
     0
  0
CLASS
  1
TABLESTYLE
  2
AcDbTableStyle
  3
ObjectDBX Classes
 90
     4095
280
     0
281
     0
  0
CLASS
  1
MLEADERSTYLE
  2
AcDbMLeaderStyle
  3
ACDB_MLEADERSTYLE_CLASS
 90
     4095
280
     0
281
     0
  0
CLASS
  1
ACDBSECTIONVIEWSTYLE
  2
AcDbSectionViewStyle
  3
ObjectDBX Classes
 90
     1025
280
     0
281
     0
  0
CLASS
  1
ACDBDETAILVIEWSTYLE
  2
AcDbDetailViewStyle
  3
ObjectDBX Classes
 90
     1025
280
     0
281
     0
  0
CLASS
  1
DICTIONARYVAR
  2
AcDbDictionaryVar
  3
ObjectDBX Classes
 90
        0
280
     0
281
     0
  0
CLASS
  1
CELLSTYLEMAP
  2
AcDbCellStyleMap
  3
ObjectDBX Classes
 90
     1152
280
     0
281
     0
  0
CLASS
  1
ACDBPLACEHOLDER
  2
AcDbPlaceHolder
  3
ObjectDBX Classes
 90
        0
280
     0
281
     0
  0
CLASS
  1
LAYOUT
  2
AcDbLayout
  3
ObjectDBX Classes
 90
        0
280
     0
281
     0
  0
ENDSEC
  0
SECTION
  2
TABLES
  0
TABLE
  2
VPORT
  5
35A
330
0
100
AcDbSymbolTable
 70
     1
  0
VPORT
  5
3C6
330
35A
100
AcDbSymbolTableRecord
100
AcDbViewportTableRecord
  2
*ACTIVE
 70
     0
 10
0.0
 20
0.0
 11
1.0
 21
1.0
 12
0.0000020954755655
 22
-4.832950725979344
 13
0.0
 23
0.0
 14
1.0
 24
1.0
 15
0.0
 25
0.0
 16
0.0
 26
0.0
 36
1.0
 17
0.0
 27
0.0
 37
0.0
 40
1345.108236735668
 41
2.309090909090909
 42
50.0
 43
0.0
 44
0.0
 50
0.0
 51
0.0
 71
     0
 72
  2000
 73
     1
 74
     1
 75
     0
 76
     0
 77
     0
 78
     0
281
     0
 65
     1
110
0.0
120
0.0
130
0.0
111
1.0
121
0.0
131
0.0
112
0.0
122
1.0
132
0.0
 79
     0
146
0.0
1001
ACAD_NAV_VCDISPLAY
1070
     3
  0
ENDTAB
  0
TABLE
  2
LTYPE
  5
357
330
0
100
AcDbSymbolTable
 70
    11
  0
LTYPE
  5
3AC
330
357
100
AcDbSymbolTableRecord
100
AcDbLinetypeTableRecord
  2
ByBlock
 70
     0
  3

 72
    65
 73
     0
 40
0.0
  0
LTYPE
  5
3AD
330
357
100
AcDbSymbolTableRecord
100
AcDbLinetypeTableRecord
  2
ByLayer
 70
     0
  3

 72
    65
 73
     0
 40
0.0
  0
LTYPE
  5
3AE
330
357
100
AcDbSymbolTableRecord
100
AcDbLinetypeTableRecord
  2
CONTINUOUS
 70
     0
  3
Solid line
 72
    65
 73
     0
 40
0.0
  0
LTYPE
  5
3C7
330
357
100
AcDbSymbolTableRecord
100
AcDbLinetypeTableRecord
  2
STYLE_01
 70
     0
  3

 72
    65
 73
     2
 40
0.4166412353515625
 49
0.208282470703125
 74
     0
 49
-0.2083587646484375
 74
     0
  0
ENDTAB
  0
TABLE
  2
LAYER
  5
354
330
0
100
AcDbSymbolTable
 70
     6
  0
LAYER
  5
3A6
102
{ACAD_XDICTIONARY
360
3DB
102
}
330
354
100
AcDbSymbolTableRecord
100
AcDbLayerTableRecord
  2
0
 70
     0
 62
     7
  6
CONTINUOUS
370
    -3
390
361
  0
LAYER
  5
3C5
102
{ACAD_XDICTIONARY
360
3DD
102
}
330
354
100
AcDbSymbolTableRecord
100
AcDbLayerTableRecord
  2
DATA
 70
     0
 62
     7
  6
CONTINUOUS
370
    -3
390
361
  0
LAYER
  5
3D1
102
{ACAD_XDICTIONARY
360
3DF
102
}
330
354
100
AcDbSymbolTableRecord
100
AcDbLayerTableRecord
  2
HIBINO-BASE
 70
     0
 62
     7
  6
CONTINUOUS
370
    -3
390
361
  0
LAYER
  5
3D2
102
{ACAD_XDICTIONARY
360
3E1
102
}
330
354
100
AcDbSymbolTableRecord
100
AcDbLayerTableRecord
  2
PATTERN_FILL
 70
     0
 62
     7
  6
CONTINUOUS
370
    -3
390
361
  0
LAYER
  5
3D3
102
{ACAD_XDICTIONARY
360
3E3
102
}
330
354
100
AcDbSymbolTableRecord
100
AcDbLayerTableRecord
  2
SPEC
 70
     0
 62
     7
  6
CONTINUOUS
370
    -3
390
361
  0
LAYER
  5
3D4
102
{ACAD_XDICTIONARY
360
3E5
102
}
330
354
100
AcDbSymbolTableRecord
100
AcDbLayerTableRecord
  2
DIMNSIONS
 70
     0
 62
     7
  6
CONTINUOUS
370
    -3
390
361
  0
ENDTAB
  0
TABLE
  2
STYLE
  5
355
330
0
100
AcDbSymbolTable
 70
     3
  0
STYLE
  5
3A7
330
355
100
AcDbSymbolTableRecord
100
AcDbTextStyleTableRecord
  2
STANDARD
 70
     0
 40
0.0
 41
1.0
 50
0.0
 71
     0
 42
0.0
  3
txt
  4
BIGFONT.SHX
  0
ENDTAB
  0
TABLE
  2
VIEW
  5
358
330
0
100
AcDbSymbolTable
 70
     0
  0
ENDTAB
  0
TABLE
  2
UCS
  5
359
330
0
100
AcDbSymbolTable
 70
     0
  0
ENDTAB
  0
TABLE
  2
APPID
  5
35B
330
0
100
AcDbSymbolTable
 70
     4
  0
APPID
  5
3A8
330
35B
100
AcDbSymbolTableRecord
100
AcDbRegAppTableRecord
  2
ACAD
 70
     0
  0
APPID
  5
3AF
330
35B
100
AcDbSymbolTableRecord
100
AcDbRegAppTableRecord
  2
AcadAnnotative
 70
     0
  0
APPID
  5
3F1
330
35B
100
AcDbSymbolTableRecord
100
AcDbRegAppTableRecord
  2
ACAD_NAV_VCDISPLAY
 70
     0
  0
APPID
  5
42A
330
35B
100
AcDbSymbolTableRecord
100
AcDbRegAppTableRecord
  2
ACAD_MLEADERVER
 70
     0
  0
ENDTAB
  0
TABLE
  2
DIMSTYLE
  5
35C
330
0
100
AcDbSymbolTable
 70
     2
100
AcDbDimStyleTable
 71
     0
  0
DIMSTYLE
105
3A9
330
35C
100
AcDbSymbolTableRecord
100
AcDbDimStyleTableRecord
  2
STANDARD
 70
     0
279
     2
340
3A7
  0
ENDTAB
  0
TABLE
  2
BLOCK_RECORD
  5
353
330
0
100
AcDbSymbolTable
 70
     0
  0
BLOCK_RECORD
  5
3C1
330
353
100
AcDbSymbolTableRecord
100
AcDbBlockTableRecord
  2
*Model_Space
340
3C4
  0
BLOCK_RECORD
  5
3BD
330
353
100
AcDbSymbolTableRecord
100
AcDbBlockTableRecord
  2
*Paper_Space
340
3C0
  0
ENDTAB
  0
ENDSEC
  0
SECTION
  2
BLOCKS
  0
BLOCK
  5
3C2
330
3C1
100
AcDbEntity
  8
0
100
AcDbBlockBegin
  2
*Model_Space
 70
     0
 10
0.0
 20
0.0
 30
0.0
  3
*Model_Space
  1

  0
ENDBLK
  5
3C3
330
3C1
100
AcDbEntity
  8
0
100
AcDbBlockEnd
  0
BLOCK
  5
3BE
330
3BD
100
AcDbEntity
 67
     1
  8
0
100
AcDbBlockBegin
  2
*Paper_Space
 70
     0
 10
0.0
 20
0.0
 30
0.0
  3
*Paper_Space
  1

  0
ENDBLK
  5
3BF
330
3BD
100
AcDbEntity
 67
     1
  8
0
100
AcDbBlockEnd
  0
ENDSEC
  0
SECTION
  2
ENTITIES
  0
LINE
  5
2D
330
3C1
100
AcDbEntity
  8
HIBINO-BASE
  6
Continuous
 62
     7
100
AcDbLine
 10
-450.0
 20
664.0351411111111
 30
0.0
 11
450.0
 21
664.0351411111111
 31
0.0
  0
LINE
  5
2E
330
3C1
100
AcDbEntity
  8
HIBINO-BASE
  6
Continuous
 62
     7
100
AcDbLine
 10
450.0
 20
-635.9648588888888
 30
0.0
 11
-450.0
 21
-635.9648588888888
 31
0.0
  0
LINE
  5
2F
330
3C1
100
AcDbEntity
  8
HIBINO-BASE
  6
Continuous
 62
     7
100
AcDbLine
 10
-450.0
 20
-635.9648588888888
 30
0.0
 11
-450.0
 21
664.0351411111111
 31
0.0
  0
LINE
  5
30
330
3C1
100
AcDbEntity
  8
HIBINO-BASE
  6
Continuous
 62
     7
100
AcDbLine
 10
450.0
 20
664.0351411111111
 30
0.0
 11
450.0
 21
-635.9648588888888
 31
0.0
  0
LINE
  5
31
330
3C1
100
AcDbEntity
  8
HIBINO-BASE
  6
Continuous
 62
     7
100
AcDbLine
 10
0.0000000000000355
 20
-523.4648588888888
 30
0.0
 11
450.0
 21
-523.4648588888888
 31
0.0
  0
LINE
  5
32
330
3C1
100
AcDbEntity
  8
HIBINO-BASE
  6
Continuous
 62
     7
100
AcDbLine
 10
0.0000000000000355
 20
-635.9648588888888
 30
0.0
 11
0.0000000000000355
 21
-523.4648588888888
 31
0.0
  0
TEXT
  5
33
330
3C1
100
AcDbEntity
  8
HIBINO-BASE
 62
     7
100
AcDbText
 10
4.500000000000063
 20
-536.0083255555553
 30
0.0
 40
8.144205729166666
  1
NOTE
 41
0.7
 11
4.500000000000063
 21
-527.8641198263888
 31
0.0
100
AcDbText
 73
     3
  0
LINE
  5
34
330
3C1
100
AcDbEntity
  8
HIBINO-BASE
  6
Continuous
 62
     7
100
AcDbLine
 10
175.0000000000001
 20
-635.9648588888888
 30
0.0
 11
175.0000000000001
 21
-523.4648588888888
 31
0.0
  0
TEXT
  5
35
330
3C1
100
AcDbEntity
  8
HIBINO-BASE
 62
     7
100
AcDbText
 10
179.5
 20
-536.0083255555553
 30
0.0
 40
8.144205729166666
  1
TITLE
 41
0.7
 11
179.5
 21
-527.8641198263888
 31
0.0
100
AcDbText
 73
     3
  0
LINE
  5
36
330
3C1
100
AcDbEntity
  8
HIBINO-BASE
  6
Continuous
 62
     7
100
AcDbLine
 10
0.0000000000000355
 20
-585.9648588888888
 30
0.0
 11
450.0
 21
-585.9648588888888
 31
0.0
  0
TEXT
  5
37
330
3C1
100
AcDbEntity
  8
HIBINO-BASE
 62
     7
100
AcDbText
 10
242.0
 20
-598.2267255555553
 30
0.0
 40
8.144205729166666
  1
DRAWN
 41
0.7
 11
242.0
 21
-590.0825198263887
 31
0.0
100
AcDbText
 73
     3
  0
TEXT
  5
38
330
3C1
100
AcDbEntity
  8
HIBINO-BASE
 62
     7
100
AcDbText
 10
117.0
 20
-598.2267255555553
 30
0.0
 40
8.144205729166666
  1
DATE
 41
0.7
 11
117.0
 21
-590.0825198263887
 31
0.0
100
AcDbText
 73
     3
  0
TEXT
  5
39
330
3C1
100
AcDbEntity
  8
HIBINO-BASE
 62
     7
100
AcDbText
 10
67.0
 20
-598.2267255555553
 30
0.0
 40
8.144205729166666
  1
SCALE
 41
0.7
 11
67.0
 21
-590.0825198263887
 31
0.0
100
AcDbText
 73
     3
  0
TEXT
  5
3A
330
3C1
100
AcDbEntity
  8
HIBINO-BASE
 62
     7
100
AcDbText
 10
179.5
 20
-598.2267255555553
 30
0.0
 40
8.144205729166666
  1
DESIGN
 41
0.7
 11
179.5
 21
-590.0825198263887
 31
0.0
100
AcDbText
 73
     3
  0
TEXT
  5
3B
330
3C1
100
AcDbEntity
  8
HIBINO-BASE
 62
     7
100
AcDbText
 10
367.0
 20
-598.2267255555553
 30
0.0
 40
8.144205729166666
  1
DRAWING NO.
 41
0.7
 11
367.0
 21
-590.0825198263887
 31
0.0
100
AcDbText
 73
     3
  0
TEXT
  5
3C
330
3C1
100
AcDbEntity
  8
HIBINO-BASE
 62
     7
100
AcDbText
 10
304.4999999999999
 20
-598.2267255555553
 30
0.0
 40
8.144205729166666
  1
CHECK
 41
0.7
 11
304.4999999999999
 21
-590.0825198263887
 31
0.0
100
AcDbText
 73
     3
  0
LINE
  5
3D
330
3C1
100
AcDbEntity
  8
HIBINO-BASE
  6
Continuous
 62
     7
100
AcDbLine
 10
71.87500000000001
 20
-629.7148588888888
 30
0.0
 11
90.62500000000012
 21
-610.9648588888888
 31
0.0
  0
TEXT
  5
3E
330
3C1
100
AcDbEntity
  8
HIBINO-BASE
 62
     7
100
AcDbText
 10
68.75000000000001
 20
-616.5095755555555
 30
0.0
 40
8.144205729166666
  1
1
 41
0.7
 11
68.75000000000001
 21
-608.3653698263888
 31
0.0
100
AcDbText
 73
     3
  0
LINE
  5
3F
330
3C1
100
AcDbEntity
  8
HIBINO-BASE
  6
Continuous
 62
     7
100
AcDbLine
 10
62.50000000000003
 20
-635.9648588888888
 30
0.0
 11
62.50000000000003
 21
-585.9648588888888
 31
0.0
  0
LINE
  5
40
330
3C1
100
AcDbEntity
  8
HIBINO-BASE
  6
Continuous
 62
     7
100
AcDbLine
 10
112.4999999999999
 20
-635.9648588888888
 30
0.0
 11
112.4999999999999
 21
-585.9648588888888
 31
0.0
  0
LINE
  5
41
330
3C1
100
AcDbEntity
  8
HIBINO-BASE
  6
Continuous
 62
     7
100
AcDbLine
 10
237.5
 20
-585.9648588888888
 30
0.0
 11
237.5
 21
-635.9648588888888
 31
0.0
  0
LINE
  5
42
330
3C1
100
AcDbEntity
  8
HIBINO-BASE
  6
Continuous
 62
     7
100
AcDbLine
 10
362.5
 20
-585.9648588888888
 30
0.0
 11
362.5
 21
-635.9648588888888
 31
0.0
  0
LINE
  5
43
330
3C1
100
AcDbEntity
  8
HIBINO-BASE
  6
Continuous
 62
     7
100
AcDbLine
 10
300.0
 20
-635.9648588888888
 30
0.0
 11
300.0
 21
-585.9648588888888
 31
0.0
  0
TEXT
  5
44
330
3C1
100
AcDbEntity
  8
HIBINO-BASE
 62
     7
100
AcDbText
 10
116.7827000000001
 20
-621.6466255555554
 30
0.0
 40
8.144205729166666
  1
'17.03.
 41
0.7
 11
116.7827000000001
 21
-613.5024198263887
 31
0.0
100
AcDbText
 73
     3
  0
TEXT
  5
45
330
3C1
100
AcDbEntity
  8
HIBINO-BASE
 62
     7
100
AcDbText
 10
87.50000000000005
 20
-625.8845755555555
 30
0.0
 40
8.144205729166666
  1
5
 41
0.7
 11
87.50000000000005
 21
-617.7403698263888
 31
0.0
100
AcDbText
 73
     3
  0
TEXT
  5
46
330
3C1
100
AcDbEntity
  8
HIBINO-BASE
 62
     7
100
AcDbText
 10
245.0290500551731
 20
-621.6466255555554
 30
0.0
 40
8.144205729166666
  1
N.Sasaki
 41
0.7
 11
245.0290500551731
 21
-613.5024198263887
 31
0.0
100
AcDbText
 73
     3
  0
TEXT
  5
47
330
3C1
100
AcDbEntity
  8
HIBINO-BASE
 62
     7
100
AcDbText
 10
19.4166666666668
 20
-626.0848588888888
 30
0.0
 40
16.28841145833333
  1
A4
 41
0.7
 11
19.4166666666668
 21
-609.7964474305555
 31
0.0
100
AcDbText
 73
     3
  0
TEXT
  5
48
330
3C1
100
AcDbEntity
  8
HIBINO-BASE
 62
     7
100
AcDbText
 10
4.791666666666678
 20
-599.0621338888886
 30
0.0
 40
8.144205729166666
  1
PAPER SIZE
 41
0.7
 11
4.791666666666679
 21
-590.917928159722
 31
0.0
100
AcDbText
 73
     3
  0
TEXT
  5
49
330
3C1
100
AcDbEntity
  8
HIBINO-BASE
 62
     7
100
AcDbText
 10
-414.0799999999999
 20
-667.8424338888888
 30
0.0
 40
17.64577907986111
  1
Hibino-Intersound Corporation
 41
0.7
 11
-414.0799999999999
 21
-650.1966548090276
 31
0.0
100
AcDbText
 73
     3
  0
TEXT
  5
4A
330
3C1
100
AcDbEntity
  8
HIBINO-BASE
 62
     7
100
AcDbText
 10
70.12167083621566
 20
-667.8424338888888
 30
0.0
 40
17.64577907986111
  1
ヒビノインターサウンド株式会社
 41
0.7
 11
70.12167083621566
 21
-650.1966548090276
 31
0.0
100
AcDbText
 73
     3
  0
LINE
  5
4B
330
3C1
100
AcDbEntity
  8
PATTERN_FILL
  6
Continuous
 62
     7
100
AcDbLine
 10
-197.8018604149363
 20
-221.8098837075613
 30
0.0
 11
-197.5
 21
-221.5080232926252
 31
0.0
  0
LINE
  5
4C
330
3C1
100
AcDbEntity
  8
PATTERN_FILL
  6
Continuous
 62
     7
100
AcDbLine
 10
-199.1018604149362
 20
-221.8098837075613
 30
0.0
 11
-197.5
 21
-220.2080232926252
 31
0.0
  0
LINE
  5
4D
330
3C1
100
AcDbEntity
  8
PATTERN_FILL
  6
Continuous
 62
     7
100
AcDbLine
 10
-200.4018604149362
 20
-221.8098837075613
 30
0.0
 11
-197.5
 21
-218.9080232926251
 31
0.0
  0
LINE
  5
4E
330
3C1
100
AcDbEntity
  8
PATTERN_FILL
  6
Continuous
 62
     7
100
AcDbLine
 10
-201.7018604149361
 20
-221.8098837075613
 30
0.0
 11
-197.5
 21
-217.608023292625
 31
0.0
  0
LINE
  5
4F
330
3C1
100
AcDbEntity
  8
PATTERN_FILL
  6
Continuous
 62
     7
100
AcDbLine
 10
-202.5
 20
-221.3080232926251
 30
0.0
 11
-197.5
 21
-216.3080232926251
 31
0.0
  0
LINE
  5
50
330
3C1
100
AcDbEntity
  8
PATTERN_FILL
  6
Continuous
 62
     7
100
AcDbLine
 10
-202.5
 20
-220.0080232926251
 30
0.0
 11
-197.5
 21
-215.0080232926252
 31
0.0
  0
LINE
  5
51
330
3C1
100
AcDbEntity
  8
PATTERN_FILL
  6
Continuous
 62
     7
100
AcDbLine
 10
-202.5
 20
-218.7080232926252
 30
0.0
 11
-197.5
 21
-213.7080232926252
 31
0.0
  0
LINE
  5
52
330
3C1
100
AcDbEntity
  8
PATTERN_FILL
  6
Continuous
 62
     7
100
AcDbLine
 10
-202.5
 20
-217.4080232926252
 30
0.0
 11
-197.5
 21
-212.4080232926251
 31
0.0
  0
LINE
  5
53
330
3C1
100
AcDbEntity
  8
PATTERN_FILL
  6
Continuous
 62
     7
100
AcDbLine
 10
-202.5
 20
-216.108023292625
 30
0.0
 11
-197.5
 21
-211.1080232926251
 31
0.0
  0
LINE
  5
54
330
3C1
100
AcDbEntity
  8
PATTERN_FILL
  6
Continuous
 62
     7
100
AcDbLine
 10
-202.5
 20
-214.8080232926251
 30
0.0
 11
-197.5
 21
-209.8080232926251
 31
0.0
  0
LINE
  5
55
330
3C1
100
AcDbEntity
  8
PATTERN_FILL
  6
Continuous
 62
     7
100
AcDbLine
 10
-202.5
 20
-213.5080232926251
 30
0.0
 11
-197.5
 21
-208.5080232926252
 31
0.0
  0
LINE
  5
56
330
3C1
100
AcDbEntity
  8
PATTERN_FILL
  6
Continuous
 62
     7
100
AcDbLine
 10
-202.5
 20
-212.2080232926252
 30
0.0
 11
-197.5
 21
-207.2080232926252
 31
0.0
  0
LINE
  5
57
330
3C1
100
AcDbEntity
  8
PATTERN_FILL
  6
Continuous
 62
     7
100
AcDbLine
 10
-202.5
 20
-210.9080232926251
 30
0.0
 11
-197.5
 21
-205.9080232926251
 31
0.0
  0
LINE
  5
58
330
3C1
100
AcDbEntity
  8
PATTERN_FILL
  6
Continuous
 62
     7
100
AcDbLine
 10
-202.5
 20
-209.608023292625
 30
0.0
 11
-197.5
 21
-204.6080232926251
 31
0.0
  0
LINE
  5
59
330
3C1
100
AcDbEntity
  8
PATTERN_FILL
  6
Continuous
 62
     7
100
AcDbLine
 10
-202.5
 20
-208.3080232926251
 30
0.0
 11
-197.5
 21
-203.3080232926252
 31
0.0
  0
LINE
  5
5A
330
3C1
100
AcDbEntity
  8
PATTERN_FILL
  6
Continuous
 62
     7
100
AcDbLine
 10
-202.5
 20
-207.0080232926251
 30
0.0
 11
-197.5
 21
-202.0080232926252
 31
0.0
  0
LINE
  5
5B
330
3C1
100
AcDbEntity
  8
PATTERN_FILL
  6
Continuous
 62
     7
100
AcDbLine
 10
-202.5
 20
-205.7080232926252
 30
0.0
 11
-197.5
 21
-200.7080232926252
 31
0.0
  0
LINE
  5
5C
330
3C1
100
AcDbEntity
  8
PATTERN_FILL
  6
Continuous
 62
     7
100
AcDbLine
 10
-202.5
 20
-204.4080232926251
 30
0.0
 11
-197.5
 21
-199.4080232926251
 31
0.0
  0
LINE
  5
5D
330
3C1
100
AcDbEntity
  8
PATTERN_FILL
  6
Continuous
 62
     7
100
AcDbLine
 10
-202.5
 20
-203.1080232926251
 30
0.0
 11
-197.5
 21
-198.1080232926251
 31
0.0
  0
LINE
  5
5E
330
3C1
100
AcDbEntity
  8
PATTERN_FILL
  6
Continuous
 62
     7
100
AcDbLine
 10
-202.5
 20
-201.8080232926252
 30
0.0
 11
-197.5
 21
-196.8080232926252
 31
0.0
  0
LINE
  5
5F
330
3C1
100
AcDbEntity
  8
PATTERN_FILL
  6
Continuous
 62
     7
100
AcDbLine
 10
-202.5
 20
-200.5080232926252
 30
0.0
 11
-197.5
 21
-195.5080232926251
 31
0.0
  0
LINE
  5
60
330
3C1
100
AcDbEntity
  8
PATTERN_FILL
  6
Continuous
 62
     7
100
AcDbLine
 10
-202.5
 20
-199.2080232926252
 30
0.0
 11
-197.5
 21
-194.2080232926252
 31
0.0
  0
LINE
  5
61
330
3C1
100
AcDbEntity
  8
PATTERN_FILL
  6
Continuous
 62
     7
100
AcDbLine
 10
-202.5
 20
-197.908023292625
 30
0.0
 11
-197.5
 21
-192.9080232926251
 31
0.0
  0
LINE
  5
62
330
3C1
100
AcDbEntity
  8
PATTERN_FILL
  6
Continuous
 62
     7
100
AcDbLine
 10
-202.5
 20
-196.6080232926251
 30
0.0
 11
-198.4919767074159
 21
-192.600000000041
 31
0.0
  0
LINE
  5
63
330
3C1
100
AcDbEntity
  8
PATTERN_FILL
  6
Continuous
 62
     7
100
AcDbLine
 10
-202.5
 20
-195.3080232926252
 30
0.0
 11
-199.791976707416
 21
-192.600000000041
 31
0.0
  0
LINE
  5
64
330
3C1
100
AcDbEntity
  8
PATTERN_FILL
  6
Continuous
 62
     7
100
AcDbLine
 10
-202.5
 20
-194.0080232926251
 30
0.0
 11
-201.0919767074159
 21
-192.600000000041
 31
0.0
  0
LINE
  5
65
330
3C1
100
AcDbEntity
  8
PATTERN_FILL
  6
Continuous
 62
     7
100
AcDbLine
 10
-201.3519931590094
 20
-221.8098837075613
 30
0.0
 11
-202.5
 21
-220.6618768665706
 31
0.0
  0
LINE
  5
66
330
3C1
100
AcDbEntity
  8
PATTERN_FILL
  6
Continuous
 62
     7
100
AcDbLine
 10
-200.0
 20
-221.8618768665707
 30
0.0
 11
-202.5
 21
-219.3618768665707
 31
0.0
  0
LINE
  5
67
330
3C1
100
AcDbEntity
  8
PATTERN_FILL
  6
Continuous
 62
     7
100
AcDbLine
 10
-198.7519931590093
 20
-221.8098837075613
 30
0.0
 11
-202.5
 21
-218.0618768665707
 31
0.0
  0
LINE
  5
68
330
3C1
100
AcDbEntity
  8
PATTERN_FILL
  6
Continuous
 62
     7
100
AcDbLine
 10
-197.5
 20
-221.7618768665707
 30
0.0
 11
-202.5
 21
-216.7618768665707
 31
0.0
  0
LINE
  5
69
330
3C1
100
AcDbEntity
  8
PATTERN_FILL
  6
Continuous
 62
     7
100
AcDbLine
 10
-197.5
 20
-220.4618768665706
 30
0.0
 11
-202.5
 21
-215.4618768665706
 31
0.0
  0
LINE
  5
6A
330
3C1
100
AcDbEntity
  8
PATTERN_FILL
  6
Continuous
 62
     7
100
AcDbLine
 10
-197.5
 20
-219.1618768665706
 30
0.0
 11
-202.5
 21
-214.1618768665708
 31
0.0
  0
LINE
  5
6B
330
3C1
100
AcDbEntity
  8
PATTERN_FILL
  6
Continuous
 62
     7
100
AcDbLine
 10
-197.5
 20
-217.8618768665707
 30
0.0
 11
-202.5
 21
-212.8618768665707
 31
0.0
  0
LINE
  5
6C
330
3C1
100
AcDbEntity
  8
PATTERN_FILL
  6
Continuous
 62
     7
100
AcDbLine
 10
-197.5
 20
-216.5618768665707
 30
0.0
 11
-202.5
 21
-211.5618768665707
 31
0.0
  0
LINE
  5
6D
330
3C1
100
AcDbEntity
  8
PATTERN_FILL
  6
Continuous
 62
     7
100
AcDbLine
 10
-197.5
 20
-215.2618768665707
 30
0.0
 11
-202.5
 21
-210.2618768665707
 31
0.0
  0
LINE
  5
6E
330
3C1
100
AcDbEntity
  8
PATTERN_FILL
  6
Continuous
 62
     7
100
AcDbLine
 10
-197.5
 20
-213.9618768665707
 30
0.0
 11
-202.5
 21
-208.9618768665706
 31
0.0
  0
LINE
  5
6F
330
3C1
100
AcDbEntity
  8
PATTERN_FILL
  6
Continuous
 62
     7
100
AcDbLine
 10
-197.5
 20
-212.6618768665708
 30
0.0
 11
-202.5
 21
-207.6618768665706
 31
0.0
  0
LINE
  5
70
330
3C1
100
AcDbEntity
  8
PATTERN_FILL
  6
Continuous
 62
     7
100
AcDbLine
 10
-197.5
 20
-211.3618768665707
 30
0.0
 11
-202.5
 21
-206.3618768665707
 31
0.0
  0
LINE
  5
71
330
3C1
100
AcDbEntity
  8
PATTERN_FILL
  6
Continuous
 62
     7
100
AcDbLine
 10
-197.5
 20
-210.0618768665707
 30
0.0
 11
-202.5
 21
-205.0618768665708
 31
0.0
  0
LINE
  5
72
330
3C1
100
AcDbEntity
  8
PATTERN_FILL
  6
Continuous
 62
     7
100
AcDbLine
 10
-197.5
 20
-208.7618768665707
 30
0.0
 11
-202.5
 21
-203.7618768665707
 31
0.0
  0
LINE
  5
73
330
3C1
100
AcDbEntity
  8
PATTERN_FILL
  6
Continuous
 62
     7
100
AcDbLine
 10
-197.5
 20
-207.4618768665706
 30
0.0
 11
-202.5
 21
-202.4618768665707
 31
0.0
  0
LINE
  5
74
330
3C1
100
AcDbEntity
  8
PATTERN_FILL
  6
Continuous
 62
     7
100
AcDbLine
 10
-197.5
 20
-206.1618768665706
 30
0.0
 11
-202.5
 21
-201.1618768665708
 31
0.0
  0
LINE
  5
75
330
3C1
100
AcDbEntity
  8
PATTERN_FILL
  6
Continuous
 62
     7
100
AcDbLine
 10
-197.5
 20
-204.8618768665707
 30
0.0
 11
-202.5
 21
-199.8618768665707
 31
0.0
  0
LINE
  5
76
330
3C1
100
AcDbEntity
  8
PATTERN_FILL
  6
Continuous
 62
     7
100
AcDbLine
 10
-197.5
 20
-203.5618768665707
 30
0.0
 11
-202.5
 21
-198.5618768665707
 31
0.0
  0
LINE
  5
77
330
3C1
100
AcDbEntity
  8
PATTERN_FILL
  6
Continuous
 62
     7
100
AcDbLine
 10
-197.5
 20
-202.2618768665707
 30
0.0
 11
-202.5
 21
-197.2618768665707
 31
0.0
  0
LINE
  5
78
330
3C1
100
AcDbEntity
  8
PATTERN_FILL
  6
Continuous
 62
     7
100
AcDbLine
 10
-197.5
 20
-200.9618768665707
 30
0.0
 11
-202.5
 21
-195.9618768665707
 31
0.0
  0
LINE
  5
79
330
3C1
100
AcDbEntity
  8
PATTERN_FILL
  6
Continuous
 62
     7
100
AcDbLine
 10
-197.5
 20
-198.3618768665707
 30
0.0
 11
-202.5
 21
-193.3618768665707
 31
0.0
  0
LINE
  5
7A
330
3C1
100
AcDbEntity
  8
PATTERN_FILL
  6
Continuous
 62
     7
100
AcDbLine
 10
-197.5
 20
-197.0618768665707
 30
0.0
 11
-201.9618768665297
 21
-192.600000000041
 31
0.0
  0
LINE
  5
7B
330
3C1
100
AcDbEntity
  8
PATTERN_FILL
  6
Continuous
 62
     7
100
AcDbLine
 10
-197.5
 20
-195.7618768665707
 30
0.0
 11
-200.6618768665296
 21
-192.600000000041
 31
0.0
  0
LINE
  5
7C
330
3C1
100
AcDbEntity
  8
PATTERN_FILL
  6
Continuous
 62
     7
100
AcDbLine
 10
-197.5
 20
-194.4618768665707
 30
0.0
 11
-199.3618768665297
 21
-192.600000000041
 31
0.0
  0
LINE
  5
7D
330
3C1
100
AcDbEntity
  8
PATTERN_FILL
  6
Continuous
 62
     7
100
AcDbLine
 10
-197.5
 20
-199.6618768665708
 30
0.0
 11
-202.5
 21
-194.6618768665706
 31
0.0
  0
LINE
  5
7E
330
3C1
100
AcDbEntity
  8
PATTERN_FILL
  6
Continuous
 62
     7
100
AcDbLine
 10
-201.5742857142857
 20
-320.5999999999999
 30
0.0
 11
-197.5
 21
-319.7197530864197
 31
0.0
  0
LINE
  5
7F
330
3C1
100
AcDbEntity
  8
PATTERN_FILL
  6
Continuous
 62
     7
100
AcDbLine
 10
-202.5
 20
-320.1999999999998
 30
0.0
 11
-197.5
 21
-319.1197530864197
 31
0.0
  0
LINE
  5
80
330
3C1
100
AcDbEntity
  8
PATTERN_FILL
  6
Continuous
 62
     7
100
AcDbLine
 10
-202.5
 20
-318.9999999999999
 30
0.0
 11
-197.5
 21
-317.9197530864196
 31
0.0
  0
LINE
  5
81
330
3C1
100
AcDbEntity
  8
PATTERN_FILL
  6
Continuous
 62
     7
100
AcDbLine
 10
-202.5
 20
-318.3999999999998
 30
0.0
 11
-197.5
 21
-317.3197530864197
 31
0.0
  0
LINE
  5
82
330
3C1
100
AcDbEntity
  8
PATTERN_FILL
  6
Continuous
 62
     7
100
AcDbLine
 10
-202.5
 20
-317.1999999999998
 30
0.0
 11
-197.5
 21
-316.1197530864197
 31
0.0
  0
LINE
  5
83
330
3C1
100
AcDbEntity
  8
PATTERN_FILL
  6
Continuous
 62
     7
100
AcDbLine
 10
-202.5
 20
-316.5999999999999
 30
0.0
 11
-197.5
 21
-315.5197530864196
 31
0.0
  0
LINE
  5
84
330
3C1
100
AcDbEntity
  8
PATTERN_FILL
  6
Continuous
 62
     7
100
AcDbLine
 10
-202.5
 20
-315.3999999999998
 30
0.0
 11
-197.5
 21
-314.3197530864197
 31
0.0
  0
LINE
  5
85
330
3C1
100
AcDbEntity
  8
PATTERN_FILL
  6
Continuous
 62
     7
100
AcDbLine
 10
-202.5
 20
-314.7999999999999
 30
0.0
 11
-197.5
 21
-313.7197530864197
 31
0.0
  0
LINE
  5
86
330
3C1
100
AcDbEntity
  8
PATTERN_FILL
  6
Continuous
 62
     7
100
AcDbLine
 10
-202.5
 20
-313.5999999999999
 30
0.0
 11
-197.5
 21
-312.5197530864197
 31
0.0
  0
LINE
  5
87
330
3C1
100
AcDbEntity
  8
PATTERN_FILL
  6
Continuous
 62
     7
100
AcDbLine
 10
-202.5
 20
-312.9999999999999
 30
0.0
 11
-197.5
 21
-311.9197530864196
 31
0.0
  0
LINE
  5
88
330
3C1
100
AcDbEntity
  8
PATTERN_FILL
  6
Continuous
 62
     7
100
AcDbLine
 10
-202.5
 20
-311.7999999999999
 30
0.0
 11
-197.5
 21
-310.7197530864197
 31
0.0
  0
LINE
  5
89
330
3C1
100
AcDbEntity
  8
PATTERN_FILL
  6
Continuous
 62
     7
100
AcDbLine
 10
-202.5
 20
-311.1999999999999
 30
0.0
 11
-197.5
 21
-310.1197530864197
 31
0.0
  0
LINE
  5
8A
330
3C1
100
AcDbEntity
  8
PATTERN_FILL
  6
Continuous
 62
     7
100
AcDbLine
 10
-202.5
 20
-309.9999999999999
 30
0.0
 11
-197.5
 21
-308.9197530864197
 31
0.0
  0
LINE
  5
8B
330
3C1
100
AcDbEntity
  8
PATTERN_FILL
  6
Continuous
 62
     7
100
AcDbLine
 10
-202.5
 20
-309.3999999999998
 30
0.0
 11
-197.5
 21
-308.3197530864197
 31
0.0
  0
LINE
  5
8C
330
3C1
100
AcDbEntity
  8
PATTERN_FILL
  6
Continuous
 62
     7
100
AcDbLine
 10
-202.5
 20
-308.1999999999998
 30
0.0
 11
-197.5
 21
-307.1197530864197
 31
0.0
  0
LINE
  5
8D
330
3C1
100
AcDbEntity
  8
PATTERN_FILL
  6
Continuous
 62
     7
100
AcDbLine
 10
-202.5
 20
-307.5999999999999
 30
0.0
 11
-197.5
 21
-306.5197530864196
 31
0.0
  0
LINE
  5
8E
330
3C1
100
AcDbEntity
  8
PATTERN_FILL
  6
Continuous
 62
     7
100
AcDbLine
 10
-202.5
 20
-306.3999999999998
 30
0.0
 11
-197.5
 21
-305.3197530864196
 31
0.0
  0
LINE
  5
8F
330
3C1
100
AcDbEntity
  8
PATTERN_FILL
  6
Continuous
 62
     7
100
AcDbLine
 10
-202.5
 20
-305.7999999999999
 30
0.0
 11
-197.5
 21
-304.7197530864197
 31
0.0
  0
LINE
  5
90
330
3C1
100
AcDbEntity
  8
PATTERN_FILL
  6
Continuous
 62
     7
100
AcDbLine
 10
-202.5
 20
-304.5999999999999
 30
0.0
 11
-197.5
 21
-303.5197530864197
 31
0.0
  0
LINE
  5
91
330
3C1
100
AcDbEntity
  8
PATTERN_FILL
  6
Continuous
 62
     7
100
AcDbLine
 10
-202.5
 20
-303.9999999999999
 30
0.0
 11
-197.5
 21
-302.9197530864196
 31
0.0
  0
LINE
  5
92
330
3C1
100
AcDbEntity
  8
PATTERN_FILL
  6
Continuous
 62
     7
100
AcDbLine
 10
-202.5
 20
-302.7999999999999
 30
0.0
 11
-197.5
 21
-301.7197530864196
 31
0.0
  0
LINE
  5
93
330
3C1
100
AcDbEntity
  8
PATTERN_FILL
  6
Continuous
 62
     7
100
AcDbLine
 10
-202.5
 20
-302.1999999999999
 30
0.0
 11
-197.5
 21
-301.1197530864197
 31
0.0
  0
LINE
  5
94
330
3C1
100
AcDbEntity
  8
PATTERN_FILL
  6
Continuous
 62
     7
100
AcDbLine
 10
-202.5
 20
-300.9999999999999
 30
0.0
 11
-197.5
 21
-299.9197530864196
 31
0.0
  0
LINE
  5
95
330
3C1
100
AcDbEntity
  8
PATTERN_FILL
  6
Continuous
 62
     7
100
AcDbLine
 10
-202.5
 20
-300.3999999999998
 30
0.0
 11
-197.5
 21
-299.3197530864197
 31
0.0
  0
LINE
  5
96
330
3C1
100
AcDbEntity
  8
PATTERN_FILL
  6
Continuous
 62
     7
100
AcDbLine
 10
-202.5
 20
-299.1999999999998
 30
0.0
 11
-197.5
 21
-298.1197530864197
 31
0.0
  0
LINE
  5
97
330
3C1
100
AcDbEntity
  8
PATTERN_FILL
  6
Continuous
 62
     7
100
AcDbLine
 10
-202.5
 20
-298.5999999999999
 30
0.0
 11
-197.5
 21
-297.5197530864197
 31
0.0
  0
LINE
  5
98
330
3C1
100
AcDbEntity
  8
PATTERN_FILL
  6
Continuous
 62
     7
100
AcDbLine
 10
-202.5
 20
-297.3999999999998
 30
0.0
 11
-197.5
 21
-296.3197530864197
 31
0.0
  0
LINE
  5
99
330
3C1
100
AcDbEntity
  8
PATTERN_FILL
  6
Continuous
 62
     7
100
AcDbLine
 10
-202.5
 20
-296.7999999999999
 30
0.0
 11
-197.5
 21
-295.7197530864197
 31
0.0
  0
LINE
  5
9A
330
3C1
100
AcDbEntity
  8
PATTERN_FILL
  6
Continuous
 62
     7
100
AcDbLine
 10
-202.5
 20
-295.5999999999999
 30
0.0
 11
-197.5
 21
-294.5197530864196
 31
0.0
  0
LINE
  5
9B
330
3C1
100
AcDbEntity
  8
PATTERN_FILL
  6
Continuous
 62
     7
100
AcDbLine
 10
-202.5
 20
-294.9999999999999
 30
0.0
 11
-197.5
 21
-293.9197530864196
 31
0.0
  0
LINE
  5
9C
330
3C1
100
AcDbEntity
  8
PATTERN_FILL
  6
Continuous
 62
     7
100
AcDbLine
 10
-202.5
 20
-293.7999999999998
 30
0.0
 11
-197.5
 21
-292.7197530864197
 31
0.0
  0
LINE
  5
9D
330
3C1
100
AcDbEntity
  8
PATTERN_FILL
  6
Continuous
 62
     7
100
AcDbLine
 10
-202.5
 20
-293.2
 30
0.0
 11
-197.5
 21
-292.1197530864197
 31
0.0
  0
LINE
  5
9E
330
3C1
100
AcDbEntity
  8
PATTERN_FILL
  6
Continuous
 62
     7
100
AcDbLine
 10
-202.5
 20
-291.9999999999999
 30
0.0
 11
-197.5
 21
-290.9197530864196
 31
0.0
  0
LINE
  5
9F
330
3C1
100
AcDbEntity
  8
PATTERN_FILL
  6
Continuous
 62
     7
100
AcDbLine
 10
-202.5
 20
-291.3999999999998
 30
0.0
 11
-197.5
 21
-290.3197530864197
 31
0.0
  0
LINE
  5
A0
330
3C1
100
AcDbEntity
  8
PATTERN_FILL
  6
Continuous
 62
     7
100
AcDbLine
 10
-202.5
 20
-290.1999999999999
 30
0.0
 11
-197.5
 21
-289.1197530864197
 31
0.0
  0
LINE
  5
A1
330
3C1
100
AcDbEntity
  8
PATTERN_FILL
  6
Continuous
 62
     7
100
AcDbLine
 10
-202.5
 20
-289.5999999999999
 30
0.0
 11
-197.5
 21
-288.5197530864196
 31
0.0
  0
LINE
  5
A2
330
3C1
100
AcDbEntity
  8
PATTERN_FILL
  6
Continuous
 62
     7
100
AcDbLine
 10
-202.5
 20
-288.4
 30
0.0
 11
-197.5
 21
-287.3197530864197
 31
0.0
  0
LINE
  5
A3
330
3C1
100
AcDbEntity
  8
PATTERN_FILL
  6
Continuous
 62
     7
100
AcDbLine
 10
-202.5
 20
-287.7999999999999
 30
0.0
 11
-197.5
 21
-286.7197530864197
 31
0.0
  0
LINE
  5
A4
330
3C1
100
AcDbEntity
  8
PATTERN_FILL
  6
Continuous
 62
     7
100
AcDbLine
 10
-202.5
 20
-285.9999999999999
 30
0.0
 11
-197.5
 21
-284.9197530864196
 31
0.0
  0
LINE
  5
A5
330
3C1
100
AcDbEntity
  8
PATTERN_FILL
  6
Continuous
 62
     7
100
AcDbLine
 10
-202.5
 20
-284.7999999999999
 30
0.0
 11
-197.5
 21
-283.7197530864197
 31
0.0
  0
LINE
  5
A6
330
3C1
100
AcDbEntity
  8
PATTERN_FILL
  6
Continuous
 62
     7
100
AcDbLine
 10
-202.5
 20
-284.1999999999999
 30
0.0
 11
-197.5
 21
-283.1197530864197
 31
0.0
  0
LINE
  5
A7
330
3C1
100
AcDbEntity
  8
PATTERN_FILL
  6
Continuous
 62
     7
100
AcDbLine
 10
-202.5
 20
-282.9999999999999
 30
0.0
 11
-197.5
 21
-281.9197530864196
 31
0.0
  0
LINE
  5
A8
330
3C1
100
AcDbEntity
  8
PATTERN_FILL
  6
Continuous
 62
     7
100
AcDbLine
 10
-202.5
 20
-282.3999999999998
 30
0.0
 11
-197.5
 21
-281.3197530864196
 31
0.0
  0
LINE
  5
A9
330
3C1
100
AcDbEntity
  8
PATTERN_FILL
  6
Continuous
 62
     7
100
AcDbLine
 10
-202.5
 20
-281.2
 30
0.0
 11
-197.5
 21
-280.1197530864197
 31
0.0
  0
LINE
  5
AA
330
3C1
100
AcDbEntity
  8
PATTERN_FILL
  6
Continuous
 62
     7
100
AcDbLine
 10
-202.5
 20
-280.5999999999999
 30
0.0
 11
-197.5
 21
-279.5197530864196
 31
0.0
  0
LINE
  5
AB
330
3C1
100
AcDbEntity
  8
PATTERN_FILL
  6
Continuous
 62
     7
100
AcDbLine
 10
-202.5
 20
-279.4
 30
0.0
 11
-197.5
 21
-278.3197530864196
 31
0.0
  0
LINE
  5
AC
330
3C1
100
AcDbEntity
  8
PATTERN_FILL
  6
Continuous
 62
     7
100
AcDbLine
 10
-202.5
 20
-278.8
 30
0.0
 11
-197.5
 21
-277.7197530864197
 31
0.0
  0
LINE
  5
AD
330
3C1
100
AcDbEntity
  8
PATTERN_FILL
  6
Continuous
 62
     7
100
AcDbLine
 10
-202.5
 20
-277.5999999999999
 30
0.0
 11
-197.5
 21
-276.5197530864197
 31
0.0
  0
LINE
  5
AE
330
3C1
100
AcDbEntity
  8
PATTERN_FILL
  6
Continuous
 62
     7
100
AcDbLine
 10
-202.5
 20
-276.9999999999999
 30
0.0
 11
-197.5
 21
-275.9197530864196
 31
0.0
  0
LINE
  5
AF
330
3C1
100
AcDbEntity
  8
PATTERN_FILL
  6
Continuous
 62
     7
100
AcDbLine
 10
-202.5
 20
-275.8
 30
0.0
 11
-197.5
 21
-274.7197530864197
 31
0.0
  0
LINE
  5
B0
330
3C1
100
AcDbEntity
  8
PATTERN_FILL
  6
Continuous
 62
     7
100
AcDbLine
 10
-202.5
 20
-275.2
 30
0.0
 11
-197.5
 21
-274.1197530864197
 31
0.0
  0
LINE
  5
B1
330
3C1
100
AcDbEntity
  8
PATTERN_FILL
  6
Continuous
 62
     7
100
AcDbLine
 10
-202.5
 20
-273.9999999999999
 30
0.0
 11
-197.5
 21
-272.9197530864196
 31
0.0
  0
LINE
  5
B2
330
3C1
100
AcDbEntity
  8
PATTERN_FILL
  6
Continuous
 62
     7
100
AcDbLine
 10
-202.5
 20
-273.3999999999999
 30
0.0
 11
-197.5
 21
-272.3197530864196
 31
0.0
  0
LINE
  5
B3
330
3C1
100
AcDbEntity
  8
PATTERN_FILL
  6
Continuous
 62
     7
100
AcDbLine
 10
-202.5
 20
-272.2
 30
0.0
 11
-197.5
 21
-271.1197530864197
 31
0.0
  0
LINE
  5
B4
330
3C1
100
AcDbEntity
  8
PATTERN_FILL
  6
Continuous
 62
     7
100
AcDbLine
 10
-202.5
 20
-271.5999999999999
 30
0.0
 11
-197.5
 21
-270.5197530864197
 31
0.0
  0
LINE
  5
B5
330
3C1
100
AcDbEntity
  8
PATTERN_FILL
  6
Continuous
 62
     7
100
AcDbLine
 10
-202.5
 20
-270.4
 30
0.0
 11
-197.5
 21
-269.3197530864196
 31
0.0
  0
LINE
  5
B6
330
3C1
100
AcDbEntity
  8
PATTERN_FILL
  6
Continuous
 62
     7
100
AcDbLine
 10
-202.5
 20
-269.7999999999999
 30
0.0
 11
-197.5
 21
-268.7197530864197
 31
0.0
  0
LINE
  5
B7
330
3C1
100
AcDbEntity
  8
PATTERN_FILL
  6
Continuous
 62
     7
100
AcDbLine
 10
-202.5
 20
-268.5999999999999
 30
0.0
 11
-197.5
 21
-267.5197530864196
 31
0.0
  0
LINE
  5
B8
330
3C1
100
AcDbEntity
  8
PATTERN_FILL
  6
Continuous
 62
     7
100
AcDbLine
 10
-202.5
 20
-267.9999999999999
 30
0.0
 11
-197.5
 21
-266.9197530864196
 31
0.0
  0
LINE
  5
B9
330
3C1
100
AcDbEntity
  8
PATTERN_FILL
  6
Continuous
 62
     7
100
AcDbLine
 10
-202.5
 20
-266.8
 30
0.0
 11
-197.5
 21
-265.7197530864197
 31
0.0
  0
LINE
  5
BA
330
3C1
100
AcDbEntity
  8
PATTERN_FILL
  6
Continuous
 62
     7
100
AcDbLine
 10
-202.5
 20
-266.2
 30
0.0
 11
-197.5
 21
-265.1197530864197
 31
0.0
  0
LINE
  5
BB
330
3C1
100
AcDbEntity
  8
PATTERN_FILL
  6
Continuous
 62
     7
100
AcDbLine
 10
-202.5
 20
-264.9999999999999
 30
0.0
 11
-197.5
 21
-263.9197530864196
 31
0.0
  0
LINE
  5
BC
330
3C1
100
AcDbEntity
  8
PATTERN_FILL
  6
Continuous
 62
     7
100
AcDbLine
 10
-202.5
 20
-264.3999999999999
 30
0.0
 11
-197.5
 21
-263.3197530864196
 31
0.0
  0
LINE
  5
BD
330
3C1
100
AcDbEntity
  8
PATTERN_FILL
  6
Continuous
 62
     7
100
AcDbLine
 10
-202.5
 20
-263.2
 30
0.0
 11
-197.5
 21
-262.1197530864197
 31
0.0
  0
LINE
  5
BE
330
3C1
100
AcDbEntity
  8
PATTERN_FILL
  6
Continuous
 62
     7
100
AcDbLine
 10
-202.5
 20
-262.5999999999999
 30
0.0
 11
-197.5
 21
-261.5197530864197
 31
0.0
  0
LINE
  5
BF
330
3C1
100
AcDbEntity
  8
PATTERN_FILL
  6
Continuous
 62
     7
100
AcDbLine
 10
-202.5
 20
-261.4
 30
0.0
 11
-197.5
 21
-260.3197530864196
 31
0.0
  0
LINE
  5
C0
330
3C1
100
AcDbEntity
  8
PATTERN_FILL
  6
Continuous
 62
     7
100
AcDbLine
 10
-202.5
 20
-260.7999999999998
 30
0.0
 11
-197.5
 21
-259.7197530864197
 31
0.0
  0
LINE
  5
C1
330
3C1
100
AcDbEntity
  8
PATTERN_FILL
  6
Continuous
 62
     7
100
AcDbLine
 10
-202.5
 20
-259.5999999999999
 30
0.0
 11
-197.5
 21
-258.5197530864197
 31
0.0
  0
LINE
  5
C2
330
3C1
100
AcDbEntity
  8
PATTERN_FILL
  6
Continuous
 62
     7
100
AcDbLine
 10
-202.5
 20
-258.9999999999999
 30
0.0
 11
-197.5
 21
-257.9197530864196
 31
0.0
  0
LINE
  5
C3
330
3C1
100
AcDbEntity
  8
PATTERN_FILL
  6
Continuous
 62
     7
100
AcDbLine
 10
-202.5
 20
-257.7999999999999
 30
0.0
 11
-197.5
 21
-256.7197530864197
 31
0.0
  0
LINE
  5
C4
330
3C1
100
AcDbEntity
  8
PATTERN_FILL
  6
Continuous
 62
     7
100
AcDbLine
 10
-202.5
 20
-257.2
 30
0.0
 11
-197.5
 21
-256.1197530864197
 31
0.0
  0
LINE
  5
C5
330
3C1
100
AcDbEntity
  8
PATTERN_FILL
  6
Continuous
 62
     7
100
AcDbLine
 10
-202.5
 20
-255.9999999999999
 30
0.0
 11
-197.5
 21
-254.9197530864196
 31
0.0
  0
LINE
  5
C6
330
3C1
100
AcDbEntity
  8
PATTERN_FILL
  6
Continuous
 62
     7
100
AcDbLine
 10
-202.5
 20
-255.3999999999998
 30
0.0
 11
-197.5
 21
-254.3197530864196
 31
0.0
  0
LINE
  5
C7
330
3C1
100
AcDbEntity
  8
PATTERN_FILL
  6
Continuous
 62
     7
100
AcDbLine
 10
-202.5
 20
-254.2
 30
0.0
 11
-197.5
 21
-253.1197530864197
 31
0.0
  0
LINE
  5
C8
330
3C1
100
AcDbEntity
  8
PATTERN_FILL
  6
Continuous
 62
     7
100
AcDbLine
 10
-202.5
 20
-253.6
 30
0.0
 11
-197.5
 21
-252.5197530864197
 31
0.0
  0
LINE
  5
C9
330
3C1
100
AcDbEntity
  8
PATTERN_FILL
  6
Continuous
 62
     7
100
AcDbLine
 10
-202.5
 20
-252.4
 30
0.0
 11
-197.5
 21
-251.3197530864196
 31
0.0
  0
LINE
  5
CA
330
3C1
100
AcDbEntity
  8
PATTERN_FILL
  6
Continuous
 62
     7
100
AcDbLine
 10
-202.5
 20
-251.8
 30
0.0
 11
-197.5
 21
-250.7197530864197
 31
0.0
  0
LINE
  5
CB
330
3C1
100
AcDbEntity
  8
PATTERN_FILL
  6
Continuous
 62
     7
100
AcDbLine
 10
-202.5
 20
-250.5999999999999
 30
0.0
 11
-197.5
 21
-249.5197530864197
 31
0.0
  0
LINE
  5
CC
330
3C1
100
AcDbEntity
  8
PATTERN_FILL
  6
Continuous
 62
     7
100
AcDbLine
 10
-202.5
 20
-249.9999999999999
 30
0.0
 11
-197.5
 21
-248.9197530864196
 31
0.0
  0
LINE
  5
CD
330
3C1
100
AcDbEntity
  8
PATTERN_FILL
  6
Continuous
 62
     7
100
AcDbLine
 10
-202.5
 20
-248.7999999999999
 30
0.0
 11
-197.5
 21
-247.7197530864197
 31
0.0
  0
LINE
  5
CE
330
3C1
100
AcDbEntity
  8
PATTERN_FILL
  6
Continuous
 62
     7
100
AcDbLine
 10
-202.5
 20
-248.2
 30
0.0
 11
-197.5
 21
-247.1197530864197
 31
0.0
  0
LINE
  5
CF
330
3C1
100
AcDbEntity
  8
PATTERN_FILL
  6
Continuous
 62
     7
100
AcDbLine
 10
-202.5
 20
-246.9999999999999
 30
0.0
 11
-197.5
 21
-245.9197530864197
 31
0.0
  0
LINE
  5
D0
330
3C1
100
AcDbEntity
  8
PATTERN_FILL
  6
Continuous
 62
     7
100
AcDbLine
 10
-202.5
 20
-246.4
 30
0.0
 11
-197.5
 21
-245.3197530864196
 31
0.0
  0
LINE
  5
D1
330
3C1
100
AcDbEntity
  8
PATTERN_FILL
  6
Continuous
 62
     7
100
AcDbLine
 10
-202.5
 20
-245.1999999999999
 30
0.0
 11
-197.5
 21
-244.1197530864197
 31
0.0
  0
LINE
  5
D2
330
3C1
100
AcDbEntity
  8
PATTERN_FILL
  6
Continuous
 62
     7
100
AcDbLine
 10
-202.5
 20
-244.5999999999999
 30
0.0
 11
-197.5
 21
-243.5197530864197
 31
0.0
  0
LINE
  5
D3
330
3C1
100
AcDbEntity
  8
PATTERN_FILL
  6
Continuous
 62
     7
100
AcDbLine
 10
-202.5
 20
-243.4
 30
0.0
 11
-197.5
 21
-242.3197530864197
 31
0.0
  0
LINE
  5
D4
330
3C1
100
AcDbEntity
  8
PATTERN_FILL
  6
Continuous
 62
     7
100
AcDbLine
 10
-202.5
 20
-242.7999999999999
 30
0.0
 11
-197.5
 21
-241.7197530864197
 31
0.0
  0
LINE
  5
D5
330
3C1
100
AcDbEntity
  8
PATTERN_FILL
  6
Continuous
 62
     7
100
AcDbLine
 10
-202.5
 20
-241.5999999999999
 30
0.0
 11
-197.5
 21
-240.5197530864197
 31
0.0
  0
LINE
  5
D6
330
3C1
100
AcDbEntity
  8
PATTERN_FILL
  6
Continuous
 62
     7
100
AcDbLine
 10
-202.5
 20
-240.9999999999999
 30
0.0
 11
-197.5
 21
-239.9197530864196
 31
0.0
  0
LINE
  5
D7
330
3C1
100
AcDbEntity
  8
PATTERN_FILL
  6
Continuous
 62
     7
100
AcDbLine
 10
-202.5
 20
-239.8
 30
0.0
 11
-197.5
 21
-238.7197530864197
 31
0.0
  0
LINE
  5
D8
330
3C1
100
AcDbEntity
  8
PATTERN_FILL
  6
Continuous
 62
     7
100
AcDbLine
 10
-202.5
 20
-239.1999999999999
 30
0.0
 11
-197.5
 21
-238.1197530864197
 31
0.0
  0
LINE
  5
D9
330
3C1
100
AcDbEntity
  8
PATTERN_FILL
  6
Continuous
 62
     7
100
AcDbLine
 10
-202.5
 20
-238.0
 30
0.0
 11
-201.6200331607126
 21
-237.8098837075612
 31
0.0
  0
LINE
  5
DA
330
3C1
100
AcDbEntity
  8
PATTERN_FILL
  6
Continuous
 62
     7
100
AcDbLine
 10
-202.5
 20
-286.5999999999999
 30
0.0
 11
-197.5
 21
-285.5197530864197
 31
0.0
  0
LINE
  5
DB
330
3C1
100
AcDbEntity
  8
PATTERN_FILL
  6
Continuous
 62
     7
100
AcDbLine
 10
-47.80186041493629
 20
-221.8098837075612
 30
0.0
 11
-47.5
 21
-221.508023292625
 31
0.0
  0
LINE
  5
DC
330
3C1
100
AcDbEntity
  8
PATTERN_FILL
  6
Continuous
 62
     7
100
AcDbLine
 10
-49.10186041493625
 20
-221.8098837075612
 30
0.0
 11
-47.5
 21
-220.2080232926251
 31
0.0
  0
LINE
  5
DD
330
3C1
100
AcDbEntity
  8
PATTERN_FILL
  6
Continuous
 62
     7
100
AcDbLine
 10
-50.40186041493621
 20
-221.8098837075612
 30
0.0
 11
-47.5
 21
-218.9080232926249
 31
0.0
  0
LINE
  5
DE
330
3C1
100
AcDbEntity
  8
PATTERN_FILL
  6
Continuous
 62
     7
100
AcDbLine
 10
-51.70186041493614
 20
-221.8098837075612
 30
0.0
 11
-47.5
 21
-217.6080232926249
 31
0.0
  0
LINE
  5
DF
330
3C1
100
AcDbEntity
  8
PATTERN_FILL
  6
Continuous
 62
     7
100
AcDbLine
 10
-52.5
 20
-221.308023292625
 30
0.0
 11
-47.5
 21
-216.308023292625
 31
0.0
  0
LINE
  5
E0
330
3C1
100
AcDbEntity
  8
PATTERN_FILL
  6
Continuous
 62
     7
100
AcDbLine
 10
-52.5
 20
-220.008023292625
 30
0.0
 11
-47.5
 21
-215.008023292625
 31
0.0
  0
LINE
  5
E1
330
3C1
100
AcDbEntity
  8
PATTERN_FILL
  6
Continuous
 62
     7
100
AcDbLine
 10
-52.5
 20
-218.7080232926251
 30
0.0
 11
-47.5
 21
-213.7080232926251
 31
0.0
  0
LINE
  5
E2
330
3C1
100
AcDbEntity
  8
PATTERN_FILL
  6
Continuous
 62
     7
100
AcDbLine
 10
-52.5
 20
-217.4080232926251
 30
0.0
 11
-47.5
 21
-212.408023292625
 31
0.0
  0
LINE
  5
E3
330
3C1
100
AcDbEntity
  8
PATTERN_FILL
  6
Continuous
 62
     7
100
AcDbLine
 10
-52.5
 20
-216.1080232926249
 30
0.0
 11
-47.5
 21
-211.1080232926251
 31
0.0
  0
LINE
  5
E4
330
3C1
100
AcDbEntity
  8
PATTERN_FILL
  6
Continuous
 62
     7
100
AcDbLine
 10
-52.5
 20
-214.808023292625
 30
0.0
 11
-47.5
 21
-209.808023292625
 31
0.0
  0
LINE
  5
E5
330
3C1
100
AcDbEntity
  8
PATTERN_FILL
  6
Continuous
 62
     7
100
AcDbLine
 10
-52.5
 20
-213.508023292625
 30
0.0
 11
-47.5
 21
-208.508023292625
 31
0.0
  0
LINE
  5
E6
330
3C1
100
AcDbEntity
  8
PATTERN_FILL
  6
Continuous
 62
     7
100
AcDbLine
 10
-52.5
 20
-212.2080232926251
 30
0.0
 11
-47.5
 21
-207.208023292625
 31
0.0
  0
LINE
  5
E7
330
3C1
100
AcDbEntity
  8
PATTERN_FILL
  6
Continuous
 62
     7
100
AcDbLine
 10
-52.5
 20
-210.9080232926249
 30
0.0
 11
-47.5
 21
-205.908023292625
 31
0.0
  0
LINE
  5
E8
330
3C1
100
AcDbEntity
  8
PATTERN_FILL
  6
Continuous
 62
     7
100
AcDbLine
 10
-52.5
 20
-209.6080232926249
 30
0.0
 11
-47.5
 21
-204.608023292625
 31
0.0
  0
LINE
  5
E9
330
3C1
100
AcDbEntity
  8
PATTERN_FILL
  6
Continuous
 62
     7
100
AcDbLine
 10
-52.5
 20
-208.308023292625
 30
0.0
 11
-47.5
 21
-203.3080232926251
 31
0.0
  0
LINE
  5
EA
330
3C1
100
AcDbEntity
  8
PATTERN_FILL
  6
Continuous
 62
     7
100
AcDbLine
 10
-52.5
 20
-207.008023292625
 30
0.0
 11
-47.5
 21
-202.008023292625
 31
0.0
  0
LINE
  5
EB
330
3C1
100
AcDbEntity
  8
PATTERN_FILL
  6
Continuous
 62
     7
100
AcDbLine
 10
-52.5
 20
-205.7080232926251
 30
0.0
 11
-47.5
 21
-200.708023292625
 31
0.0
  0
LINE
  5
EC
330
3C1
100
AcDbEntity
  8
PATTERN_FILL
  6
Continuous
 62
     7
100
AcDbLine
 10
-52.5
 20
-204.4080232926249
 30
0.0
 11
-47.5
 21
-199.4080232926249
 31
0.0
  0
LINE
  5
ED
330
3C1
100
AcDbEntity
  8
PATTERN_FILL
  6
Continuous
 62
     7
100
AcDbLine
 10
-52.5
 20
-203.108023292625
 30
0.0
 11
-47.5
 21
-198.108023292625
 31
0.0
  0
LINE
  5
EE
330
3C1
100
AcDbEntity
  8
PATTERN_FILL
  6
Continuous
 62
     7
100
AcDbLine
 10
-52.5
 20
-201.8080232926251
 30
0.0
 11
-47.5
 21
-196.8080232926251
 31
0.0
  0
LINE
  5
EF
330
3C1
100
AcDbEntity
  8
PATTERN_FILL
  6
Continuous
 62
     7
100
AcDbLine
 10
-52.5
 20
-200.508023292625
 30
0.0
 11
-47.5
 21
-195.508023292625
 31
0.0
  0
LINE
  5
F0
330
3C1
100
AcDbEntity
  8
PATTERN_FILL
  6
Continuous
 62
     7
100
AcDbLine
 10
-52.5
 20
-199.208023292625
 30
0.0
 11
-47.5
 21
-194.208023292625
 31
0.0
  0
LINE
  5
F1
330
3C1
100
AcDbEntity
  8
PATTERN_FILL
  6
Continuous
 62
     7
100
AcDbLine
 10
-52.5
 20
-197.9080232926249
 30
0.0
 11
-47.5
 21
-192.9080232926249
 31
0.0
  0
LINE
  5
F2
330
3C1
100
AcDbEntity
  8
PATTERN_FILL
  6
Continuous
 62
     7
100
AcDbLine
 10
-52.5
 20
-196.608023292625
 30
0.0
 11
-48.49197670741592
 21
-192.6000000000409
 31
0.0
  0
LINE
  5
F3
330
3C1
100
AcDbEntity
  8
PATTERN_FILL
  6
Continuous
 62
     7
100
AcDbLine
 10
-52.5
 20
-195.3080232926251
 30
0.0
 11
-49.7919767074161
 21
-192.6000000000409
 31
0.0
  0
LINE
  5
F4
330
3C1
100
AcDbEntity
  8
PATTERN_FILL
  6
Continuous
 62
     7
100
AcDbLine
 10
-52.5
 20
-194.008023292625
 30
0.0
 11
-51.09197670741582
 21
-192.6000000000409
 31
0.0
  0
LINE
  5
F5
330
3C1
100
AcDbEntity
  8
PATTERN_FILL
  6
Continuous
 62
     7
100
AcDbLine
 10
-51.35199315900946
 20
-221.8098837075612
 30
0.0
 11
-52.5
 21
-220.6618768665705
 31
0.0
  0
LINE
  5
F6
330
3C1
100
AcDbEntity
  8
PATTERN_FILL
  6
Continuous
 62
     7
100
AcDbLine
 10
-50.0
 20
-221.8618768665705
 30
0.0
 11
-52.5
 21
-219.3618768665706
 31
0.0
  0
LINE
  5
F7
330
3C1
100
AcDbEntity
  8
PATTERN_FILL
  6
Continuous
 62
     7
100
AcDbLine
 10
-48.75199315900932
 20
-221.8098837075612
 30
0.0
 11
-52.5
 21
-218.0618768665706
 31
0.0
  0
LINE
  5
F8
330
3C1
100
AcDbEntity
  8
PATTERN_FILL
  6
Continuous
 62
     7
100
AcDbLine
 10
-47.5
 20
-221.7618768665706
 30
0.0
 11
-52.5
 21
-216.7618768665706
 31
0.0
  0
LINE
  5
F9
330
3C1
100
AcDbEntity
  8
PATTERN_FILL
  6
Continuous
 62
     7
100
AcDbLine
 10
-47.5
 20
-220.4618768665705
 30
0.0
 11
-52.5
 21
-215.4618768665705
 31
0.0
  0
LINE
  5
FA
330
3C1
100
AcDbEntity
  8
PATTERN_FILL
  6
Continuous
 62
     7
100
AcDbLine
 10
-47.5
 20
-219.1618768665705
 30
0.0
 11
-52.5
 21
-214.1618768665706
 31
0.0
  0
LINE
  5
FB
330
3C1
100
AcDbEntity
  8
PATTERN_FILL
  6
Continuous
 62
     7
100
AcDbLine
 10
-47.5
 20
-217.8618768665705
 30
0.0
 11
-52.5
 21
-212.8618768665706
 31
0.0
  0
LINE
  5
FC
330
3C1
100
AcDbEntity
  8
PATTERN_FILL
  6
Continuous
 62
     7
100
AcDbLine
 10
-47.5
 20
-216.5618768665706
 30
0.0
 11
-52.5
 21
-211.5618768665706
 31
0.0
  0
LINE
  5
FD
330
3C1
100
AcDbEntity
  8
PATTERN_FILL
  6
Continuous
 62
     7
100
AcDbLine
 10
-47.5
 20
-215.2618768665706
 30
0.0
 11
-52.5
 21
-210.2618768665706
 31
0.0
  0
LINE
  5
FE
330
3C1
100
AcDbEntity
  8
PATTERN_FILL
  6
Continuous
 62
     7
100
AcDbLine
 10
-47.5
 20
-213.9618768665706
 30
0.0
 11
-52.5
 21
-208.9618768665705
 31
0.0
  0
LINE
  5
FF
330
3C1
100
AcDbEntity
  8
PATTERN_FILL
  6
Continuous
 62
     7
100
AcDbLine
 10
-47.5
 20
-212.6618768665706
 30
0.0
 11
-52.5
 21
-207.6618768665706
 31
0.0
  0
LINE
  5
100
330
3C1
100
AcDbEntity
  8
PATTERN_FILL
  6
Continuous
 62
     7
100
AcDbLine
 10
-47.5
 20
-211.3618768665705
 30
0.0
 11
-52.5
 21
-206.3618768665706
 31
0.0
  0
LINE
  5
101
330
3C1
100
AcDbEntity
  8
PATTERN_FILL
  6
Continuous
 62
     7
100
AcDbLine
 10
-47.5
 20
-210.0618768665706
 30
0.0
 11
-52.5
 21
-205.0618768665706
 31
0.0
  0
LINE
  5
102
330
3C1
100
AcDbEntity
  8
PATTERN_FILL
  6
Continuous
 62
     7
100
AcDbLine
 10
-47.5
 20
-208.7618768665706
 30
0.0
 11
-52.5
 21
-203.7618768665705
 31
0.0
  0
LINE
  5
103
330
3C1
100
AcDbEntity
  8
PATTERN_FILL
  6
Continuous
 62
     7
100
AcDbLine
 10
-47.5
 20
-207.4618768665704
 30
0.0
 11
-52.5
 21
-202.4618768665706
 31
0.0
  0
LINE
  5
104
330
3C1
100
AcDbEntity
  8
PATTERN_FILL
  6
Continuous
 62
     7
100
AcDbLine
 10
-47.5
 20
-206.1618768665705
 30
0.0
 11
-52.5
 21
-201.1618768665706
 31
0.0
  0
LINE
  5
105
330
3C1
100
AcDbEntity
  8
PATTERN_FILL
  6
Continuous
 62
     7
100
AcDbLine
 10
-47.5
 20
-204.8618768665706
 30
0.0
 11
-52.5
 21
-199.8618768665705
 31
0.0
  0
LINE
  5
106
330
3C1
100
AcDbEntity
  8
PATTERN_FILL
  6
Continuous
 62
     7
100
AcDbLine
 10
-47.5
 20
-203.5618768665706
 30
0.0
 11
-52.5
 21
-198.5618768665706
 31
0.0
  0
LINE
  5
107
330
3C1
100
AcDbEntity
  8
PATTERN_FILL
  6
Continuous
 62
     7
100
AcDbLine
 10
-47.5
 20
-202.2618768665706
 30
0.0
 11
-52.5
 21
-197.2618768665705
 31
0.0
  0
LINE
  5
108
330
3C1
100
AcDbEntity
  8
PATTERN_FILL
  6
Continuous
 62
     7
100
AcDbLine
 10
-47.5
 20
-200.9618768665706
 30
0.0
 11
-52.5
 21
-195.9618768665706
 31
0.0
  0
LINE
  5
109
330
3C1
100
AcDbEntity
  8
PATTERN_FILL
  6
Continuous
 62
     7
100
AcDbLine
 10
-47.5
 20
-198.3618768665705
 30
0.0
 11
-52.5
 21
-193.3618768665705
 31
0.0
  0
LINE
  5
10A
330
3C1
100
AcDbEntity
  8
PATTERN_FILL
  6
Continuous
 62
     7
100
AcDbLine
 10
-47.5
 20
-197.0618768665706
 30
0.0
 11
-51.96187686652979
 21
-192.6000000000409
 31
0.0
  0
LINE
  5
10B
330
3C1
100
AcDbEntity
  8
PATTERN_FILL
  6
Continuous
 62
     7
100
AcDbLine
 10
-47.5
 20
-195.7618768665705
 30
0.0
 11
-50.66187686652961
 21
-192.6000000000409
 31
0.0
  0
LINE
  5
10C
330
3C1
100
AcDbEntity
  8
PATTERN_FILL
  6
Continuous
 62
     7
100
AcDbLine
 10
-47.5
 20
-194.4618768665705
 30
0.0
 11
-49.36187686652965
 21
-192.6000000000409
 31
0.0
  0
LINE
  5
10D
330
3C1
100
AcDbEntity
  8
PATTERN_FILL
  6
Continuous
 62
     7
100
AcDbLine
 10
-47.5
 20
-199.6618768665706
 30
0.0
 11
-52.5
 21
-194.6618768665705
 31
0.0
  0
LINE
  5
10E
330
3C1
100
AcDbEntity
  8
PATTERN_FILL
  6
Continuous
 62
     7
100
AcDbLine
 10
-51.57428571428567
 20
-320.5999999999998
 30
0.0
 11
-47.5
 21
-319.7197530864195
 31
0.0
  0
LINE
  5
10F
330
3C1
100
AcDbEntity
  8
PATTERN_FILL
  6
Continuous
 62
     7
100
AcDbLine
 10
-52.5
 20
-320.1999999999997
 30
0.0
 11
-47.5
 21
-319.1197530864196
 31
0.0
  0
LINE
  5
110
330
3C1
100
AcDbEntity
  8
PATTERN_FILL
  6
Continuous
 62
     7
100
AcDbLine
 10
-52.5
 20
-318.9999999999997
 30
0.0
 11
-47.5
 21
-317.9197530864195
 31
0.0
  0
LINE
  5
111
330
3C1
100
AcDbEntity
  8
PATTERN_FILL
  6
Continuous
 62
     7
100
AcDbLine
 10
-52.5
 20
-318.3999999999997
 30
0.0
 11
-47.5
 21
-317.3197530864197
 31
0.0
  0
LINE
  5
112
330
3C1
100
AcDbEntity
  8
PATTERN_FILL
  6
Continuous
 62
     7
100
AcDbLine
 10
-52.5
 20
-317.1999999999997
 30
0.0
 11
-47.5
 21
-316.1197530864196
 31
0.0
  0
LINE
  5
113
330
3C1
100
AcDbEntity
  8
PATTERN_FILL
  6
Continuous
 62
     7
100
AcDbLine
 10
-52.5
 20
-316.5999999999998
 30
0.0
 11
-47.5
 21
-315.5197530864195
 31
0.0
  0
LINE
  5
114
330
3C1
100
AcDbEntity
  8
PATTERN_FILL
  6
Continuous
 62
     7
100
AcDbLine
 10
-52.5
 20
-315.3999999999998
 30
0.0
 11
-47.5
 21
-314.3197530864197
 31
0.0
  0
LINE
  5
115
330
3C1
100
AcDbEntity
  8
PATTERN_FILL
  6
Continuous
 62
     7
100
AcDbLine
 10
-52.5
 20
-314.7999999999998
 30
0.0
 11
-47.5
 21
-313.7197530864197
 31
0.0
  0
LINE
  5
116
330
3C1
100
AcDbEntity
  8
PATTERN_FILL
  6
Continuous
 62
     7
100
AcDbLine
 10
-52.5
 20
-313.5999999999998
 30
0.0
 11
-47.5
 21
-312.5197530864195
 31
0.0
  0
LINE
  5
117
330
3C1
100
AcDbEntity
  8
PATTERN_FILL
  6
Continuous
 62
     7
100
AcDbLine
 10
-52.5
 20
-312.9999999999997
 30
0.0
 11
-47.5
 21
-311.9197530864195
 31
0.0
  0
LINE
  5
118
330
3C1
100
AcDbEntity
  8
PATTERN_FILL
  6
Continuous
 62
     7
100
AcDbLine
 10
-52.5
 20
-311.7999999999998
 30
0.0
 11
-47.5
 21
-310.7197530864196
 31
0.0
  0
LINE
  5
119
330
3C1
100
AcDbEntity
  8
PATTERN_FILL
  6
Continuous
 62
     7
100
AcDbLine
 10
-52.5
 20
-311.1999999999998
 30
0.0
 11
-47.5
 21
-310.1197530864196
 31
0.0
  0
LINE
  5
11A
330
3C1
100
AcDbEntity
  8
PATTERN_FILL
  6
Continuous
 62
     7
100
AcDbLine
 10
-52.5
 20
-309.9999999999997
 30
0.0
 11
-47.5
 21
-308.9197530864195
 31
0.0
  0
LINE
  5
11B
330
3C1
100
AcDbEntity
  8
PATTERN_FILL
  6
Continuous
 62
     7
100
AcDbLine
 10
-52.5
 20
-309.3999999999998
 30
0.0
 11
-47.5
 21
-308.3197530864197
 31
0.0
  0
LINE
  5
11C
330
3C1
100
AcDbEntity
  8
PATTERN_FILL
  6
Continuous
 62
     7
100
AcDbLine
 10
-52.5
 20
-308.1999999999997
 30
0.0
 11
-47.5
 21
-307.1197530864196
 31
0.0
  0
LINE
  5
11D
330
3C1
100
AcDbEntity
  8
PATTERN_FILL
  6
Continuous
 62
     7
100
AcDbLine
 10
-52.5
 20
-307.5999999999998
 30
0.0
 11
-47.5
 21
-306.5197530864196
 31
0.0
  0
LINE
  5
11E
330
3C1
100
AcDbEntity
  8
PATTERN_FILL
  6
Continuous
 62
     7
100
AcDbLine
 10
-52.5
 20
-306.3999999999997
 30
0.0
 11
-47.5
 21
-305.3197530864196
 31
0.0
  0
LINE
  5
11F
330
3C1
100
AcDbEntity
  8
PATTERN_FILL
  6
Continuous
 62
     7
100
AcDbLine
 10
-52.5
 20
-305.7999999999998
 30
0.0
 11
-47.5
 21
-304.7197530864196
 31
0.0
  0
LINE
  5
120
330
3C1
100
AcDbEntity
  8
PATTERN_FILL
  6
Continuous
 62
     7
100
AcDbLine
 10
-52.5
 20
-304.5999999999998
 30
0.0
 11
-47.5
 21
-303.5197530864195
 31
0.0
  0
LINE
  5
121
330
3C1
100
AcDbEntity
  8
PATTERN_FILL
  6
Continuous
 62
     7
100
AcDbLine
 10
-52.5
 20
-303.9999999999997
 30
0.0
 11
-47.5
 21
-302.9197530864195
 31
0.0
  0
LINE
  5
122
330
3C1
100
AcDbEntity
  8
PATTERN_FILL
  6
Continuous
 62
     7
100
AcDbLine
 10
-52.5
 20
-302.7999999999998
 30
0.0
 11
-47.5
 21
-301.7197530864195
 31
0.0
  0
LINE
  5
123
330
3C1
100
AcDbEntity
  8
PATTERN_FILL
  6
Continuous
 62
     7
100
AcDbLine
 10
-52.5
 20
-302.1999999999998
 30
0.0
 11
-47.5
 21
-301.1197530864196
 31
0.0
  0
LINE
  5
124
330
3C1
100
AcDbEntity
  8
PATTERN_FILL
  6
Continuous
 62
     7
100
AcDbLine
 10
-52.5
 20
-300.9999999999997
 30
0.0
 11
-47.5
 21
-299.9197530864194
 31
0.0
  0
LINE
  5
125
330
3C1
100
AcDbEntity
  8
PATTERN_FILL
  6
Continuous
 62
     7
100
AcDbLine
 10
-52.5
 20
-300.3999999999998
 30
0.0
 11
-47.5
 21
-299.3197530864197
 31
0.0
  0
LINE
  5
126
330
3C1
100
AcDbEntity
  8
PATTERN_FILL
  6
Continuous
 62
     7
100
AcDbLine
 10
-52.5
 20
-299.1999999999997
 30
0.0
 11
-47.5
 21
-298.1197530864196
 31
0.0
  0
LINE
  5
127
330
3C1
100
AcDbEntity
  8
PATTERN_FILL
  6
Continuous
 62
     7
100
AcDbLine
 10
-52.5
 20
-298.5999999999998
 30
0.0
 11
-47.5
 21
-297.5197530864195
 31
0.0
  0
LINE
  5
128
330
3C1
100
AcDbEntity
  8
PATTERN_FILL
  6
Continuous
 62
     7
100
AcDbLine
 10
-52.5
 20
-297.3999999999998
 30
0.0
 11
-47.5
 21
-296.3197530864195
 31
0.0
  0
LINE
  5
129
330
3C1
100
AcDbEntity
  8
PATTERN_FILL
  6
Continuous
 62
     7
100
AcDbLine
 10
-52.5
 20
-296.7999999999998
 30
0.0
 11
-47.5
 21
-295.7197530864196
 31
0.0
  0
LINE
  5
12A
330
3C1
100
AcDbEntity
  8
PATTERN_FILL
  6
Continuous
 62
     7
100
AcDbLine
 10
-52.5
 20
-295.5999999999998
 30
0.0
 11
-47.5
 21
-294.5197530864195
 31
0.0
  0
LINE
  5
12B
330
3C1
100
AcDbEntity
  8
PATTERN_FILL
  6
Continuous
 62
     7
100
AcDbLine
 10
-52.5
 20
-294.9999999999997
 30
0.0
 11
-47.5
 21
-293.9197530864195
 31
0.0
  0
LINE
  5
12C
330
3C1
100
AcDbEntity
  8
PATTERN_FILL
  6
Continuous
 62
     7
100
AcDbLine
 10
-52.5
 20
-293.7999999999997
 30
0.0
 11
-47.5
 21
-292.7197530864197
 31
0.0
  0
LINE
  5
12D
330
3C1
100
AcDbEntity
  8
PATTERN_FILL
  6
Continuous
 62
     7
100
AcDbLine
 10
-52.5
 20
-293.1999999999998
 30
0.0
 11
-47.5
 21
-292.1197530864196
 31
0.0
  0
LINE
  5
12E
330
3C1
100
AcDbEntity
  8
PATTERN_FILL
  6
Continuous
 62
     7
100
AcDbLine
 10
-52.5
 20
-291.9999999999997
 30
0.0
 11
-47.5
 21
-290.9197530864195
 31
0.0
  0
LINE
  5
12F
330
3C1
100
AcDbEntity
  8
PATTERN_FILL
  6
Continuous
 62
     7
100
AcDbLine
 10
-52.5
 20
-291.3999999999997
 30
0.0
 11
-47.5
 21
-290.3197530864195
 31
0.0
  0
LINE
  5
130
330
3C1
100
AcDbEntity
  8
PATTERN_FILL
  6
Continuous
 62
     7
100
AcDbLine
 10
-52.5
 20
-290.1999999999998
 30
0.0
 11
-47.5
 21
-289.1197530864196
 31
0.0
  0
LINE
  5
131
330
3C1
100
AcDbEntity
  8
PATTERN_FILL
  6
Continuous
 62
     7
100
AcDbLine
 10
-52.5
 20
-289.5999999999998
 30
0.0
 11
-47.5
 21
-288.5197530864195
 31
0.0
  0
LINE
  5
132
330
3C1
100
AcDbEntity
  8
PATTERN_FILL
  6
Continuous
 62
     7
100
AcDbLine
 10
-52.5
 20
-288.3999999999998
 30
0.0
 11
-47.5
 21
-287.3197530864197
 31
0.0
  0
LINE
  5
133
330
3C1
100
AcDbEntity
  8
PATTERN_FILL
  6
Continuous
 62
     7
100
AcDbLine
 10
-52.5
 20
-287.7999999999998
 30
0.0
 11
-47.5
 21
-286.7197530864197
 31
0.0
  0
LINE
  5
134
330
3C1
100
AcDbEntity
  8
PATTERN_FILL
  6
Continuous
 62
     7
100
AcDbLine
 10
-52.5
 20
-285.9999999999997
 30
0.0
 11
-47.5
 21
-284.9197530864195
 31
0.0
  0
LINE
  5
135
330
3C1
100
AcDbEntity
  8
PATTERN_FILL
  6
Continuous
 62
     7
100
AcDbLine
 10
-52.5
 20
-284.7999999999998
 30
0.0
 11
-47.5
 21
-283.7197530864196
 31
0.0
  0
LINE
  5
136
330
3C1
100
AcDbEntity
  8
PATTERN_FILL
  6
Continuous
 62
     7
100
AcDbLine
 10
-52.5
 20
-284.1999999999998
 30
0.0
 11
-47.5
 21
-283.1197530864196
 31
0.0
  0
LINE
  5
137
330
3C1
100
AcDbEntity
  8
PATTERN_FILL
  6
Continuous
 62
     7
100
AcDbLine
 10
-52.5
 20
-282.9999999999997
 30
0.0
 11
-47.5
 21
-281.9197530864195
 31
0.0
  0
LINE
  5
138
330
3C1
100
AcDbEntity
  8
PATTERN_FILL
  6
Continuous
 62
     7
100
AcDbLine
 10
-52.5
 20
-282.3999999999998
 30
0.0
 11
-47.5
 21
-281.3197530864195
 31
0.0
  0
LINE
  5
139
330
3C1
100
AcDbEntity
  8
PATTERN_FILL
  6
Continuous
 62
     7
100
AcDbLine
 10
-52.5
 20
-281.1999999999999
 30
0.0
 11
-47.5
 21
-280.1197530864196
 31
0.0
  0
LINE
  5
13A
330
3C1
100
AcDbEntity
  8
PATTERN_FILL
  6
Continuous
 62
     7
100
AcDbLine
 10
-52.5
 20
-280.5999999999998
 30
0.0
 11
-47.5
 21
-279.5197530864196
 31
0.0
  0
LINE
  5
13B
330
3C1
100
AcDbEntity
  8
PATTERN_FILL
  6
Continuous
 62
     7
100
AcDbLine
 10
-52.5
 20
-279.3999999999999
 30
0.0
 11
-47.5
 21
-278.3197530864196
 31
0.0
  0
LINE
  5
13C
330
3C1
100
AcDbEntity
  8
PATTERN_FILL
  6
Continuous
 62
     7
100
AcDbLine
 10
-52.5
 20
-278.7999999999998
 30
0.0
 11
-47.5
 21
-277.7197530864196
 31
0.0
  0
LINE
  5
13D
330
3C1
100
AcDbEntity
  8
PATTERN_FILL
  6
Continuous
 62
     7
100
AcDbLine
 10
-52.5
 20
-277.5999999999998
 30
0.0
 11
-47.5
 21
-276.5197530864195
 31
0.0
  0
LINE
  5
13E
330
3C1
100
AcDbEntity
  8
PATTERN_FILL
  6
Continuous
 62
     7
100
AcDbLine
 10
-52.5
 20
-276.9999999999997
 30
0.0
 11
-47.5
 21
-275.9197530864195
 31
0.0
  0
LINE
  5
13F
330
3C1
100
AcDbEntity
  8
PATTERN_FILL
  6
Continuous
 62
     7
100
AcDbLine
 10
-52.5
 20
-275.7999999999999
 30
0.0
 11
-47.5
 21
-274.7197530864196
 31
0.0
  0
LINE
  5
140
330
3C1
100
AcDbEntity
  8
PATTERN_FILL
  6
Continuous
 62
     7
100
AcDbLine
 10
-52.5
 20
-275.1999999999999
 30
0.0
 11
-47.5
 21
-274.1197530864196
 31
0.0
  0
LINE
  5
141
330
3C1
100
AcDbEntity
  8
PATTERN_FILL
  6
Continuous
 62
     7
100
AcDbLine
 10
-52.5
 20
-273.9999999999997
 30
0.0
 11
-47.5
 21
-272.9197530864195
 31
0.0
  0
LINE
  5
142
330
3C1
100
AcDbEntity
  8
PATTERN_FILL
  6
Continuous
 62
     7
100
AcDbLine
 10
-52.5
 20
-273.3999999999998
 30
0.0
 11
-47.5
 21
-272.3197530864195
 31
0.0
  0
LINE
  5
143
330
3C1
100
AcDbEntity
  8
PATTERN_FILL
  6
Continuous
 62
     7
100
AcDbLine
 10
-52.5
 20
-272.1999999999999
 30
0.0
 11
-47.5
 21
-271.1197530864196
 31
0.0
  0
LINE
  5
144
330
3C1
100
AcDbEntity
  8
PATTERN_FILL
  6
Continuous
 62
     7
100
AcDbLine
 10
-52.5
 20
-271.5999999999998
 30
0.0
 11
-47.5
 21
-270.5197530864195
 31
0.0
  0
LINE
  5
145
330
3C1
100
AcDbEntity
  8
PATTERN_FILL
  6
Continuous
 62
     7
100
AcDbLine
 10
-52.5
 20
-270.3999999999999
 30
0.0
 11
-47.5
 21
-269.3197530864195
 31
0.0
  0
LINE
  5
146
330
3C1
100
AcDbEntity
  8
PATTERN_FILL
  6
Continuous
 62
     7
100
AcDbLine
 10
-52.5
 20
-269.7999999999997
 30
0.0
 11
-47.5
 21
-268.7197530864196
 31
0.0
  0
LINE
  5
147
330
3C1
100
AcDbEntity
  8
PATTERN_FILL
  6
Continuous
 62
     7
100
AcDbLine
 10
-52.5
 20
-268.5999999999998
 30
0.0
 11
-47.5
 21
-267.5197530864195
 31
0.0
  0
LINE
  5
148
330
3C1
100
AcDbEntity
  8
PATTERN_FILL
  6
Continuous
 62
     7
100
AcDbLine
 10
-52.5
 20
-267.9999999999997
 30
0.0
 11
-47.5
 21
-266.9197530864195
 31
0.0
  0
LINE
  5
149
330
3C1
100
AcDbEntity
  8
PATTERN_FILL
  6
Continuous
 62
     7
100
AcDbLine
 10
-52.5
 20
-266.7999999999998
 30
0.0
 11
-47.5
 21
-265.7197530864196
 31
0.0
  0
LINE
  5
14A
330
3C1
100
AcDbEntity
  8
PATTERN_FILL
  6
Continuous
 62
     7
100
AcDbLine
 10
-52.5
 20
-266.1999999999999
 30
0.0
 11
-47.5
 21
-265.1197530864196
 31
0.0
  0
LINE
  5
14B
330
3C1
100
AcDbEntity
  8
PATTERN_FILL
  6
Continuous
 62
     7
100
AcDbLine
 10
-52.5
 20
-264.9999999999997
 30
0.0
 11
-47.5
 21
-263.9197530864195
 31
0.0
  0
LINE
  5
14C
330
3C1
100
AcDbEntity
  8
PATTERN_FILL
  6
Continuous
 62
     7
100
AcDbLine
 10
-52.5
 20
-264.3999999999997
 30
0.0
 11
-47.5
 21
-263.3197530864195
 31
0.0
  0
LINE
  5
14D
330
3C1
100
AcDbEntity
  8
PATTERN_FILL
  6
Continuous
 62
     7
100
AcDbLine
 10
-52.5
 20
-263.1999999999999
 30
0.0
 11
-47.5
 21
-262.1197530864196
 31
0.0
  0
LINE
  5
14E
330
3C1
100
AcDbEntity
  8
PATTERN_FILL
  6
Continuous
 62
     7
100
AcDbLine
 10
-52.5
 20
-262.5999999999998
 30
0.0
 11
-47.5
 21
-261.5197530864195
 31
0.0
  0
LINE
  5
14F
330
3C1
100
AcDbEntity
  8
PATTERN_FILL
  6
Continuous
 62
     7
100
AcDbLine
 10
-52.5
 20
-261.3999999999998
 30
0.0
 11
-47.5
 21
-260.3197530864195
 31
0.0
  0
LINE
  5
150
330
3C1
100
AcDbEntity
  8
PATTERN_FILL
  6
Continuous
 62
     7
100
AcDbLine
 10
-52.5
 20
-260.7999999999997
 30
0.0
 11
-47.5
 21
-259.7197530864196
 31
0.0
  0
LINE
  5
151
330
3C1
100
AcDbEntity
  8
PATTERN_FILL
  6
Continuous
 62
     7
100
AcDbLine
 10
-52.5
 20
-259.5999999999998
 30
0.0
 11
-47.5
 21
-258.5197530864196
 31
0.0
  0
LINE
  5
152
330
3C1
100
AcDbEntity
  8
PATTERN_FILL
  6
Continuous
 62
     7
100
AcDbLine
 10
-52.5
 20
-258.9999999999997
 30
0.0
 11
-47.5
 21
-257.9197530864195
 31
0.0
  0
LINE
  5
153
330
3C1
100
AcDbEntity
  8
PATTERN_FILL
  6
Continuous
 62
     7
100
AcDbLine
 10
-52.5
 20
-257.7999999999998
 30
0.0
 11
-47.5
 21
-256.7197530864196
 31
0.0
  0
LINE
  5
154
330
3C1
100
AcDbEntity
  8
PATTERN_FILL
  6
Continuous
 62
     7
100
AcDbLine
 10
-52.5
 20
-257.1999999999999
 30
0.0
 11
-47.5
 21
-256.1197530864196
 31
0.0
  0
LINE
  5
155
330
3C1
100
AcDbEntity
  8
PATTERN_FILL
  6
Continuous
 62
     7
100
AcDbLine
 10
-52.5
 20
-255.9999999999997
 30
0.0
 11
-47.5
 21
-254.9197530864195
 31
0.0
  0
LINE
  5
156
330
3C1
100
AcDbEntity
  8
PATTERN_FILL
  6
Continuous
 62
     7
100
AcDbLine
 10
-52.5
 20
-255.3999999999997
 30
0.0
 11
-47.5
 21
-254.3197530864195
 31
0.0
  0
LINE
  5
157
330
3C1
100
AcDbEntity
  8
PATTERN_FILL
  6
Continuous
 62
     7
100
AcDbLine
 10
-52.5
 20
-254.1999999999998
 30
0.0
 11
-47.5
 21
-253.1197530864196
 31
0.0
  0
LINE
  5
158
330
3C1
100
AcDbEntity
  8
PATTERN_FILL
  6
Continuous
 62
     7
100
AcDbLine
 10
-52.5
 20
-253.5999999999998
 30
0.0
 11
-47.5
 21
-252.5197530864196
 31
0.0
  0
LINE
  5
159
330
3C1
100
AcDbEntity
  8
PATTERN_FILL
  6
Continuous
 62
     7
100
AcDbLine
 10
-52.5
 20
-252.3999999999998
 30
0.0
 11
-47.5
 21
-251.3197530864196
 31
0.0
  0
LINE
  5
15A
330
3C1
100
AcDbEntity
  8
PATTERN_FILL
  6
Continuous
 62
     7
100
AcDbLine
 10
-52.5
 20
-251.7999999999998
 30
0.0
 11
-47.5
 21
-250.7197530864196
 31
0.0
  0
LINE
  5
15B
330
3C1
100
AcDbEntity
  8
PATTERN_FILL
  6
Continuous
 62
     7
100
AcDbLine
 10
-52.5
 20
-250.5999999999998
 30
0.0
 11
-47.5
 21
-249.5197530864196
 31
0.0
  0
LINE
  5
15C
330
3C1
100
AcDbEntity
  8
PATTERN_FILL
  6
Continuous
 62
     7
100
AcDbLine
 10
-52.5
 20
-249.9999999999997
 30
0.0
 11
-47.5
 21
-248.9197530864195
 31
0.0
  0
LINE
  5
15D
330
3C1
100
AcDbEntity
  8
PATTERN_FILL
  6
Continuous
 62
     7
100
AcDbLine
 10
-52.5
 20
-248.7999999999999
 30
0.0
 11
-47.5
 21
-247.7197530864196
 31
0.0
  0
LINE
  5
15E
330
3C1
100
AcDbEntity
  8
PATTERN_FILL
  6
Continuous
 62
     7
100
AcDbLine
 10
-52.5
 20
-248.1999999999998
 30
0.0
 11
-47.5
 21
-247.1197530864196
 31
0.0
  0
LINE
  5
15F
330
3C1
100
AcDbEntity
  8
PATTERN_FILL
  6
Continuous
 62
     7
100
AcDbLine
 10
-52.5
 20
-246.9999999999997
 30
0.0
 11
-47.5
 21
-245.9197530864196
 31
0.0
  0
LINE
  5
160
330
3C1
100
AcDbEntity
  8
PATTERN_FILL
  6
Continuous
 62
     7
100
AcDbLine
 10
-52.5
 20
-246.3999999999998
 30
0.0
 11
-47.5
 21
-245.3197530864195
 31
0.0
  0
LINE
  5
161
330
3C1
100
AcDbEntity
  8
PATTERN_FILL
  6
Continuous
 62
     7
100
AcDbLine
 10
-52.5
 20
-245.1999999999999
 30
0.0
 11
-47.5
 21
-244.1197530864196
 31
0.0
  0
LINE
  5
162
330
3C1
100
AcDbEntity
  8
PATTERN_FILL
  6
Continuous
 62
     7
100
AcDbLine
 10
-52.5
 20
-244.5999999999998
 30
0.0
 11
-47.5
 21
-243.5197530864196
 31
0.0
  0
LINE
  5
163
330
3C1
100
AcDbEntity
  8
PATTERN_FILL
  6
Continuous
 62
     7
100
AcDbLine
 10
-52.5
 20
-243.3999999999998
 30
0.0
 11
-47.5
 21
-242.3197530864196
 31
0.0
  0
LINE
  5
164
330
3C1
100
AcDbEntity
  8
PATTERN_FILL
  6
Continuous
 62
     7
100
AcDbLine
 10
-52.5
 20
-242.7999999999999
 30
0.0
 11
-47.5
 21
-241.7197530864196
 31
0.0
  0
LINE
  5
165
330
3C1
100
AcDbEntity
  8
PATTERN_FILL
  6
Continuous
 62
     7
100
AcDbLine
 10
-52.5
 20
-241.5999999999998
 30
0.0
 11
-47.5
 21
-240.5197530864196
 31
0.0
  0
LINE
  5
166
330
3C1
100
AcDbEntity
  8
PATTERN_FILL
  6
Continuous
 62
     7
100
AcDbLine
 10
-52.5
 20
-240.9999999999997
 30
0.0
 11
-47.5
 21
-239.9197530864195
 31
0.0
  0
LINE
  5
167
330
3C1
100
AcDbEntity
  8
PATTERN_FILL
  6
Continuous
 62
     7
100
AcDbLine
 10
-52.5
 20
-239.7999999999998
 30
0.0
 11
-47.5
 21
-238.7197530864196
 31
0.0
  0
LINE
  5
168
330
3C1
100
AcDbEntity
  8
PATTERN_FILL
  6
Continuous
 62
     7
100
AcDbLine
 10
-52.5
 20
-239.1999999999999
 30
0.0
 11
-47.5
 21
-238.1197530864196
 31
0.0
  0
LINE
  5
169
330
3C1
100
AcDbEntity
  8
PATTERN_FILL
  6
Continuous
 62
     7
100
AcDbLine
 10
-52.5
 20
-237.9999999999999
 30
0.0
 11
-51.62003316071264
 21
-237.8098837075612
 31
0.0
  0
LINE
  5
16A
330
3C1
100
AcDbEntity
  8
PATTERN_FILL
  6
Continuous
 62
     7
100
AcDbLine
 10
-52.5
 20
-286.5999999999998
 30
0.0
 11
-47.5
 21
-285.5197530864195
 31
0.0
  0
LINE
  5
16B
330
3C1
100
AcDbEntity
  8
SPEC
  6
Continuous
 62
     7
100
AcDbLine
 10
-412.4999999999999
 20
614.0351411111111
 30
0.0
 11
-412.4999999999999
 21
295.2851411111111
 31
0.0
  0
TEXT
  5
16C
330
3C1
100
AcDbEntity
  8
SPEC
 62
     7
100
AcDbText
 10
-406.2499999999999
 20
621.0014911111111
 30
0.0
 40
12.21630859375
  1
仕様
 41
0.7
 11
-406.2499999999999
 21
633.2177997048611
 31
0.0
100
AcDbText
 73
     3
  0
LINE
  5
16D
330
3C1
100
AcDbEntity
  8
SPEC
  6
Continuous
 62
     7
100
AcDbLine
 10
387.5
 20
614.0351411111111
 30
0.0
 11
387.5
 21
295.2851411111111
 31
0.0
  0
TEXT
  5
16E
330
3C1
100
AcDbEntity
  8
SPEC
 62
     7
100
AcDbText
 10
-408.0
 20
467.9747300000001
 30
0.0
 40
9.501573350694446
  1
ダイナミックレンジ
 41
0.7
 11
-408.0
 21
477.4763033506945
 31
0.0
100
AcDbText
 73
     3
  0
TEXT
  5
16F
330
3C1
100
AcDbEntity
  8
SPEC
 62
     7
100
AcDbText
 10
-408.0
 20
449.2247300000001
 30
0.0
 40
9.501573350694446
  1
最大音圧レベル
 41
0.7
 11
-408.0
 21
458.7263033506945
 31
0.0
100
AcDbText
 73
     3
  0
TEXT
  5
170
330
3C1
100
AcDbEntity
  8
SPEC
 62
     7
100
AcDbText
 10
-408.0
 20
355.4747300000002
 30
0.0
 40
9.501573350694446
  1
コネクター
 41
0.7
 11
-408.0
 21
364.9763033506946
 31
0.0
100
AcDbText
 73
     3
  0
TEXT
  5
171
330
3C1
100
AcDbEntity
  8
SPEC
 62
     7
100
AcDbText
 10
-408.0
 20
336.7247300000002
 30
0.0
 40
9.501573350694446
  1
寸法(φ×Hmm)※組立時
 41
0.7
 11
-408.0
 21
346.2263033506946
 31
0.0
100
AcDbText
 73
     3
  0
TEXT
  5
172
330
3C1
100
AcDbEntity
  8
SPEC
 62
     7
100
AcDbText
 10
-408.0
 20
317.9747300000002
 30
0.0
 40
9.501573350694446
  1
質量
 41
0.7
 11
-408.0
 21
327.4763033506946
 31
0.0
100
AcDbText
 73
     3
  0
TEXT
  5
173
330
3C1
100
AcDbEntity
  8
SPEC
 62
     7
100
AcDbText
 10
-408.0
 20
299.2247300000002
 30
0.0
 40
9.501573350694446
  1
セット内容
 41
0.7
 11
-408.0
 21
308.7263033506946
 31
0.0
100
AcDbText
 73
     3
  0
LINE
  5
174
330
3C1
100
AcDbEntity
  8
SPEC
  6
Continuous
 62
     7
100
AcDbLine
 10
-412.4999999999999
 20
614.0351411111111
 30
0.0
 11
387.5
 21
614.0351411111111
 31
0.0
  0
LINE
  5
175
330
3C1
100
AcDbEntity
  8
SPEC
  6
Continuous
 62
     7
100
AcDbLine
 10
-412.4999999999999
 20
595.2851411111111
 30
0.0
 11
387.5
 21
595.2851411111111
 31
0.0
  0
LINE
  5
176
330
3C1
100
AcDbEntity
  8
SPEC
  6
Continuous
 62
     7
100
AcDbLine
 10
-412.4999999999999
 20
576.5351411111111
 30
0.0
 11
387.5
 21
576.5351411111111
 31
0.0
  0
LINE
  5
177
330
3C1
100
AcDbEntity
  8
SPEC
  6
Continuous
 62
     7
100
AcDbLine
 10
-412.4999999999999
 20
557.7851411111111
 30
0.0
 11
387.5
 21
557.7851411111111
 31
0.0
  0
LINE
  5
178
330
3C1
100
AcDbEntity
  8
SPEC
  6
Continuous
 62
     7
100
AcDbLine
 10
-412.4999999999999
 20
539.0351411111111
 30
0.0
 11
387.5
 21
539.0351411111111
 31
0.0
  0
LINE
  5
179
330
3C1
100
AcDbEntity
  8
SPEC
  6
Continuous
 62
     7
100
AcDbLine
 10
-412.4999999999999
 20
520.2851411111111
 30
0.0
 11
387.5
 21
520.2851411111111
 31
0.0
  0
LINE
  5
17A
330
3C1
100
AcDbEntity
  8
SPEC
  6
Continuous
 62
     7
100
AcDbLine
 10
-412.4999999999999
 20
501.5351411111111
 30
0.0
 11
387.5
 21
501.5351411111111
 31
0.0
  0
LINE
  5
17B
330
3C1
100
AcDbEntity
  8
SPEC
  6
Continuous
 62
     7
100
AcDbLine
 10
-412.4999999999999
 20
482.7851411111111
 30
0.0
 11
387.5
 21
482.7851411111111
 31
0.0
  0
TEXT
  5
17C
330
3C1
100
AcDbEntity
  8
SPEC
 62
     7
100
AcDbText
 10
-408.0
 20
599.22473
 30
0.0
 40
9.501573350694446
  1
指向特性
 41
0.7
 11
-408.0
 21
608.7263033506944
 31
0.0
100
AcDbText
 73
     3
  0
TEXT
  5
17D
330
3C1
100
AcDbEntity
  8
SPEC
 62
     7
100
AcDbText
 10
-408.0
 20
580.47473
 30
0.0
 40
9.501573350694446
  1
カートリッジ
 41
0.7
 11
-408.0
 21
589.9763033506944
 31
0.0
100
AcDbText
 73
     3
  0
TEXT
  5
17E
330
3C1
100
AcDbEntity
  8
SPEC
 62
     7
100
AcDbText
 10
-408.0
 20
561.72473
 30
0.0
 40
9.501573350694446
  1
周波数特性
 41
0.7
 11
-408.0
 21
571.2263033506944
 31
0.0
100
AcDbText
 73
     3
  0
TEXT
  5
17F
330
3C1
100
AcDbEntity
  8
SPEC
 62
     7
100
AcDbText
 10
-408.0
 20
542.9747300000001
 30
0.0
 40
9.501573350694446
  1
周波数特性(±2dB, 20cm)
 41
0.7
 11
-408.0
 21
552.4763033506945
 31
0.0
100
AcDbText
 73
     3
  0
TEXT
  5
180
330
3C1
100
AcDbEntity
  8
SPEC
 62
     7
100
AcDbText
 10
-408.0
 20
524.2247300000001
 30
0.0
 40
9.501573350694446
  1
感度(±3dB@1kHz)
 41
0.7
 11
-408.0
 21
533.7263033506945
 31
0.0
100
AcDbText
 73
     3
  0
TEXT
  5
181
330
3C1
100
AcDbEntity
  8
SPEC
 62
     7
100
AcDbText
 10
-408.0
 20
505.4747300000001
 30
0.0
 40
9.501573350694446
  1
等価雑音レベル(Aウェイト)
 41
0.7
 11
-408.0
 21
514.9763033506945
 31
0.0
100
AcDbText
 73
     3
  0
TEXT
  5
182
330
3C1
100
AcDbEntity
  8
SPEC
 62
     7
100
AcDbText
 10
-408.0
 20
486.7247300000001
 30
0.0
 40
9.501573350694446
  1
全高調波歪(THD)
 41
0.7
 11
-408.0
 21
496.2263033506945
 31
0.0
100
AcDbText
 73
     3
  0
LINE
  5
183
330
3C1
100
AcDbEntity
  8
SPEC
  6
Continuous
 62
     7
100
AcDbLine
 10
-412.4999999999999
 20
464.0351411111111
 30
0.0
 11
387.5
 21
464.0351411111111
 31
0.0
  0
LINE
  5
184
330
3C1
100
AcDbEntity
  8
SPEC
  6
Continuous
 62
     7
100
AcDbLine
 10
-224.9999999999999
 20
614.0351411111111
 30
0.0
 11
-224.9999999999999
 21
295.2851411111111
 31
0.0
  0
TEXT
  5
185
330
3C1
100
AcDbEntity
  8
SPEC
 62
     7
100
AcDbText
 10
-408.0
 20
430.4747300000001
 30
0.0
 40
9.501573350694446
  1
出力インピーダンス
 41
0.7
 11
-408.0
 21
439.9763033506945
 31
0.0
100
AcDbText
 73
     3
  0
TEXT
  5
186
330
3C1
100
AcDbEntity
  8
SPEC
 62
     7
100
AcDbText
 10
-408.0
 20
411.7247300000001
 30
0.0
 40
9.501573350694446
  1
最小負荷インピーダンス
 41
0.7
 11
-408.0
 21
421.2263033506945
 31
0.0
100
AcDbText
 73
     3
  0
TEXT
  5
187
330
3C1
100
AcDbEntity
  8
SPEC
 62
     7
100
AcDbText
 10
-408.0
 20
392.9747300000002
 30
0.0
 40
9.501573350694446
  1
電源
 41
0.7
 11
-408.0
 21
402.4763033506945
 31
0.0
100
AcDbText
 73
     3
  0
TEXT
  5
188
330
3C1
100
AcDbEntity
  8
SPEC
 62
     7
100
AcDbText
 10
-408.0
 20
374.2247300000002
 30
0.0
 40
9.501573350694446
  1
色
 41
0.7
 11
-408.0
 21
383.7263033506946
 31
0.0
100
AcDbText
 73
     3
  0
LINE
  5
189
330
3C1
100
AcDbEntity
  8
SPEC
  6
Continuous
 62
     7
100
AcDbLine
 10
-412.4999999999999
 20
445.2851411111111
 30
0.0
 11
387.5
 21
445.2851411111111
 31
0.0
  0
LINE
  5
18A
330
3C1
100
AcDbEntity
  8
SPEC
  6
Continuous
 62
     7
100
AcDbLine
 10
-412.4999999999999
 20
407.7851411111111
 30
0.0
 11
387.5
 21
407.7851411111111
 31
0.0
  0
LINE
  5
18B
330
3C1
100
AcDbEntity
  8
SPEC
  6
Continuous
 62
     7
100
AcDbLine
 10
-412.4999999999999
 20
389.0351411111112
 30
0.0
 11
387.5
 21
389.0351411111112
 31
0.0
  0
LINE
  5
18C
330
3C1
100
AcDbEntity
  8
SPEC
  6
Continuous
 62
     7
100
AcDbLine
 10
-412.4999999999999
 20
370.2851411111112
 30
0.0
 11
387.5
 21
370.2851411111112
 31
0.0
  0
LINE
  5
18D
330
3C1
100
AcDbEntity
  8
SPEC
  6
Continuous
 62
     7
100
AcDbLine
 10
-412.4999999999999
 20
351.5351411111112
 30
0.0
 11
387.5
 21
351.5351411111112
 31
0.0
  0
LINE
  5
18E
330
3C1
100
AcDbEntity
  8
SPEC
  6
Continuous
 62
     7
100
AcDbLine
 10
-412.4999999999999
 20
332.7851411111111
 30
0.0
 11
387.5
 21
332.7851411111111
 31
0.0
  0
LINE
  5
18F
330
3C1
100
AcDbEntity
  8
SPEC
  6
Continuous
 62
     7
100
AcDbLine
 10
-412.4999999999999
 20
314.0351411111111
 30
0.0
 11
387.5
 21
314.0351411111111
 31
0.0
  0
LINE
  5
190
330
3C1
100
AcDbEntity
  8
SPEC
  6
Continuous
 62
     7
100
AcDbLine
 10
-412.4999999999999
 20
295.2851411111111
 30
0.0
 11
387.5
 21
295.2851411111111
 31
0.0
  0
TEXT
  5
191
330
3C1
100
AcDbEntity
  8
SPEC
 62
     7
100
AcDbText
 10
-220.5
 20
599.22473
 30
0.0
 40
9.501573350694446
  1
超単一指向性
 41
0.7
 11
-220.5
 21
608.7263033506944
 31
0.0
100
AcDbText
 73
     3
  0
TEXT
  5
192
330
3C1
100
AcDbEntity
  8
SPEC
 62
     7
100
AcDbText
 10
-220.5
 20
580.47473
 30
0.0
 40
9.501573350694446
  1
プリポラライズド・コンデンサー型 
 41
0.7
 11
-220.5
 21
589.9763033506944
 31
0.0
100
AcDbText
 73
     3
  0
TEXT
  5
193
330
3C1
100
AcDbEntity
  8
SPEC
 62
     7
100
AcDbText
 10
-220.5
 20
561.72473
 30
0.0
 40
9.501573350694446
  1
20Hz～20kHz
 41
0.7
 11
-220.5
 21
571.2263033506944
 31
0.0
100
AcDbText
 73
     3
  0
TEXT
  5
194
330
3C1
100
AcDbEntity
  8
SPEC
 62
     7
100
AcDbText
 10
-220.5
 20
524.2247300000001
 30
0.0
 40
9.501573350694446
  1
-36dB re. 1V/Pa
 41
0.7
 11
-220.5
 21
533.7263033506945
 31
0.0
100
AcDbText
 73
     3
  0
TEXT
  5
195
330
3C1
100
AcDbEntity
  8
SPEC
 62
     7
100
AcDbText
 10
-220.5
 20
505.4747300000001
 30
0.0
 40
9.501573350694446
  1
23dB(A)
 41
0.7
 11
-220.5
 21
514.9763033506945
 31
0.0
100
AcDbText
 73
     3
  0
TEXT
  5
196
330
3C1
100
AcDbEntity
  8
SPEC
 62
     7
100
AcDbText
 10
-220.5
 20
486.7247300000001
 30
0.0
 40
9.501573350694446
  1
1%%%以下(125dB SPL)
 41
0.7
 11
-220.5
 21
496.2263033506945
 31
0.0
100
AcDbText
 73
     3
  0
TEXT
  5
197
330
3C1
100
AcDbEntity
  8
SPEC
 62
     7
100
AcDbText
 10
-220.5
 20
467.9747300000001
 30
0.0
 40
9.501573350694446
  1
102dB
 41
0.7
 11
-220.5
 21
477.4763033506945
 31
0.0
100
AcDbText
 73
     3
  0
TEXT
  5
198
330
3C1
100
AcDbEntity
  8
SPEC
 62
     7
100
AcDbText
 10
-220.5
 20
449.2247300000001
 30
0.0
 40
9.501573350694446
  1
135dB
 41
0.7
 11
-220.5
 21
458.7263033506945
 31
0.0
100
AcDbText
 73
     3
  0
TEXT
  5
199
330
3C1
100
AcDbEntity
  8
SPEC
 62
     7
100
AcDbText
 10
-220.5
 20
430.4747300000001
 30
0.0
 40
9.501573350694446
  1
100Ω
 41
0.7
 11
-220.5
 21
439.9763033506945
 31
0.0
100
AcDbText
 73
     3
  0
TEXT
  5
19A
330
3C1
100
AcDbEntity
  8
SPEC
 62
     7
100
AcDbText
 10
-220.5
 20
411.7247300000001
 30
0.0
 40
9.501573350694446
  1
2kΩ
 41
0.7
 11
-220.5
 21
421.2263033506945
 31
0.0
100
AcDbText
 73
     3
  0
TEXT
  5
19B
330
3C1
100
AcDbEntity
  8
SPEC
 62
     7
100
AcDbText
 10
-220.5
 20
374.2247300000002
 30
0.0
 40
9.501573350694446
  1
白
 41
0.7
 11
-220.5
 21
383.7263033506946
 31
0.0
100
AcDbText
 73
     3
  0
TEXT
  5
19C
330
3C1
100
AcDbEntity
  8
SPEC
 62
     7
100
AcDbText
 10
-220.5
 20
355.4747300000002
 30
0.0
 40
9.501573350694446
  1
XLR3ピン(オス)
 41
0.7
 11
-220.5
 21
364.9763033506946
 31
0.0
100
AcDbText
 73
     3
  0
TEXT
  5
19D
330
3C1
100
AcDbEntity
  8
SPEC
 62
     7
100
AcDbText
 10
-220.5
 20
336.7247300000002
 30
0.0
 40
9.501573350694446
  1
110×158mm(除ケーブル、ウインドスクリーン)
 41
0.7
 11
-220.5
 21
346.2263033506946
 31
0.0
100
AcDbText
 73
     3
  0
TEXT
  5
19E
330
3C1
100
AcDbEntity
  8
SPEC
 62
     7
100
AcDbText
 10
-220.5
 20
299.2247300000002
 30
0.0
 40
9.501573350694446
  1
グースネック・マイクロホン(SC4098-WM15)×1マイクロホン・ベース(DM6000-WX)×1ロッキングリング×1
 41
0.7
 11
-220.5
 21
308.7263033506946
 31
0.0
100
AcDbText
 73
     3
  0
LINE
  5
19F
330
3C1
100
AcDbEntity
  8
SPEC
  6
Continuous
 62
     7
100
AcDbLine
 10
-412.4999999999999
 20
426.5351411111111
 30
0.0
 11
387.5
 21
426.5351411111111
 31
0.0
  0
TEXT
  5
1A0
330
3C1
100
AcDbEntity
  8
SPEC
 62
     7
100
AcDbText
 10
-220.5
 20
317.9747300000002
 30
0.0
 40
9.501573350694446
  1
約365g(含ケーブル)
 41
0.7
 11
-220.5
 21
327.4763033506946
 31
0.0
100
AcDbText
 73
     3
  0
TEXT
  5
1A1
330
3C1
100
AcDbEntity
  8
SPEC
 62
     7
100
AcDbText
 10
-220.5
 20
542.9747300000001
 30
0.0
 40
9.501573350694446
  1
80Hz～15kHz、3dBソフトブースト@8～15kHz
 41
0.7
 11
-220.5
 21
552.4763033506945
 31
0.0
100
AcDbText
 73
     3
  0
TEXT
  5
1A2
330
3C1
100
AcDbEntity
  8
SPEC
 62
     7
100
AcDbText
 10
-220.5
 20
392.9747300000002
 30
0.0
 40
9.501573350694446
  1
ファンタム48V±4V
 41
0.7
 11
-220.5
 21
402.4763033506945
 31
0.0
100
AcDbText
 73
     3
  0
TEXT
  5
1A3
330
3C1
100
AcDbEntity
  8
DIMNSIONS
 62
     7
100
AcDbText
 10
-99.99999999999996
 20
-574.6174088888888
 30
0.0
 40
12.21630859375
  1
(単位：mm)
 41
0.7
 11
-99.99999999999996
 21
-562.4011002951387
 31
0.0
100
AcDbText
 73
     3
  0
LINE
  5
1A4
330
3C1
100
AcDbEntity
  8
DIMNSIONS
  6
Continuous
 62
     7
100
AcDbLine
 10
-250.0
 20
-357.5
 30
0.0
 11
-250.0
 21
-380.0
 31
0.0
  0
LINE
  5
1A5
330
3C1
100
AcDbEntity
  8
DIMNSIONS
  6
Continuous
 62
     7
100
AcDbLine
 10
-150.0
 20
-357.5
 30
0.0
 11
-150.0
 21
-380.0
 31
0.0
  0
LINE
  5
1A6
330
3C1
100
AcDbEntity
  8
DIMNSIONS
  6
Continuous
 62
     7
100
AcDbLine
 10
-250.0
 20
-375.0
 30
0.0
 11
-150.0
 21
-375.0
 31
0.0
  0
LINE
  5
1A7
330
3C1
100
AcDbEntity
  8
DIMNSIONS
  6
Continuous
 62
     7
100
AcDbLine
 10
-250.0
 20
-375.0
 30
0.0
 11
-240.0006103515625
 21
-372.3206716188971
 31
0.0
  0
LINE
  5
1A8
330
3C1
100
AcDbEntity
  8
DIMNSIONS
  6
Continuous
 62
     7
100
AcDbLine
 10
-250.0
 20
-375.0
 30
0.0
 11
-240.0006103515625
 21
-377.6793283811029
 31
0.0
  0
LINE
  5
1A9
330
3C1
100
AcDbEntity
  8
DIMNSIONS
  6
Continuous
 62
     7
100
AcDbLine
 10
-150.0
 20
-375.0
 30
0.0
 11
-159.9993896484375
 21
-377.6793283811029
 31
0.0
  0
LINE
  5
1AA
330
3C1
100
AcDbEntity
  8
DIMNSIONS
  6
Continuous
 62
     7
100
AcDbLine
 10
-150.0
 20
-375.0
 30
0.0
 11
-159.9993896484375
 21
-372.3206716188971
 31
0.0
  0
TEXT
  5
1AB
330
3C1
100
AcDbEntity
  8
DIMNSIONS
 62
     7
100
AcDbText
 10
-213.2291666666666
 20
-370.0305555555555
 30
0.0
 40
13.57367621527778
  1
100
 41
0.7
 11
-213.2291666666666
 21
-356.4568793402778
 31
0.0
100
AcDbText
 73
     3
  0
LINE
  5
1AC
330
3C1
100
AcDbEntity
  8
DIMNSIONS
  6
Continuous
 62
     7
100
AcDbLine
 10
-254.8
 20
-350.6999999999999
 30
0.0
 11
-292.5
 21
-350.6999999999999
 31
0.0
  0
LINE
  5
1AD
330
3C1
100
AcDbEntity
  8
DIMNSIONS
  6
Continuous
 62
     7
100
AcDbLine
 10
-257.5
 20
-350.0
 30
0.0
 11
-292.5
 21
-350.0
 31
0.0
  0
LINE
  5
1AE
330
3C1
100
AcDbEntity
  8
DIMNSIONS
  6
Continuous
 62
     7
100
AcDbLine
 10
-287.5
 20
-350.0
 30
0.0
 11
-287.5
 21
-350.6999999999999
 31
0.0
  0
LINE
  5
1AF
330
3C1
100
AcDbEntity
  8
DIMNSIONS
  6
Continuous
 62
     7
100
AcDbLine
 10
-287.5
 20
-350.6999999999999
 30
0.0
 11
-287.5
 21
-388.9583333333332
 31
0.0
  0
LINE
  5
1B0
330
3C1
100
AcDbEntity
  8
DIMNSIONS
  6
Continuous
 62
     7
100
AcDbLine
 10
-287.5
 20
-350.6999999999999
 30
0.0
 11
-284.820671618897
 21
-360.6993896484374
 31
0.0
  0
LINE
  5
1B1
330
3C1
100
AcDbEntity
  8
DIMNSIONS
  6
Continuous
 62
     7
100
AcDbLine
 10
-287.5
 20
-350.6999999999999
 30
0.0
 11
-290.1793283811029
 21
-360.6993896484374
 31
0.0
  0
LINE
  5
1B2
330
3C1
100
AcDbEntity
  8
DIMNSIONS
  6
Continuous
 62
     7
100
AcDbLine
 10
-287.5
 20
-350.0
 30
0.0
 11
-287.5
 21
-332.5
 31
0.0
  0
LINE
  5
1B3
330
3C1
100
AcDbEntity
  8
DIMNSIONS
  6
Continuous
 62
     7
100
AcDbLine
 10
-287.5
 20
-350.0
 30
0.0
 11
-290.1793283811029
 21
-340.0006103515625
 31
0.0
  0
LINE
  5
1B4
330
3C1
100
AcDbEntity
  8
DIMNSIONS
  6
Continuous
 62
     7
100
AcDbLine
 10
-287.5
 20
-350.0
 30
0.0
 11
-284.820671618897
 21
-340.0006103515625
 31
0.0
  0
TEXT
  5
1B5
330
3C1
100
AcDbEntity
  8
DIMNSIONS
 62
     7
100
AcDbText
 10
-292.4694444444445
 20
-388.9583333333334
 30
0.0
 40
13.57367621527778
  1
0.7
 50
90.0
 41
0.7
 11
-306.0431206597223
 21
-388.9583333333334
 31
0.0
100
AcDbText
 73
     3
  0
LINE
  5
1B6
330
3C1
100
AcDbEntity
  8
DIMNSIONS
  6
Continuous
 62
     7
100
AcDbLine
 10
-257.5
 20
-350.0
 30
0.0
 11
-267.5
 21
-350.0
 31
0.0
  0
LINE
  5
1B7
330
3C1
100
AcDbEntity
  8
DIMNSIONS
  6
Continuous
 62
     7
100
AcDbLine
 10
-212.3499999999999
 20
-335.1999999999999
 30
0.0
 11
-267.5
 21
-335.1999999999999
 31
0.0
  0
LINE
  5
1B8
330
3C1
100
AcDbEntity
  8
DIMNSIONS
  6
Continuous
 62
     7
100
AcDbLine
 10
-262.5
 20
-335.1999999999999
 30
0.0
 11
-262.5
 21
-350.0
 31
0.0
  0
LINE
  5
1B9
330
3C1
100
AcDbEntity
  8
DIMNSIONS
  6
Continuous
 62
     7
100
AcDbLine
 10
-262.5
 20
-350.0
 30
0.0
 11
-262.5
 21
-367.5
 31
0.0
  0
LINE
  5
1BA
330
3C1
100
AcDbEntity
  8
DIMNSIONS
  6
Continuous
 62
     7
100
AcDbLine
 10
-262.5
 20
-350.0
 30
0.0
 11
-259.820671618897
 21
-359.9993896484375
 31
0.0
  0
LINE
  5
1BB
330
3C1
100
AcDbEntity
  8
DIMNSIONS
  6
Continuous
 62
     7
100
AcDbLine
 10
-262.5
 20
-350.0
 30
0.0
 11
-265.1793283811029
 21
-359.9993896484375
 31
0.0
  0
LINE
  5
1BC
330
3C1
100
AcDbEntity
  8
DIMNSIONS
  6
Continuous
 62
     7
100
AcDbLine
 10
-262.5
 20
-335.1999999999999
 30
0.0
 11
-262.5
 21
-289.7222222222222
 31
0.0
  0
LINE
  5
1BD
330
3C1
100
AcDbEntity
  8
DIMNSIONS
  6
Continuous
 62
     7
100
AcDbLine
 10
-262.5
 20
-335.1999999999999
 30
0.0
 11
-265.1793283811029
 21
-325.2006103515624
 31
0.0
  0
LINE
  5
1BE
330
3C1
100
AcDbEntity
  8
DIMNSIONS
  6
Continuous
 62
     7
100
AcDbLine
 10
-262.5
 20
-335.1999999999999
 30
0.0
 11
-259.820671618897
 21
-325.2006103515624
 31
0.0
  0
TEXT
  5
1BF
330
3C1
100
AcDbEntity
  8
DIMNSIONS
 62
     7
100
AcDbText
 10
-267.4694444444445
 20
-325.0
 30
0.0
 40
13.57367621527778
  1
14.8
 50
90.0
 41
0.7
 11
-281.0431206597223
 21
-325.0
 31
0.0
100
AcDbText
 73
     3
  0
LINE
  5
1C0
330
3C1
100
AcDbEntity
  8
DIMNSIONS
  6
Continuous
 62
     7
100
AcDbLine
 10
-257.5
 20
-349.9999999999998
 30
0.0
 11
-292.5
 21
-349.9999999999998
 31
0.0
  0
LINE
  5
1C1
330
3C1
100
AcDbEntity
  8
DIMNSIONS
  6
Continuous
 62
     7
100
AcDbLine
 10
-210.3
 20
-191.600000000041
 30
0.0
 11
-292.5
 21
-191.600000000041
 31
0.0
  0
LINE
  5
1C2
330
3C1
100
AcDbEntity
  8
DIMNSIONS
  6
Continuous
 62
     7
100
AcDbLine
 10
-287.5
 20
-349.9999999999998
 30
0.0
 11
-287.5
 21
-191.600000000041
 31
0.0
  0
LINE
  5
1C3
330
3C1
100
AcDbEntity
  8
DIMNSIONS
  6
Continuous
 62
     7
100
AcDbLine
 10
-287.5
 20
-349.9999999999998
 30
0.0
 11
-290.1793283811029
 21
-340.0006103515624
 31
0.0
  0
LINE
  5
1C4
330
3C1
100
AcDbEntity
  8
DIMNSIONS
  6
Continuous
 62
     7
100
AcDbLine
 10
-287.5
 20
-349.9999999999998
 30
0.0
 11
-284.820671618897
 21
-340.0006103515624
 31
0.0
  0
LINE
  5
1C5
330
3C1
100
AcDbEntity
  8
DIMNSIONS
  6
Continuous
 62
     7
100
AcDbLine
 10
-287.5
 20
-191.600000000041
 30
0.0
 11
-284.820671618897
 21
-201.5993896484785
 31
0.0
  0
LINE
  5
1C6
330
3C1
100
AcDbEntity
  8
DIMNSIONS
  6
Continuous
 62
     7
100
AcDbLine
 10
-287.5
 20
-191.600000000041
 30
0.0
 11
-290.1793283811029
 21
-201.5993896484785
 31
0.0
  0
TEXT
  5
1C7
330
3C1
100
AcDbEntity
  8
DIMNSIONS
 62
     7
100
AcDbText
 10
-292.4694444444445
 20
-284.0291666666872
 30
0.0
 40
13.57367621527778
  1
158
 50
90.0
 41
0.7
 11
-306.0431206597223
 21
-284.0291666666872
 31
0.0
100
AcDbText
 73
     3
  0
LINE
  5
1C8
330
3C1
100
AcDbEntity
  8
DIMNSIONS
  6
Continuous
 62
     7
100
AcDbLine
 10
-210.3
 20
-191.600000000041
 30
0.0
 11
-292.5
 21
-191.600000000041
 31
0.0
  0
LINE
  5
1C9
330
3C1
100
AcDbEntity
  8
DIMNSIONS
  6
Continuous
 62
     7
100
AcDbLine
 10
-207.5
 20
-179.8098837075943
 30
0.0
 11
-292.5
 21
-179.8098837075943
 31
0.0
  0
LINE
  5
1CA
330
3C1
100
AcDbEntity
  8
DIMNSIONS
  6
Continuous
 62
     7
100
AcDbLine
 10
-287.5
 20
-179.8098837075943
 30
0.0
 11
-287.5
 21
-191.600000000041
 31
0.0
  0
LINE
  5
1CB
330
3C1
100
AcDbEntity
  8
DIMNSIONS
  6
Continuous
 62
     7
100
AcDbLine
 10
-287.5
 20
-191.600000000041
 30
0.0
 11
-287.5
 21
-209.100000000041
 31
0.0
  0
LINE
  5
1CC
330
3C1
100
AcDbEntity
  8
DIMNSIONS
  6
Continuous
 62
     7
100
AcDbLine
 10
-287.5
 20
-191.600000000041
 30
0.0
 11
-284.820671618897
 21
-201.5993896484785
 31
0.0
  0
LINE
  5
1CD
330
3C1
100
AcDbEntity
  8
DIMNSIONS
  6
Continuous
 62
     7
100
AcDbLine
 10
-287.5
 20
-191.600000000041
 30
0.0
 11
-290.1793283811029
 21
-201.5993896484785
 31
0.0
  0
LINE
  5
1CE
330
3C1
100
AcDbEntity
  8
DIMNSIONS
  6
Continuous
 62
     7
100
AcDbLine
 10
-287.5
 20
-179.8098837075943
 30
0.0
 11
-287.5
 21
-162.3098837075943
 31
0.0
  0
LINE
  5
1CF
330
3C1
100
AcDbEntity
  8
DIMNSIONS
  6
Continuous
 62
     7
100
AcDbLine
 10
-287.5
 20
-179.8098837075943
 30
0.0
 11
-290.1793283811029
 21
-169.8104940591568
 31
0.0
  0
LINE
  5
1D0
330
3C1
100
AcDbEntity
  8
DIMNSIONS
  6
Continuous
 62
     7
100
AcDbLine
 10
-287.5
 20
-179.8098837075943
 30
0.0
 11
-284.820671618897
 21
-169.8104940591568
 31
0.0
  0
TEXT
  5
1D1
330
3C1
100
AcDbEntity
  8
DIMNSIONS
 62
     7
100
AcDbText
 10
-292.4694444444445
 20
-203.3438307427065
 30
0.0
 40
13.57367621527778
  1
11.8
 50
90.0
 41
0.7
 11
-306.0431206597223
 21
-203.3438307427065
 31
0.0
100
AcDbText
 73
     3
  0
LINE
  5
1D2
330
3C1
100
AcDbEntity
  8
DIMNSIONS
  6
Continuous
 62
     7
100
AcDbLine
 10
-124.5572811275779
 20
36.17184338278869
 30
0.0
 11
-118.7500000000001
 21
18.75
 31
0.0
  0
LINE
  5
1D3
330
3C1
100
AcDbEntity
  8
DIMNSIONS
  6
Continuous
 62
     7
100
AcDbLine
 10
-124.5572811275779
 20
36.17184338278869
 30
0.0
 11
-118.7684435395748
 21
27.58953872175589
 31
0.0
  0
LINE
  5
1D4
330
3C1
100
AcDbEntity
  8
DIMNSIONS
  6
Continuous
 62
     7
100
AcDbLine
 10
-124.5572811275779
 20
36.17184338278869
 30
0.0
 11
-123.8351530485014
 21
25.84493072931514
 31
0.0
  0
LINE
  5
1D5
330
3C1
100
AcDbEntity
  8
DIMNSIONS
  6
Continuous
 62
     7
100
AcDbLine
 10
-118.7500000000001
 20
18.75
 30
0.0
 11
-108.7500000000002
 21
18.75
 31
0.0
  0
TEXT
  5
1D6
330
3C1
100
AcDbEntity
  8
DIMNSIONS
 62
     7
100
AcDbText
 10
-108.7500000000002
 20
12.39999999999999
 30
0.0
 40
13.57367621527778
  1
φ2.8
 41
0.7
 11
-108.7500000000002
 21
25.97367621527777
 31
0.0
100
AcDbText
 73
     3
  0
LINE
  5
1D7
330
3C1
100
AcDbEntity
  8
DIMNSIONS
  6
Continuous
 62
     7
100
AcDbLine
 10
-238.8908729652602
 20
-73.6091270347399
 30
0.0
 11
-250.0000000000001
 21
-62.50000000000002
 31
0.0
  0
LINE
  5
1D8
330
3C1
100
AcDbEntity
  8
DIMNSIONS
  6
Continuous
 62
     7
100
AcDbLine
 10
-238.8908729652602
 20
-73.6091270347399
 30
0.0
 11
-247.8560804607004
 21
-68.43306207390665
 31
0.0
  0
LINE
  5
1D9
330
3C1
100
AcDbEntity
  8
DIMNSIONS
  6
Continuous
 62
     7
100
AcDbLine
 10
-238.8908729652602
 20
-73.6091270347399
 30
0.0
 11
-244.0669379260934
 21
-64.64391953929972
 31
0.0
  0
LINE
  5
1DA
330
3C1
100
AcDbEntity
  8
DIMNSIONS
  6
Continuous
 62
     7
100
AcDbLine
 10
-250.0000000000001
 20
-62.50000000000002
 30
0.0
 11
-260.0
 21
-62.50000000000002
 31
0.0
  0
TEXT
  5
1DB
330
3C1
100
AcDbEntity
  8
DIMNSIONS
 62
     7
100
AcDbText
 10
-304.0972222222222
 20
-68.85000000000002
 30
0.0
 40
13.57367621527778
  1
φ110
 41
0.7
 11
-304.0972222222222
 21
-55.27632378472225
 31
0.0
100
AcDbText
 73
     3
  0
LINE
  5
1DC
330
3C1
100
AcDbEntity
  8
DIMNSIONS
  6
Continuous
 62
     7
100
AcDbLine
 10
128.5997940686038
 20
28.22178817977283
 30
0.0
 11
124.9999999999998
 21
12.5
 31
0.0
  0
LINE
  5
1DD
330
3C1
100
AcDbEntity
  8
DIMNSIONS
  6
Continuous
 62
     7
100
AcDbLine
 10
128.5997940686038
 20
28.22178817977283
 30
0.0
 11
129.1415826872054
 21
17.88384549238011
 31
0.0
  0
LINE
  5
1DE
330
3C1
100
AcDbEntity
  8
DIMNSIONS
  6
Continuous
 62
     7
100
AcDbLine
 10
128.5997940686038
 20
28.22178817977283
 30
0.0
 11
123.9000254320977
 21
18.99797288032236
 31
0.0
  0
LINE
  5
1DF
330
3C1
100
AcDbEntity
  8
DIMNSIONS
  6
Continuous
 62
     7
100
AcDbLine
 10
124.9999999999998
 20
12.5
 30
0.0
 11
114.9999999999999
 21
12.5
 31
0.0
  0
TEXT
  5
1E0
330
3C1
100
AcDbEntity
  8
DIMNSIONS
 62
     7
100
AcDbText
 10
62.08333333333321
 20
6.149999999999995
 30
0.0
 40
13.57367621527778
  1
φ19.0
 41
0.7
 11
62.08333333333321
 21
19.72367621527777
 31
0.0
100
AcDbText
 73
     3
  0
LINE
  5
1E1
330
3C1
100
AcDbEntity
  8
DIMNSIONS
  6
Continuous
 62
     7
100
AcDbLine
 10
43.24065015751421
 20
47.97009974437474
 30
0.0
 11
43.24065015751421
 21
59.25
 31
0.0
  0
LINE
  5
1E2
330
3C1
100
AcDbEntity
  8
DIMNSIONS
  6
Continuous
 62
     7
100
AcDbLine
 10
43.24065015751421
 20
56.25
 30
0.0
 11
-150.0000000000001
 21
56.25
 31
0.0
  0
LINE
  5
1E3
330
3C1
100
AcDbEntity
  8
DIMNSIONS
  6
Continuous
 62
     7
100
AcDbLine
 10
43.24065015751421
 20
56.25
 30
0.0
 11
30.73753736454546
 21
52.89980102424878
 31
0.0
  0
LINE
  5
1E4
330
3C1
100
AcDbEntity
  8
DIMNSIONS
  6
Continuous
 62
     7
100
AcDbLine
 10
43.24065015751421
 20
56.25
 30
0.0
 11
30.73753736454546
 21
59.60019897575122
 31
0.0
  0
LINE
  5
1E5
330
3C1
100
AcDbEntity
  8
DIMNSIONS
  6
Continuous
 62
     7
100
AcDbLine
 10
-156.2500000000001
 20
56.25
 30
0.0
 11
-181.4
 21
56.25
 31
0.0
  0
LINE
  5
1E6
330
3C1
100
AcDbEntity
  8
DIMNSIONS
  6
Continuous
 62
     7
100
AcDbLine
 10
-207.4000000000001
 20
-57.51782106900453
 30
0.0
 11
-221.7500000000001
 21
-57.51782106900453
 31
0.0
  0
LINE
  5
1E7
330
3C1
100
AcDbEntity
  8
DIMNSIONS
  6
Continuous
 62
     7
100
AcDbLine
 10
-218.7500000000001
 20
-57.51782106900453
 30
0.0
 11
-218.7500000000001
 21
18.89999999999998
 31
0.0
  0
LINE
  5
1E8
330
3C1
100
AcDbEntity
  8
DIMNSIONS
  6
Continuous
 62
     7
100
AcDbLine
 10
-218.7500000000001
 20
-57.51782106900453
 30
0.0
 11
-222.1001989757513
 21
-45.01470827603577
 31
0.0
  0
LINE
  5
1E9
330
3C1
100
AcDbEntity
  8
DIMNSIONS
  6
Continuous
 62
     7
100
AcDbLine
 10
-218.7500000000001
 20
-57.51782106900453
 30
0.0
 11
-215.3998010242489
 21
-45.01470827603577
 31
0.0
  0
ARC
  5
1EA
330
3C1
100
AcDbEntity
  8
DIMNSIONS
  6
Continuous
 62
     7
100
AcDbCircle
 10
-181.4
 20
18.89999999999998
 30
0.0
 40
37.35000000000002
100
AcDbArc
 50
90.0
 51
180.0
  0
TEXT
  5
1EB
330
3C1
100
AcDbEntity
  8
DIMNSIONS
 62
     7
100
AcDbText
 10
-92.63888888888887
 20
61.21944444444445
 30
0.0
 40
13.57367621527778
  1
1750
 41
0.7
 11
-92.63888888888887
 21
74.79312065972223
 31
0.0
100
AcDbText
 73
     3
  0
TEXT
  5
1EC
330
3C1
100
AcDbEntity
  8
DATA
 62
     7
100
AcDbText
 10
-437.5
 20
-596.5834700000001
 30
0.0
 40
9.501573350694446
  1
※仕様及び外観は予告なく変更されることがあります。
 41
0.7
 11
-437.5
 21
-587.0818966493057
 31
0.0
100
AcDbText
 73
     3
  0
TEXT
  5
1ED
330
3C1
100
AcDbEntity
  8
DATA
 62
     7
100
AcDbText
 10
-437.5
 20
-608.9306922222221
 30
0.0
 40
9.501573350694446
  1
　また、同一商品でも若干の個体差があることがあります。ご了承ください。
 41
0.7
 11
-437.5
 21
-599.4291188715277
 31
0.0
100
AcDbText
 73
     3
  0
CIRCLE
  5
1EE
330
3C1
100
AcDbEntity
  8
DATA
  6
Continuous
 62
     7
100
AcDbCircle
 10
-200.0000000000001
 20
-112.5
 30
0.0
 40
55.0
  0
CIRCLE
  5
1EF
330
3C1
100
AcDbEntity
  8
DATA
  6
Continuous
 62
     7
100
AcDbCircle
 10
-200.0000000000001
 20
-112.5
 30
0.0
 40
43.0
  0
LINE
  5
1F0
330
3C1
100
AcDbEntity
  8
DATA
  6
Continuous
 62
     7
100
AcDbLine
 10
-201.4000000000001
 20
-57.51782106900453
 30
0.0
 11
-201.4000000000001
 21
18.90000000005984
 31
0.0
  0
LINE
  5
1F1
330
3C1
100
AcDbEntity
  8
DATA
  6
Continuous
 62
     7
100
AcDbLine
 10
-198.6000000000001
 20
18.90000000005977
 30
0.0
 11
-198.6000000000001
 21
-57.51782106900453
 31
0.0
  0
LINE
  5
1F2
330
3C1
100
AcDbEntity
  8
DATA
  6
Continuous
 62
     7
100
AcDbLine
 10
36.24065015751421
 20
36.10000000005983
 30
0.0
 11
-138.2717806520129
 21
36.10000000005983
 31
0.0
  0
LINE
  5
1F3
330
3C1
100
AcDbEntity
  8
DATA
  6
Continuous
 62
     7
100
AcDbLine
 10
-144.5217806520129
 20
36.10000000005983
 30
0.0
 11
-181.4
 21
36.10000000005983
 31
0.0
  0
LINE
  5
1F4
330
3C1
100
AcDbEntity
  8
DATA
  6
Continuous
 62
     7
100
AcDbLine
 10
-181.4
 20
38.90000000005983
 30
0.0
 11
-145.7508257131274
 21
38.90000000005983
 31
0.0
  0
LINE
  5
1F5
330
3C1
100
AcDbEntity
  8
DATA
  6
Continuous
 62
     7
100
AcDbLine
 10
-139.5008257131273
 20
38.90000000005983
 30
0.0
 11
36.24065015751421
 21
38.90000000005983
 31
0.0
  0
ARC
  5
1F6
330
3C1
100
AcDbEntity
  8
DATA
  6
Continuous
 62
     7
100
AcDbCircle
 10
-181.4
 20
18.90000000005984
 30
0.0
 40
20.0
100
AcDbArc
 50
90.0
 51
180.0
  0
TEXT
  5
1F7
330
3C1
100
AcDbEntity
  8
DATA
 62
     7
100
AcDbText
 10
-205.2916666666667
 20
-136.6516029646492
 30
0.0
 40
5.429470486111115
  1
DPA
 41
0.7
 11
-205.2916666666667
 21
-131.2221324785381
 31
0.0
100
AcDbText
 73
     3
  0
TEXT
  5
1F8
330
3C1
100
AcDbEntity
  8
DATA
 62
     7
100
AcDbText
 10
-205.6829700966861
 20
-140.0664918535381
 30
0.0
 40
2.171788194444444
  1
MICROPHONES
 41
0.7
 11
-205.6829700966861
 21
-137.8947036590937
 31
0.0
100
AcDbText
 73
     3
  0
LINE
  5
1F9
330
3C1
100
AcDbEntity
  8
DATA
  6
Continuous
 62
     7
100
AcDbLine
 10
43.24065015751421
 20
33.00465196362956
 30
0.0
 11
43.24065015751421
 21
32.99418950437488
 31
0.0
  0
LINE
  5
1FA
330
3C1
100
AcDbEntity
  8
DATA
  6
Continuous
 62
     7
100
AcDbLine
 10
43.24065015751421
 20
33.00465196362956
 30
0.0
 11
43.24065015751421
 21
41.97009974437475
 31
0.0
  0
LINE
  5
1FB
330
3C1
100
AcDbEntity
  8
DATA
  6
Continuous
 62
     7
100
AcDbLine
 10
55.43584287084195
 20
45.65379638937424
 30
0.0
 11
55.02768078623923
 21
44.53238027848146
 31
0.0
  0
LINE
  5
1FC
330
3C1
100
AcDbEntity
  8
DATA
  6
Continuous
 62
     7
100
AcDbLine
 10
55.43584287084195
 20
29.31049285932553
 30
0.0
 11
55.02768078623923
 21
30.4319089702185
 31
0.0
  0
LINE
  5
1FD
330
3C1
100
AcDbEntity
  8
DATA
  6
Continuous
 62
     7
100
AcDbLine
 10
69.60987979591436
 20
47.40551205637473
 30
0.0
 11
69.60987979591436
 21
27.55877719237506
 31
0.0
  0
LINE
  5
1FE
330
3C1
100
AcDbEntity
  8
DATA
  6
Continuous
 62
     7
100
AcDbLine
 10
72.60184987591445
 20
45.92631612820958
 30
0.0
 11
72.60184987591445
 21
47.60497672837471
 31
0.0
  0
LINE
  5
1FF
330
3C1
100
AcDbEntity
  8
DATA
  6
Continuous
 62
     7
100
AcDbLine
 10
72.80131454791444
 20
27.35931252037508
 30
0.0
 11
72.80131454791444
 21
29.20436073637498
 31
0.0
  0
LINE
  5
200
330
3C1
100
AcDbEntity
  8
DATA
  6
Continuous
 62
     7
100
AcDbLine
 10
55.5975646365955
 20
29.18091349104606
 30
0.0
 11
69.38470082974482
 21
27.38858578594327
 31
0.0
  0
LINE
  5
201
330
3C1
100
AcDbEntity
  8
DATA
  6
Continuous
 62
     7
100
AcDbLine
 10
55.02768078633903
 20
30.4319089702185
 30
0.0
 11
43.91273078394806
 21
32.20630730169791
 31
0.0
  0
LINE
  5
202
330
3C1
100
AcDbEntity
  8
DATA
  6
Continuous
 62
     7
100
AcDbLine
 10
74.39703192391448
 20
27.35931252037508
 30
0.0
 11
74.39703192391448
 21
29.20436073637498
 31
0.0
  0
LINE
  5
203
330
3C1
100
AcDbEntity
  8
DATA
  6
Continuous
 62
     7
100
AcDbLine
 10
74.59649659591422
 20
47.60497672837471
 30
0.0
 11
74.59649659591422
 21
45.92631612820958
 31
0.0
  0
LINE
  5
204
330
3C1
100
AcDbEntity
  8
DATA
  6
Continuous
 62
     7
100
AcDbLine
 10
84.76501780237162
 20
27.79605810600211
 30
0.0
 11
87.02314566151448
 21
28.20703737637501
 31
0.0
  0
LINE
  5
205
330
3C1
100
AcDbEntity
  8
DATA
  6
Continuous
 62
     7
100
AcDbLine
 10
82.27170940227187
 20
27.62152651795236
 30
0.0
 11
84.5340925549358
 21
28.03328025177788
 31
0.0
  0
LINE
  5
206
330
3C1
100
AcDbEntity
  8
DATA
  6
Continuous
 62
     7
100
AcDbLine
 10
79.54322046151445
 20
27.40419207157501
 30
0.0
 11
82.03652886151441
 21
27.85797420037497
 31
0.0
  0
LINE
  5
207
330
3C1
100
AcDbEntity
  8
DATA
  6
Continuous
 62
     7
100
AcDbLine
 10
78.57741586765495
 20
27.3430244472905
 30
0.0
 11
79.54322046151445
 21
27.40419207157501
 31
0.0
  0
LINE
  5
208
330
3C1
100
AcDbEntity
  8
DATA
  6
Continuous
 62
     7
100
AcDbLine
 10
77.38900200391434
 20
27.35931252037508
 30
0.0
 11
74.39703192391448
 21
27.35931252037508
 31
0.0
  0
LINE
  5
209
330
3C1
100
AcDbEntity
  8
DATA
  6
Continuous
 62
     7
100
AcDbLine
 10
72.80131454791444
 20
27.35931252037508
 30
0.0
 11
69.80934446791434
 21
27.35931252037508
 31
0.0
  0
LINE
  5
20A
330
3C1
100
AcDbEntity
  8
DATA
  6
Continuous
 62
     7
100
AcDbLine
 10
87.22261033351447
 20
28.00757270437501
 30
0.0
 11
112.6543560135153
 21
28.00757270437501
 31
0.0
  0
LINE
  5
20B
330
3C1
100
AcDbEntity
  8
DATA
  6
Continuous
 62
     7
100
AcDbLine
 10
77.58846667591434
 20
28.85529756037497
 30
0.0
 11
78.04723542151442
 21
28.85529756037497
 31
0.0
  0
LINE
  5
20C
330
3C1
100
AcDbEntity
  8
DATA
  6
Continuous
 62
     7
100
AcDbLine
 10
56.47613552603207
 20
29.53182773540513
 30
0.0
 11
56.47613571073657
 21
29.53182772392504
 31
0.0
  0
LINE
  5
20D
330
3C1
100
AcDbEntity
  8
DATA
  6
Continuous
 62
     7
100
AcDbLine
 10
77.58846667591434
 20
27.55877719237506
 30
0.0
 11
77.58846667591434
 21
47.40551205637473
 31
0.0
  0
LINE
  5
20E
330
3C1
100
AcDbEntity
  8
DATA
  6
Continuous
 62
     7
100
AcDbLine
 10
78.04723542151442
 20
47.09664075183047
 30
0.0
 11
78.04723542151442
 21
27.84068903161938
 31
0.0
  0
LINE
  5
20F
330
3C1
100
AcDbEntity
  8
DATA
  6
Continuous
 62
     7
100
AcDbLine
 10
78.04723542151442
 20
47.09664075183047
 30
0.0
 11
78.04723542151442
 21
47.1233985375029
 31
0.0
  0
LINE
  5
210
330
3C1
100
AcDbEntity
  8
DATA
  6
Continuous
 62
     7
100
AcDbLine
 10
59.90494922091603
 20
40.34010786050879
 30
0.0
 11
59.90494088181981
 21
40.34011154620873
 31
0.0
  0
LINE
  5
211
330
3C1
100
AcDbEntity
  8
DATA
  6
Continuous
 62
     7
100
AcDbLine
 10
82.03652886151441
 20
27.81776755312492
 30
0.0
 11
82.03652886151441
 21
27.85797420037497
 31
0.0
  0
LINE
  5
212
330
3C1
100
AcDbEntity
  8
DATA
  6
Continuous
 62
     7
100
AcDbLine
 10
82.03652886151441
 20
47.10631504837477
 30
0.0
 11
82.03652886151441
 21
47.14652169557485
 31
0.0
  0
LINE
  5
213
330
3C1
100
AcDbEntity
  8
DATA
  6
Continuous
 62
     7
100
AcDbLine
 10
84.52983726151435
 20
46.93178346037472
 30
0.0
 11
84.52983726151435
 21
46.97199010702639
 31
0.0
  0
LINE
  5
214
330
3C1
100
AcDbEntity
  8
DATA
  6
Continuous
 62
     7
100
AcDbLine
 10
77.58846667591434
 20
46.10899168837465
 30
0.0
 11
78.04723542151442
 21
46.10899168837465
 31
0.0
  0
LINE
  5
215
330
3C1
100
AcDbEntity
  8
DATA
  6
Continuous
 62
     7
100
AcDbLine
 10
55.02768078628925
 20
44.53238027848146
 30
0.0
 11
43.91273078394806
 21
42.7579819470019
 31
0.0
  0
LINE
  5
216
330
3C1
100
AcDbEntity
  8
DATA
  6
Continuous
 62
     7
100
AcDbLine
 10
87.22261033351447
 20
46.95671654437479
 30
0.0
 11
112.6543560135153
 21
46.95671654437479
 31
0.0
  0
LINE
  5
217
330
3C1
100
AcDbEntity
  8
DATA
  6
Continuous
 62
     7
100
AcDbLine
 10
77.38900200391434
 20
47.60497672837471
 30
0.0
 11
74.59649659591422
 21
47.60497672837471
 31
0.0
  0
LINE
  5
218
330
3C1
100
AcDbEntity
  8
DATA
  6
Continuous
 62
     7
100
AcDbLine
 10
72.60184987591445
 20
47.60497672837471
 30
0.0
 11
69.80934446791434
 21
47.60497672837471
 31
0.0
  0
LINE
  5
219
330
3C1
100
AcDbEntity
  8
DATA
  6
Continuous
 62
     7
100
AcDbLine
 10
78.57741586765495
 20
47.62126480145922
 30
0.0
 11
79.54322046151445
 21
47.56009717717473
 31
0.0
  0
LINE
  5
21A
330
3C1
100
AcDbEntity
  8
DATA
  6
Continuous
 62
     7
100
AcDbLine
 10
79.54322046151445
 20
47.56009717717473
 30
0.0
 11
82.03652886151441
 21
47.10631504837477
 31
0.0
  0
LINE
  5
21B
330
3C1
100
AcDbEntity
  8
DATA
  6
Continuous
 62
     7
100
AcDbLine
 10
82.27170940227187
 20
47.34276273074761
 30
0.0
 11
84.52983726151435
 21
46.93178346037472
 31
0.0
  0
LINE
  5
21C
330
3C1
100
AcDbEntity
  8
DATA
  6
Continuous
 62
     7
100
AcDbLine
 10
84.76501780237162
 20
47.16823114274768
 30
0.0
 11
87.02314566151448
 21
46.75725187237481
 31
0.0
  0
LINE
  5
21D
330
3C1
100
AcDbEntity
  8
DATA
  6
Continuous
 62
     7
100
AcDbLine
 10
69.38470082974482
 20
47.57570346275667
 30
0.0
 11
55.5975646365955
 21
45.78337575765374
 31
0.0
  0
LINE
  5
21E
330
3C1
100
AcDbEntity
  8
DATA
  6
Continuous
 62
     7
100
AcDbLine
 10
113.1530176935153
 20
28.50623438437509
 30
0.0
 11
113.1530176935153
 21
46.45805486437472
 31
0.0
  0
ARC
  5
21F
330
3C1
100
AcDbEntity
  8
DATA
  6
Continuous
 62
     7
100
AcDbCircle
 10
77.38900200391434
 20
27.55877719237506
 30
0.0
 40
0.1994646719999764
100
AcDbArc
 50
270.0
 51
0.0
  0
ARC
  5
220
330
3C1
100
AcDbEntity
  8
DATA
  6
Continuous
 62
     7
100
AcDbCircle
 10
77.38900200391434
 20
47.40551205637473
 30
0.0
 40
0.1994646719999764
100
AcDbArc
 50
0.0
 51
90.0
  0
ARC
  5
221
330
3C1
100
AcDbEntity
  8
DATA
  6
Continuous
 62
     7
100
AcDbCircle
 10
69.80934446791434
 20
27.55877719237506
 30
0.0
 40
0.1994646719999764
100
AcDbArc
 50
180.0
 51
270.0
  0
ARC
  5
222
330
3C1
100
AcDbEntity
  8
DATA
  6
Continuous
 62
     7
100
AcDbCircle
 10
69.80934446791434
 20
47.40551205637473
 30
0.0
 40
0.1994646719999764
100
AcDbArc
 50
90.0
 51
180.0
  0
ARC
  5
223
330
3C1
100
AcDbEntity
  8
DATA
  6
Continuous
 62
     7
100
AcDbCircle
 10
44.03850884551434
 20
32.99418950437488
 30
0.0
 40
0.797858688000133
100
AcDbArc
 50
180.0
 51
260.9297970592059
  0
ARC
  5
224
330
3C1
100
AcDbEntity
  8
DATA
  6
Continuous
 62
     7
100
AcDbCircle
 10
44.03850884551434
 20
41.97009974437475
 30
0.0
 40
0.7978586879999289
100
AcDbArc
 50
99.07020294079471
 51
180.0
  0
ARC
  5
225
330
3C1
100
AcDbEntity
  8
DATA
  6
Continuous
 62
     7
100
AcDbCircle
 10
69.41041512391439
 20
47.37790143989967
 30
0.0
 40
0.1994646719999764
100
AcDbArc
 50
0.0000000026778157
 51
97.40692057410091
  0
ARC
  5
226
330
3C1
100
AcDbEntity
  8
DATA
  6
Continuous
 62
     7
100
AcDbCircle
 10
69.41041512391439
 20
27.58638780885011
 30
0.0
 40
0.1994646720000554
100
AcDbArc
 50
262.5930794259012
 51
359.9999999973058
  0
ARC
  5
227
330
3C1
100
AcDbEntity
  8
DATA
  6
Continuous
 62
     7
100
AcDbCircle
 10
55.6232786177552
 20
45.58557590532143
 30
0.0
 40
0.1994646546465377
100
AcDbArc
 50
97.40700477071845
 51
160.0001481009971
  0
ARC
  5
228
330
3C1
100
AcDbEntity
  8
DATA
  6
Continuous
 62
     7
100
AcDbCircle
 10
55.6232786177552
 20
29.37871334337851
 30
0.0
 40
0.1994646546464803
100
AcDbArc
 50
199.9998518990028
 51
262.5929952294153
  0
ARC
  5
229
330
3C1
100
AcDbEntity
  8
DATA
  6
Continuous
 62
     7
100
AcDbCircle
 10
78.54589710151434
 20
47.12360021713039
 30
0.0
 40
0.4986616799999528
100
AcDbArc
 50
86.37610635578955
 51
180.0
  0
ARC
  5
22A
330
3C1
100
AcDbEntity
  8
DATA
  6
Continuous
 62
     7
100
AcDbCircle
 10
78.54589710151434
 20
27.84068903161938
 30
0.0
 40
0.4986616799999411
100
AcDbArc
 50
180.0
 51
273.6238936442094
  0
ARC
  5
22B
330
3C1
100
AcDbEntity
  8
DATA
  6
Continuous
 62
     7
100
AcDbCircle
 10
82.23599353351437
 20
27.81776752310557
 30
0.0
 40
0.1994646719999764
100
AcDbArc
 50
180.0
 51
280.3149318397975
  0
ARC
  5
22C
330
3C1
100
AcDbEntity
  8
DATA
  6
Continuous
 62
     7
100
AcDbCircle
 10
82.23599353351437
 20
47.14652172559437
 30
0.0
 40
0.1994646720000313
100
AcDbArc
 50
79.68506816020542
 51
180.0
  0
ARC
  5
22D
330
3C1
100
AcDbEntity
  8
DATA
  6
Continuous
 62
     7
100
AcDbCircle
 10
84.72930193351428
 20
27.99229911110553
 30
0.0
 40
0.1994646719998377
100
AcDbArc
 50
168.1438272684507
 51
280.3149318711312
  0
ARC
  5
22E
330
3C1
100
AcDbEntity
  8
DATA
  6
Continuous
 62
     7
100
AcDbCircle
 10
84.72930193351428
 20
46.97199013759428
 30
0.0
 40
0.1994646720001217
100
AcDbArc
 50
79.68506812887619
 51
180.0
  0
ARC
  5
22F
330
3C1
100
AcDbEntity
  8
DATA
  6
Continuous
 62
     7
100
AcDbCircle
 10
87.22261033351447
 20
28.20703737637501
 30
0.0
 40
0.1994646719999764
100
AcDbArc
 50
180.0
 51
270.0
  0
ARC
  5
230
330
3C1
100
AcDbEntity
  8
DATA
  6
Continuous
 62
     7
100
AcDbCircle
 10
87.22261033351447
 20
46.75725187237481
 30
0.0
 40
0.1994646719999764
100
AcDbArc
 50
90.0
 51
180.0
  0
ARC
  5
231
330
3C1
100
AcDbEntity
  8
DATA
  6
Continuous
 62
     7
100
AcDbCircle
 10
112.6543560135153
 20
46.45805486437472
 30
0.0
 40
0.4986616799999411
100
AcDbArc
 50
0.0
 51
90.0
  0
ARC
  5
232
330
3C1
100
AcDbEntity
  8
DATA
  6
Continuous
 62
     7
100
AcDbCircle
 10
112.6543560135153
 20
28.50623438437509
 30
0.0
 40
0.4986616800000833
100
AcDbArc
 50
270.0
 51
0.0
  0
LWPOLYLINE
  5
233
330
3C1
100
AcDbEntity
  8
DATA
  6
Continuous
 62
     7
100
AcDbPolyline
 90
        2
 70
     0
 43
0.0
 10
55.02768078628925
 20
37.4821446243748
 10
55.02769223521227
 20
37.48884649742957
  0
LINE
  5
238
330
3C1
100
AcDbEntity
  8
DATA
  6
Continuous
 62
     7
100
AcDbLine
 10
55.43584298528458
 20
29.31049290101376
 30
0.0
 11
55.43584299230679
 21
29.31049290647388
 31
0.0
  0
LWPOLYLINE
  5
239
330
3C1
100
AcDbEntity
  8
DATA
  6
Continuous
 62
     7
100
AcDbPolyline
 90
        3
 70
   128
 43
0.0
 10
56.47613551551035
 20
29.53182769077475
 42
999886.1800340904
 10
56.47613561294249
 20
29.53182770731926
 10
56.47613571073657
 20
29.53182772392504
  0
LINE
  5
23E
330
3C1
100
AcDbEntity
  8
DATA
  6
Continuous
 62
     7
100
AcDbLine
 10
56.47611177473436
 20
39.07950272993081
 30
0.0
 11
56.47611177821705
 21
39.07950272530854
 31
0.0
  0
LINE
  5
23F
330
3C1
100
AcDbEntity
  8
DATA
  6
Continuous
 62
     7
100
AcDbLine
 10
59.90494088181981
 20
40.34011154620873
 30
0.0
 11
59.90494629865885
 21
40.34011300385509
 31
0.0
  0
ARC
  5
240
330
3C1
100
AcDbEntity
  8
DATA
  6
Continuous
 62
     7
100
AcDbCircle
 10
55.8460880381524
 20
53.61302851289635
 30
0.0
 40
9.117453744723134
100
AcDbArc
 50
264.8500445367164
 51
271.9361122898742
  0
ARC
  5
241
330
3C1
100
AcDbEntity
  8
DATA
  6
Continuous
 62
     7
100
AcDbCircle
 10
55.01879449086708
 20
78.17849177944037
 30
0.0
 40
33.69684343344838
100
AcDbArc
 50
271.9307979754174
 51
274.2332448301442
  0
ARC
  5
242
330
3C1
100
AcDbEntity
  8
DATA
  6
Continuous
 62
     7
100
AcDbCircle
 10
43.14400918611068
 20
247.2267393502721
 30
0.0
 40
203.1614515236124
100
AcDbArc
 50
274.0538166652147
 51
274.3603798837455
  0
ARC
  5
243
330
3C1
100
AcDbEntity
  8
DATA
  6
Continuous
 62
     7
100
AcDbCircle
 10
105.4656071956397
 20
-573.0034260421587
 30
0.0
 40
619.4329331805455
100
AcDbArc
 50
94.22344205446409
 51
94.33998285606172
  0
ARC
  5
244
330
3C1
100
AcDbEntity
  8
DATA
  6
Continuous
 62
     7
100
AcDbCircle
 10
65.4184027290521
 20
-30.16322960480534
 30
0.0
 40
75.11754255797733
100
AcDbArc
 50
93.41919691166545
 51
94.25370965721279
  0
ARC
  5
245
330
3C1
100
AcDbEntity
  8
DATA
  6
Continuous
 62
     7
100
AcDbCircle
 10
63.24094872161277
 20
9.58054060543327
 30
0.0
 40
35.31504295582805
100
AcDbArc
 50
92.33551484613721
 51
93.6898181574098
  0
ARC
  5
246
330
3C1
100
AcDbEntity
  8
DATA
  6
Continuous
 62
     7
100
AcDbCircle
 10
63.85848926321568
 20
0.9210646946825702
 30
0.0
 40
43.99328414926111
100
AcDbArc
 50
91.71866301190677
 51
92.67953172027651
  0
ARC
  5
247
330
3C1
100
AcDbEntity
  8
DATA
  6
Continuous
 62
     7
100
AcDbCircle
 10
63.71153535045777
 20
8.231773770537529
 30
0.0
 40
36.68152782169202
100
AcDbArc
 50
90.51115692981605
 51
91.83170935423758
  0
ARC
  5
248
330
3C1
100
AcDbEntity
  8
DATA
  6
Continuous
 62
     7
100
AcDbCircle
 10
63.51519015751432
 20
1.158907039515781
 30
0.0
 40
43.75313061790256
100
AcDbArc
 50
89.330969880353
 51
90.17141696196103
  0
ARC
  5
249
330
3C1
100
AcDbEntity
  8
DATA
  6
Continuous
 62
     7
100
AcDbCircle
 10
159.3170089750906
 20
3195.079710289118
 30
0.0
 40
3151.61157512066
100
AcDbArc
 50
268.2673624324175
 51
268.2807545261177
  0
ARC
  5
24A
330
3C1
100
AcDbEntity
  8
DATA
  6
Continuous
 62
     7
100
AcDbCircle
 10
76.27590058753003
 20
200.0655255659457
 30
0.0
 40
155.6051952685776
100
AcDbArc
 50
265.7567018059112
 51
265.9511338474261
  0
ARC
  5
24B
330
3C1
100
AcDbEntity
  8
DATA
  6
Continuous
 62
     7
100
AcDbCircle
 10
57.57198682343528
 20
-28.94430271604012
 30
0.0
 40
74.19538093562337
100
AcDbArc
 50
83.71268333184685
 51
84.03239310004702
  0
ARC
  5
24C
330
3C1
100
AcDbEntity
  8
DATA
  6
Continuous
 62
     7
100
AcDbCircle
 10
64.34510968484165
 20
36.89840906990619
 30
0.0
 40
8.021219770995907
100
AcDbArc
 50
77.03724832167266
 51
80.29390937400519
  0
ARC
  5
24D
330
3C1
100
AcDbEntity
  8
DATA
  6
Continuous
 62
     7
100
AcDbCircle
 10
64.72063080930434
 20
39.34703595990789
 30
0.0
 40
5.553783762509979
100
AcDbArc
 50
72.47771132437108
 51
75.14569244635672
  0
ARC
  5
24E
330
3C1
100
AcDbEntity
  8
DATA
  6
Continuous
 62
     7
100
AcDbCircle
 10
65.89185533108978
 20
43.10343540030101
 30
0.0
 40
1.6191143836215
100
AcDbArc
 50
60.87204295047317
 51
71.97927507203191
  0
ARC
  5
24F
330
3C1
100
AcDbEntity
  8
DATA
  6
Continuous
 62
     7
100
AcDbCircle
 10
66.35936067998454
 20
43.86888947587345
 30
0.0
 40
0.7237852587245906
100
AcDbArc
 50
357.5832108773464
 51
63.70626209674794
  0
LINE
  5
250
330
3C1
100
AcDbEntity
  8
DATA
  6
Continuous
 62
     7
100
AcDbLine
 10
60.93833015751442
 20
44.82059631587764
 30
0.0
 11
60.96825015751438
 21
44.82237796117749
 31
0.0
  0
ARC
  5
251
330
3C1
100
AcDbEntity
  8
DATA
  6
Continuous
 62
     7
100
AcDbCircle
 10
65.96794730364127
 20
43.82730673215826
 30
0.0
 40
1.114609732749302
100
AcDbArc
 50
339.5040570882543
 51
0.5686371030038231
  0
ARC
  5
252
330
3C1
100
AcDbEntity
  8
DATA
  6
Continuous
 62
     7
100
AcDbCircle
 10
66.40622757671825
 20
43.63458470559221
 30
0.0
 40
0.6371689896209566
100
AcDbArc
 50
329.5674413202767
 51
341.9382900812703
  0
ARC
  5
253
330
3C1
100
AcDbEntity
  8
DATA
  6
Continuous
 62
     7
100
AcDbCircle
 10
64.67863800211739
 20
45.17840967805761
 30
0.0
 40
2.944248795007004
100
AcDbArc
 50
304.7143833138268
 51
320.6581444441128
  0
ARC
  5
254
330
3C1
100
AcDbEntity
  8
DATA
  6
Continuous
 62
     7
100
AcDbCircle
 10
62.79453150080053
 20
47.84935346651661
 30
0.0
 40
6.212879510776551
100
AcDbArc
 50
297.3557196731918
 51
304.8851126425872
  0
ARC
  5
255
330
3C1
100
AcDbEntity
  8
DATA
  6
Continuous
 62
     7
100
AcDbCircle
 10
60.14258094811202
 20
52.90592262496581
 30
0.0
 40
11.92262606055423
100
AcDbArc
 50
292.3532118254806
 51
297.5086502501173
  0
ARC
  5
256
330
3C1
100
AcDbEntity
  8
DATA
  6
Continuous
 62
     7
100
AcDbCircle
 10
56.44470528561395
 20
61.71446781441535
 30
0.0
 40
21.47572935292157
100
AcDbArc
 50
289.8309445953149
 51
292.5826103886317
  0
ARC
  5
257
330
3C1
100
AcDbEntity
  8
DATA
  6
Continuous
 62
     7
100
AcDbCircle
 10
51.88278466878273
 20
74.43633911221799
 30
0.0
 40
34.99078621349808
100
AcDbArc
 50
287.4296875294938
 51
289.7908988266058
  0
ARC
  5
258
330
3C1
100
AcDbEntity
  8
DATA
  6
Continuous
 62
     7
100
AcDbCircle
 10
73.59917323591435
 20
45.90645216800317
 30
0.0
 40
0.9975211583302561
100
AcDbArc
 50
178.8589752641718
 51
1.141024735828125
  0
ARC
  5
259
330
3C1
100
AcDbEntity
  8
DATA
  6
Continuous
 62
     7
100
AcDbCircle
 10
73.59917323591435
 20
29.2043607363747
 30
0.0
 40
0.797858688000133
100
AcDbArc
 50
0.0000000000204102
 51
179.9999999999796
  0
ARC
  5
25A
330
3C1
100
AcDbEntity
  8
DATA
  6
Continuous
 62
     7
100
AcDbCircle
 10
107.8429562326118
 20
-74.55008712959034
 30
0.0
 40
116.1712309509684
100
AcDbArc
 50
90.07815181231448
 51
91.09453213948439
  0
ARC
  5
25B
330
3C1
100
AcDbEntity
  8
DATA
  6
Continuous
 62
     7
100
AcDbCircle
 10
105.5891906959609
 20
39.46892762622338
 30
0.0
 40
2.13130138514424
100
AcDbArc
 50
89.06820855111105
 51
91.76306490534784
  0
ARC
  5
25C
330
3C1
100
AcDbEntity
  8
DATA
  6
Continuous
 62
     7
100
AcDbCircle
 10
108.6229733363147
 20
-101.8954332911601
 30
0.0
 40
143.5281210834884
100
AcDbArc
 50
91.23734480421713
 51
91.36285252118851
  0
ARC
  5
25D
330
3C1
100
AcDbEntity
  8
DATA
  6
Continuous
 62
     7
100
AcDbCircle
 10
107.8871230911547
 20
-73.40687372970659
 30
0.0
 40
115.0301335408445
100
AcDbArc
 50
91.33392842312636
 51
91.63871689323443
  0
ARC
  5
25E
330
3C1
100
AcDbEntity
  8
DATA
  6
Continuous
 62
     7
100
AcDbCircle
 10
107.0976573696589
 20
-36.18836758410271
 30
0.0
 40
77.80475931359849
100
AcDbArc
 50
91.8413749109627
 51
93.70986376666071
  0
ARC
  5
25F
330
3C1
100
AcDbEntity
  8
DATA
  6
Continuous
 62
     7
100
AcDbCircle
 10
104.0912781594024
 20
3.979303228919888
 30
0.0
 40
37.52887815925765
100
AcDbArc
 50
93.09753964605524
 51
96.26034601388143
  0
ARC
  5
260
330
3C1
100
AcDbEntity
  8
DATA
  6
Continuous
 62
     7
100
AcDbCircle
 10
104.1283697830977
 20
0.0439719873826903
 30
0.0
 40
41.44664269242247
100
AcDbArc
 50
95.71807388754981
 51
98.86387700525236
  0
ARC
  5
261
330
3C1
100
AcDbEntity
  8
DATA
  6
Continuous
 62
     7
100
AcDbCircle
 10
101.8320644284972
 20
14.65467671386523
 30
0.0
 40
26.65660443167991
100
AcDbArc
 50
98.82614559436325
 51
103.2875202342196
  0
ARC
  5
262
330
3C1
100
AcDbEntity
  8
DATA
  6
Continuous
 62
     7
100
AcDbCircle
 10
99.9836844807762
 20
22.70070589897613
 30
0.0
 40
18.40121730661032
100
AcDbArc
 50
103.4444022154758
 51
106.6281412760457
  0
ARC
  5
263
330
3C1
100
AcDbEntity
  8
DATA
  6
Continuous
 62
     7
100
AcDbCircle
 10
98.44418191743921
 20
27.94328008236155
 30
0.0
 40
12.93735812799911
100
AcDbArc
 50
106.7392400531805
 51
111.3838097657728
  0
ARC
  5
264
330
3C1
100
AcDbEntity
  8
DATA
  6
Continuous
 62
     7
100
AcDbCircle
 10
96.9803873275157
 20
31.74602874933328
 30
0.0
 40
8.862704971283408
100
AcDbArc
 50
111.5318629699139
 51
115.2449977426265
  0
ARC
  5
265
330
3C1
100
AcDbEntity
  8
DATA
  6
Continuous
 62
     7
100
AcDbCircle
 10
94.555212638297
 20
36.51430633472387
 30
0.0
 40
3.519157954095604
100
AcDbArc
 50
112.6402569125509
 51
122.0174507713954
  0
ARC
  5
266
330
3C1
100
AcDbEntity
  8
DATA
  6
Continuous
 62
     7
100
AcDbCircle
 10
95.47894822108103
 20
34.81075740838133
 30
0.0
 40
5.454637474985051
100
AcDbArc
 50
120.7572803989496
 51
128.5977635440778
  0
ARC
  5
267
330
3C1
100
AcDbEntity
  8
DATA
  6
Continuous
 62
     7
100
AcDbCircle
 10
93.88575544895891
 20
36.84469812670278
 30
0.0
 40
2.87120775713867
100
AcDbArc
 50
129.0711184124939
 51
144.0492369347124
  0
ARC
  5
268
330
3C1
100
AcDbEntity
  8
DATA
  6
Continuous
 62
     7
100
AcDbCircle
 10
93.14863477709172
 20
37.37655022554458
 30
0.0
 40
1.962248796374123
100
AcDbArc
 50
143.9847022950968
 51
161.8704280347849
  0
ARC
  5
269
330
3C1
100
AcDbEntity
  8
DATA
  6
Continuous
 62
     7
100
AcDbCircle
 10
92.88489272067456
 20
37.50517194697258
 30
0.0
 40
1.672059875763846
100
AcDbArc
 50
163.2469980991712
 51
174.593344398953
  0
ARC
  5
26A
330
3C1
100
AcDbEntity
  8
DATA
  6
Continuous
 62
     7
100
AcDbCircle
 10
93.14558162878576
 20
37.48467771801907
 30
0.0
 40
1.933524508455201
100
AcDbArc
 50
174.7166196951798
 51
189.2403966230746
  0
ARC
  5
26B
330
3C1
100
AcDbEntity
  8
DATA
  6
Continuous
 62
     7
100
AcDbCircle
 10
92.90150697275498
 20
37.46837908099128
 30
0.0
 40
1.690157891846123
100
AcDbArc
 50
190.0236955350264
 51
213.2095943808886
  0
ARC
  5
26C
330
3C1
100
AcDbEntity
  8
DATA
  6
Continuous
 62
     7
100
AcDbCircle
 10
93.90284799954494
 20
38.11044494991993
 30
0.0
 40
2.878688267247037
100
AcDbArc
 50
213.2406547817833
 51
236.2045256882777
  0
ARC
  5
26D
330
3C1
100
AcDbEntity
  8
DATA
  6
Continuous
 62
     7
100
AcDbCircle
 10
94.53182444396793
 20
38.75471978453936
 30
0.0
 40
3.767540133837082
100
AcDbArc
 50
233.7046090340674
 51
238.9344804054699
  0
ARC
  5
26E
330
3C1
100
AcDbEntity
  8
DATA
  6
Continuous
 62
     7
100
AcDbCircle
 10
96.64782559518084
 20
42.40202529265912
 30
0.0
 40
7.983938515163292
100
AcDbArc
 50
239.4336434407524
 51
250.8477441485686
  0
ARC
  5
26F
330
3C1
100
AcDbEntity
  8
DATA
  6
Continuous
 62
     7
100
AcDbCircle
 10
100.3792168161203
 20
53.31620028365967
 30
0.0
 40
19.51828807841543
100
AcDbArc
 50
251.0117181201306
 51
260.7504658171241
  0
ARC
  5
270
330
3C1
100
AcDbEntity
  8
DATA
  6
Continuous
 62
     7
100
AcDbCircle
 10
101.6387159551661
 20
55.96832734755218
 30
0.0
 40
22.35330569747533
100
AcDbArc
 50
258.6562977254336
 51
266.183952638285
  0
ARC
  5
271
330
3C1
100
AcDbEntity
  8
DATA
  6
Continuous
 62
     7
100
AcDbCircle
 10
106.4281208970362
 20
99.11640418719947
 30
0.0
 40
65.75213253012982
100
AcDbArc
 50
264.5218588970337
 51
268.2501190948296
  0
ARC
  5
272
330
3C1
100
AcDbEntity
  8
DATA
  6
Continuous
 62
     7
100
AcDbCircle
 10
108.0517203114139
 20
122.5615396782931
 30
0.0
 40
89.24052180806532
100
AcDbArc
 50
267.6678377698447
 51
269.4819955423721
  0
ARC
  5
273
330
3C1
100
AcDbEntity
  8
DATA
  6
Continuous
 62
     7
100
AcDbCircle
 10
108.8110308631378
 20
-11.58192240296182
 30
0.0
 40
44.93388811277898
100
AcDbArc
 50
89.75290875981889
 51
91.99737501916194
  0
ARC
  5
274
330
3C1
100
AcDbEntity
  8
DATA
  6
Continuous
 62
     7
100
AcDbCircle
 10
109.4573501575151
 20
56.06784272464597
 30
0.0
 40
22.72080202157032
100
AcDbArc
 50
268.8587398158503
 51
273.7657908678484
  0
ARC
  5
275
330
3C1
100
AcDbEntity
  8
DATA
  6
Continuous
 62
     7
100
AcDbCircle
 10
108.6119660656938
 20
105.4278697261675
 30
0.0
 40
72.06925579395077
100
AcDbArc
 50
271.8691519094583
 51
273.2070655165358
  0
ARC
  5
276
330
3C1
100
AcDbEntity
  8
DATA
  6
Continuous
 62
     7
100
AcDbCircle
 10
107.6912652937246
 20
-61.5215988478144
 30
0.0
 40
103.1426380941028
100
AcDbArc
 50
88.85898285515493
 51
90.01305620016891
  0
ARC
  5
277
330
3C1
100
AcDbEntity
  8
DATA
  6
Continuous
 62
     7
100
AcDbCircle
 10
118.9937053298431
 20
216.1281667519046
 30
0.0
 40
174.7418853281688
100
AcDbArc
 50
267.4827719957006
 51
268.0128020012348
  0
ARC
  5
278
330
3C1
100
AcDbEntity
  8
DATA
  6
Continuous
 62
     7
100
AcDbCircle
 10
91.7366340735848
 20
36.72480498243189
 30
0.0
 40
0.308691186517676
100
AcDbArc
 50
216.1577473639972
 51
218.53982108664
  0
ARC
  5
279
330
3C1
100
AcDbEntity
  8
DATA
  6
Continuous
 62
     7
100
AcDbCircle
 10
53.11520879155682
 20
70.31108250455782
 30
0.0
 40
30.68584363658001
100
AcDbArc
 50
282.5807890907595
 51
287.5413853031523
  0
ARC
  5
27A
330
3C1
100
AcDbEntity
  8
DATA
  6
Continuous
 62
     7
100
AcDbCircle
 10
72.40622248091449
 20
-11.76065644773825
 30
0.0
 40
53.62567055057532
100
AcDbArc
 50
103.5972432443563
 51
106.0353156600856
  0
ARC
  5
27B
330
3C1
100
AcDbEntity
  8
DATA
  6
Continuous
 62
     7
100
AcDbCircle
 10
59.99573590389014
 20
31.28785416097702
 30
0.0
 40
8.823801012460878
100
AcDbArc
 50
105.8896196063179
 51
112.571022119328
  0
ARC
  5
27C
330
3C1
100
AcDbEntity
  8
DATA
  6
Continuous
 62
     7
100
AcDbCircle
 10
58.49319729853959
 20
34.94018377399857
 30
0.0
 40
4.874528543186207
100
AcDbArc
 50
112.7318157749553
 51
121.8648073770315
  0
ARC
  5
27D
330
3C1
100
AcDbEntity
  8
DATA
  6
Continuous
 62
     7
100
AcDbCircle
 10
57.25543841533704
 20
37.16115562793118
 30
0.0
 40
2.337979058569183
100
AcDbArc
 50
124.8379146911876
 51
147.0326184006442
  0
ARC
  5
27E
330
3C1
100
AcDbEntity
  8
DATA
  6
Continuous
 62
     7
100
AcDbCircle
 10
56.81063644175174
 20
37.49665407931164
 30
0.0
 40
1.782669947215586
100
AcDbArc
 50
148.2937084879129
 51
181.270857596897
  0
LINE
  5
27F
330
3C1
100
AcDbEntity
  8
DATA
  6
Continuous
 62
     7
100
AcDbLine
 10
59.90494922091603
 20
34.57412522824072
 30
0.0
 11
59.90494088181981
 21
34.57412154254085
 31
0.0
  0
LWPOLYLINE
  5
280
330
3C1
100
AcDbEntity
  8
DATA
  6
Continuous
 62
     7
100
AcDbPolyline
 90
        2
 70
     0
 43
0.0
 10
55.02768078628925
 20
37.43208846437472
 10
55.02769223521227
 20
37.42538659131995
  0
LINE
  5
285
330
3C1
100
AcDbEntity
  8
DATA
  6
Continuous
 62
     7
100
AcDbLine
 10
59.90494088181981
 20
34.57412154254085
 30
0.0
 11
59.90494629865885
 21
34.57412008489439
 31
0.0
  0
ARC
  5
286
330
3C1
100
AcDbEntity
  8
DATA
  6
Continuous
 62
     7
100
AcDbCircle
 10
55.8460880381524
 20
21.30120457585318
 30
0.0
 40
9.117453744723134
100
AcDbArc
 50
88.06388771012573
 51
95.14995546328353
  0
ARC
  5
287
330
3C1
100
AcDbEntity
  8
DATA
  6
Continuous
 62
     7
100
AcDbCircle
 10
55.01879449086708
 20
-3.264258690690894
 30
0.0
 40
33.69684343344844
100
AcDbArc
 50
85.76675516985581
 51
88.06920202458263
  0
ARC
  5
288
330
3C1
100
AcDbEntity
  8
DATA
  6
Continuous
 62
     7
100
AcDbCircle
 10
43.14400918611068
 20
-172.3125062615227
 30
0.0
 40
203.1614515236125
100
AcDbArc
 50
85.63962011625443
 51
85.94618333478534
  0
ARC
  5
289
330
3C1
100
AcDbEntity
  8
DATA
  6
Continuous
 62
     7
100
AcDbCircle
 10
105.4656071956397
 20
647.9176591309096
 30
0.0
 40
619.4329331805467
100
AcDbArc
 50
265.6600171439383
 51
265.7765579455359
  0
ARC
  5
28A
330
3C1
100
AcDbEntity
  8
DATA
  6
Continuous
 62
     7
100
AcDbCircle
 10
65.4184027290521
 20
105.0774626935548
 30
0.0
 40
75.1175425579773
100
AcDbArc
 50
265.7462903427872
 51
266.5808030883344
  0
ARC
  5
28B
330
3C1
100
AcDbEntity
  8
DATA
  6
Continuous
 62
     7
100
AcDbCircle
 10
63.24094872161277
 20
65.33369248331627
 30
0.0
 40
35.31504295582807
100
AcDbArc
 50
266.3101818425903
 51
267.6644851538628
  0
ARC
  5
28C
330
3C1
100
AcDbEntity
  8
DATA
  6
Continuous
 62
     7
100
AcDbCircle
 10
63.85848926321568
 20
73.99316839406697
 30
0.0
 40
43.99328414926111
100
AcDbArc
 50
267.3204682797236
 51
268.2813369880932
  0
ARC
  5
28D
330
3C1
100
AcDbEntity
  8
DATA
  6
Continuous
 62
     7
100
AcDbCircle
 10
63.71153535045777
 20
66.68245931821195
 30
0.0
 40
36.68152782169197
100
AcDbArc
 50
268.1682906457624
 51
269.488843070184
  0
ARC
  5
28E
330
3C1
100
AcDbEntity
  8
DATA
  6
Continuous
 62
     7
100
AcDbCircle
 10
63.51519015751432
 20
73.75532604923377
 30
0.0
 40
43.75313061790253
100
AcDbArc
 50
269.8285830380389
 51
270.669030119647
  0
ARC
  5
28F
330
3C1
100
AcDbEntity
  8
DATA
  6
Continuous
 62
     7
100
AcDbCircle
 10
159.3170089750906
 20
-3120.16547720037
 30
0.0
 40
3151.611575120661
100
AcDbArc
 50
91.7192454738822
 51
91.73263756758249
  0
ARC
  5
290
330
3C1
100
AcDbEntity
  8
DATA
  6
Continuous
 62
     7
100
AcDbCircle
 10
76.27590058753003
 20
-125.1512924771961
 30
0.0
 40
155.6051952685775
100
AcDbArc
 50
94.04886615257394
 51
94.24329819408884
  0
ARC
  5
291
330
3C1
100
AcDbEntity
  8
DATA
  6
Continuous
 62
     7
100
AcDbCircle
 10
57.57198682343528
 20
103.8585358047896
 30
0.0
 40
74.19538093562339
100
AcDbArc
 50
275.967606899953
 51
276.2873166681531
  0
ARC
  5
292
330
3C1
100
AcDbEntity
  8
DATA
  6
Continuous
 62
     7
100
AcDbCircle
 10
64.34510968484165
 20
38.01582401884332
 30
0.0
 40
8.021219770995891
100
AcDbArc
 50
279.7060906259948
 51
282.9627516783274
  0
ARC
  5
293
330
3C1
100
AcDbEntity
  8
DATA
  6
Continuous
 62
     7
100
AcDbCircle
 10
64.72063080930434
 20
35.56719712884163
 30
0.0
 40
5.553783762509968
100
AcDbArc
 50
284.8543075536433
 51
287.5222886756289
  0
ARC
  5
294
330
3C1
100
AcDbEntity
  8
DATA
  6
Continuous
 62
     7
100
AcDbCircle
 10
65.89185533108978
 20
31.81079768844848
 30
0.0
 40
1.619114383621515
100
AcDbArc
 50
288.0207249279684
 51
299.1279570495267
  0
ARC
  5
295
330
3C1
100
AcDbEntity
  8
DATA
  6
Continuous
 62
     7
100
AcDbCircle
 10
66.35936067998454
 20
31.04534361287605
 30
0.0
 40
0.7237852587246071
100
AcDbArc
 50
296.2937379032511
 51
2.416789122658144
  0
LINE
  5
296
330
3C1
100
AcDbEntity
  8
DATA
  6
Continuous
 62
     7
100
AcDbLine
 10
60.93833015751442
 20
30.09363677287186
 30
0.0
 11
60.96825015751438
 21
30.09185512757208
 31
0.0
  0
ARC
  5
297
330
3C1
100
AcDbEntity
  8
DATA
  6
Continuous
 62
     7
100
AcDbCircle
 10
65.96794730364127
 20
31.08692635659131
 30
0.0
 40
1.11460973274928
100
AcDbArc
 50
359.4313628969961
 51
20.49594291174288
  0
ARC
  5
298
330
3C1
100
AcDbEntity
  8
DATA
  6
Continuous
 62
     7
100
AcDbCircle
 10
66.40622757671825
 20
31.27964838315734
 30
0.0
 40
0.6371689896208777
100
AcDbArc
 50
18.06170991872724
 51
30.43255867972116
  0
ARC
  5
299
330
3C1
100
AcDbEntity
  8
DATA
  6
Continuous
 62
     7
100
AcDbCircle
 10
64.67863800211739
 20
29.73582341069195
 30
0.0
 40
2.944248795006892
100
AcDbArc
 50
39.34185555588633
 51
55.28561668617318
  0
ARC
  5
29A
330
3C1
100
AcDbEntity
  8
DATA
  6
Continuous
 62
     7
100
AcDbCircle
 10
62.79453150080053
 20
27.06487962223289
 30
0.0
 40
6.212879510776498
100
AcDbArc
 50
55.11488735741285
 51
62.64428032680807
  0
ARC
  5
29B
330
3C1
100
AcDbEntity
  8
DATA
  6
Continuous
 62
     7
100
AcDbCircle
 10
60.14258094811202
 20
22.00831046378369
 30
0.0
 40
11.92262606055433
100
AcDbArc
 50
62.49134974988265
 51
67.64678817451955
  0
ARC
  5
29C
330
3C1
100
AcDbEntity
  8
DATA
  6
Continuous
 62
     7
100
AcDbCircle
 10
56.44470528561395
 20
13.19976527433414
 30
0.0
 40
21.47572935292165
100
AcDbArc
 50
67.41738961136832
 51
70.16905540468518
  0
ARC
  5
29D
330
3C1
100
AcDbEntity
  8
DATA
  6
Continuous
 62
     7
100
AcDbCircle
 10
51.88278466878273
 20
0.4778939765315046
 30
0.0
 40
34.99078621349803
100
AcDbArc
 50
70.20910117339425
 51
72.57031247050626
  0
ARC
  5
29E
330
3C1
100
AcDbEntity
  8
DATA
  6
Continuous
 62
     7
100
AcDbCircle
 10
53.11520879155682
 20
4.603150584191666
 30
0.0
 40
30.68584363658008
100
AcDbArc
 50
72.45861469684773
 51
77.41921090924058
  0
ARC
  5
29F
330
3C1
100
AcDbEntity
  8
DATA
  6
Continuous
 62
     7
100
AcDbCircle
 10
72.40622248091449
 20
86.67488953648772
 30
0.0
 40
53.62567055057525
100
AcDbArc
 50
253.9646843399144
 51
256.4027567556437
  0
ARC
  5
2A0
330
3C1
100
AcDbEntity
  8
DATA
  6
Continuous
 62
     7
100
AcDbCircle
 10
59.99573590389014
 20
43.62637892777252
 30
0.0
 40
8.823801012460947
100
AcDbArc
 50
247.428977880672
 51
254.1103803936821
  0
ARC
  5
2A1
330
3C1
100
AcDbEntity
  8
DATA
  6
Continuous
 62
     7
100
AcDbCircle
 10
58.49319729853959
 20
39.97404931475091
 30
0.0
 40
4.874528543186214
100
AcDbArc
 50
238.1351926229684
 51
247.2681842250444
  0
ARC
  5
2A2
330
3C1
100
AcDbEntity
  8
DATA
  6
Continuous
 62
     7
100
AcDbCircle
 10
57.25543841533704
 20
37.75307746081833
 30
0.0
 40
2.337979058569149
100
AcDbArc
 50
212.9673815993558
 51
235.1620853088123
  0
ARC
  5
2A3
330
3C1
100
AcDbEntity
  8
DATA
  6
Continuous
 62
     7
100
AcDbCircle
 10
56.81063644175174
 20
37.4175790094379
 30
0.0
 40
1.782669947215445
100
AcDbArc
 50
178.7291424031028
 51
211.706291512087
  0
LINE
  5
2A4
330
3C1
100
AcDbEntity
  8
DATA
  6
Continuous
 62
     7
100
AcDbLine
 10
36.24065015751421
 20
35.50000000005979
 30
0.0
 11
36.24065015751421
 21
39.50000000005979
 31
0.0
  0
LWPOLYLINE
  5
2A5
330
3C1
100
AcDbEntity
  8
DATA
  6
Continuous
 62
     7
100
AcDbPolyline
 90
        4
 70
     0
 43
0.0
 10
36.24065015751421
 20
39.50000000005979
 10
43.24065015751421
 20
39.50000000005979
 10
43.24065015751421
 20
35.50000000005979
 10
36.24065015751421
 20
35.50000000005979
  0
LINE
  5
2AC
330
3C1
100
AcDbEntity
  8
DATA
  6
Continuous
 62
     7
100
AcDbLine
 10
109.7451642140902
 20
41.60058737918518
 30
0.0
 11
111.3190793653425
 21
41.55489673513511
 31
0.0
  0
CIRCLE
  5
2AD
330
3C1
100
AcDbEntity
  8
DATA
  6
Continuous
 62
     7
100
AcDbCircle
 10
130.7201238823159
 20
37.4821446243749
 30
0.0
 40
9.5
  0
CIRCLE
  5
2AE
330
3C1
100
AcDbEntity
  8
DATA
  6
Continuous
 62
     7
100
AcDbCircle
 10
134.9701238823159
 20
37.4821446243749
 30
0.0
 40
1.15000000000009
  0
CIRCLE
  5
2AF
330
3C1
100
AcDbEntity
  8
DATA
  6
Continuous
 62
     7
100
AcDbCircle
 10
130.7201238823159
 20
41.73214462437488
 30
0.0
 40
1.15000000000009
  0
CIRCLE
  5
2B0
330
3C1
100
AcDbEntity
  8
DATA
  6
Continuous
 62
     7
100
AcDbCircle
 10
130.7201238823159
 20
33.23214462437491
 30
0.0
 40
1.15000000000009
  0
ARC
  5
2B1
330
3C1
100
AcDbEntity
  8
DATA
  6
Continuous
 62
     7
100
AcDbCircle
 10
130.7201238823159
 20
37.4821446243748
 30
0.0
 40
7.999999999999918
100
AcDbArc
 50
147.7116344905616
 51
134.8600895028614
  0
ARC
  5
2B2
330
3C1
100
AcDbEntity
  8
DATA
  6
Continuous
 62
     7
100
AcDbCircle
 10
124.5885961663166
 20
42.39690919056727
 30
0.0
 40
0.9000000000000136
100
AcDbArc
 50
57.12677799871069
 51
225.4449459947184
  0
ARC
  5
2B3
330
3C1
100
AcDbEntity
  8
DATA
  6
Continuous
 62
     7
100
AcDbCircle
 10
-181.4
 20
18.90000000005984
 30
0.0
 40
17.19999999999999
100
AcDbArc
 50
90.0
 51
180.0000000000002
  0
ARC
  5
2B4
330
3C1
100
AcDbEntity
  8
DATA
  6
Continuous
 62
     7
100
AcDbCircle
 10
-140.6250000000001
 20
56.25
 30
0.0
 40
15.625
100
AcDbArc
 50
126.869897645844
 51
233.130102354156
  0
ARC
  5
2B5
330
3C1
100
AcDbEntity
  8
DATA
  6
Continuous
 62
     7
100
AcDbCircle
 10
-159.3750000000001
 20
31.25
 30
0.0
 40
15.625
100
AcDbArc
 50
306.8698976458441
 51
53.13010235415595
  0
ARC
  5
2B6
330
3C1
100
AcDbEntity
  8
DATA
  6
Continuous
 62
     7
100
AcDbCircle
 10
-134.3750000000001
 20
56.25
 30
0.0
 40
15.625
100
AcDbArc
 50
126.869897645844
 51
233.130102354156
  0
ARC
  5
2B7
330
3C1
100
AcDbEntity
  8
DATA
  6
Continuous
 62
     7
100
AcDbCircle
 10
-153.1250000000001
 20
31.25
 30
0.0
 40
15.625
100
AcDbArc
 50
306.8698976458441
 51
53.13010235415595
  0
CIRCLE
  5
2B8
330
3C1
100
AcDbEntity
  8
DATA
  6
STYLE_01
 62
     7
100
AcDbCircle
 10
-200.0000000000001
 20
-112.5
 30
0.0
 40
8.0
  0
CIRCLE
  5
2B9
330
3C1
100
AcDbEntity
  8
DATA
  6
Continuous
 62
     7
100
AcDbCircle
 10
-200.0000000000001
 20
-112.5
 30
0.0
 40
2.799999999999954
  0
CIRCLE
  5
2BA
330
3C1
100
AcDbEntity
  8
DATA
  6
Continuous
 62
     7
100
AcDbCircle
 10
-200.0000000000001
 20
-112.5
 30
0.0
 40
2.299999999999954
  0
TEXT
  5
2BB
330
3C1
100
AcDbEntity
  8
DATA
 62
     7
100
AcDbText
 10
250.0
 20
-580.3104088888887
 30
0.0
 40
12.21630859375
  1
SCDM4098-WX15
 41
0.7
 11
250.0
 21
-568.0941002951388
 31
0.0
100
AcDbText
 73
     3
  0
LINE
  5
2BC
330
3C1
100
AcDbEntity
  8
DATA
  6
Continuous
 62
     7
100
AcDbLine
 10
-255.0
 20
-342.1999999999999
 30
0.0
 11
-255.0
 21
-346.1999999999999
 31
0.0
  0
LINE
  5
2BD
330
3C1
100
AcDbEntity
  8
DATA
  6
Continuous
 62
     7
100
AcDbLine
 10
-145.0
 20
-342.1999999999999
 30
0.0
 11
-145.0
 21
-346.1999999999999
 31
0.0
  0
LINE
  5
2BE
330
3C1
100
AcDbEntity
  8
DATA
  6
Continuous
 62
     7
100
AcDbLine
 10
-255.0
 20
-346.1999999999999
 30
0.0
 11
-145.0
 21
-346.1999999999999
 31
0.0
  0
LINE
  5
2BF
330
3C1
100
AcDbEntity
  8
DATA
  6
Continuous
 62
     7
100
AcDbLine
 10
-255.0
 20
-342.1999999999999
 30
0.0
 11
-145.0
 21
-342.1999999999999
 31
0.0
  0
LINE
  5
2C0
330
3C1
100
AcDbEntity
  8
DATA
  6
Continuous
 62
     7
100
AcDbLine
 10
-250.0
 20
-350.0
 30
0.0
 11
-150.0
 21
-350.0
 31
0.0
  0
LINE
  5
2C1
330
3C1
100
AcDbEntity
  8
DATA
  6
Continuous
 62
     7
100
AcDbLine
 10
-150.0
 20
-346.1999999999999
 30
0.0
 11
-150.0
 21
-350.0
 31
0.0
  0
LINE
  5
2C2
330
3C1
100
AcDbEntity
  8
DATA
  6
Continuous
 62
     7
100
AcDbLine
 10
-250.0
 20
-349.9999999999998
 30
0.0
 11
-250.0
 21
-346.1999999999999
 31
0.0
  0
ARC
  5
2C3
330
3C1
100
AcDbEntity
  8
DATA
  6
Continuous
 62
     7
100
AcDbCircle
 10
-130.8207816377103
 20
-846.1179900744769
 30
0.0
 40
516.2533464812359
100
AcDbArc
 50
98.24446818789988
 51
102.5501988569729
  0
ARC
  5
2C4
330
3C1
100
AcDbEntity
  8
DATA
  6
Continuous
 62
     7
100
AcDbCircle
 10
-269.1792183622897
 20
-846.1179900744769
 30
0.0
 40
516.2533464812359
100
AcDbArc
 50
77.4498011430271
 51
81.75553181210011
  0
LINE
  5
2C5
330
3C1
100
AcDbEntity
  8
DATA
  6
Continuous
 62
     7
100
AcDbLine
 10
-204.8499999999999
 20
-335.1999999999999
 30
0.0
 11
-195.15
 21
-335.1999999999999
 31
0.0
  0
LINE
  5
2C6
330
3C1
100
AcDbEntity
  8
DATA
  6
Continuous
 62
     7
100
AcDbLine
 10
-226.0
 20
-350.6999999999999
 30
0.0
 11
-216.5
 21
-350.6999999999999
 31
0.0
  0
LINE
  5
2C7
330
3C1
100
AcDbEntity
  8
DATA
  6
Continuous
 62
     7
100
AcDbLine
 10
-216.5
 20
-350.6999999999999
 30
0.0
 11
-216.5
 21
-350.0
 31
0.0
  0
LINE
  5
2C8
330
3C1
100
AcDbEntity
  8
DATA
  6
Continuous
 62
     7
100
AcDbLine
 10
-226.0
 20
-350.6999999999999
 30
0.0
 11
-226.0
 21
-350.0
 31
0.0
  0
LINE
  5
2C9
330
3C1
100
AcDbEntity
  8
DATA
  6
Continuous
 62
     7
100
AcDbLine
 10
-247.2999999999999
 20
-350.6999999999999
 30
0.0
 11
-237.8
 21
-350.6999999999999
 31
0.0
  0
LINE
  5
2CA
330
3C1
100
AcDbEntity
  8
DATA
  6
Continuous
 62
     7
100
AcDbLine
 10
-237.8
 20
-350.6999999999999
 30
0.0
 11
-237.8
 21
-350.0
 31
0.0
  0
LINE
  5
2CB
330
3C1
100
AcDbEntity
  8
DATA
  6
Continuous
 62
     7
100
AcDbLine
 10
-247.2999999999999
 20
-350.6999999999999
 30
0.0
 11
-247.2999999999999
 21
-350.0
 31
0.0
  0
LINE
  5
2CC
330
3C1
100
AcDbEntity
  8
DATA
  6
Continuous
 62
     7
100
AcDbLine
 10
-174.0
 20
-350.6999999999999
 30
0.0
 11
-183.5
 21
-350.6999999999999
 31
0.0
  0
LINE
  5
2CD
330
3C1
100
AcDbEntity
  8
DATA
  6
Continuous
 62
     7
100
AcDbLine
 10
-183.5
 20
-350.6999999999999
 30
0.0
 11
-183.5
 21
-350.0
 31
0.0
  0
LINE
  5
2CE
330
3C1
100
AcDbEntity
  8
DATA
  6
Continuous
 62
     7
100
AcDbLine
 10
-174.0
 20
-350.6999999999999
 30
0.0
 11
-174.0
 21
-350.0
 31
0.0
  0
LINE
  5
2CF
330
3C1
100
AcDbEntity
  8
DATA
  6
Continuous
 62
     7
100
AcDbLine
 10
-152.7
 20
-350.6999999999999
 30
0.0
 11
-162.2
 21
-350.6999999999999
 31
0.0
  0
LINE
  5
2D0
330
3C1
100
AcDbEntity
  8
DATA
  6
Continuous
 62
     7
100
AcDbLine
 10
-162.2
 20
-350.6999999999999
 30
0.0
 11
-162.2
 21
-350.0
 31
0.0
  0
LINE
  5
2D1
330
3C1
100
AcDbEntity
  8
DATA
  6
Continuous
 62
     7
100
AcDbLine
 10
-152.7
 20
-350.6999999999999
 30
0.0
 11
-152.7
 21
-350.0
 31
0.0
  0
LINE
  5
2D2
330
3C1
100
AcDbEntity
  8
DATA
  6
Continuous
 62
     7
100
AcDbLine
 10
-203.8228979835263
 20
-320.4
 30
0.0
 11
-196.1771020164737
 21
-320.4
 31
0.0
  0
LINE
  5
2D3
330
3C1
100
AcDbEntity
  8
DATA
  6
Continuous
 62
     7
100
AcDbLine
 10
-204.3
 20
-331.6999999999999
 30
0.0
 11
-204.3
 21
-335.1999999999999
 31
0.0
  0
LINE
  5
2D4
330
3C1
100
AcDbEntity
  8
DATA
  6
Continuous
 62
     7
100
AcDbLine
 10
-195.7
 20
-331.6999999999999
 30
0.0
 11
-195.7
 21
-335.1999999999999
 31
0.0
  0
LINE
  5
2D5
330
3C1
100
AcDbEntity
  8
DATA
  6
Continuous
 62
     7
100
AcDbLine
 10
-195.7
 20
-331.6999999999999
 30
0.0
 11
-204.3
 21
-331.6999999999999
 31
0.0
  0
LINE
  5
2D6
330
3C1
100
AcDbEntity
  8
DATA
  6
Continuous
 62
     7
100
AcDbLine
 10
-204.0
 20
-322.1104009029845
 30
0.0
 11
-204.0
 21
-322.3999999999999
 31
0.0
  0
LINE
  5
2D7
330
3C1
100
AcDbEntity
  8
DATA
  6
Continuous
 62
     7
100
AcDbLine
 10
-204.3
 20
-331.6999999999999
 30
0.0
 11
-203.9000000000001
 21
-330.8047619047618
 31
0.0
  0
LINE
  5
2D8
330
3C1
100
AcDbEntity
  8
DATA
  6
Continuous
 62
     7
100
AcDbLine
 10
-196.0
 20
-322.1104009029845
 30
0.0
 11
-196.0
 21
-322.3999999999999
 31
0.0
  0
LINE
  5
2D9
330
3C1
100
AcDbEntity
  8
DATA
  6
Continuous
 62
     7
100
AcDbLine
 10
-204.0
 20
-322.3999999999999
 30
0.0
 11
-196.0
 21
-322.3999999999999
 31
0.0
  0
LINE
  5
2DA
330
3C1
100
AcDbEntity
  8
DATA
  6
Continuous
 62
     7
100
AcDbLine
 10
-203.9000000000001
 20
-322.3999999999999
 30
0.0
 11
-203.9000000000001
 21
-330.8047619047618
 31
0.0
  0
LINE
  5
2DB
330
3C1
100
AcDbEntity
  8
DATA
  6
Continuous
 62
     7
100
AcDbLine
 10
-195.7
 20
-331.6999999999999
 30
0.0
 11
-196.0999999999999
 21
-330.8047619047618
 31
0.0
  0
LINE
  5
2DC
330
3C1
100
AcDbEntity
  8
DATA
  6
Continuous
 62
     7
100
AcDbLine
 10
-196.0999999999999
 20
-322.3999999999999
 30
0.0
 11
-196.0999999999999
 21
-330.8047619047618
 31
0.0
  0
LINE
  5
2DD
330
3C1
100
AcDbEntity
  8
DATA
  6
Continuous
 62
     7
100
AcDbLine
 10
-204.0
 20
-322.1104009029845
 30
0.0
 11
-203.8228979835263
 21
-320.4
 31
0.0
  0
LINE
  5
2DE
330
3C1
100
AcDbEntity
  8
DATA
  6
Continuous
 62
     7
100
AcDbLine
 10
-196.0
 20
-322.1104009029845
 30
0.0
 11
-196.1771020164737
 21
-320.4
 31
0.0
  0
LINE
  5
2DF
330
3C1
100
AcDbEntity
  8
DATA
  6
Continuous
 62
     7
100
AcDbLine
 10
-105.0
 20
-342.1999999999998
 30
0.0
 11
-105.0
 21
-346.1999999999999
 31
0.0
  0
LINE
  5
2E0
330
3C1
100
AcDbEntity
  8
DATA
  6
Continuous
 62
     7
100
AcDbLine
 10
5.0
 20
-342.1999999999998
 30
0.0
 11
5.0
 21
-346.1999999999999
 31
0.0
  0
LINE
  5
2E1
330
3C1
100
AcDbEntity
  8
DATA
  6
Continuous
 62
     7
100
AcDbLine
 10
-105.0
 20
-346.1999999999999
 30
0.0
 11
5.0
 21
-346.1999999999999
 31
0.0
  0
LINE
  5
2E2
330
3C1
100
AcDbEntity
  8
DATA
  6
Continuous
 62
     7
100
AcDbLine
 10
-105.0
 20
-342.1999999999998
 30
0.0
 11
5.0
 21
-342.1999999999998
 31
0.0
  0
LINE
  5
2E3
330
3C1
100
AcDbEntity
  8
DATA
  6
Continuous
 62
     7
100
AcDbLine
 10
-100.0
 20
-350.0
 30
0.0
 11
0.0
 21
-350.0
 31
0.0
  0
LINE
  5
2E4
330
3C1
100
AcDbEntity
  8
DATA
  6
Continuous
 62
     7
100
AcDbLine
 10
0.0
 20
-346.1999999999999
 30
0.0
 11
0.0
 21
-350.0
 31
0.0
  0
LINE
  5
2E5
330
3C1
100
AcDbEntity
  8
DATA
  6
Continuous
 62
     7
100
AcDbLine
 10
-100.0
 20
-350.0
 30
0.0
 11
-100.0
 21
-346.1999999999999
 31
0.0
  0
ARC
  5
2E6
330
3C1
100
AcDbEntity
  8
DATA
  6
Continuous
 62
     7
100
AcDbCircle
 10
19.17921836228979
 20
-846.1179900744758
 30
0.0
 40
516.2533464812351
100
AcDbArc
 50
98.24446818789988
 51
102.5501988569729
  0
ARC
  5
2E7
330
3C1
100
AcDbEntity
  8
DATA
  6
Continuous
 62
     7
100
AcDbCircle
 10
-119.1792183622896
 20
-846.1179900744758
 30
0.0
 40
516.2533464812351
100
AcDbArc
 50
77.4498011430271
 51
81.75553181210011
  0
LINE
  5
2E8
330
3C1
100
AcDbEntity
  8
DATA
  6
Continuous
 62
     7
100
AcDbLine
 10
-54.84999999999997
 20
-335.1999999999998
 30
0.0
 11
-45.14999999999998
 21
-335.1999999999998
 31
0.0
  0
LINE
  5
2E9
330
3C1
100
AcDbEntity
  8
DATA
  6
Continuous
 62
     7
100
AcDbLine
 10
-97.29999999999996
 20
-350.6999999999999
 30
0.0
 11
-87.79999999999997
 21
-350.6999999999999
 31
0.0
  0
LINE
  5
2EA
330
3C1
100
AcDbEntity
  8
DATA
  6
Continuous
 62
     7
100
AcDbLine
 10
-87.79999999999997
 20
-350.6999999999999
 30
0.0
 11
-87.79999999999997
 21
-350.0
 31
0.0
  0
LINE
  5
2EB
330
3C1
100
AcDbEntity
  8
DATA
  6
Continuous
 62
     7
100
AcDbLine
 10
-97.29999999999996
 20
-350.6999999999999
 30
0.0
 11
-97.29999999999996
 21
-350.0
 31
0.0
  0
LINE
  5
2EC
330
3C1
100
AcDbEntity
  8
DATA
  6
Continuous
 62
     7
100
AcDbLine
 10
-2.700000000000045
 20
-350.6999999999999
 30
0.0
 11
-12.19999999999999
 21
-350.6999999999999
 31
0.0
  0
LINE
  5
2ED
330
3C1
100
AcDbEntity
  8
DATA
  6
Continuous
 62
     7
100
AcDbLine
 10
-12.19999999999999
 20
-350.6999999999999
 30
0.0
 11
-12.19999999999999
 21
-350.0
 31
0.0
  0
LINE
  5
2EE
330
3C1
100
AcDbEntity
  8
DATA
  6
Continuous
 62
     7
100
AcDbLine
 10
-2.700000000000045
 20
-350.6999999999999
 30
0.0
 11
-2.700000000000045
 21
-350.0
 31
0.0
  0
LINE
  5
2EF
330
3C1
100
AcDbEntity
  8
DATA
  6
Continuous
 62
     7
100
AcDbLine
 10
-45.29999999999996
 20
-350.6999999999999
 30
0.0
 11
-54.79999999999996
 21
-350.6999999999999
 31
0.0
  0
LINE
  5
2F0
330
3C1
100
AcDbEntity
  8
DATA
  6
Continuous
 62
     7
100
AcDbLine
 10
-54.79999999999996
 20
-350.6999999999999
 30
0.0
 11
-54.79999999999996
 21
-350.0
 31
0.0
  0
LINE
  5
2F1
330
3C1
100
AcDbEntity
  8
DATA
  6
Continuous
 62
     7
100
AcDbLine
 10
-45.29999999999996
 20
-350.6999999999999
 30
0.0
 11
-45.29999999999996
 21
-350.0
 31
0.0
  0
LINE
  5
2F2
330
3C1
100
AcDbEntity
  8
DATA
  6
Continuous
 62
     7
100
AcDbLine
 10
-53.87289798352617
 20
-320.4
 30
0.0
 11
-46.22710201647374
 21
-320.4
 31
0.0
  0
LINE
  5
2F3
330
3C1
100
AcDbEntity
  8
DATA
  6
Continuous
 62
     7
100
AcDbLine
 10
-54.3499999999999
 20
-331.6999999999999
 30
0.0
 11
-54.3499999999999
 21
-335.1999999999998
 31
0.0
  0
LINE
  5
2F4
330
3C1
100
AcDbEntity
  8
DATA
  6
Continuous
 62
     7
100
AcDbLine
 10
-45.75
 20
-331.6999999999999
 30
0.0
 11
-45.75
 21
-335.1999999999998
 31
0.0
  0
LINE
  5
2F5
330
3C1
100
AcDbEntity
  8
DATA
  6
Continuous
 62
     7
100
AcDbLine
 10
-45.75
 20
-331.6999999999999
 30
0.0
 11
-54.3499999999999
 21
-331.6999999999999
 31
0.0
  0
LINE
  5
2F6
330
3C1
100
AcDbEntity
  8
DATA
  6
Continuous
 62
     7
100
AcDbLine
 10
-54.04999999999996
 20
-322.1104009029844
 30
0.0
 11
-54.04999999999996
 21
-322.3999999999998
 31
0.0
  0
LINE
  5
2F7
330
3C1
100
AcDbEntity
  8
DATA
  6
Continuous
 62
     7
100
AcDbLine
 10
-54.3499999999999
 20
-331.6999999999999
 30
0.0
 11
-53.95000000000004
 21
-330.8047619047617
 31
0.0
  0
LINE
  5
2F8
330
3C1
100
AcDbEntity
  8
DATA
  6
Continuous
 62
     7
100
AcDbLine
 10
-46.04999999999995
 20
-322.1104009029844
 30
0.0
 11
-46.04999999999995
 21
-322.3999999999998
 31
0.0
  0
LINE
  5
2F9
330
3C1
100
AcDbEntity
  8
DATA
  6
Continuous
 62
     7
100
AcDbLine
 10
-54.04999999999996
 20
-322.3999999999998
 30
0.0
 11
-46.04999999999995
 21
-322.3999999999998
 31
0.0
  0
LINE
  5
2FA
330
3C1
100
AcDbEntity
  8
DATA
  6
Continuous
 62
     7
100
AcDbLine
 10
-53.95000000000004
 20
-322.3999999999998
 30
0.0
 11
-53.95000000000004
 21
-330.8047619047617
 31
0.0
  0
LINE
  5
2FB
330
3C1
100
AcDbEntity
  8
DATA
  6
Continuous
 62
     7
100
AcDbLine
 10
-45.75
 20
-331.6999999999999
 30
0.0
 11
-46.14999999999986
 21
-330.8047619047617
 31
0.0
  0
LINE
  5
2FC
330
3C1
100
AcDbEntity
  8
DATA
  6
Continuous
 62
     7
100
AcDbLine
 10
-46.14999999999986
 20
-322.3999999999998
 30
0.0
 11
-46.14999999999986
 21
-330.8047619047617
 31
0.0
  0
LINE
  5
2FD
330
3C1
100
AcDbEntity
  8
DATA
  6
Continuous
 62
     7
100
AcDbLine
 10
-54.04999999999996
 20
-322.1104009029844
 30
0.0
 11
-53.87289798352617
 21
-320.4
 31
0.0
  0
LINE
  5
2FE
330
3C1
100
AcDbEntity
  8
DATA
  6
Continuous
 62
     7
100
AcDbLine
 10
-46.04999999999995
 20
-322.1104009029844
 30
0.0
 11
-46.22710201647374
 21
-320.4
 31
0.0
  0
TEXT
  5
2FF
330
3C1
100
AcDbEntity
  8
DATA
 62
     7
100
AcDbText
 10
237.5
 20
-562.080183888889
 30
0.0
 40
9.501573350694446
  1
グースネックマイク・ベースセット
 41
0.7
 11
237.5
 21
-552.5786105381945
 31
0.0
100
AcDbText
 73
     3
  0
LINE
  5
300
330
3C1
100
AcDbEntity
  8
DATA
  6
Continuous
 62
     7
100
AcDbLine
 10
-202.75
 20
-237.6098837075613
 30
0.0
 11
-202.75
 21
-225.8098837075613
 31
0.0
  0
LINE
  5
301
330
3C1
100
AcDbEntity
  8
DATA
  6
Continuous
 62
     7
100
AcDbLine
 10
-197.25
 20
-225.8098837075613
 30
0.0
 11
-197.25
 21
-237.6098837075613
 31
0.0
  0
LINE
  5
302
330
3C1
100
AcDbEntity
  8
DATA
  6
Continuous
 62
     7
100
AcDbLine
 10
-202.75
 20
-225.8098837075613
 30
0.0
 11
-197.25
 21
-225.8098837075613
 31
0.0
  0
LWPOLYLINE
  5
303
330
3C1
100
AcDbEntity
  8
DATA
  6
Continuous
 62
     7
100
AcDbPolyline
 90
        4
 70
     1
 43
0.0
 10
-202.8
 20
-221.8098837075613
 10
-197.2
 20
-221.8098837075613
 10
-197.2
 20
-225.8098837075613
 10
-202.8
 20
-225.8098837075613
  0
LINE
  5
30A
330
3C1
100
AcDbEntity
  8
DATA
  6
Continuous
 62
     7
100
AcDbLine
 10
-202.8
 20
-191.600000000041
 30
0.0
 11
-197.2
 21
-191.600000000041
 31
0.0
  0
LWPOLYLINE
  5
30B
330
3C1
100
AcDbEntity
  8
DATA
  6
Continuous
 62
     7
100
AcDbPolyline
 90
        4
 70
     1
 43
0.0
 10
-202.8
 20
-191.600000000041
 10
-197.2
 20
-191.600000000041
 10
-197.2
 20
-192.600000000041
 10
-202.8
 20
-192.600000000041
  0
ARC
  5
312
330
3C1
100
AcDbEntity
  8
DATA
  6
STYLE_01
 62
     7
100
AcDbCircle
 10
-205.0
 20
-234.8098837075941
 30
0.0
 40
3.0
100
AcDbArc
 50
180.0
 51
270.0
  0
ARC
  5
313
330
3C1
100
AcDbEntity
  8
DATA
  6
STYLE_01
 62
     7
100
AcDbCircle
 10
-195.0
 20
-234.8098837075941
 30
0.0
 40
3.0
100
AcDbArc
 50
270.0
 51
0.0
  0
LINE
  5
314
330
3C1
100
AcDbEntity
  8
DATA
  6
STYLE_01
 62
     7
100
AcDbLine
 10
-208.0
 20
-234.4686737880221
 30
0.0
 11
-208.0
 21
-187.8098837075943
 31
0.0
  0
ARC
  5
315
330
3C1
100
AcDbEntity
  8
DATA
  6
STYLE_01
 62
     7
100
AcDbCircle
 10
-200.0
 20
-187.8098837075943
 30
0.0
 40
8.0
100
AcDbArc
 50
0.0
 51
180.0
  0
LINE
  5
316
330
3C1
100
AcDbEntity
  8
DATA
  6
STYLE_01
 62
     7
100
AcDbLine
 10
-192.0
 20
-234.4686737880221
 30
0.0
 11
-192.0
 21
-187.8098837075943
 31
0.0
  0
LINE
  5
317
330
3C1
100
AcDbEntity
  8
DATA
  6
Continuous
 62
     7
100
AcDbLine
 10
-202.5
 20
-221.8098837075613
 30
0.0
 11
-202.5
 21
-192.600000000041
 31
0.0
  0
LINE
  5
318
330
3C1
100
AcDbEntity
  8
DATA
  6
Continuous
 62
     7
100
AcDbLine
 10
-197.5
 20
-221.8098837075613
 30
0.0
 11
-202.5
 21
-221.8098837075613
 31
0.0
  0
LINE
  5
319
330
3C1
100
AcDbEntity
  8
DATA
  6
Continuous
 62
     7
100
AcDbLine
 10
-197.5
 20
-192.600000000041
 30
0.0
 11
-197.5
 21
-221.8098837075613
 31
0.0
  0
LINE
  5
31A
330
3C1
100
AcDbEntity
  8
DATA
  6
Continuous
 62
     7
100
AcDbLine
 10
-202.5
 20
-320.4
 30
0.0
 11
-202.5
 21
-237.6098837075613
 31
0.0
  0
LINE
  5
31B
330
3C1
100
AcDbEntity
  8
DATA
  6
Continuous
 62
     7
100
AcDbLine
 10
-197.25
 20
-237.6098837075613
 30
0.0
 11
-202.75
 21
-237.6098837075613
 31
0.0
  0
LINE
  5
31C
330
3C1
100
AcDbEntity
  8
DATA
  6
STYLE_01
 62
     7
100
AcDbLine
 10
-195.0
 20
-237.8098837075941
 30
0.0
 11
-205.0
 21
-237.8098837075941
 31
0.0
  0
LINE
  5
31D
330
3C1
100
AcDbEntity
  8
DATA
  6
Continuous
 62
     7
100
AcDbLine
 10
-197.5
 20
-237.6098837075613
 30
0.0
 11
-197.5
 21
-320.4
 31
0.0
  0
LINE
  5
31E
330
3C1
100
AcDbEntity
  8
DATA
  6
Continuous
 62
     7
100
AcDbLine
 10
-52.75
 20
-237.6098837075612
 30
0.0
 11
-52.75
 21
-225.8098837075612
 31
0.0
  0
LINE
  5
31F
330
3C1
100
AcDbEntity
  8
DATA
  6
Continuous
 62
     7
100
AcDbLine
 10
-47.25
 20
-225.8098837075612
 30
0.0
 11
-47.25
 21
-237.6098837075612
 31
0.0
  0
LINE
  5
320
330
3C1
100
AcDbEntity
  8
DATA
  6
Continuous
 62
     7
100
AcDbLine
 10
-52.75
 20
-225.8098837075612
 30
0.0
 11
-47.25
 21
-225.8098837075612
 31
0.0
  0
LWPOLYLINE
  5
321
330
3C1
100
AcDbEntity
  8
DATA
  6
Continuous
 62
     7
100
AcDbPolyline
 90
        4
 70
     1
 43
0.0
 10
-52.79999999999996
 20
-221.8098837075612
 10
-47.20000000000005
 20
-221.8098837075612
 10
-47.20000000000005
 20
-225.8098837075612
 10
-52.79999999999996
 20
-225.8098837075612
  0
LINE
  5
328
330
3C1
100
AcDbEntity
  8
DATA
  6
Continuous
 62
     7
100
AcDbLine
 10
-52.79999999999996
 20
-191.6000000000409
 30
0.0
 11
-47.20000000000005
 21
-191.6000000000409
 31
0.0
  0
LWPOLYLINE
  5
329
330
3C1
100
AcDbEntity
  8
DATA
  6
Continuous
 62
     7
100
AcDbPolyline
 90
        4
 70
     1
 43
0.0
 10
-52.79999999999996
 20
-191.6000000000409
 10
-47.20000000000005
 20
-191.6000000000409
 10
-47.20000000000005
 20
-192.6000000000409
 10
-52.79999999999996
 20
-192.6000000000409
  0
ARC
  5
330
330
3C1
100
AcDbEntity
  8
DATA
  6
STYLE_01
 62
     7
100
AcDbCircle
 10
-55.0
 20
-234.809883707594
 30
0.0
 40
3.0
100
AcDbArc
 50
180.0
 51
270.0
  0
ARC
  5
331
330
3C1
100
AcDbEntity
  8
DATA
  6
STYLE_01
 62
     7
100
AcDbCircle
 10
-45.0
 20
-234.809883707594
 30
0.0
 40
3.0
100
AcDbArc
 50
270.0
 51
0.0
  0
LINE
  5
332
330
3C1
100
AcDbEntity
  8
DATA
  6
STYLE_01
 62
     7
100
AcDbLine
 10
-58.0
 20
-234.468673788022
 30
0.0
 11
-58.0
 21
-187.8098837075941
 31
0.0
  0
ARC
  5
333
330
3C1
100
AcDbEntity
  8
DATA
  6
STYLE_01
 62
     7
100
AcDbCircle
 10
-50.0
 20
-187.8098837075941
 30
0.0
 40
8.0
100
AcDbArc
 50
0.0
 51
180.0
  0
LINE
  5
334
330
3C1
100
AcDbEntity
  8
DATA
  6
STYLE_01
 62
     7
100
AcDbLine
 10
-42.0
 20
-234.468673788022
 30
0.0
 11
-42.0
 21
-187.8098837075941
 31
0.0
  0
ARC
  5
335
330
3C1
100
AcDbEntity
  8
DATA
  6
Continuous
 62
     7
100
AcDbCircle
 10
-49.9998988116522
 20
-227.2222107412615
 30
0.0
 40
0.5896099422145619
100
AcDbArc
 50
28.56372796219945
 51
151.2020468817627
  0
ARC
  5
336
330
3C1
100
AcDbEntity
  8
DATA
  6
Continuous
 62
     7
100
AcDbCircle
 10
-49.546850487671
 20
-227.5629795060851
 30
0.0
 40
1.153586748414139
100
AcDbArc
 50
147.2065201697192
 51
181.8390314501179
  0
ARC
  5
337
330
3C1
100
AcDbEntity
  8
DATA
  6
Continuous
 62
     7
100
AcDbCircle
 10
-50.45314951232899
 20
-227.5629795060851
 30
0.0
 40
1.153586748414178
100
AcDbArc
 50
358.1609685498821
 51
32.66862917438988
  0
ARC
  5
338
330
3C1
100
AcDbEntity
  8
DATA
  6
Continuous
 62
     7
100
AcDbCircle
 10
-49.9998988116522
 20
-227.9777892588977
 30
0.0
 40
0.5896099422146344
100
AcDbArc
 50
208.7979531182373
 51
331.4362720378005
  0
ARC
  5
339
330
3C1
100
AcDbEntity
  8
DATA
  6
Continuous
 62
     7
100
AcDbCircle
 10
-49.546850487671
 20
-227.6370204940741
 30
0.0
 40
1.153586748414178
100
AcDbArc
 50
178.160968549882
 51
212.7934798302761
  0
ARC
  5
33A
330
3C1
100
AcDbEntity
  8
DATA
  6
Continuous
 62
     7
100
AcDbCircle
 10
-50.45314951232899
 20
-227.6370204940741
 30
0.0
 40
1.153586748414028
100
AcDbArc
 50
327.3313708256101
 51
1.839031450117943
  0
ARC
  5
33B
330
3C1
100
AcDbEntity
  8
DATA
  6
Continuous
 62
     7
100
AcDbCircle
 10
-49.99988363340003
 20
-227.1655423524388
 30
0.0
 40
0.6780514335469876
100
AcDbArc
 50
28.56372796219875
 51
151.2020468817586
  0
ARC
  5
33C
330
3C1
100
AcDbEntity
  8
DATA
  6
Continuous
 62
     7
100
AcDbCircle
 10
-49.47887806082167
 20
-227.557426431986
 30
0.0
 40
1.326624760676269
100
AcDbArc
 50
147.2065201697203
 51
181.8390314501151
  0
ARC
  5
33D
330
3C1
100
AcDbEntity
  8
DATA
  6
Continuous
 62
     7
100
AcDbCircle
 10
-50.52112193917832
 20
-227.557426431986
 30
0.0
 40
1.326624760676235
100
AcDbArc
 50
358.1609685498849
 51
32.66862917439051
  0
ARC
  5
33E
330
3C1
100
AcDbEntity
  8
DATA
  6
Continuous
 62
     7
100
AcDbCircle
 10
-49.99988363340003
 20
-228.0344576477204
 30
0.0
 40
0.6780514335468952
100
AcDbArc
 50
208.7979531182414
 51
331.4362720378097
  0
ARC
  5
33F
330
3C1
100
AcDbEntity
  8
DATA
  6
Continuous
 62
     7
100
AcDbCircle
 10
-49.47887806082167
 20
-227.6425735681733
 30
0.0
 40
1.326624760676235
100
AcDbArc
 50
178.1609685498849
 51
212.7934798302796
  0
ARC
  5
340
330
3C1
100
AcDbEntity
  8
DATA
  6
Continuous
 62
     7
100
AcDbCircle
 10
-50.52112193917832
 20
-227.6425735681733
 30
0.0
 40
1.326624760676322
100
AcDbArc
 50
327.3313708256136
 51
1.839031450115101
  0
LINE
  5
341
330
3C1
100
AcDbEntity
  8
DATA
  6
Continuous
 62
     7
100
AcDbLine
 10
-52.5
 20
-221.8098837075612
 30
0.0
 11
-52.5
 21
-192.6000000000409
 31
0.0
  0
LINE
  5
342
330
3C1
100
AcDbEntity
  8
DATA
  6
Continuous
 62
     7
100
AcDbLine
 10
-47.5
 20
-221.8098837075612
 30
0.0
 11
-52.5
 21
-221.8098837075612
 31
0.0
  0
LINE
  5
343
330
3C1
100
AcDbEntity
  8
DATA
  6
Continuous
 62
     7
100
AcDbLine
 10
-47.5
 20
-192.6000000000409
 30
0.0
 11
-47.5
 21
-221.8098837075612
 31
0.0
  0
LINE
  5
344
330
3C1
100
AcDbEntity
  8
DATA
  6
Continuous
 62
     7
100
AcDbLine
 10
-52.5
 20
-320.4
 30
0.0
 11
-52.5
 21
-237.6098837075612
 31
0.0
  0
LINE
  5
345
330
3C1
100
AcDbEntity
  8
DATA
  6
Continuous
 62
     7
100
AcDbLine
 10
-47.25
 20
-237.6098837075612
 30
0.0
 11
-52.75
 21
-237.6098837075612
 31
0.0
  0
LINE
  5
346
330
3C1
100
AcDbEntity
  8
DATA
  6
STYLE_01
 62
     7
100
AcDbLine
 10
-45.0
 20
-237.809883707594
 30
0.0
 11
-55.0
 21
-237.809883707594
 31
0.0
  0
LINE
  5
347
330
3C1
100
AcDbEntity
  8
DATA
  6
Continuous
 62
     7
100
AcDbLine
 10
-47.5
 20
-237.6098837075612
 30
0.0
 11
-47.5
 21
-320.4
 31
0.0
  0
TEXT
  5
348
330
3C1
100
AcDbEntity
  8
DATA
 62
     7
100
AcDbText
 10
250.0
 20
-544.0604088888887
 30
0.0
 40
12.21630859375
  1
DPA Microphones
 41
0.7
 11
250.0
 21
-531.8441002951387
 31
0.0
100
AcDbText
 73
     3
  0
LINE
  5
349
330
3C1
100
AcDbEntity
  8
DATA
  6
Continuous
 62
     7
100
AcDbLine
 10
0.0
 20
-346.5
 30
0.0
 11
17.58901547902695
 21
-346.5
 31
0.0
  0
LINE
  5
34A
330
3C1
100
AcDbEntity
  8
DATA
  6
Continuous
 62
     7
100
AcDbLine
 10
0.0
 20
-349.2999999999999
 30
0.0
 11
19.91098452097304
 21
-349.2999999999999
 31
0.0
  0
LINE
  5
34B
330
3C1
100
AcDbEntity
  8
DATA
  6
Continuous
 62
     7
100
AcDbLine
 10
28.34598702995782
 20
-346.5
 30
0.0
 11
20.71401547902701
 21
-346.5
 31
0.0
  0
LINE
  5
34C
330
3C1
100
AcDbEntity
  8
DATA
  6
Continuous
 62
     7
100
AcDbLine
 10
28.34598702995782
 20
-349.2999999999999
 30
0.0
 11
23.03598452097305
 21
-349.2999999999999
 31
0.0
  0
ARC
  5
34D
330
3C1
100
AcDbEntity
  8
DATA
  6
Continuous
 62
     7
100
AcDbCircle
 10
21.09375
 20
-344.775
 30
0.0
 40
3.90625
100
AcDbArc
 50
126.869897645844
 51
233.130102354156
  0
ARC
  5
34E
330
3C1
100
AcDbEntity
  8
DATA
  6
Continuous
 62
     7
100
AcDbCircle
 10
16.40625
 20
-351.025
 30
0.0
 40
3.90625
100
AcDbArc
 50
306.8698976458441
 51
53.13010235415595
  0
ARC
  5
34F
330
3C1
100
AcDbEntity
  8
DATA
  6
Continuous
 62
     7
100
AcDbCircle
 10
24.21875
 20
-344.775
 30
0.0
 40
3.90625
100
AcDbArc
 50
126.869897645844
 51
233.130102354156
  0
ARC
  5
350
330
3C1
100
AcDbEntity
  8
DATA
  6
Continuous
 62
     7
100
AcDbCircle
 10
19.53125
 20
-351.025
 30
0.0
 40
3.90625
100
AcDbArc
 50
306.8698976458441
 51
53.13010235415595
  0
ENDSEC
  0
SECTION
  2
OBJECTS
  0
DICTIONARY
  5
35E
330
0
100
AcDbDictionary
281
     1
  3
ACAD_CIP_PREVIOUS_PRODUCT_INFO
350
3DA
  3
ACAD_COLOR
350
3B4
  3
ACAD_DETAILVIEWSTYLE
350
3BB
  3
ACAD_GROUP
350
35F
  3
ACAD_LAYOUT
350
3B3
  3
ACAD_MATERIAL
350
362
  3
ACAD_MLEADERSTYLE
350
3B7
  3
ACAD_MLINESTYLE
350
3B0
  3
ACAD_PLOTSETTINGS
350
3B2
  3
ACAD_PLOTSTYLENAME
350
360
  3
ACAD_SCALELIST
350
394
  3
ACAD_SECTIONVIEWSTYLE
350
3B9
  3
ACAD_TABLESTYLE
350
3B5
  3
ACAD_VISUALSTYLE
350
37B
  3
ACDB_RECOMPOSE_DATA
350
3F4
  3
AcDbVariableDictionary
350
3E7
  3
DWGPROPS
350
3F5
  0
DICTIONARY
  5
3DB
330
3A6
100
AcDbDictionary
280
     1
281
     1
  3
ADSK_XREC_LAYER_RECONCILED
360
3DC
  0
DICTIONARY
  5
3DD
330
3C5
100
AcDbDictionary
280
     1
281
     1
  3
ADSK_XREC_LAYER_RECONCILED
360
3DE
  0
DICTIONARY
  5
3DF
330
3D1
100
AcDbDictionary
280
     1
281
     1
  3
ADSK_XREC_LAYER_RECONCILED
360
3E0
  0
DICTIONARY
  5
3E1
330
3D2
100
AcDbDictionary
280
     1
281
     1
  3
ADSK_XREC_LAYER_RECONCILED
360
3E2
  0
DICTIONARY
  5
3E3
330
3D3
100
AcDbDictionary
280
     1
281
     1
  3
ADSK_XREC_LAYER_RECONCILED
360
3E4
  0
DICTIONARY
  5
3E5
330
3D4
100
AcDbDictionary
280
     1
281
     1
  3
ADSK_XREC_LAYER_RECONCILED
360
3E6
  0
XRECORD
  5
3DA
102
{ACAD_REACTORS
330
35E
102
}
330
35E
100
AcDbXrecord
280
     1
300
ACDLT
300
2018
300
ACDLT_F_S
  0
DICTIONARY
  5
3B4
102
{ACAD_REACTORS
330
35E
102
}
330
35E
100
AcDbDictionary
281
     1
  0
DICTIONARY
  5
3BB
102
{ACAD_REACTORS
330
35E
102
}
330
35E
100
AcDbDictionary
281
     1
  3
Imperial24
350
3BC
  0
DICTIONARY
  5
35F
102
{ACAD_REACTORS
330
35E
102
}
330
35E
100
AcDbDictionary
281
     1
  0
DICTIONARY
  5
3B3
102
{ACAD_REACTORS
330
35E
102
}
330
35E
100
AcDbDictionary
281
     1
  3
Model
350
3C4
  3
レイアウト1
350
3C0
  0
DICTIONARY
  5
362
102
{ACAD_REACTORS
330
35E
102
}
330
35E
100
AcDbDictionary
281
     1
  3
ByBlock
350
36B
  3
ByLayer
350
363
  3
Global
350
373
  0
DICTIONARY
  5
3B7
102
{ACAD_REACTORS
330
35E
102
}
330
35E
100
AcDbDictionary
281
     1
  3
Standard
350
3B8
  0
DICTIONARY
  5
3B0
102
{ACAD_REACTORS
330
35E
102
}
330
35E
100
AcDbDictionary
281
     1
  3
Standard
350
3B1
  0
DICTIONARY
  5
3B2
102
{ACAD_REACTORS
330
35E
102
}
330
35E
100
AcDbDictionary
281
     1
  0
ACDBDICTIONARYWDFLT
  5
360
102
{ACAD_REACTORS
330
35E
102
}
330
35E
100
AcDbDictionary
281
     1
  3
Normal
350
361
100
AcDbDictionaryWithDefault
340
361
  0
DICTIONARY
  5
394
102
{ACAD_REACTORS
330
35E
102
}
330
35E
100
AcDbDictionary
281
     1
  3
A0
350
395
  3
A1
350
396
  3
A2
350
397
  3
A3
350
398
  3
A4
350
399
  3
A5
350
39A
  3
A6
350
39B
  3
A7
350
39C
  3
A8
350
39D
  3
A9
350
39E
  3
B0
350
39F
  3
B1
350
3A0
  3
B2
350
3A1
  3
B3
350
3A2
  3
B4
350
3A3
  3
B5
350
3A4
  3
B6
350
3A5
  0
DICTIONARY
  5
3B9
102
{ACAD_REACTORS
330
35E
102
}
330
35E
100
AcDbDictionary
281
     1
  3
Imperial24
350
3BA
  0
DICTIONARY
  5
3B5
102
{ACAD_REACTORS
330
35E
102
}
330
35E
100
AcDbDictionary
281
     1
  3
Standard
350
3B6
  0
DICTIONARY
  5
37B
102
{ACAD_REACTORS
330
35E
102
}
330
35E
100
AcDbDictionary
281
     1
  3
2dWireframe
350
381
  3
Basic
350
380
  3
Brighten
350
387
  3
ColorChange
350
38B
  3
Conceptual
350
384
  3
Dim
350
386
  3
EdgeColorOff
350
393
  3
Facepattern
350
38A
  3
Flat
350
37C
  3
FlatWithEdges
350
37D
  3
Gouraud
350
37E
  3
GouraudWithEdges
350
37F
  3
Hidden
350
383
  3
JitterOff
350
391
  3
Linepattern
350
389
  3
OverhangOff
350
392
  3
Realistic
350
385
  3
Shaded
350
390
  3
Shaded with edges
350
38F
  3
Shades of Gray
350
38C
  3
Sketchy
350
38D
  3
Thicken
350
388
  3
Wireframe
350
382
  3
X-Ray
350
38E
  0
XRECORD
  5
3F4
102
{ACAD_REACTORS
330
35E
102
}
330
35E
100
AcDbXrecord
280
     1
 90
        1
330
3B6
  0
DICTIONARY
  5
3E7
102
{ACAD_REACTORS
330
35E
102
}
330
35E
100
AcDbDictionary
281
     1
  3
CANNOSCALE
350
3EC
  3
CMLEADERSTYLE
350
3E9
  3
CTABLESTYLE
350
3E8
  3
CVIEWDETAILSTYLE
350
3EA
  3
CVIEWSECTIONSTYLE
350
3EB
  3
DIMASSOC
350
3EF
  3
INDEXCTL
350
3EE
  3
SORTENTS
350
3ED
  3
XCLIPFRAME
350
3F0
  0
XRECORD
  5
3F5
102
{ACAD_REACTORS
330
35E
102
}
330
35E
100
AcDbXrecord
280
     1
  1
DWGPROPS COOKIE
  2

  3

  4

  6

  7

  8
sasaki_n
  9

300
=
301
=
302
=
303
=
304
=
305
=
306
=
307
=
308
=
309
=
 40
0.0003009259259259
 41
2457865.487881945
 42
2457865.491342593
  1

 90
        0
  0
XRECORD
  5
3DC
102
{ACAD_REACTORS
330
3DB
102
}
330
3DB
100
AcDbXrecord
280
     1
290
     1
  0
XRECORD
  5
3DE
102
{ACAD_REACTORS
330
3DD
102
}
330
3DD
100
AcDbXrecord
280
     1
290
     1
  0
XRECORD
  5
3E0
102
{ACAD_REACTORS
330
3DF
102
}
330
3DF
100
AcDbXrecord
280
     1
290
     1
  0
XRECORD
  5
3E2
102
{ACAD_REACTORS
330
3E1
102
}
330
3E1
100
AcDbXrecord
280
     1
290
     1
  0
XRECORD
  5
3E4
102
{ACAD_REACTORS
330
3E3
102
}
330
3E3
100
AcDbXrecord
280
     1
290
     1
  0
XRECORD
  5
3E6
102
{ACAD_REACTORS
330
3E5
102
}
330
3E5
100
AcDbXrecord
280
     1
290
     1
  0
ACDBDETAILVIEWSTYLE
  5
3BC
102
{ACAD_XDICTIONARY
360
42D
102
}
102
{ACAD_REACTORS
330
3BB
102
}
330
3BB
100
AcDbModelDocViewStyle
 70
     0
  3
Imperial24
290
     0
100
AcDbDetailViewStyle
 70
     0
 71
     0
 90
        3
 71
     1
340
3A7
 40
0.24
340
0
 40
0.24
300

 40
0.36
280
     3
 71
     2
340
3AE
 90
       25
 71
     3
340
3A7
 40
0.24
 90
        1
 40
0.75
 90
        1
300
%<\AcVar ViewType \f "%tc1">% %<\AcVar ViewDetailId>%\PSCALE %<\AcVar ViewScale \f "%sn">%
 71
     4
340
3AE
 90
       25
340
3AE
 90
       25
280
     0
  0
LAYOUT
  5
3C4
102
{ACAD_XDICTIONARY
360
431
102
}
102
{ACAD_REACTORS
330
3B3
102
}
330
3B3
100
AcDbPlotSettings
  1

  2
DocuPrint 3000-2
  4

  6

 40
0.0
 41
0.0
 42
0.0
 43
0.0
 44
0.0
 45
0.0
 46
0.0
 47
0.0
 48
0.0
 49
0.0
140
0.0
141
0.0
142
1.0
143
1.0
 70
  1712
 72
     0
 73
     0
 74
     0
  7

 75
     0
147
1.0
148
0.0
149
0.0
100
AcDbLayout
  1
Model
 70
     1
 71
     0
 10
0.0
 20
0.0
 11
12.0
 21
9.0
 12
0.0
 22
0.0
 32
0.0
 14
0.0
 24
0.0
 34
0.0
 15
0.0
 25
0.0
 35
0.0
146
0.0
 13
0.0
 23
0.0
 33
0.0
 16
1.0
 26
0.0
 36
0.0
 17
0.0
 27
1.0
 37
0.0
 76
     0
330
3C1
331
3C6
  0
LAYOUT
  5
3C0
102
{ACAD_XDICTIONARY
360
42F
102
}
102
{ACAD_REACTORS
330
3B3
102
}
330
3B3
100
AcDbPlotSettings
  1

  2
DocuPrint 3000-2
  4

  6

 40
0.0
 41
0.0
 42
0.0
 43
0.0
 44
0.0
 45
0.0
 46
0.0
 47
0.0
 48
0.0
 49
0.0
140
0.0
141
0.0
142
1.0
143
1.0
 70
   688
 72
     0
 73
     0
 74
     5
  7

 75
    16
147
1.0
148
0.0
149
0.0
100
AcDbLayout
  1
レイアウト1
 70
     0
 71
     1
 10
0.0
 20
0.0
 11
12.0
 21
9.0
 12
0.0
 22
0.0
 32
0.0
 14
1.000000000000000E+20
 24
1.000000000000000E+20
 34
1.000000000000000E+20
 15
-1.000000000000000E+20
 25
-1.000000000000000E+20
 35
-1.000000000000000E+20
146
0.0
 13
0.0
 23
0.0
 33
0.0
 16
1.0
 26
0.0
 36
0.0
 17
0.0
 27
1.0
 37
0.0
 76
     0
330
3BD
  0
MATERIAL
  5
36B
102
{ACAD_XDICTIONARY
360
36C
102
}
102
{ACAD_REACTORS
330
362
102
}
330
362
100
AcDbMaterial
  1
ByBlock
 72
     0
 43
0.0208333333333333
 43
0.0
 43
0.0
 43
0.0
 43
0.0
 43
0.0208333333333333
 43
0.0
 43
0.0
 43
0.0
 43
0.0
 43
1.0
 43
0.0
 43
0.0
 43
0.0
 43
0.0
 43
1.0
 77
     0
 47
0.0208333333333333
 47
0.0
 47
0.0
 47
0.0
 47
0.0
 47
0.0208333333333333
 47
0.0
 47
0.0
 47
0.0
 47
0.0
 47
1.0
 47
0.0
 47
0.0
 47
0.0
 47
0.0
 47
1.0
171
     0
 49
0.0208333333333333
 49
0.0
 49
0.0
 49
0.0
 49
0.0
 49
0.0208333333333333
 49
0.0
 49
0.0
 49
0.0
 49
0.0
 49
1.0
 49
0.0
 49
0.0
 49
0.0
 49
0.0
 49
1.0
175
     0
142
0.0208333333333333
142
0.0
142
0.0
142
0.0
142
0.0
142
0.0208333333333333
142
0.0
142
0.0
142
0.0
142
0.0
142
1.0
142
0.0
142
0.0
142
0.0
142
0.0
142
1.0
179
     0
144
0.0208333333333333
144
0.0
144
0.0
144
0.0
144
0.0
144
0.0208333333333333
144
0.0
144
0.0
144
0.0
144
0.0
144
1.0
144
0.0
144
0.0
144
0.0
144
0.0
144
1.0
147
0.0208333333333333
147
0.0
147
0.0
147
0.0
147
0.0
147
0.0208333333333333
147
0.0
147
0.0
147
0.0
147
0.0
147
1.0
147
0.0
147
0.0
147
0.0
147
0.0
147
1.0
  0
MATERIAL
  5
363
102
{ACAD_XDICTIONARY
360
364
102
}
102
{ACAD_REACTORS
330
362
102
}
330
362
100
AcDbMaterial
  1
ByLayer
 72
     0
 43
0.0208333333333333
 43
0.0
 43
0.0
 43
0.0
 43
0.0
 43
0.0208333333333333
 43
0.0
 43
0.0
 43
0.0
 43
0.0
 43
1.0
 43
0.0
 43
0.0
 43
0.0
 43
0.0
 43
1.0
 77
     0
 47
0.0208333333333333
 47
0.0
 47
0.0
 47
0.0
 47
0.0
 47
0.0208333333333333
 47
0.0
 47
0.0
 47
0.0
 47
0.0
 47
1.0
 47
0.0
 47
0.0
 47
0.0
 47
0.0
 47
1.0
171
     0
 49
0.0208333333333333
 49
0.0
 49
0.0
 49
0.0
 49
0.0
 49
0.0208333333333333
 49
0.0
 49
0.0
 49
0.0
 49
0.0
 49
1.0
 49
0.0
 49
0.0
 49
0.0
 49
0.0
 49
1.0
175
     0
142
0.0208333333333333
142
0.0
142
0.0
142
0.0
142
0.0
142
0.0208333333333333
142
0.0
142
0.0
142
0.0
142
0.0
142
1.0
142
0.0
142
0.0
142
0.0
142
0.0
142
1.0
179
     0
144
0.0208333333333333
144
0.0
144
0.0
144
0.0
144
0.0
144
0.0208333333333333
144
0.0
144
0.0
144
0.0
144
0.0
144
1.0
144
0.0
144
0.0
144
0.0
144
0.0
144
1.0
147
0.0208333333333333
147
0.0
147
0.0
147
0.0
147
0.0
147
0.0208333333333333
147
0.0
147
0.0
147
0.0
147
0.0
147
1.0
147
0.0
147
0.0
147
0.0
147
0.0
147
1.0
  0
MATERIAL
  5
373
102
{ACAD_XDICTIONARY
360
374
102
}
102
{ACAD_REACTORS
330
362
102
}
330
362
100
AcDbMaterial
  1
Global
 72
     0
 43
0.0208333333333333
 43
0.0
 43
0.0
 43
0.0
 43
0.0
 43
0.0208333333333333
 43
0.0
 43
0.0
 43
0.0
 43
0.0
 43
1.0
 43
0.0
 43
0.0
 43
0.0
 43
0.0
 43
1.0
 77
     0
 47
0.0208333333333333
 47
0.0
 47
0.0
 47
0.0
 47
0.0
 47
0.0208333333333333
 47
0.0
 47
0.0
 47
0.0
 47
0.0
 47
1.0
 47
0.0
 47
0.0
 47
0.0
 47
0.0
 47
1.0
171
     0
 49
0.0208333333333333
 49
0.0
 49
0.0
 49
0.0
 49
0.0
 49
0.0208333333333333
 49
0.0
 49
0.0
 49
0.0
 49
0.0
 49
1.0
 49
0.0
 49
0.0
 49
0.0
 49
0.0
 49
1.0
175
     0
142
0.0208333333333333
142
0.0
142
0.0
142
0.0
142
0.0
142
0.0208333333333333
142
0.0
142
0.0
142
0.0
142
0.0
142
1.0
142
0.0
142
0.0
142
0.0
142
0.0
142
1.0
179
     0
144
0.0208333333333333
144
0.0
144
0.0
144
0.0
144
0.0
144
0.0208333333333333
144
0.0
144
0.0
144
0.0
144
0.0
144
1.0
144
0.0
144
0.0
144
0.0
144
0.0
144
1.0
147
0.0208333333333333
147
0.0
147
0.0
147
0.0
147
0.0
147
0.0208333333333333
147
0.0
147
0.0
147
0.0
147
0.0
147
1.0
147
0.0
147
0.0
147
0.0
147
0.0
147
1.0
  0
MLEADERSTYLE
  5
3B8
102
{ACAD_REACTORS
330
3B7
102
}
330
3B7
100
AcDbMLeaderStyle
170
     2
171
     1
172
     0
 90
        2
 40
0.0
 41
0.0
173
     1
 91
-1056964608
340
3AC
 92
       -2
290
     1
 42
0.09
291
     1
 43
0.36
  3
Standard
 44
0.18
300

342
3A7
174
     1
178
     6
175
     1
176
     0
 93
-1056964608
 45
0.18
292
     0
297
     0
 46
0.18
 94
-1056964608
 47
1.0
 49
1.0
140
1.0
293
     1
141
0.0
294
     1
177
     0
142
1.0
295
     0
296
     0
143
0.125
1001
ACAD_MLEADERVER
1070
     2
  0
MLINESTYLE
  5
3B1
102
{ACAD_REACTORS
330
3B0
102
}
330
3B0
100
AcDbMlineStyle
  2
STANDARD
 70
     0
  3

 62
   256
 51
90.0
 52
90.0
 71
     2
 49
0.5
 62
   256
  6
BYLAYER
 49
-0.5
 62
   256
  6
BYLAYER
  0
ACDBPLACEHOLDER
  5
361
102
{ACAD_REACTORS
330
360
102
}
330
360
  0
SCALE
  5
395
102
{ACAD_REACTORS
330
394
102
}
330
394
100
AcDbScale
 70
     0
300
1:1
140
1.0
141
1.0
290
     1
  0
SCALE
  5
396
102
{ACAD_REACTORS
330
394
102
}
330
394
100
AcDbScale
 70
     0
300
1/128" = 1'-0"
140
0.0078125
141
12.0
290
     0
  0
SCALE
  5
397
102
{ACAD_REACTORS
330
394
102
}
330
394
100
AcDbScale
 70
     0
300
1/64" = 1'-0"
140
0.015625
141
12.0
290
     0
  0
SCALE
  5
398
102
{ACAD_REACTORS
330
394
102
}
330
394
100
AcDbScale
 70
     0
300
1/32" = 1'-0"
140
0.03125
141
12.0
290
     0
  0
SCALE
  5
399
102
{ACAD_REACTORS
330
394
102
}
330
394
100
AcDbScale
 70
     0
300
1/16" = 1'-0"
140
0.0625
141
12.0
290
     0
  0
SCALE
  5
39A
102
{ACAD_REACTORS
330
394
102
}
330
394
100
AcDbScale
 70
     0
300
3/32" = 1'-0"
140
0.09375
141
12.0
290
     0
  0
SCALE
  5
39B
102
{ACAD_REACTORS
330
394
102
}
330
394
100
AcDbScale
 70
     0
300
1/8" = 1'-0"
140
0.125
141
12.0
290
     0
  0
SCALE
  5
39C
102
{ACAD_REACTORS
330
394
102
}
330
394
100
AcDbScale
 70
     0
300
3/16" = 1'-0"
140
0.1875
141
12.0
290
     0
  0
SCALE
  5
39D
102
{ACAD_REACTORS
330
394
102
}
330
394
100
AcDbScale
 70
     0
300
1/4" = 1'-0"
140
0.25
141
12.0
290
     0
  0
SCALE
  5
39E
102
{ACAD_REACTORS
330
394
102
}
330
394
100
AcDbScale
 70
     0
300
3/8" = 1'-0"
140
0.375
141
12.0
290
     0
  0
SCALE
  5
39F
102
{ACAD_REACTORS
330
394
102
}
330
394
100
AcDbScale
 70
     0
300
1/2" = 1'-0"
140
0.5
141
12.0
290
     0
  0
SCALE
  5
3A0
102
{ACAD_REACTORS
330
394
102
}
330
394
100
AcDbScale
 70
     0
300
3/4" = 1'-0"
140
0.75
141
12.0
290
     0
  0
SCALE
  5
3A1
102
{ACAD_REACTORS
330
394
102
}
330
394
100
AcDbScale
 70
     0
300
1" = 1'-0"
140
1.0
141
12.0
290
     0
  0
SCALE
  5
3A2
102
{ACAD_REACTORS
330
394
102
}
330
394
100
AcDbScale
 70
     0
300
1-1/2" = 1'-0"
140
1.5
141
12.0
290
     0
  0
SCALE
  5
3A3
102
{ACAD_REACTORS
330
394
102
}
330
394
100
AcDbScale
 70
     0
300
3" = 1'-0"
140
3.0
141
12.0
290
     0
  0
SCALE
  5
3A4
102
{ACAD_REACTORS
330
394
102
}
330
394
100
AcDbScale
 70
     0
300
6" = 1'-0"
140
6.0
141
12.0
290
     0
  0
SCALE
  5
3A5
102
{ACAD_REACTORS
330
394
102
}
330
394
100
AcDbScale
 70
     0
300
1'-0" = 1'-0"
140
12.0
141
12.0
290
     0
  0
ACDBSECTIONVIEWSTYLE
  5
3BA
102
{ACAD_XDICTIONARY
360
42B
102
}
102
{ACAD_REACTORS
330
3B9
102
}
330
3B9
100
AcDbModelDocViewStyle
 70
     0
  3
Imperial24
290
     0
100
AcDbSectionViewStyle
 70
     0
 71
     0
 90
       78
 71
     1
340
3A7
 40
0.24
340
0
340
0
 40
0.24
300
I, O, Q, S, X, Z
 40
0.48
 90
        3
 40
0.18
 90
        1
 71
     2
340
3AE
 90
       25
340
3AE
 90
       50
 40
0.24
 40
0.0
 40
0.24
 71
     3
340
3A7
 40
0.24
 90
        1
 40
0.75
 90
        1
300
%<\AcVar ViewType \f "%tc1">% %<\AcVar ViewSectionStartId>%-%<\AcVar ViewSectionEndId>%\PSCALE %<\AcVar ViewScale \f "%sn">%
 71
     4
300
ANSI31
 40
1.0
 90
        0
290
     0
290
     0
 90
        6
 40
0.0
 40
1.570796326794896
 40
0.2617993877991494
 40
1.308996938995747
 40
-0.2617993877991494
 40
1.832595714594046
  0
TABLESTYLE
  5
3B6
102
{ACAD_XDICTIONARY
360
3F2
102
}
102
{ACAD_REACTORS
330
3B5
102
}
330
3B5
100
AcDbTableStyle
  3
Standard
 70
     0
 71
     0
 40
0.06
 41
0.06
280
     0
281
     0
  7
STANDARD
140
0.18
170
     2
 62
     0
 63
     7
283
     0
274
    -2
284
     1
 64
     0
275
    -2
285
     1
 65
     0
276
    -2
286
     1
 66
     0
277
    -2
287
     1
 67
     0
278
    -2
288
     1
 68
     0
279
    -2
289
     1
 69
     0
  7
STANDARD
140
0.25
170
     5
 62
     0
 63
     7
283
     0
274
    -2
284
     1
 64
     0
275
    -2
285
     1
 65
     0
276
    -2
286
     1
 66
     0
277
    -2
287
     1
 67
     0
278
    -2
288
     1
 68
     0
279
    -2
289
     1
 69
     0
  7
STANDARD
140
0.18
170
     5
 62
     0
 63
     7
283
     0
274
    -2
284
     1
 64
     0
275
    -2
285
     1
 65
     0
276
    -2
286
     1
 66
     0
277
    -2
287
     1
 67
     0
278
    -2
288
     1
 68
     0
279
    -2
289
     1
 69
     0
  0
VISUALSTYLE
  5
381
102
{ACAD_XDICTIONARY
360
403
102
}
102
{ACAD_REACTORS
330
37B
102
}
330
37B
100
AcDbVisualStyle
  2
2dWireframe
 70
     4
 71
     0
 72
     2
 73
     0
 90
        0
 40
-0.6
 41
-30.0
 62
     5
 63
     7
 74
     1
 91
        4
 64
     7
 65
   257
 75
     1
175
     1
 42
1.0
 92
        0
 66
   257
 43
1.0
 76
     1
 77
     6
 78
     2
 67
     7
 79
     5
170
     0
171
     0
290
     0
174
     0
 93
        1
 44
0.0
173
     0
291
     0
 45
0.0
1001
ACAD
1000
AcDbSavedByObjectVersion
1070
     0
  0
VISUALSTYLE
  5
380
102
{ACAD_XDICTIONARY
360
401
102
}
102
{ACAD_REACTORS
330
37B
102
}
330
37B
100
AcDbVisualStyle
  2
Basic
 70
     7
 71
     1
 72
     0
 73
     1
 90
        0
 40
-0.6
 41
-30.0
 62
     5
 63
     7
 74
     0
 91
        4
 64
     7
 65
   257
 75
     1
175
     1
 42
1.0
 92
        8
 66
     7
 43
1.0
 76
     1
 77
     6
 78
     2
 67
     7
 79
     5
170
     0
171
     0
290
     0
174
     0
 93
        1
 44
0.0
173
     0
291
     1
 45
0.0
1001
ACAD
1000
AcDbSavedByObjectVersion
1070
     0
  0
VISUALSTYLE
  5
387
102
{ACAD_XDICTIONARY
360
40F
102
}
102
{ACAD_REACTORS
330
37B
102
}
330
37B
100
AcDbVisualStyle
  2
Brighten
 70
    12
 71
     2
 72
     2
 73
     0
 90
        0
 40
-0.6
 41
-30.0
 62
     5
 63
     7
 74
     1
 91
        4
 64
     7
 65
   257
 75
     1
175
     1
 42
1.0
 92
        8
 66
     7
 43
1.0
 76
     1
 77
     6
 78
     2
 67
     7
 79
     5
170
     0
171
     0
290
     0
174
     0
 93
        1
 44
50.0
173
     0
291
     1
 45
0.0
1001
ACAD
1000
AcDbSavedByObjectVersion
1070
     0
  0
VISUALSTYLE
  5
38B
102
{ACAD_XDICTIONARY
360
417
102
}
102
{ACAD_REACTORS
330
37B
102
}
330
37B
100
AcDbVisualStyle
  2
ColorChange
 70
    16
 71
     2
 72
     2
 73
     3
 90
        0
 40
-0.6
 41
-30.0
 62
     5
 63
     8
 74
     1
 91
        4
 64
     7
 65
   257
 75
     1
175
     1
 42
1.0
 92
        8
 66
     8
 43
1.0
 76
     1
 77
     6
 78
     2
 67
     7
 79
     5
170
     0
171
     0
290
     0
174
     0
 93
        1
 44
0.0
173
     0
291
     1
 45
0.0
1001
ACAD
1000
AcDbSavedByObjectVersion
1070
     0
  0
VISUALSTYLE
  5
384
102
{ACAD_XDICTIONARY
360
409
102
}
102
{ACAD_REACTORS
330
37B
102
}
330
37B
100
AcDbVisualStyle
  2
Conceptual
 70
     9
 71
     3
 72
     2
 73
     0
 90
        0
 40
-0.6
 41
-30.0
 62
     5
 63
     7
 74
     2
 91
        2
 64
     7
 65
   257
 75
     1
175
     1
 42
179.0
 92
        8
 66
     7
 43
1.0
 76
     1
 77
     6
 78
     2
 67
     7
 79
     3
170
     0
171
     0
290
     0
174
     0
 93
        1
 44
0.0
173
     0
291
     0
 45
0.0
1001
ACAD
1000
AcDbSavedByObjectVersion
1070
     0
  0
VISUALSTYLE
  5
386
102
{ACAD_XDICTIONARY
360
40D
102
}
102
{ACAD_REACTORS
330
37B
102
}
330
37B
100
AcDbVisualStyle
  2
Dim
 70
    11
 71
     2
 72
     2
 73
     0
 90
        0
 40
-0.6
 41
-30.0
 62
     5
 63
     7
 74
     1
 91
        4
 64
     7
 65
   257
 75
     1
175
     1
 42
1.0
 92
        8
 66
     7
 43
1.0
 76
     1
 77
     6
 78
     2
 67
     7
 79
     5
170
     0
171
     0
290
     0
174
     0
 93
        1
 44
-50.0
173
     0
291
     1
 45
0.0
1001
ACAD
1000
AcDbSavedByObjectVersion
1070
     0
  0
VISUALSTYLE
  5
393
102
{ACAD_XDICTIONARY
360
427
102
}
102
{ACAD_REACTORS
330
37B
102
}
330
37B
100
AcDbVisualStyle
  2
EdgeColorOff
 70
    22
 71
     2
 72
     2
 73
     0
 90
        0
 40
-0.6
 41
-30.0
 62
     5
 63
     7
 74
     1
 91
        4
 64
     7
 65
   257
 75
     1
175
     1
 42
1.0
 92
        8
 66
     7
 43
1.0
 76
     1
 77
     6
 78
     2
 67
     7
 79
     5
170
     0
171
     0
290
     0
174
     0
 93
        1
 44
0.0
173
     0
291
     1
 45
0.0
1001
ACAD
1000
AcDbSavedByObjectVersion
1070
     0
  0
VISUALSTYLE
  5
38A
102
{ACAD_XDICTIONARY
360
415
102
}
102
{ACAD_REACTORS
330
37B
102
}
330
37B
100
AcDbVisualStyle
  2
Facepattern
 70
    15
 71
     2
 72
     2
 73
     0
 90
        0
 40
-0.6
 41
-30.0
 62
     5
 63
     7
 74
     1
 91
        4
 64
     7
 65
   257
 75
     1
175
     1
 42
1.0
 92
        8
 66
     7
 43
1.0
 76
     1
 77
     6
 78
     2
 67
     7
 79
     5
170
     0
171
     0
290
     0
174
     0
 93
        1
 44
0.0
173
     0
291
     1
 45
0.0
1001
ACAD
1000
AcDbSavedByObjectVersion
1070
     0
  0
VISUALSTYLE
  5
37C
102
{ACAD_XDICTIONARY
360
3F9
102
}
102
{ACAD_REACTORS
330
37B
102
}
330
37B
100
AcDbVisualStyle
  2
Flat
 70
     0
 71
     2
 72
     1
 73
     1
 90
        2
 40
-0.6
 41
30.0
 62
     5
 63
     7
 74
     0
 91
        0
 64
     7
 65
   257
 75
     1
175
     1
 42
1.0
 92
        8
 66
     7
 43
1.0
 76
     1
 77
     6
 78
     2
 67
     7
 79
     5
170
     0
171
     0
290
     0
174
     0
 93
       13
 44
0.0
173
     0
291
     1
 45
0.0
1001
ACAD
1000
AcDbSavedByObjectVersion
1070
     0
  0
VISUALSTYLE
  5
37D
102
{ACAD_XDICTIONARY
360
3FB
102
}
102
{ACAD_REACTORS
330
37B
102
}
330
37B
100
AcDbVisualStyle
  2
FlatWithEdges
 70
     1
 71
     2
 72
     1
 73
     1
 90
        2
 40
-0.6
 41
30.0
 62
     5
 63
     7
 74
     1
 91
        0
 64
     7
 65
   257
 75
     1
175
     1
 42
1.0
 92
        0
 66
   257
 43
1.0
 76
     1
 77
     6
 78
     2
 67
     7
 79
     5
170
     0
171
     0
290
     0
174
     0
 93
       13
 44
0.0
173
     0
291
     1
 45
0.0
1001
ACAD
1000
AcDbSavedByObjectVersion
1070
     0
  0
VISUALSTYLE
  5
37E
102
{ACAD_XDICTIONARY
360
3FD
102
}
102
{ACAD_REACTORS
330
37B
102
}
330
37B
100
AcDbVisualStyle
  2
Gouraud
 70
     2
 71
     2
 72
     2
 73
     1
 90
        2
 40
-0.6
 41
30.0
 62
     5
 63
     7
 74
     0
 91
        0
 64
     7
 65
   257
 75
     1
175
     1
 42
1.0
 92
        0
 66
     7
 43
1.0
 76
     1
 77
     6
 78
     2
 67
     7
 79
     5
170
     0
171
     0
290
     0
174
     0
 93
       13
 44
0.0
173
     0
291
     1
 45
0.0
1001
ACAD
1000
AcDbSavedByObjectVersion
1070
     0
  0
VISUALSTYLE
  5
37F
102
{ACAD_XDICTIONARY
360
3FF
102
}
102
{ACAD_REACTORS
330
37B
102
}
330
37B
100
AcDbVisualStyle
  2
GouraudWithEdges
 70
     3
 71
     2
 72
     2
 73
     1
 90
        2
 40
-0.6
 41
30.0
 62
     5
 63
     7
 74
     1
 91
        0
 64
     7
 65
   257
 75
     1
175
     1
 42
1.0
 92
        0
 66
   257
 43
1.0
 76
     1
 77
     6
 78
     2
 67
     7
 79
     5
170
     0
171
     0
290
     0
174
     0
 93
       13
 44
0.0
173
     0
291
     1
 45
0.0
1001
ACAD
1000
AcDbSavedByObjectVersion
1070
     0
  0
VISUALSTYLE
  5
383
102
{ACAD_XDICTIONARY
360
407
102
}
102
{ACAD_REACTORS
330
37B
102
}
330
37B
100
AcDbVisualStyle
  2
Hidden
 70
     6
 71
     1
 72
     2
 73
     2
 90
        0
 40
-0.6
 41
-30.0
 62
     5
 63
     7
 74
     2
 91
        2
 64
     7
 65
   257
 75
     2
175
     1
 42
40.0
 92
        0
 66
   257
 43
1.0
 76
     1
 77
     6
 78
     2
 67
     7
 79
     3
170
     0
171
     0
290
     0
174
     0
 93
        1
 44
0.0
173
     0
291
     0
 45
0.0
1001
ACAD
1000
AcDbSavedByObjectVersion
1070
     0
  0
VISUALSTYLE
  5
391
102
{ACAD_XDICTIONARY
360
423
102
}
102
{ACAD_REACTORS
330
37B
102
}
330
37B
100
AcDbVisualStyle
  2
JitterOff
 70
    20
 71
     2
 72
     2
 73
     0
 90
        0
 40
-0.6
 41
-30.0
 62
     5
 63
     7
 74
     1
 91
        4
 64
     7
 65
   257
 75
     1
175
     1
 42
1.0
 92
       10
 66
     7
 43
1.0
 76
     1
 77
     6
 78
     2
 67
     7
 79
     5
170
     0
171
     0
290
     0
174
     0
 93
        1
 44
0.0
173
     0
291
     1
 45
0.0
1001
ACAD
1000
AcDbSavedByObjectVersion
1070
     0
  0
VISUALSTYLE
  5
389
102
{ACAD_XDICTIONARY
360
413
102
}
102
{ACAD_REACTORS
330
37B
102
}
330
37B
100
AcDbVisualStyle
  2
Linepattern
 70
    14
 71
     2
 72
     2
 73
     0
 90
        0
 40
-0.6
 41
-30.0
 62
     5
 63
     7
 74
     1
 91
        4
 64
     7
 65
   257
 75
     7
175
     7
 42
1.0
 92
        8
 66
     7
 43
1.0
 76
     1
 77
     6
 78
     2
 67
     7
 79
     5
170
     0
171
     0
290
     0
174
     0
 93
        1
 44
0.0
173
     0
291
     1
 45
0.0
1001
ACAD
1000
AcDbSavedByObjectVersion
1070
     0
  0
VISUALSTYLE
  5
392
102
{ACAD_XDICTIONARY
360
425
102
}
102
{ACAD_REACTORS
330
37B
102
}
330
37B
100
AcDbVisualStyle
  2
OverhangOff
 70
    21
 71
     2
 72
     2
 73
     0
 90
        0
 40
-0.6
 41
-30.0
 62
     5
 63
     7
 74
     1
 91
        4
 64
     7
 65
   257
 75
     1
175
     1
 42
1.0
 92
        9
 66
     7
 43
1.0
 76
     1
 77
     6
 78
     2
 67
     7
 79
     5
170
     0
171
     0
290
     0
174
     0
 93
        1
 44
0.0
173
     0
291
     1
 45
0.0
1001
ACAD
1000
AcDbSavedByObjectVersion
1070
     0
  0
VISUALSTYLE
  5
385
102
{ACAD_XDICTIONARY
360
40B
102
}
102
{ACAD_REACTORS
330
37B
102
}
330
37B
100
AcDbVisualStyle
  2
Realistic
 70
     8
 71
     2
 72
     3
 73
     0
 90
        2
 40
-0.6
 41
30.0
 62
     5
 63
     7
 74
     0
 91
        0
 64
     7
 65
   257
 75
     1
175
     1
 42
1.0
 92
        8
 66
   257
 43
1.0
 76
     1
 77
     6
 78
     2
 67
     7
 79
     3
170
     0
171
     0
290
     0
174
     0
 93
       13
 44
0.0
173
     0
291
     0
 45
0.0
1001
ACAD
1000
AcDbSavedByObjectVersion
1070
     0
  0
VISUALSTYLE
  5
390
102
{ACAD_XDICTIONARY
360
421
102
}
102
{ACAD_REACTORS
330
37B
102
}
330
37B
100
AcDbVisualStyle
  2
Shaded
 70
    27
 71
     2
 72
     2
 73
     1
 90
        2
 40
-0.6
 41
30.0
 62
     5
 63
     7
 74
     0
 91
        4
 64
     7
 65
   257
 75
     1
175
     1
 42
1.0
 92
        8
 66
   257
 43
1.0
 76
     1
 77
     6
 78
     2
 67
     8
 79
     3
170
     0
171
     0
290
     0
174
     0
 93
        5
 44
0.0
173
     0
291
     0
 45
0.0
1001
ACAD
1000
AcDbSavedByObjectVersion
1070
     0
  0
VISUALSTYLE
  5
38F
102
{ACAD_XDICTIONARY
360
41F
102
}
102
{ACAD_REACTORS
330
37B
102
}
330
37B
100
AcDbVisualStyle
  2
Shaded with edges
 70
    26
 71
     2
 72
     2
 73
     1
 90
        2
 40
-0.6
 41
30.0
 62
     5
 63
     7
 74
     1
 91
        2
 64
     7
 65
   257
 75
     2
175
     1
 42
1.0
 92
        8
 66
   257
 43
1.0
 76
     1
 77
     6
 78
     2
 67
     7
 79
     3
170
     0
171
     0
290
     0
174
     0
 93
        5
 44
0.0
173
     0
291
     0
 45
0.0
1001
ACAD
1000
AcDbSavedByObjectVersion
1070
     0
  0
VISUALSTYLE
  5
38C
102
{ACAD_XDICTIONARY
360
419
102
}
102
{ACAD_REACTORS
330
37B
102
}
330
37B
100
AcDbVisualStyle
  2
Shades of Gray
 70
    23
 71
     2
 72
     2
 73
     3
 90
        0
 40
-0.6
 41
-30.0
 62
     5
 63
     7
 74
     2
 91
        2
 64
     7
 65
     7
 75
     1
175
     1
 42
40.0
 92
        8
 66
     7
 43
1.0
 76
     1
 77
     6
 78
     2
 67
     7
 79
     3
170
     0
171
     0
290
     0
174
     0
 93
        1
 44
0.0
173
     0
291
     0
 45
0.0
1001
ACAD
1000
AcDbSavedByObjectVersion
1070
     0
  0
VISUALSTYLE
  5
38D
102
{ACAD_XDICTIONARY
360
41B
102
}
102
{ACAD_REACTORS
330
37B
102
}
330
37B
100
AcDbVisualStyle
  2
Sketchy
 70
    24
 71
     1
 72
     2
 73
     2
 90
        0
 40
-0.6
 41
-30.0
 62
     5
 63
     7
 74
     2
 91
        2
 64
     7
 65
     7
 75
     1
175
     1
 42
40.0
 92
       11
 66
     7
 43
1.0
 76
     1
 77
     6
 78
     2
 67
     7
 79
     6
170
     0
171
     0
290
     0
174
     0
 93
        1
 44
0.0
173
     0
291
     0
 45
0.0
1001
ACAD
1000
AcDbSavedByObjectVersion
1070
     0
  0
VISUALSTYLE
  5
388
102
{ACAD_XDICTIONARY
360
411
102
}
102
{ACAD_REACTORS
330
37B
102
}
330
37B
100
AcDbVisualStyle
  2
Thicken
 70
    13
 71
     2
 72
     2
 73
     0
 90
        0
 40
-0.6
 41
-30.0
 62
     5
 63
     7
 74
     1
 91
        4
 64
     7
 65
   257
 75
     1
175
     1
 42
1.0
 92
       12
 66
     7
 43
1.0
 76
     1
 77
     6
 78
     2
 67
     7
 79
     5
170
     0
171
     0
290
     0
174
     0
 93
        1
 44
0.0
173
     0
291
     1
 45
0.0
1001
ACAD
1000
AcDbSavedByObjectVersion
1070
     0
  0
VISUALSTYLE
  5
382
102
{ACAD_XDICTIONARY
360
405
102
}
102
{ACAD_REACTORS
330
37B
102
}
330
37B
100
AcDbVisualStyle
  2
Wireframe
 70
     5
 71
     0
 72
     2
 73
     0
 90
        0
 40
-0.6
 41
-30.0
 62
     5
 63
     7
 74
     1
 91
        4
 64
     7
 65
   257
 75
     1
175
     1
 42
1.0
 92
        0
 66
   257
 43
1.0
 76
     1
 77
     6
 78
     2
 67
     7
 79
     3
170
     0
171
     0
290
     0
174
     0
 93
        1
 44
0.0
173
     0
291
     0
 45
0.0
1001
ACAD
1000
AcDbSavedByObjectVersion
1070
     0
  0
VISUALSTYLE
  5
38E
102
{ACAD_XDICTIONARY
360
41D
102
}
102
{ACAD_REACTORS
330
37B
102
}
330
37B
100
AcDbVisualStyle
  2
X-Ray
 70
    25
 71
     2
 72
     2
 73
     1
 90
        1
 40
0.5
 41
-30.0
 62
     5
 63
     7
 74
     1
 91
        0
 64
     7
 65
   257
 75
     1
175
     1
 42
1.0
 92
        8
 66
     7
 43
1.0
 76
     1
 77
     6
 78
     2
 67
     7
 79
     3
170
     0
171
     0
290
     0
174
     0
 93
       13
 44
0.0
173
     0
291
     0
 45
0.0
1001
ACAD
1000
AcDbSavedByObjectVersion
1070
     0
  0
DICTIONARYVAR
  5
3EC
102
{ACAD_REACTORS
330
3E7
102
}
330
3E7
100
DictionaryVariables
280
     0
  1
1:1
  0
DICTIONARYVAR
  5
3E9
102
{ACAD_REACTORS
330
3E7
102
}
330
3E7
100
DictionaryVariables
280
     0
  1
STANDARD
  0
DICTIONARYVAR
  5
3E8
102
{ACAD_REACTORS
330
3E7
102
}
330
3E7
100
DictionaryVariables
280
     0
  1
STANDARD
  0
DICTIONARYVAR
  5
3EA
102
{ACAD_REACTORS
330
3E7
102
}
330
3E7
100
DictionaryVariables
280
     0
  1
Imperial24
  0
DICTIONARYVAR
  5
3EB
102
{ACAD_REACTORS
330
3E7
102
}
330
3E7
100
DictionaryVariables
280
     0
  1
Imperial24
  0
DICTIONARYVAR
  5
3EF
102
{ACAD_REACTORS
330
3E7
102
}
330
3E7
100
DictionaryVariables
280
     0
  1
1
  0
DICTIONARYVAR
  5
3EE
102
{ACAD_REACTORS
330
3E7
102
}
330
3E7
100
DictionaryVariables
280
     0
  1
0
  0
DICTIONARYVAR
  5
3ED
102
{ACAD_REACTORS
330
3E7
102
}
330
3E7
100
DictionaryVariables
280
     0
  1
127
  0
DICTIONARYVAR
  5
3F0
102
{ACAD_REACTORS
330
3E7
102
}
330
3E7
100
DictionaryVariables
280
     0
  1
2
  0
DICTIONARY
  5
42D
330
3BC
100
AcDbDictionary
280
     1
281
     1
  3
ACAD_XREC_ROUNDTRIP
360
42E
  0
DICTIONARY
  5
431
330
3C4
100
AcDbDictionary
280
     1
281
     1
  3
ACAD_XREC_ROUNDTRIP
360
432
  0
DICTIONARY
  5
42F
330
3C0
100
AcDbDictionary
280
     1
281
     1
  3
ACAD_XREC_ROUNDTRIP
360
430
  0
DICTIONARY
  5
36C
330
36B
100
AcDbDictionary
280
     1
281
     1
  3
ACAD_XREC_ROUNDTRIP
360
3F7
  3
BUMPTILE
360
36E
  3
DIFFUSETILE
360
36D
  3
OPACITYTILE
360
371
  3
REFLECTIONTILE
360
370
  3
REFRACTIONTILE
360
372
  3
SPECULARTILE
360
36F
  0
DICTIONARY
  5
364
330
363
100
AcDbDictionary
280
     1
281
     1
  3
ACAD_XREC_ROUNDTRIP
360
3F6
  3
BUMPTILE
360
366
  3
DIFFUSETILE
360
365
  3
OPACITYTILE
360
369
  3
REFLECTIONTILE
360
368
  3
REFRACTIONTILE
360
36A
  3
SPECULARTILE
360
367
  0
DICTIONARY
  5
374
330
373
100
AcDbDictionary
280
     1
281
     1
  3
ACAD_XREC_ROUNDTRIP
360
3F8
  3
BUMPTILE
360
376
  3
DIFFUSETILE
360
375
  3
OPACITYTILE
360
379
  3
REFLECTIONTILE
360
378
  3
REFRACTIONTILE
360
37A
  3
SPECULARTILE
360
377
  0
DICTIONARY
  5
42B
330
3BA
100
AcDbDictionary
280
     1
281
     1
  3
ACAD_XREC_ROUNDTRIP
360
42C
  0
DICTIONARY
  5
3F2
330
3B6
100
AcDbDictionary
280
     1
281
     1
  3
ACAD_ROUNDTRIP_2008_TABLESTYLE_CELLSTYLEMAP
360
3F3
  3
ACAD_XREC_ROUNDTRIP
360
429
  0
DICTIONARY
  5
403
330
381
100
AcDbDictionary
280
     1
281
     1
  3
ACAD_XREC_ROUNDTRIP
360
404
  0
DICTIONARY
  5
401
330
380
100
AcDbDictionary
280
     1
281
     1
  3
ACAD_XREC_ROUNDTRIP
360
402
  0
DICTIONARY
  5
40F
330
387
100
AcDbDictionary
280
     1
281
     1
  3
ACAD_XREC_ROUNDTRIP
360
410
  0
DICTIONARY
  5
417
330
38B
100
AcDbDictionary
280
     1
281
     1
  3
ACAD_XREC_ROUNDTRIP
360
418
  0
DICTIONARY
  5
409
330
384
100
AcDbDictionary
280
     1
281
     1
  3
ACAD_XREC_ROUNDTRIP
360
40A
  0
DICTIONARY
  5
40D
330
386
100
AcDbDictionary
280
     1
281
     1
  3
ACAD_XREC_ROUNDTRIP
360
40E
  0
DICTIONARY
  5
427
330
393
100
AcDbDictionary
280
     1
281
     1
  3
ACAD_XREC_ROUNDTRIP
360
428
  0
DICTIONARY
  5
415
330
38A
100
AcDbDictionary
280
     1
281
     1
  3
ACAD_XREC_ROUNDTRIP
360
416
  0
DICTIONARY
  5
3F9
330
37C
100
AcDbDictionary
280
     1
281
     1
  3
ACAD_XREC_ROUNDTRIP
360
3FA
  0
DICTIONARY
  5
3FB
330
37D
100
AcDbDictionary
280
     1
281
     1
  3
ACAD_XREC_ROUNDTRIP
360
3FC
  0
DICTIONARY
  5
3FD
330
37E
100
AcDbDictionary
280
     1
281
     1
  3
ACAD_XREC_ROUNDTRIP
360
3FE
  0
DICTIONARY
  5
3FF
330
37F
100
AcDbDictionary
280
     1
281
     1
  3
ACAD_XREC_ROUNDTRIP
360
400
  0
DICTIONARY
  5
407
330
383
100
AcDbDictionary
280
     1
281
     1
  3
ACAD_XREC_ROUNDTRIP
360
408
  0
DICTIONARY
  5
423
330
391
100
AcDbDictionary
280
     1
281
     1
  3
ACAD_XREC_ROUNDTRIP
360
424
  0
DICTIONARY
  5
413
330
389
100
AcDbDictionary
280
     1
281
     1
  3
ACAD_XREC_ROUNDTRIP
360
414
  0
DICTIONARY
  5
425
330
392
100
AcDbDictionary
280
     1
281
     1
  3
ACAD_XREC_ROUNDTRIP
360
426
  0
DICTIONARY
  5
40B
330
385
100
AcDbDictionary
280
     1
281
     1
  3
ACAD_XREC_ROUNDTRIP
360
40C
  0
DICTIONARY
  5
421
330
390
100
AcDbDictionary
280
     1
281
     1
  3
ACAD_XREC_ROUNDTRIP
360
422
  0
DICTIONARY
  5
41F
330
38F
100
AcDbDictionary
280
     1
281
     1
  3
ACAD_XREC_ROUNDTRIP
360
420
  0
DICTIONARY
  5
419
330
38C
100
AcDbDictionary
280
     1
281
     1
  3
ACAD_XREC_ROUNDTRIP
360
41A
  0
DICTIONARY
  5
41B
330
38D
100
AcDbDictionary
280
     1
281
     1
  3
ACAD_XREC_ROUNDTRIP
360
41C
  0
DICTIONARY
  5
411
330
388
100
AcDbDictionary
280
     1
281
     1
  3
ACAD_XREC_ROUNDTRIP
360
412
  0
DICTIONARY
  5
405
330
382
100
AcDbDictionary
280
     1
281
     1
  3
ACAD_XREC_ROUNDTRIP
360
406
  0
DICTIONARY
  5
41D
330
38E
100
AcDbDictionary
280
     1
281
     1
  3
ACAD_XREC_ROUNDTRIP
360
41E
  0
XRECORD
  5
42E
102
{ACAD_REACTORS
330
42D
102
}
330
42D
100
AcDbXrecord
280
     1
102
DISPLAYNAME
  1
Imperial24
102
FLAGS
 90
        0
  0
XRECORD
  5
432
102
{ACAD_REACTORS
330
431
102
}
330
431
100
AcDbXrecord
280
     1
102
SHADEPLOT
 70
     0
102
SHADEPLOTRESLEVEL
 70
     2
102
SHADEPLOTCUSTOMDPI
 70
   300
  0
XRECORD
  5
430
102
{ACAD_REACTORS
330
42F
102
}
330
42F
100
AcDbXrecord
280
     1
102
SHADEPLOT
 70
     0
102
SHADEPLOTRESLEVEL
 70
     2
102
SHADEPLOTCUSTOMDPI
 70
   300
  0
XRECORD
  5
3F7
102
{ACAD_REACTORS
330
36C
102
}
330
36C
100
AcDbXrecord
280
     1
102
MATERIAL
148
0.0
149
0.0
149
0.0
 93
        0
 94
      127
282
     0
 72
     0
 77
     0
171
     0
175
     0
179
     0
273
     0
  0
XRECORD
  5
36E
102
{ACAD_REACTORS
330
36C
102
}
330
36C
100
AcDbXrecord
280
     1
270
     1
271
     1
  0
XRECORD
  5
36D
102
{ACAD_REACTORS
330
36C
102
}
330
36C
100
AcDbXrecord
280
     1
270
     1
271
     1
  0
XRECORD
  5
371
102
{ACAD_REACTORS
330
36C
102
}
330
36C
100
AcDbXrecord
280
     1
270
     1
271
     1
  0
XRECORD
  5
370
102
{ACAD_REACTORS
330
36C
102
}
330
36C
100
AcDbXrecord
280
     1
270
     1
271
     1
  0
XRECORD
  5
372
102
{ACAD_REACTORS
330
36C
102
}
330
36C
100
AcDbXrecord
280
     1
270
     1
271
     1
  0
XRECORD
  5
36F
102
{ACAD_REACTORS
330
36C
102
}
330
36C
100
AcDbXrecord
280
     1
270
     1
271
     1
  0
XRECORD
  5
3F6
102
{ACAD_REACTORS
330
364
102
}
330
364
100
AcDbXrecord
280
     1
102
MATERIAL
148
0.0
149
0.0
149
0.0
 93
        0
 94
      127
282
     0
 72
     0
 77
     0
171
     0
175
     0
179
     0
273
     0
  0
XRECORD
  5
366
102
{ACAD_REACTORS
330
364
102
}
330
364
100
AcDbXrecord
280
     1
270
     1
271
     1
  0
XRECORD
  5
365
102
{ACAD_REACTORS
330
364
102
}
330
364
100
AcDbXrecord
280
     1
270
     1
271
     1
  0
XRECORD
  5
369
102
{ACAD_REACTORS
330
364
102
}
330
364
100
AcDbXrecord
280
     1
270
     1
271
     1
  0
XRECORD
  5
368
102
{ACAD_REACTORS
330
364
102
}
330
364
100
AcDbXrecord
280
     1
270
     1
271
     1
  0
XRECORD
  5
36A
102
{ACAD_REACTORS
330
364
102
}
330
364
100
AcDbXrecord
280
     1
270
     1
271
     1
  0
XRECORD
  5
367
102
{ACAD_REACTORS
330
364
102
}
330
364
100
AcDbXrecord
280
     1
270
     1
271
     1
  0
XRECORD
  5
3F8
102
{ACAD_REACTORS
330
374
102
}
330
374
100
AcDbXrecord
280
     1
102
MATERIAL
148
0.0
149
0.0
149
0.0
 93
        0
 94
      127
282
     0
 72
     0
 77
     0
171
     0
175
     0
179
     0
273
     0
  0
XRECORD
  5
376
102
{ACAD_REACTORS
330
374
102
}
330
374
100
AcDbXrecord
280
     1
270
     1
271
     1
  0
XRECORD
  5
375
102
{ACAD_REACTORS
330
374
102
}
330
374
100
AcDbXrecord
280
     1
270
     1
271
     1
  0
XRECORD
  5
379
102
{ACAD_REACTORS
330
374
102
}
330
374
100
AcDbXrecord
280
     1
270
     1
271
     1
  0
XRECORD
  5
378
102
{ACAD_REACTORS
330
374
102
}
330
374
100
AcDbXrecord
280
     1
270
     1
271
     1
  0
XRECORD
  5
37A
102
{ACAD_REACTORS
330
374
102
}
330
374
100
AcDbXrecord
280
     1
270
     1
271
     1
  0
XRECORD
  5
377
102
{ACAD_REACTORS
330
374
102
}
330
374
100
AcDbXrecord
280
     1
270
     1
271
     1
  0
XRECORD
  5
42C
102
{ACAD_REACTORS
330
42B
102
}
330
42B
100
AcDbXrecord
280
     1
102
DISPLAYNAME
  1
Imperial24
102
FLAGS
 90
        0
  0
CELLSTYLEMAP
  5
3F3
102
{ACAD_REACTORS
330
3F2
102
}
330
3F2
100
AcDbCellStyleMap
 90
        3
300
CELLSTYLE
  1
TABLEFORMAT_BEGIN
 90
        5
170
     1
 91
        0
 92
    32768
 62
   257
 93
        1
300
CONTENTFORMAT
  1
CONTENTFORMAT_BEGIN
 90
        0
 91
        0
 92
      512
 93
        0
300

 40
0.0
140
1.0
 94
        5
 62
     0
340
3A7
144
0.25
309
CONTENTFORMAT_END
171
     0
 94
        0
309
TABLEFORMAT_END
  1
CELLSTYLE_BEGIN
 90
        1
 91
        1
300
_TITLE
309
CELLSTYLE_END
300
CELLSTYLE
  1
TABLEFORMAT_BEGIN
 90
        5
170
     1
 91
        0
 92
        0
 62
   257
 93
        1
300
CONTENTFORMAT
  1
CONTENTFORMAT_BEGIN
 90
        0
 91
        0
 92
      512
 93
        0
300

 40
0.0
140
1.0
 94
        5
 62
     0
340
3A7
144
0.18
309
CONTENTFORMAT_END
171
     0
 94
        0
309
TABLEFORMAT_END
  1
CELLSTYLE_BEGIN
 90
        2
 91
        1
300
_HEADER
309
CELLSTYLE_END
300
CELLSTYLE
  1
TABLEFORMAT_BEGIN
 90
        5
170
     1
 91
        0
 92
        0
 62
   257
 93
        1
300
CONTENTFORMAT
  1
CONTENTFORMAT_BEGIN
 90
        0
 91
        0
 92
      512
 93
        0
300

 40
0.0
140
1.0
 94
        2
 62
     0
340
3A7
144
0.18
309
CONTENTFORMAT_END
171
     0
 94
        0
309
TABLEFORMAT_END
  1
CELLSTYLE_BEGIN
 90
        3
 91
        2
300
_DATA
309
CELLSTYLE_END
  0
XRECORD
  5
429
102
{ACAD_REACTORS
330
3F2
102
}
330
3F2
100
AcDbXrecord
280
     1
102
ACAD_ROUNDTRIP_PRE2007_TABLESTYLE
 90
      512
 91
        0
  1

 92
      512
 93
        0
  2

 94
      512
 95
        0
  3

  0
XRECORD
  5
404
102
{ACAD_REACTORS
330
403
102
}
330
403
100
AcDbXrecord
280
     1
102
RTVSPost2010Prop28
280
     1
102
RTVSPost2010PropOp28
 70
     1
102
RTVSPost2010Prop29
280
     1
102
RTVSPost2010PropOp29
 70
     1
102
RTVSPost2010Prop30
280
     0
102
RTVSPost2010PropOp30
 70
     1
102
RTVSPost2010Prop31
280
     0
102
RTVSPost2010PropOp31
 70
     1
102
RTVSPost2010Prop32
280
     0
102
RTVSPost2010PropOp32
 70
     1
102
RTVSPost2010Prop33
280
     0
102
RTVSPost2010PropOp33
 70
     1
102
RTVSPost2010Prop34
280
     0
102
RTVSPost2010PropOp34
 70
     1
102
RTVSPost2010Prop35
280
     0
102
RTVSPost2010PropOp35
 70
     1
102
RTVSPost2010Prop36
280
     0
102
RTVSPost2010PropOp36
 70
     1
102
RTVSPost2010Prop37
 90
       50
102
RTVSPost2010PropOp37
 70
     1
102
RTVSPost2010Prop38
140
0.0
102
RTVSPost2010PropOp38
 70
     1
102
RTVSPost2010Prop39
140
1.0
102
RTVSPost2010PropOp39
 70
     1
102
RTVSPost2010Prop40
 90
        0
102
RTVSPost2010PropOp40
 70
     1
102
RTVSPost2010Prop41ColorIndex
 90
       18
102
RTVSPost2010Prop41ColorRGB
 90
        0
102
RTVSPost2010PropOp41
 70
     1
102
RTVSPost2010Prop42
 90
       50
102
RTVSPost2010PropOp42
 70
     1
102
RTVSPost2010Prop43
 90
        3
102
RTVSPost2010PropOp43
 70
     1
102
RTVSPost2010Prop44ColorIndex
 90
        5
102
RTVSPost2010Prop44ColorRGB
 90
      255
102
RTVSPost2010PropOp44
 70
     1
102
RTVSPost2010Prop45
280
     0
102
RTVSPost2010PropOp45
 70
     1
102
RTVSPost2010Prop46
 90
       50
102
RTVSPost2010PropOp46
 70
     1
102
RTVSPost2010Prop47
 90
       50
102
RTVSPost2010PropOp47
 70
     1
102
RTVSPost2010Prop48
 90
       50
102
RTVSPost2010PropOp48
 70
     1
102
RTVSPost2010Prop49
280
     0
102
RTVSPost2010PropOp49
 70
     1
102
RTVSPost2010Prop50
 90
       50
102
RTVSPost2010PropOp50
 70
     1
102
RTVSPost2010Prop51ColorIndex
 90
      256
102
RTVSPost2010Prop51ColorRGB
 90
-16777216
102
RTVSPost2010PropOp51
 70
     0
102
RTVSPost2010Prop52
140
1.0
102
RTVSPost2010PropOp52
 70
     0
102
RTVSPost2010Prop53
 90
        2
102
RTVSPost2010PropOp53
 70
     1
102
RTVSPost2010Prop54
  1
strokes_ogs.tif
102
RTVSPost2010PropOp54
 70
     1
102
RTVSPost2010Prop55
280
     0
102
RTVSPost2010PropOp55
 70
     1
102
RTVSPost2010Prop56
140
1.0
102
RTVSPost2010PropOp56
 70
     1
102
RTVSPost2010Prop57
140
1.0
102
RTVSPost2010PropOp57
 70
     1
102
RTVSPropertyOp0
 70
     1
102
RTVSPropertyOp1
 70
     1
102
RTVSPropertyOp2
 70
     1
102
RTVSPropertyOp3
 70
     1
102
RTVSPropertyOp4
 70
     1
102
RTVSPropertyOp5
 70
     1
102
RTVSPropertyOp6
 70
     1
102
RTVSPropertyOp7
 70
     1
102
RTVSPropertyOp8
 70
     1
102
RTVSPropertyOp9
 70
     1
102
RTVSPropertyOp10
 70
     1
102
RTVSPropertyOp11
 70
     1
102
RTVSPropertyOp12
 70
     1
102
RTVSPropertyOp13
 70
     1
102
RTVSPropertyOp14
 70
     1
102
RTVSPropertyOp15
 70
     1
102
RTVSPropertyOp16
 70
     1
102
RTVSPropertyOp17
 70
     1
102
RTVSPropertyOp18
 70
     1
102
RTVSPropertyOp19
 70
     1
102
RTVSPropertyOp20
 70
     1
102
RTVSPropertyOp21
 70
     1
102
RTVSPropertyOp22
 70
     1
102
RTVSPropertyOp23
 70
     1
102
RTVSPropertyOp24
 70
     1
102
RTVSPropertyOp25
 70
     1
102
RTVSPropertyOp26
 70
     1
102
RTVSPropertyOp27
 70
     1
102
RTVSPropertyOp28
 70
     1
102
RTVSPropertyOp29
 70
     1
102
RTVSPropertyOp30
 70
     1
102
RTVSPropertyOp31
 70
     1
102
RTVSPropertyOp32
 70
     1
102
RTVSPropertyOp33
 70
     1
102
RTVSPropertyOp34
 70
     1
102
RTVSPropertyOp35
 70
     1
102
RTVSPropertyOp36
 70
     1
102
RTVSPropertyOp37
 70
     1
102
RTVSPropertyOp38
 70
     1
102
RTVSPropertyOp39
 70
     1
102
RTVSPropertyOp40
 70
     1
102
RTVSPropertyOp41
 70
     1
102
RTVSPropertyOp42
 70
     1
102
RTVSPropertyOp43
 70
     1
102
RTVSPropertyOp44
 70
     1
102
RTVSPropertyOp45
 70
     1
102
RTVSPropertyOp46
 70
     1
102
RTVSPropertyOp47
 70
     1
102
RTVSPropertyOp48
 70
     1
102
RTVSPropertyOp49
 70
     1
102
RTVSPropertyOp50
 70
     1
102
RTVSPropertyOp51
 70
     0
102
RTVSPropertyOp52
 70
     0
102
RTVSPropertyOp53
 70
     1
102
RTVSPropertyOp54
 70
     1
102
RTVSPropertyOp55
 70
     1
102
RTVSPropertyOp56
 70
     1
102
RTVSPropertyOp57
 70
     1
102
RTVSPropertyOp58
 70
     1
102
RTVSPropertyOp59
 70
     1
102
RTVSPropertyOp60
 70
     1
102
RTVSPropertyOp61
 70
     1
102
RTVSPropertyOp62
 70
     1
  0
XRECORD
  5
402
102
{ACAD_REACTORS
330
401
102
}
330
401
100
AcDbXrecord
280
     1
102
RTVSPost2010Prop28
280
     0
102
RTVSPost2010PropOp28
 70
     1
102
RTVSPost2010Prop29
280
     1
102
RTVSPost2010PropOp29
 70
     1
102
RTVSPost2010Prop30
280
     1
102
RTVSPost2010PropOp30
 70
     1
102
RTVSPost2010Prop31
280
     0
102
RTVSPost2010PropOp31
 70
     1
102
RTVSPost2010Prop32
280
     0
102
RTVSPost2010PropOp32
 70
     1
102
RTVSPost2010Prop33
280
     0
102
RTVSPost2010PropOp33
 70
     1
102
RTVSPost2010Prop34
280
     0
102
RTVSPost2010PropOp34
 70
     1
102
RTVSPost2010Prop35
280
     0
102
RTVSPost2010PropOp35
 70
     1
102
RTVSPost2010Prop36
280
     0
102
RTVSPost2010PropOp36
 70
     1
102
RTVSPost2010Prop37
 90
       50
102
RTVSPost2010PropOp37
 70
     1
102
RTVSPost2010Prop38
140
0.0
102
RTVSPost2010PropOp38
 70
     1
102
RTVSPost2010Prop39
140
1.0
102
RTVSPost2010PropOp39
 70
     1
102
RTVSPost2010Prop40
 90
        0
102
RTVSPost2010PropOp40
 70
     1
102
RTVSPost2010Prop41ColorIndex
 90
       18
102
RTVSPost2010Prop41ColorRGB
 90
        0
102
RTVSPost2010PropOp41
 70
     1
102
RTVSPost2010Prop42
 90
       50
102
RTVSPost2010PropOp42
 70
     1
102
RTVSPost2010Prop43
 90
        3
102
RTVSPost2010PropOp43
 70
     1
102
RTVSPost2010Prop44ColorIndex
 90
        5
102
RTVSPost2010Prop44ColorRGB
 90
      255
102
RTVSPost2010PropOp44
 70
     1
102
RTVSPost2010Prop45
280
     0
102
RTVSPost2010PropOp45
 70
     1
102
RTVSPost2010Prop46
 90
       50
102
RTVSPost2010PropOp46
 70
     1
102
RTVSPost2010Prop47
 90
       50
102
RTVSPost2010PropOp47
 70
     1
102
RTVSPost2010Prop48
 90
       50
102
RTVSPost2010PropOp48
 70
     1
102
RTVSPost2010Prop49
280
     0
102
RTVSPost2010PropOp49
 70
     1
102
RTVSPost2010Prop50
 90
       50
102
RTVSPost2010PropOp50
 70
     1
102
RTVSPost2010Prop51ColorIndex
 90
      256
102
RTVSPost2010Prop51ColorRGB
 90
-16777216
102
RTVSPost2010PropOp51
 70
     0
102
RTVSPost2010Prop52
140
1.0
102
RTVSPost2010PropOp52
 70
     0
102
RTVSPost2010Prop53
 90
        2
102
RTVSPost2010PropOp53
 70
     1
102
RTVSPost2010Prop54
  1
strokes_ogs.tif
102
RTVSPost2010PropOp54
 70
     1
102
RTVSPost2010Prop55
280
     0
102
RTVSPost2010PropOp55
 70
     1
102
RTVSPost2010Prop56
140
1.0
102
RTVSPost2010PropOp56
 70
     1
102
RTVSPost2010Prop57
140
1.0
102
RTVSPost2010PropOp57
 70
     1
102
RTVSPropertyOp0
 70
     1
102
RTVSPropertyOp1
 70
     1
102
RTVSPropertyOp2
 70
     1
102
RTVSPropertyOp3
 70
     1
102
RTVSPropertyOp4
 70
     1
102
RTVSPropertyOp5
 70
     1
102
RTVSPropertyOp6
 70
     1
102
RTVSPropertyOp7
 70
     1
102
RTVSPropertyOp8
 70
     1
102
RTVSPropertyOp9
 70
     1
102
RTVSPropertyOp10
 70
     1
102
RTVSPropertyOp11
 70
     1
102
RTVSPropertyOp12
 70
     1
102
RTVSPropertyOp13
 70
     1
102
RTVSPropertyOp14
 70
     1
102
RTVSPropertyOp15
 70
     1
102
RTVSPropertyOp16
 70
     1
102
RTVSPropertyOp17
 70
     1
102
RTVSPropertyOp18
 70
     1
102
RTVSPropertyOp19
 70
     1
102
RTVSPropertyOp20
 70
     1
102
RTVSPropertyOp21
 70
     1
102
RTVSPropertyOp22
 70
     1
102
RTVSPropertyOp23
 70
     1
102
RTVSPropertyOp24
 70
     1
102
RTVSPropertyOp25
 70
     1
102
RTVSPropertyOp26
 70
     1
102
RTVSPropertyOp27
 70
     1
102
RTVSPropertyOp28
 70
     1
102
RTVSPropertyOp29
 70
     1
102
RTVSPropertyOp30
 70
     1
102
RTVSPropertyOp31
 70
     1
102
RTVSPropertyOp32
 70
     1
102
RTVSPropertyOp33
 70
     1
102
RTVSPropertyOp34
 70
     1
102
RTVSPropertyOp35
 70
     1
102
RTVSPropertyOp36
 70
     1
102
RTVSPropertyOp37
 70
     1
102
RTVSPropertyOp38
 70
     1
102
RTVSPropertyOp39
 70
     1
102
RTVSPropertyOp40
 70
     1
102
RTVSPropertyOp41
 70
     1
102
RTVSPropertyOp42
 70
     1
102
RTVSPropertyOp43
 70
     1
102
RTVSPropertyOp44
 70
     1
102
RTVSPropertyOp45
 70
     1
102
RTVSPropertyOp46
 70
     1
102
RTVSPropertyOp47
 70
     1
102
RTVSPropertyOp48
 70
     1
102
RTVSPropertyOp49
 70
     1
102
RTVSPropertyOp50
 70
     1
102
RTVSPropertyOp51
 70
     0
102
RTVSPropertyOp52
 70
     0
102
RTVSPropertyOp53
 70
     1
102
RTVSPropertyOp54
 70
     1
102
RTVSPropertyOp55
 70
     1
102
RTVSPropertyOp56
 70
     1
102
RTVSPropertyOp57
 70
     1
102
RTVSPropertyOp58
 70
     1
102
RTVSPropertyOp59
 70
     1
102
RTVSPropertyOp60
 70
     1
102
RTVSPropertyOp61
 70
     1
102
RTVSPropertyOp62
 70
     1
  0
XRECORD
  5
410
102
{ACAD_REACTORS
330
40F
102
}
330
40F
100
AcDbXrecord
280
     1
102
RTVSPost2010Prop28
280
     0
102
RTVSPost2010PropOp28
 70
     1
102
RTVSPost2010Prop29
280
     1
102
RTVSPost2010PropOp29
 70
     1
102
RTVSPost2010Prop30
280
     1
102
RTVSPost2010PropOp30
 70
     1
102
RTVSPost2010Prop31
280
     0
102
RTVSPost2010PropOp31
 70
     1
102
RTVSPost2010Prop32
280
     0
102
RTVSPost2010PropOp32
 70
     1
102
RTVSPost2010Prop33
280
     0
102
RTVSPost2010PropOp33
 70
     1
102
RTVSPost2010Prop34
280
     0
102
RTVSPost2010PropOp34
 70
     1
102
RTVSPost2010Prop35
280
     0
102
RTVSPost2010PropOp35
 70
     1
102
RTVSPost2010Prop36
280
     0
102
RTVSPost2010PropOp36
 70
     1
102
RTVSPost2010Prop37
 90
       50
102
RTVSPost2010PropOp37
 70
     1
102
RTVSPost2010Prop38
140
0.0
102
RTVSPost2010PropOp38
 70
     1
102
RTVSPost2010Prop39
140
1.0
102
RTVSPost2010PropOp39
 70
     1
102
RTVSPost2010Prop40
 90
        0
102
RTVSPost2010PropOp40
 70
     1
102
RTVSPost2010Prop41ColorIndex
 90
       18
102
RTVSPost2010Prop41ColorRGB
 90
        0
102
RTVSPost2010PropOp41
 70
     1
102
RTVSPost2010Prop42
 90
       50
102
RTVSPost2010PropOp42
 70
     1
102
RTVSPost2010Prop43
 90
        3
102
RTVSPost2010PropOp43
 70
     1
102
RTVSPost2010Prop44ColorIndex
 90
        5
102
RTVSPost2010Prop44ColorRGB
 90
      255
102
RTVSPost2010PropOp44
 70
     1
102
RTVSPost2010Prop45
280
     0
102
RTVSPost2010PropOp45
 70
     1
102
RTVSPost2010Prop46
 90
       50
102
RTVSPost2010PropOp46
 70
     1
102
RTVSPost2010Prop47
 90
       50
102
RTVSPost2010PropOp47
 70
     1
102
RTVSPost2010Prop48
 90
       50
102
RTVSPost2010PropOp48
 70
     1
102
RTVSPost2010Prop49
280
     0
102
RTVSPost2010PropOp49
 70
     1
102
RTVSPost2010Prop50
 90
       50
102
RTVSPost2010PropOp50
 70
     1
102
RTVSPost2010Prop51ColorIndex
 90
      256
102
RTVSPost2010Prop51ColorRGB
 90
-16777216
102
RTVSPost2010PropOp51
 70
     0
102
RTVSPost2010Prop52
140
1.0
102
RTVSPost2010PropOp52
 70
     0
102
RTVSPost2010Prop53
 90
        2
102
RTVSPost2010PropOp53
 70
     1
102
RTVSPost2010Prop54
  1
strokes_ogs.tif
102
RTVSPost2010PropOp54
 70
     1
102
RTVSPost2010Prop55
280
     0
102
RTVSPost2010PropOp55
 70
     1
102
RTVSPost2010Prop56
140
1.0
102
RTVSPost2010PropOp56
 70
     1
102
RTVSPost2010Prop57
140
1.0
102
RTVSPost2010PropOp57
 70
     1
102
RTVSPropertyOp0
 70
     1
102
RTVSPropertyOp1
 70
     1
102
RTVSPropertyOp2
 70
     1
102
RTVSPropertyOp3
 70
     1
102
RTVSPropertyOp4
 70
     1
102
RTVSPropertyOp5
 70
     1
102
RTVSPropertyOp6
 70
     1
102
RTVSPropertyOp7
 70
     1
102
RTVSPropertyOp8
 70
     1
102
RTVSPropertyOp9
 70
     1
102
RTVSPropertyOp10
 70
     1
102
RTVSPropertyOp11
 70
     1
102
RTVSPropertyOp12
 70
     1
102
RTVSPropertyOp13
 70
     1
102
RTVSPropertyOp14
 70
     1
102
RTVSPropertyOp15
 70
     1
102
RTVSPropertyOp16
 70
     1
102
RTVSPropertyOp17
 70
     1
102
RTVSPropertyOp18
 70
     1
102
RTVSPropertyOp19
 70
     1
102
RTVSPropertyOp20
 70
     1
102
RTVSPropertyOp21
 70
     1
102
RTVSPropertyOp22
 70
     1
102
RTVSPropertyOp23
 70
     1
102
RTVSPropertyOp24
 70
     1
102
RTVSPropertyOp25
 70
     1
102
RTVSPropertyOp26
 70
     1
102
RTVSPropertyOp27
 70
     1
102
RTVSPropertyOp28
 70
     1
102
RTVSPropertyOp29
 70
     1
102
RTVSPropertyOp30
 70
     1
102
RTVSPropertyOp31
 70
     1
102
RTVSPropertyOp32
 70
     1
102
RTVSPropertyOp33
 70
     1
102
RTVSPropertyOp34
 70
     1
102
RTVSPropertyOp35
 70
     1
102
RTVSPropertyOp36
 70
     1
102
RTVSPropertyOp37
 70
     1
102
RTVSPropertyOp38
 70
     1
102
RTVSPropertyOp39
 70
     1
102
RTVSPropertyOp40
 70
     1
102
RTVSPropertyOp41
 70
     1
102
RTVSPropertyOp42
 70
     1
102
RTVSPropertyOp43
 70
     1
102
RTVSPropertyOp44
 70
     1
102
RTVSPropertyOp45
 70
     1
102
RTVSPropertyOp46
 70
     1
102
RTVSPropertyOp47
 70
     1
102
RTVSPropertyOp48
 70
     1
102
RTVSPropertyOp49
 70
     1
102
RTVSPropertyOp50
 70
     1
102
RTVSPropertyOp51
 70
     0
102
RTVSPropertyOp52
 70
     0
102
RTVSPropertyOp53
 70
     1
102
RTVSPropertyOp54
 70
     1
102
RTVSPropertyOp55
 70
     1
102
RTVSPropertyOp56
 70
     1
102
RTVSPropertyOp57
 70
     1
102
RTVSPropertyOp58
 70
     1
102
RTVSPropertyOp59
 70
     1
102
RTVSPropertyOp60
 70
     1
102
RTVSPropertyOp61
 70
     1
102
RTVSPropertyOp62
 70
     1
  0
XRECORD
  5
418
102
{ACAD_REACTORS
330
417
102
}
330
417
100
AcDbXrecord
280
     1
102
RTVSPost2010Prop28
280
     0
102
RTVSPost2010PropOp28
 70
     1
102
RTVSPost2010Prop29
280
     1
102
RTVSPost2010PropOp29
 70
     1
102
RTVSPost2010Prop30
280
     1
102
RTVSPost2010PropOp30
 70
     1
102
RTVSPost2010Prop31
280
     0
102
RTVSPost2010PropOp31
 70
     1
102
RTVSPost2010Prop32
280
     0
102
RTVSPost2010PropOp32
 70
     1
102
RTVSPost2010Prop33
280
     0
102
RTVSPost2010PropOp33
 70
     1
102
RTVSPost2010Prop34
280
     0
102
RTVSPost2010PropOp34
 70
     1
102
RTVSPost2010Prop35
280
     0
102
RTVSPost2010PropOp35
 70
     1
102
RTVSPost2010Prop36
280
     0
102
RTVSPost2010PropOp36
 70
     1
102
RTVSPost2010Prop37
 90
       50
102
RTVSPost2010PropOp37
 70
     1
102
RTVSPost2010Prop38
140
0.0
102
RTVSPost2010PropOp38
 70
     1
102
RTVSPost2010Prop39
140
1.0
102
RTVSPost2010PropOp39
 70
     1
102
RTVSPost2010Prop40
 90
        0
102
RTVSPost2010PropOp40
 70
     1
102
RTVSPost2010Prop41ColorIndex
 90
       18
102
RTVSPost2010Prop41ColorRGB
 90
        0
102
RTVSPost2010PropOp41
 70
     1
102
RTVSPost2010Prop42
 90
       50
102
RTVSPost2010PropOp42
 70
     1
102
RTVSPost2010Prop43
 90
        3
102
RTVSPost2010PropOp43
 70
     1
102
RTVSPost2010Prop44ColorIndex
 90
        5
102
RTVSPost2010Prop44ColorRGB
 90
      255
102
RTVSPost2010PropOp44
 70
     1
102
RTVSPost2010Prop45
280
     0
102
RTVSPost2010PropOp45
 70
     1
102
RTVSPost2010Prop46
 90
       50
102
RTVSPost2010PropOp46
 70
     1
102
RTVSPost2010Prop47
 90
       50
102
RTVSPost2010PropOp47
 70
     1
102
RTVSPost2010Prop48
 90
       50
102
RTVSPost2010PropOp48
 70
     1
102
RTVSPost2010Prop49
280
     0
102
RTVSPost2010PropOp49
 70
     1
102
RTVSPost2010Prop50
 90
       50
102
RTVSPost2010PropOp50
 70
     1
102
RTVSPost2010Prop51ColorIndex
 90
      256
102
RTVSPost2010Prop51ColorRGB
 90
-16777216
102
RTVSPost2010PropOp51
 70
     0
102
RTVSPost2010Prop52
140
1.0
102
RTVSPost2010PropOp52
 70
     0
102
RTVSPost2010Prop53
 90
        2
102
RTVSPost2010PropOp53
 70
     1
102
RTVSPost2010Prop54
  1
strokes_ogs.tif
102
RTVSPost2010PropOp54
 70
     1
102
RTVSPost2010Prop55
280
     0
102
RTVSPost2010PropOp55
 70
     1
102
RTVSPost2010Prop56
140
1.0
102
RTVSPost2010PropOp56
 70
     1
102
RTVSPost2010Prop57
140
1.0
102
RTVSPost2010PropOp57
 70
     1
102
RTVSPropertyOp0
 70
     1
102
RTVSPropertyOp1
 70
     1
102
RTVSPropertyOp2
 70
     1
102
RTVSPropertyOp3
 70
     1
102
RTVSPropertyOp4
 70
     1
102
RTVSPropertyOp5
 70
     1
102
RTVSPropertyOp6
 70
     1
102
RTVSPropertyOp7
 70
     1
102
RTVSPropertyOp8
 70
     1
102
RTVSPropertyOp9
 70
     1
102
RTVSPropertyOp10
 70
     1
102
RTVSPropertyOp11
 70
     1
102
RTVSPropertyOp12
 70
     1
102
RTVSPropertyOp13
 70
     1
102
RTVSPropertyOp14
 70
     1
102
RTVSPropertyOp15
 70
     1
102
RTVSPropertyOp16
 70
     1
102
RTVSPropertyOp17
 70
     1
102
RTVSPropertyOp18
 70
     1
102
RTVSPropertyOp19
 70
     1
102
RTVSPropertyOp20
 70
     1
102
RTVSPropertyOp21
 70
     1
102
RTVSPropertyOp22
 70
     1
102
RTVSPropertyOp23
 70
     1
102
RTVSPropertyOp24
 70
     1
102
RTVSPropertyOp25
 70
     1
102
RTVSPropertyOp26
 70
     1
102
RTVSPropertyOp27
 70
     1
102
RTVSPropertyOp28
 70
     1
102
RTVSPropertyOp29
 70
     1
102
RTVSPropertyOp30
 70
     1
102
RTVSPropertyOp31
 70
     1
102
RTVSPropertyOp32
 70
     1
102
RTVSPropertyOp33
 70
     1
102
RTVSPropertyOp34
 70
     1
102
RTVSPropertyOp35
 70
     1
102
RTVSPropertyOp36
 70
     1
102
RTVSPropertyOp37
 70
     1
102
RTVSPropertyOp38
 70
     1
102
RTVSPropertyOp39
 70
     1
102
RTVSPropertyOp40
 70
     1
102
RTVSPropertyOp41
 70
     1
102
RTVSPropertyOp42
 70
     1
102
RTVSPropertyOp43
 70
     1
102
RTVSPropertyOp44
 70
     1
102
RTVSPropertyOp45
 70
     1
102
RTVSPropertyOp46
 70
     1
102
RTVSPropertyOp47
 70
     1
102
RTVSPropertyOp48
 70
     1
102
RTVSPropertyOp49
 70
     1
102
RTVSPropertyOp50
 70
     1
102
RTVSPropertyOp51
 70
     0
102
RTVSPropertyOp52
 70
     0
102
RTVSPropertyOp53
 70
     1
102
RTVSPropertyOp54
 70
     1
102
RTVSPropertyOp55
 70
     1
102
RTVSPropertyOp56
 70
     1
102
RTVSPropertyOp57
 70
     1
102
RTVSPropertyOp58
 70
     1
102
RTVSPropertyOp59
 70
     1
102
RTVSPropertyOp60
 70
     1
102
RTVSPropertyOp61
 70
     1
102
RTVSPropertyOp62
 70
     1
  0
XRECORD
  5
40A
102
{ACAD_REACTORS
330
409
102
}
330
409
100
AcDbXrecord
280
     1
102
RTVSPost2010Prop28
280
     0
102
RTVSPost2010PropOp28
 70
     1
102
RTVSPost2010Prop29
280
     1
102
RTVSPost2010PropOp29
 70
     1
102
RTVSPost2010Prop30
280
     1
102
RTVSPost2010PropOp30
 70
     1
102
RTVSPost2010Prop31
280
     0
102
RTVSPost2010PropOp31
 70
     1
102
RTVSPost2010Prop32
280
     0
102
RTVSPost2010PropOp32
 70
     1
102
RTVSPost2010Prop33
280
     0
102
RTVSPost2010PropOp33
 70
     1
102
RTVSPost2010Prop34
280
     0
102
RTVSPost2010PropOp34
 70
     1
102
RTVSPost2010Prop35
280
     0
102
RTVSPost2010PropOp35
 70
     1
102
RTVSPost2010Prop36
280
     0
102
RTVSPost2010PropOp36
 70
     1
102
RTVSPost2010Prop37
 90
       50
102
RTVSPost2010PropOp37
 70
     1
102
RTVSPost2010Prop38
140
0.0
102
RTVSPost2010PropOp38
 70
     1
102
RTVSPost2010Prop39
140
1.0
102
RTVSPost2010PropOp39
 70
     1
102
RTVSPost2010Prop40
 90
        0
102
RTVSPost2010PropOp40
 70
     1
102
RTVSPost2010Prop41ColorIndex
 90
       18
102
RTVSPost2010Prop41ColorRGB
 90
        0
102
RTVSPost2010PropOp41
 70
     1
102
RTVSPost2010Prop42
 90
       50
102
RTVSPost2010PropOp42
 70
     1
102
RTVSPost2010Prop43
 90
        3
102
RTVSPost2010PropOp43
 70
     1
102
RTVSPost2010Prop44ColorIndex
 90
        5
102
RTVSPost2010Prop44ColorRGB
 90
      255
102
RTVSPost2010PropOp44
 70
     1
102
RTVSPost2010Prop45
280
     0
102
RTVSPost2010PropOp45
 70
     1
102
RTVSPost2010Prop46
 90
       50
102
RTVSPost2010PropOp46
 70
     1
102
RTVSPost2010Prop47
 90
       50
102
RTVSPost2010PropOp47
 70
     1
102
RTVSPost2010Prop48
 90
       50
102
RTVSPost2010PropOp48
 70
     1
102
RTVSPost2010Prop49
280
     0
102
RTVSPost2010PropOp49
 70
     1
102
RTVSPost2010Prop50
 90
       50
102
RTVSPost2010PropOp50
 70
     1
102
RTVSPost2010Prop51ColorIndex
 90
      256
102
RTVSPost2010Prop51ColorRGB
 90
-16777216
102
RTVSPost2010PropOp51
 70
     0
102
RTVSPost2010Prop52
140
1.0
102
RTVSPost2010PropOp52
 70
     0
102
RTVSPost2010Prop53
 90
        2
102
RTVSPost2010PropOp53
 70
     1
102
RTVSPost2010Prop54
  1
strokes_ogs.tif
102
RTVSPost2010PropOp54
 70
     1
102
RTVSPost2010Prop55
280
     0
102
RTVSPost2010PropOp55
 70
     1
102
RTVSPost2010Prop56
140
1.0
102
RTVSPost2010PropOp56
 70
     1
102
RTVSPost2010Prop57
140
1.0
102
RTVSPost2010PropOp57
 70
     1
102
RTVSPropertyOp0
 70
     1
102
RTVSPropertyOp1
 70
     1
102
RTVSPropertyOp2
 70
     1
102
RTVSPropertyOp3
 70
     1
102
RTVSPropertyOp4
 70
     1
102
RTVSPropertyOp5
 70
     1
102
RTVSPropertyOp6
 70
     1
102
RTVSPropertyOp7
 70
     1
102
RTVSPropertyOp8
 70
     1
102
RTVSPropertyOp9
 70
     1
102
RTVSPropertyOp10
 70
     1
102
RTVSPropertyOp11
 70
     1
102
RTVSPropertyOp12
 70
     1
102
RTVSPropertyOp13
 70
     1
102
RTVSPropertyOp14
 70
     1
102
RTVSPropertyOp15
 70
     1
102
RTVSPropertyOp16
 70
     1
102
RTVSPropertyOp17
 70
     1
102
RTVSPropertyOp18
 70
     1
102
RTVSPropertyOp19
 70
     1
102
RTVSPropertyOp20
 70
     1
102
RTVSPropertyOp21
 70
     1
102
RTVSPropertyOp22
 70
     1
102
RTVSPropertyOp23
 70
     1
102
RTVSPropertyOp24
 70
     1
102
RTVSPropertyOp25
 70
     1
102
RTVSPropertyOp26
 70
     1
102
RTVSPropertyOp27
 70
     1
102
RTVSPropertyOp28
 70
     1
102
RTVSPropertyOp29
 70
     1
102
RTVSPropertyOp30
 70
     1
102
RTVSPropertyOp31
 70
     1
102
RTVSPropertyOp32
 70
     1
102
RTVSPropertyOp33
 70
     1
102
RTVSPropertyOp34
 70
     1
102
RTVSPropertyOp35
 70
     1
102
RTVSPropertyOp36
 70
     1
102
RTVSPropertyOp37
 70
     1
102
RTVSPropertyOp38
 70
     1
102
RTVSPropertyOp39
 70
     1
102
RTVSPropertyOp40
 70
     1
102
RTVSPropertyOp41
 70
     1
102
RTVSPropertyOp42
 70
     1
102
RTVSPropertyOp43
 70
     1
102
RTVSPropertyOp44
 70
     1
102
RTVSPropertyOp45
 70
     1
102
RTVSPropertyOp46
 70
     1
102
RTVSPropertyOp47
 70
     1
102
RTVSPropertyOp48
 70
     1
102
RTVSPropertyOp49
 70
     1
102
RTVSPropertyOp50
 70
     1
102
RTVSPropertyOp51
 70
     0
102
RTVSPropertyOp52
 70
     0
102
RTVSPropertyOp53
 70
     1
102
RTVSPropertyOp54
 70
     1
102
RTVSPropertyOp55
 70
     1
102
RTVSPropertyOp56
 70
     1
102
RTVSPropertyOp57
 70
     1
102
RTVSPropertyOp58
 70
     1
102
RTVSPropertyOp59
 70
     1
102
RTVSPropertyOp60
 70
     1
102
RTVSPropertyOp61
 70
     1
102
RTVSPropertyOp62
 70
     1
  0
XRECORD
  5
40E
102
{ACAD_REACTORS
330
40D
102
}
330
40D
100
AcDbXrecord
280
     1
102
RTVSPost2010Prop28
280
     0
102
RTVSPost2010PropOp28
 70
     1
102
RTVSPost2010Prop29
280
     1
102
RTVSPost2010PropOp29
 70
     1
102
RTVSPost2010Prop30
280
     1
102
RTVSPost2010PropOp30
 70
     1
102
RTVSPost2010Prop31
280
     0
102
RTVSPost2010PropOp31
 70
     1
102
RTVSPost2010Prop32
280
     0
102
RTVSPost2010PropOp32
 70
     1
102
RTVSPost2010Prop33
280
     0
102
RTVSPost2010PropOp33
 70
     1
102
RTVSPost2010Prop34
280
     0
102
RTVSPost2010PropOp34
 70
     1
102
RTVSPost2010Prop35
280
     0
102
RTVSPost2010PropOp35
 70
     1
102
RTVSPost2010Prop36
280
     0
102
RTVSPost2010PropOp36
 70
     1
102
RTVSPost2010Prop37
 90
       50
102
RTVSPost2010PropOp37
 70
     1
102
RTVSPost2010Prop38
140
0.0
102
RTVSPost2010PropOp38
 70
     1
102
RTVSPost2010Prop39
140
1.0
102
RTVSPost2010PropOp39
 70
     1
102
RTVSPost2010Prop40
 90
        0
102
RTVSPost2010PropOp40
 70
     1
102
RTVSPost2010Prop41ColorIndex
 90
       18
102
RTVSPost2010Prop41ColorRGB
 90
        0
102
RTVSPost2010PropOp41
 70
     1
102
RTVSPost2010Prop42
 90
       50
102
RTVSPost2010PropOp42
 70
     1
102
RTVSPost2010Prop43
 90
        3
102
RTVSPost2010PropOp43
 70
     1
102
RTVSPost2010Prop44ColorIndex
 90
        5
102
RTVSPost2010Prop44ColorRGB
 90
      255
102
RTVSPost2010PropOp44
 70
     1
102
RTVSPost2010Prop45
280
     0
102
RTVSPost2010PropOp45
 70
     1
102
RTVSPost2010Prop46
 90
       50
102
RTVSPost2010PropOp46
 70
     1
102
RTVSPost2010Prop47
 90
       50
102
RTVSPost2010PropOp47
 70
     1
102
RTVSPost2010Prop48
 90
       50
102
RTVSPost2010PropOp48
 70
     1
102
RTVSPost2010Prop49
280
     0
102
RTVSPost2010PropOp49
 70
     1
102
RTVSPost2010Prop50
 90
       50
102
RTVSPost2010PropOp50
 70
     1
102
RTVSPost2010Prop51ColorIndex
 90
      256
102
RTVSPost2010Prop51ColorRGB
 90
-16777216
102
RTVSPost2010PropOp51
 70
     0
102
RTVSPost2010Prop52
140
1.0
102
RTVSPost2010PropOp52
 70
     0
102
RTVSPost2010Prop53
 90
        2
102
RTVSPost2010PropOp53
 70
     1
102
RTVSPost2010Prop54
  1
strokes_ogs.tif
102
RTVSPost2010PropOp54
 70
     1
102
RTVSPost2010Prop55
280
     0
102
RTVSPost2010PropOp55
 70
     1
102
RTVSPost2010Prop56
140
1.0
102
RTVSPost2010PropOp56
 70
     1
102
RTVSPost2010Prop57
140
1.0
102
RTVSPost2010PropOp57
 70
     1
102
RTVSPropertyOp0
 70
     1
102
RTVSPropertyOp1
 70
     1
102
RTVSPropertyOp2
 70
     1
102
RTVSPropertyOp3
 70
     1
102
RTVSPropertyOp4
 70
     1
102
RTVSPropertyOp5
 70
     1
102
RTVSPropertyOp6
 70
     1
102
RTVSPropertyOp7
 70
     1
102
RTVSPropertyOp8
 70
     1
102
RTVSPropertyOp9
 70
     1
102
RTVSPropertyOp10
 70
     1
102
RTVSPropertyOp11
 70
     1
102
RTVSPropertyOp12
 70
     1
102
RTVSPropertyOp13
 70
     1
102
RTVSPropertyOp14
 70
     1
102
RTVSPropertyOp15
 70
     1
102
RTVSPropertyOp16
 70
     1
102
RTVSPropertyOp17
 70
     1
102
RTVSPropertyOp18
 70
     1
102
RTVSPropertyOp19
 70
     1
102
RTVSPropertyOp20
 70
     1
102
RTVSPropertyOp21
 70
     1
102
RTVSPropertyOp22
 70
     1
102
RTVSPropertyOp23
 70
     1
102
RTVSPropertyOp24
 70
     1
102
RTVSPropertyOp25
 70
     1
102
RTVSPropertyOp26
 70
     1
102
RTVSPropertyOp27
 70
     1
102
RTVSPropertyOp28
 70
     1
102
RTVSPropertyOp29
 70
     1
102
RTVSPropertyOp30
 70
     1
102
RTVSPropertyOp31
 70
     1
102
RTVSPropertyOp32
 70
     1
102
RTVSPropertyOp33
 70
     1
102
RTVSPropertyOp34
 70
     1
102
RTVSPropertyOp35
 70
     1
102
RTVSPropertyOp36
 70
     1
102
RTVSPropertyOp37
 70
     1
102
RTVSPropertyOp38
 70
     1
102
RTVSPropertyOp39
 70
     1
102
RTVSPropertyOp40
 70
     1
102
RTVSPropertyOp41
 70
     1
102
RTVSPropertyOp42
 70
     1
102
RTVSPropertyOp43
 70
     1
102
RTVSPropertyOp44
 70
     1
102
RTVSPropertyOp45
 70
     1
102
RTVSPropertyOp46
 70
     1
102
RTVSPropertyOp47
 70
     1
102
RTVSPropertyOp48
 70
     1
102
RTVSPropertyOp49
 70
     1
102
RTVSPropertyOp50
 70
     1
102
RTVSPropertyOp51
 70
     0
102
RTVSPropertyOp52
 70
     0
102
RTVSPropertyOp53
 70
     1
102
RTVSPropertyOp54
 70
     1
102
RTVSPropertyOp55
 70
     1
102
RTVSPropertyOp56
 70
     1
102
RTVSPropertyOp57
 70
     1
102
RTVSPropertyOp58
 70
     1
102
RTVSPropertyOp59
 70
     1
102
RTVSPropertyOp60
 70
     1
102
RTVSPropertyOp61
 70
     1
102
RTVSPropertyOp62
 70
     1
  0
XRECORD
  5
428
102
{ACAD_REACTORS
330
427
102
}
330
427
100
AcDbXrecord
280
     1
102
RTVSPost2010Prop28
280
     0
102
RTVSPost2010PropOp28
 70
     1
102
RTVSPost2010Prop29
280
     1
102
RTVSPost2010PropOp29
 70
     1
102
RTVSPost2010Prop30
280
     1
102
RTVSPost2010PropOp30
 70
     1
102
RTVSPost2010Prop31
280
     0
102
RTVSPost2010PropOp31
 70
     1
102
RTVSPost2010Prop32
280
     0
102
RTVSPost2010PropOp32
 70
     1
102
RTVSPost2010Prop33
280
     0
102
RTVSPost2010PropOp33
 70
     1
102
RTVSPost2010Prop34
280
     0
102
RTVSPost2010PropOp34
 70
     1
102
RTVSPost2010Prop35
280
     0
102
RTVSPost2010PropOp35
 70
     1
102
RTVSPost2010Prop36
280
     0
102
RTVSPost2010PropOp36
 70
     1
102
RTVSPost2010Prop37
 90
       50
102
RTVSPost2010PropOp37
 70
     0
102
RTVSPost2010Prop38
140
0.0
102
RTVSPost2010PropOp38
 70
     0
102
RTVSPost2010Prop39
140
1.0
102
RTVSPost2010PropOp39
 70
     0
102
RTVSPost2010Prop40
 90
        0
102
RTVSPost2010PropOp40
 70
     0
102
RTVSPost2010Prop41ColorIndex
 90
       18
102
RTVSPost2010Prop41ColorRGB
 90
        0
102
RTVSPost2010PropOp41
 70
     0
102
RTVSPost2010Prop42
 90
       50
102
RTVSPost2010PropOp42
 70
     0
102
RTVSPost2010Prop43
 90
        3
102
RTVSPost2010PropOp43
 70
     0
102
RTVSPost2010Prop44ColorIndex
 90
        5
102
RTVSPost2010Prop44ColorRGB
 90
      255
102
RTVSPost2010PropOp44
 70
     0
102
RTVSPost2010Prop45
280
     0
102
RTVSPost2010PropOp45
 70
     1
102
RTVSPost2010Prop46
 90
       50
102
RTVSPost2010PropOp46
 70
     0
102
RTVSPost2010Prop47
 90
       50
102
RTVSPost2010PropOp47
 70
     0
102
RTVSPost2010Prop48
 90
       50
102
RTVSPost2010PropOp48
 70
     0
102
RTVSPost2010Prop49
280
     0
102
RTVSPost2010PropOp49
 70
     1
102
RTVSPost2010Prop50
 90
       50
102
RTVSPost2010PropOp50
 70
     0
102
RTVSPost2010Prop51ColorIndex
 90
      256
102
RTVSPost2010Prop51ColorRGB
 90
-16777216
102
RTVSPost2010PropOp51
 70
     0
102
RTVSPost2010Prop52
140
1.0
102
RTVSPost2010PropOp52
 70
     0
102
RTVSPost2010Prop53
 90
        2
102
RTVSPost2010PropOp53
 70
     0
102
RTVSPost2010Prop54
  1
strokes_ogs.tif
102
RTVSPost2010PropOp54
 70
     0
102
RTVSPost2010Prop55
280
     0
102
RTVSPost2010PropOp55
 70
     1
102
RTVSPost2010Prop56
140
1.0
102
RTVSPost2010PropOp56
 70
     0
102
RTVSPost2010Prop57
140
1.0
102
RTVSPost2010PropOp57
 70
     0
102
RTVSPropertyOp0
 70
     0
102
RTVSPropertyOp1
 70
     0
102
RTVSPropertyOp2
 70
     0
102
RTVSPropertyOp3
 70
     0
102
RTVSPropertyOp4
 70
     0
102
RTVSPropertyOp5
 70
     0
102
RTVSPropertyOp6
 70
     0
102
RTVSPropertyOp7
 70
     0
102
RTVSPropertyOp8
 70
     0
102
RTVSPropertyOp9
 70
     0
102
RTVSPropertyOp10
 70
     0
102
RTVSPropertyOp11
 70
     0
102
RTVSPropertyOp12
 70
     0
102
RTVSPropertyOp13
 70
     0
102
RTVSPropertyOp14
 70
     2
102
RTVSPropertyOp15
 70
     0
102
RTVSPropertyOp16
 70
     0
102
RTVSPropertyOp17
 70
     0
102
RTVSPropertyOp18
 70
     0
102
RTVSPropertyOp19
 70
     0
102
RTVSPropertyOp20
 70
     0
102
RTVSPropertyOp21
 70
     0
102
RTVSPropertyOp22
 70
     0
102
RTVSPropertyOp23
 70
     0
102
RTVSPropertyOp24
 70
     0
102
RTVSPropertyOp25
 70
     0
102
RTVSPropertyOp26
 70
     0
102
RTVSPropertyOp27
 70
     0
102
RTVSPropertyOp28
 70
     1
102
RTVSPropertyOp29
 70
     1
102
RTVSPropertyOp30
 70
     1
102
RTVSPropertyOp31
 70
     1
102
RTVSPropertyOp32
 70
     1
102
RTVSPropertyOp33
 70
     1
102
RTVSPropertyOp34
 70
     1
102
RTVSPropertyOp35
 70
     1
102
RTVSPropertyOp36
 70
     1
102
RTVSPropertyOp37
 70
     0
102
RTVSPropertyOp38
 70
     0
102
RTVSPropertyOp39
 70
     0
102
RTVSPropertyOp40
 70
     0
102
RTVSPropertyOp41
 70
     0
102
RTVSPropertyOp42
 70
     0
102
RTVSPropertyOp43
 70
     0
102
RTVSPropertyOp44
 70
     0
102
RTVSPropertyOp45
 70
     1
102
RTVSPropertyOp46
 70
     0
102
RTVSPropertyOp47
 70
     0
102
RTVSPropertyOp48
 70
     0
102
RTVSPropertyOp49
 70
     1
102
RTVSPropertyOp50
 70
     0
102
RTVSPropertyOp51
 70
     0
102
RTVSPropertyOp52
 70
     0
102
RTVSPropertyOp53
 70
     0
102
RTVSPropertyOp54
 70
     0
102
RTVSPropertyOp55
 70
     1
102
RTVSPropertyOp56
 70
     0
102
RTVSPropertyOp57
 70
     0
102
RTVSPropertyOp58
 70
     0
102
RTVSPropertyOp59
 70
     0
102
RTVSPropertyOp60
 70
     0
102
RTVSPropertyOp61
 70
     0
102
RTVSPropertyOp62
 70
     0
  0
XRECORD
  5
416
102
{ACAD_REACTORS
330
415
102
}
330
415
100
AcDbXrecord
280
     1
102
RTVSPost2010Prop28
280
     0
102
RTVSPost2010PropOp28
 70
     1
102
RTVSPost2010Prop29
280
     1
102
RTVSPost2010PropOp29
 70
     1
102
RTVSPost2010Prop30
280
     1
102
RTVSPost2010PropOp30
 70
     1
102
RTVSPost2010Prop31
280
     0
102
RTVSPost2010PropOp31
 70
     1
102
RTVSPost2010Prop32
280
     0
102
RTVSPost2010PropOp32
 70
     1
102
RTVSPost2010Prop33
280
     0
102
RTVSPost2010PropOp33
 70
     1
102
RTVSPost2010Prop34
280
     0
102
RTVSPost2010PropOp34
 70
     1
102
RTVSPost2010Prop35
280
     0
102
RTVSPost2010PropOp35
 70
     1
102
RTVSPost2010Prop36
280
     0
102
RTVSPost2010PropOp36
 70
     1
102
RTVSPost2010Prop37
 90
       50
102
RTVSPost2010PropOp37
 70
     1
102
RTVSPost2010Prop38
140
0.0
102
RTVSPost2010PropOp38
 70
     1
102
RTVSPost2010Prop39
140
1.0
102
RTVSPost2010PropOp39
 70
     1
102
RTVSPost2010Prop40
 90
        0
102
RTVSPost2010PropOp40
 70
     1
102
RTVSPost2010Prop41ColorIndex
 90
       18
102
RTVSPost2010Prop41ColorRGB
 90
        0
102
RTVSPost2010PropOp41
 70
     1
102
RTVSPost2010Prop42
 90
       50
102
RTVSPost2010PropOp42
 70
     1
102
RTVSPost2010Prop43
 90
        3
102
RTVSPost2010PropOp43
 70
     1
102
RTVSPost2010Prop44ColorIndex
 90
        5
102
RTVSPost2010Prop44ColorRGB
 90
      255
102
RTVSPost2010PropOp44
 70
     1
102
RTVSPost2010Prop45
280
     0
102
RTVSPost2010PropOp45
 70
     1
102
RTVSPost2010Prop46
 90
       50
102
RTVSPost2010PropOp46
 70
     1
102
RTVSPost2010Prop47
 90
       50
102
RTVSPost2010PropOp47
 70
     1
102
RTVSPost2010Prop48
 90
       50
102
RTVSPost2010PropOp48
 70
     1
102
RTVSPost2010Prop49
280
     0
102
RTVSPost2010PropOp49
 70
     1
102
RTVSPost2010Prop50
 90
       50
102
RTVSPost2010PropOp50
 70
     1
102
RTVSPost2010Prop51ColorIndex
 90
      256
102
RTVSPost2010Prop51ColorRGB
 90
-16777216
102
RTVSPost2010PropOp51
 70
     0
102
RTVSPost2010Prop52
140
1.0
102
RTVSPost2010PropOp52
 70
     0
102
RTVSPost2010Prop53
 90
        2
102
RTVSPost2010PropOp53
 70
     1
102
RTVSPost2010Prop54
  1
strokes_ogs.tif
102
RTVSPost2010PropOp54
 70
     1
102
RTVSPost2010Prop55
280
     0
102
RTVSPost2010PropOp55
 70
     1
102
RTVSPost2010Prop56
140
1.0
102
RTVSPost2010PropOp56
 70
     1
102
RTVSPost2010Prop57
140
1.0
102
RTVSPost2010PropOp57
 70
     1
102
RTVSPropertyOp0
 70
     1
102
RTVSPropertyOp1
 70
     1
102
RTVSPropertyOp2
 70
     1
102
RTVSPropertyOp3
 70
     1
102
RTVSPropertyOp4
 70
     1
102
RTVSPropertyOp5
 70
     1
102
RTVSPropertyOp6
 70
     1
102
RTVSPropertyOp7
 70
     1
102
RTVSPropertyOp8
 70
     1
102
RTVSPropertyOp9
 70
     1
102
RTVSPropertyOp10
 70
     1
102
RTVSPropertyOp11
 70
     1
102
RTVSPropertyOp12
 70
     1
102
RTVSPropertyOp13
 70
     1
102
RTVSPropertyOp14
 70
     1
102
RTVSPropertyOp15
 70
     1
102
RTVSPropertyOp16
 70
     1
102
RTVSPropertyOp17
 70
     1
102
RTVSPropertyOp18
 70
     1
102
RTVSPropertyOp19
 70
     1
102
RTVSPropertyOp20
 70
     1
102
RTVSPropertyOp21
 70
     1
102
RTVSPropertyOp22
 70
     1
102
RTVSPropertyOp23
 70
     1
102
RTVSPropertyOp24
 70
     1
102
RTVSPropertyOp25
 70
     1
102
RTVSPropertyOp26
 70
     1
102
RTVSPropertyOp27
 70
     1
102
RTVSPropertyOp28
 70
     1
102
RTVSPropertyOp29
 70
     1
102
RTVSPropertyOp30
 70
     1
102
RTVSPropertyOp31
 70
     1
102
RTVSPropertyOp32
 70
     1
102
RTVSPropertyOp33
 70
     1
102
RTVSPropertyOp34
 70
     1
102
RTVSPropertyOp35
 70
     1
102
RTVSPropertyOp36
 70
     1
102
RTVSPropertyOp37
 70
     1
102
RTVSPropertyOp38
 70
     1
102
RTVSPropertyOp39
 70
     1
102
RTVSPropertyOp40
 70
     1
102
RTVSPropertyOp41
 70
     1
102
RTVSPropertyOp42
 70
     1
102
RTVSPropertyOp43
 70
     1
102
RTVSPropertyOp44
 70
     1
102
RTVSPropertyOp45
 70
     1
102
RTVSPropertyOp46
 70
     1
102
RTVSPropertyOp47
 70
     1
102
RTVSPropertyOp48
 70
     1
102
RTVSPropertyOp49
 70
     1
102
RTVSPropertyOp50
 70
     1
102
RTVSPropertyOp51
 70
     0
102
RTVSPropertyOp52
 70
     0
102
RTVSPropertyOp53
 70
     1
102
RTVSPropertyOp54
 70
     1
102
RTVSPropertyOp55
 70
     1
102
RTVSPropertyOp56
 70
     1
102
RTVSPropertyOp57
 70
     1
102
RTVSPropertyOp58
 70
     1
102
RTVSPropertyOp59
 70
     1
102
RTVSPropertyOp60
 70
     1
102
RTVSPropertyOp61
 70
     1
102
RTVSPropertyOp62
 70
     1
  0
XRECORD
  5
3FA
102
{ACAD_REACTORS
330
3F9
102
}
330
3F9
100
AcDbXrecord
280
     1
102
RTVSPost2010Prop28
280
     0
102
RTVSPost2010PropOp28
 70
     1
102
RTVSPost2010Prop29
280
     1
102
RTVSPost2010PropOp29
 70
     1
102
RTVSPost2010Prop30
280
     1
102
RTVSPost2010PropOp30
 70
     1
102
RTVSPost2010Prop31
280
     0
102
RTVSPost2010PropOp31
 70
     1
102
RTVSPost2010Prop32
280
     0
102
RTVSPost2010PropOp32
 70
     1
102
RTVSPost2010Prop33
280
     0
102
RTVSPost2010PropOp33
 70
     1
102
RTVSPost2010Prop34
280
     0
102
RTVSPost2010PropOp34
 70
     1
102
RTVSPost2010Prop35
280
     0
102
RTVSPost2010PropOp35
 70
     1
102
RTVSPost2010Prop36
280
     0
102
RTVSPost2010PropOp36
 70
     1
102
RTVSPost2010Prop37
 90
       50
102
RTVSPost2010PropOp37
 70
     1
102
RTVSPost2010Prop38
140
0.0
102
RTVSPost2010PropOp38
 70
     1
102
RTVSPost2010Prop39
140
1.0
102
RTVSPost2010PropOp39
 70
     1
102
RTVSPost2010Prop40
 90
        0
102
RTVSPost2010PropOp40
 70
     1
102
RTVSPost2010Prop41ColorIndex
 90
       18
102
RTVSPost2010Prop41ColorRGB
 90
        0
102
RTVSPost2010PropOp41
 70
     1
102
RTVSPost2010Prop42
 90
       50
102
RTVSPost2010PropOp42
 70
     1
102
RTVSPost2010Prop43
 90
        3
102
RTVSPost2010PropOp43
 70
     1
102
RTVSPost2010Prop44ColorIndex
 90
        5
102
RTVSPost2010Prop44ColorRGB
 90
      255
102
RTVSPost2010PropOp44
 70
     1
102
RTVSPost2010Prop45
280
     0
102
RTVSPost2010PropOp45
 70
     1
102
RTVSPost2010Prop46
 90
       50
102
RTVSPost2010PropOp46
 70
     1
102
RTVSPost2010Prop47
 90
       50
102
RTVSPost2010PropOp47
 70
     1
102
RTVSPost2010Prop48
 90
       50
102
RTVSPost2010PropOp48
 70
     1
102
RTVSPost2010Prop49
280
     0
102
RTVSPost2010PropOp49
 70
     1
102
RTVSPost2010Prop50
 90
       50
102
RTVSPost2010PropOp50
 70
     1
102
RTVSPost2010Prop51ColorIndex
 90
      256
102
RTVSPost2010Prop51ColorRGB
 90
-16777216
102
RTVSPost2010PropOp51
 70
     0
102
RTVSPost2010Prop52
140
1.0
102
RTVSPost2010PropOp52
 70
     0
102
RTVSPost2010Prop53
 90
        2
102
RTVSPost2010PropOp53
 70
     1
102
RTVSPost2010Prop54
  1
strokes_ogs.tif
102
RTVSPost2010PropOp54
 70
     1
102
RTVSPost2010Prop55
280
     0
102
RTVSPost2010PropOp55
 70
     1
102
RTVSPost2010Prop56
140
1.0
102
RTVSPost2010PropOp56
 70
     1
102
RTVSPost2010Prop57
140
1.0
102
RTVSPost2010PropOp57
 70
     1
102
RTVSPropertyOp0
 70
     1
102
RTVSPropertyOp1
 70
     1
102
RTVSPropertyOp2
 70
     1
102
RTVSPropertyOp3
 70
     1
102
RTVSPropertyOp4
 70
     1
102
RTVSPropertyOp5
 70
     1
102
RTVSPropertyOp6
 70
     1
102
RTVSPropertyOp7
 70
     1
102
RTVSPropertyOp8
 70
     1
102
RTVSPropertyOp9
 70
     1
102
RTVSPropertyOp10
 70
     1
102
RTVSPropertyOp11
 70
     1
102
RTVSPropertyOp12
 70
     1
102
RTVSPropertyOp13
 70
     1
102
RTVSPropertyOp14
 70
     1
102
RTVSPropertyOp15
 70
     1
102
RTVSPropertyOp16
 70
     1
102
RTVSPropertyOp17
 70
     1
102
RTVSPropertyOp18
 70
     1
102
RTVSPropertyOp19
 70
     1
102
RTVSPropertyOp20
 70
     1
102
RTVSPropertyOp21
 70
     1
102
RTVSPropertyOp22
 70
     1
102
RTVSPropertyOp23
 70
     1
102
RTVSPropertyOp24
 70
     1
102
RTVSPropertyOp25
 70
     1
102
RTVSPropertyOp26
 70
     1
102
RTVSPropertyOp27
 70
     1
102
RTVSPropertyOp28
 70
     1
102
RTVSPropertyOp29
 70
     1
102
RTVSPropertyOp30
 70
     1
102
RTVSPropertyOp31
 70
     1
102
RTVSPropertyOp32
 70
     1
102
RTVSPropertyOp33
 70
     1
102
RTVSPropertyOp34
 70
     1
102
RTVSPropertyOp35
 70
     1
102
RTVSPropertyOp36
 70
     1
102
RTVSPropertyOp37
 70
     1
102
RTVSPropertyOp38
 70
     1
102
RTVSPropertyOp39
 70
     1
102
RTVSPropertyOp40
 70
     1
102
RTVSPropertyOp41
 70
     1
102
RTVSPropertyOp42
 70
     1
102
RTVSPropertyOp43
 70
     1
102
RTVSPropertyOp44
 70
     1
102
RTVSPropertyOp45
 70
     1
102
RTVSPropertyOp46
 70
     1
102
RTVSPropertyOp47
 70
     1
102
RTVSPropertyOp48
 70
     1
102
RTVSPropertyOp49
 70
     1
102
RTVSPropertyOp50
 70
     1
102
RTVSPropertyOp51
 70
     0
102
RTVSPropertyOp52
 70
     0
102
RTVSPropertyOp53
 70
     1
102
RTVSPropertyOp54
 70
     1
102
RTVSPropertyOp55
 70
     1
102
RTVSPropertyOp56
 70
     1
102
RTVSPropertyOp57
 70
     1
102
RTVSPropertyOp58
 70
     1
102
RTVSPropertyOp59
 70
     1
102
RTVSPropertyOp60
 70
     1
102
RTVSPropertyOp61
 70
     1
102
RTVSPropertyOp62
 70
     1
  0
XRECORD
  5
3FC
102
{ACAD_REACTORS
330
3FB
102
}
330
3FB
100
AcDbXrecord
280
     1
102
RTVSPost2010Prop28
280
     0
102
RTVSPost2010PropOp28
 70
     1
102
RTVSPost2010Prop29
280
     1
102
RTVSPost2010PropOp29
 70
     1
102
RTVSPost2010Prop30
280
     1
102
RTVSPost2010PropOp30
 70
     1
102
RTVSPost2010Prop31
280
     0
102
RTVSPost2010PropOp31
 70
     1
102
RTVSPost2010Prop32
280
     0
102
RTVSPost2010PropOp32
 70
     1
102
RTVSPost2010Prop33
280
     0
102
RTVSPost2010PropOp33
 70
     1
102
RTVSPost2010Prop34
280
     0
102
RTVSPost2010PropOp34
 70
     1
102
RTVSPost2010Prop35
280
     0
102
RTVSPost2010PropOp35
 70
     1
102
RTVSPost2010Prop36
280
     0
102
RTVSPost2010PropOp36
 70
     1
102
RTVSPost2010Prop37
 90
       50
102
RTVSPost2010PropOp37
 70
     1
102
RTVSPost2010Prop38
140
0.0
102
RTVSPost2010PropOp38
 70
     1
102
RTVSPost2010Prop39
140
1.0
102
RTVSPost2010PropOp39
 70
     1
102
RTVSPost2010Prop40
 90
        0
102
RTVSPost2010PropOp40
 70
     1
102
RTVSPost2010Prop41ColorIndex
 90
       18
102
RTVSPost2010Prop41ColorRGB
 90
        0
102
RTVSPost2010PropOp41
 70
     1
102
RTVSPost2010Prop42
 90
       50
102
RTVSPost2010PropOp42
 70
     1
102
RTVSPost2010Prop43
 90
        3
102
RTVSPost2010PropOp43
 70
     1
102
RTVSPost2010Prop44ColorIndex
 90
        5
102
RTVSPost2010Prop44ColorRGB
 90
      255
102
RTVSPost2010PropOp44
 70
     1
102
RTVSPost2010Prop45
280
     0
102
RTVSPost2010PropOp45
 70
     1
102
RTVSPost2010Prop46
 90
       50
102
RTVSPost2010PropOp46
 70
     1
102
RTVSPost2010Prop47
 90
       50
102
RTVSPost2010PropOp47
 70
     1
102
RTVSPost2010Prop48
 90
       50
102
RTVSPost2010PropOp48
 70
     1
102
RTVSPost2010Prop49
280
     0
102
RTVSPost2010PropOp49
 70
     1
102
RTVSPost2010Prop50
 90
       50
102
RTVSPost2010PropOp50
 70
     1
102
RTVSPost2010Prop51ColorIndex
 90
      256
102
RTVSPost2010Prop51ColorRGB
 90
-16777216
102
RTVSPost2010PropOp51
 70
     0
102
RTVSPost2010Prop52
140
1.0
102
RTVSPost2010PropOp52
 70
     0
102
RTVSPost2010Prop53
 90
        2
102
RTVSPost2010PropOp53
 70
     1
102
RTVSPost2010Prop54
  1
strokes_ogs.tif
102
RTVSPost2010PropOp54
 70
     1
102
RTVSPost2010Prop55
280
     0
102
RTVSPost2010PropOp55
 70
     1
102
RTVSPost2010Prop56
140
1.0
102
RTVSPost2010PropOp56
 70
     1
102
RTVSPost2010Prop57
140
1.0
102
RTVSPost2010PropOp57
 70
     1
102
RTVSPropertyOp0
 70
     1
102
RTVSPropertyOp1
 70
     1
102
RTVSPropertyOp2
 70
     1
102
RTVSPropertyOp3
 70
     1
102
RTVSPropertyOp4
 70
     1
102
RTVSPropertyOp5
 70
     1
102
RTVSPropertyOp6
 70
     1
102
RTVSPropertyOp7
 70
     1
102
RTVSPropertyOp8
 70
     1
102
RTVSPropertyOp9
 70
     1
102
RTVSPropertyOp10
 70
     1
102
RTVSPropertyOp11
 70
     1
102
RTVSPropertyOp12
 70
     1
102
RTVSPropertyOp13
 70
     1
102
RTVSPropertyOp14
 70
     1
102
RTVSPropertyOp15
 70
     1
102
RTVSPropertyOp16
 70
     1
102
RTVSPropertyOp17
 70
     1
102
RTVSPropertyOp18
 70
     1
102
RTVSPropertyOp19
 70
     1
102
RTVSPropertyOp20
 70
     1
102
RTVSPropertyOp21
 70
     1
102
RTVSPropertyOp22
 70
     1
102
RTVSPropertyOp23
 70
     1
102
RTVSPropertyOp24
 70
     1
102
RTVSPropertyOp25
 70
     1
102
RTVSPropertyOp26
 70
     1
102
RTVSPropertyOp27
 70
     1
102
RTVSPropertyOp28
 70
     1
102
RTVSPropertyOp29
 70
     1
102
RTVSPropertyOp30
 70
     1
102
RTVSPropertyOp31
 70
     1
102
RTVSPropertyOp32
 70
     1
102
RTVSPropertyOp33
 70
     1
102
RTVSPropertyOp34
 70
     1
102
RTVSPropertyOp35
 70
     1
102
RTVSPropertyOp36
 70
     1
102
RTVSPropertyOp37
 70
     1
102
RTVSPropertyOp38
 70
     1
102
RTVSPropertyOp39
 70
     1
102
RTVSPropertyOp40
 70
     1
102
RTVSPropertyOp41
 70
     1
102
RTVSPropertyOp42
 70
     1
102
RTVSPropertyOp43
 70
     1
102
RTVSPropertyOp44
 70
     1
102
RTVSPropertyOp45
 70
     1
102
RTVSPropertyOp46
 70
     1
102
RTVSPropertyOp47
 70
     1
102
RTVSPropertyOp48
 70
     1
102
RTVSPropertyOp49
 70
     1
102
RTVSPropertyOp50
 70
     1
102
RTVSPropertyOp51
 70
     0
102
RTVSPropertyOp52
 70
     0
102
RTVSPropertyOp53
 70
     1
102
RTVSPropertyOp54
 70
     1
102
RTVSPropertyOp55
 70
     1
102
RTVSPropertyOp56
 70
     1
102
RTVSPropertyOp57
 70
     1
102
RTVSPropertyOp58
 70
     1
102
RTVSPropertyOp59
 70
     1
102
RTVSPropertyOp60
 70
     1
102
RTVSPropertyOp61
 70
     1
102
RTVSPropertyOp62
 70
     1
  0
XRECORD
  5
3FE
102
{ACAD_REACTORS
330
3FD
102
}
330
3FD
100
AcDbXrecord
280
     1
102
RTVSPost2010Prop28
280
     0
102
RTVSPost2010PropOp28
 70
     1
102
RTVSPost2010Prop29
280
     1
102
RTVSPost2010PropOp29
 70
     1
102
RTVSPost2010Prop30
280
     1
102
RTVSPost2010PropOp30
 70
     1
102
RTVSPost2010Prop31
280
     0
102
RTVSPost2010PropOp31
 70
     1
102
RTVSPost2010Prop32
280
     0
102
RTVSPost2010PropOp32
 70
     1
102
RTVSPost2010Prop33
280
     0
102
RTVSPost2010PropOp33
 70
     1
102
RTVSPost2010Prop34
280
     0
102
RTVSPost2010PropOp34
 70
     1
102
RTVSPost2010Prop35
280
     0
102
RTVSPost2010PropOp35
 70
     1
102
RTVSPost2010Prop36
280
     0
102
RTVSPost2010PropOp36
 70
     1
102
RTVSPost2010Prop37
 90
       50
102
RTVSPost2010PropOp37
 70
     1
102
RTVSPost2010Prop38
140
0.0
102
RTVSPost2010PropOp38
 70
     1
102
RTVSPost2010Prop39
140
1.0
102
RTVSPost2010PropOp39
 70
     1
102
RTVSPost2010Prop40
 90
        0
102
RTVSPost2010PropOp40
 70
     1
102
RTVSPost2010Prop41ColorIndex
 90
       18
102
RTVSPost2010Prop41ColorRGB
 90
        0
102
RTVSPost2010PropOp41
 70
     1
102
RTVSPost2010Prop42
 90
       50
102
RTVSPost2010PropOp42
 70
     1
102
RTVSPost2010Prop43
 90
        3
102
RTVSPost2010PropOp43
 70
     1
102
RTVSPost2010Prop44ColorIndex
 90
        5
102
RTVSPost2010Prop44ColorRGB
 90
      255
102
RTVSPost2010PropOp44
 70
     1
102
RTVSPost2010Prop45
280
     0
102
RTVSPost2010PropOp45
 70
     1
102
RTVSPost2010Prop46
 90
       50
102
RTVSPost2010PropOp46
 70
     1
102
RTVSPost2010Prop47
 90
       50
102
RTVSPost2010PropOp47
 70
     1
102
RTVSPost2010Prop48
 90
       50
102
RTVSPost2010PropOp48
 70
     1
102
RTVSPost2010Prop49
280
     0
102
RTVSPost2010PropOp49
 70
     1
102
RTVSPost2010Prop50
 90
       50
102
RTVSPost2010PropOp50
 70
     1
102
RTVSPost2010Prop51ColorIndex
 90
      256
102
RTVSPost2010Prop51ColorRGB
 90
-16777216
102
RTVSPost2010PropOp51
 70
     0
102
RTVSPost2010Prop52
140
1.0
102
RTVSPost2010PropOp52
 70
     0
102
RTVSPost2010Prop53
 90
        2
102
RTVSPost2010PropOp53
 70
     1
102
RTVSPost2010Prop54
  1
strokes_ogs.tif
102
RTVSPost2010PropOp54
 70
     1
102
RTVSPost2010Prop55
280
     0
102
RTVSPost2010PropOp55
 70
     1
102
RTVSPost2010Prop56
140
1.0
102
RTVSPost2010PropOp56
 70
     1
102
RTVSPost2010Prop57
140
1.0
102
RTVSPost2010PropOp57
 70
     1
102
RTVSPropertyOp0
 70
     1
102
RTVSPropertyOp1
 70
     1
102
RTVSPropertyOp2
 70
     1
102
RTVSPropertyOp3
 70
     1
102
RTVSPropertyOp4
 70
     1
102
RTVSPropertyOp5
 70
     1
102
RTVSPropertyOp6
 70
     1
102
RTVSPropertyOp7
 70
     1
102
RTVSPropertyOp8
 70
     1
102
RTVSPropertyOp9
 70
     1
102
RTVSPropertyOp10
 70
     1
102
RTVSPropertyOp11
 70
     1
102
RTVSPropertyOp12
 70
     1
102
RTVSPropertyOp13
 70
     1
102
RTVSPropertyOp14
 70
     1
102
RTVSPropertyOp15
 70
     1
102
RTVSPropertyOp16
 70
     1
102
RTVSPropertyOp17
 70
     1
102
RTVSPropertyOp18
 70
     1
102
RTVSPropertyOp19
 70
     1
102
RTVSPropertyOp20
 70
     1
102
RTVSPropertyOp21
 70
     1
102
RTVSPropertyOp22
 70
     1
102
RTVSPropertyOp23
 70
     1
102
RTVSPropertyOp24
 70
     1
102
RTVSPropertyOp25
 70
     1
102
RTVSPropertyOp26
 70
     1
102
RTVSPropertyOp27
 70
     1
102
RTVSPropertyOp28
 70
     1
102
RTVSPropertyOp29
 70
     1
102
RTVSPropertyOp30
 70
     1
102
RTVSPropertyOp31
 70
     1
102
RTVSPropertyOp32
 70
     1
102
RTVSPropertyOp33
 70
     1
102
RTVSPropertyOp34
 70
     1
102
RTVSPropertyOp35
 70
     1
102
RTVSPropertyOp36
 70
     1
102
RTVSPropertyOp37
 70
     1
102
RTVSPropertyOp38
 70
     1
102
RTVSPropertyOp39
 70
     1
102
RTVSPropertyOp40
 70
     1
102
RTVSPropertyOp41
 70
     1
102
RTVSPropertyOp42
 70
     1
102
RTVSPropertyOp43
 70
     1
102
RTVSPropertyOp44
 70
     1
102
RTVSPropertyOp45
 70
     1
102
RTVSPropertyOp46
 70
     1
102
RTVSPropertyOp47
 70
     1
102
RTVSPropertyOp48
 70
     1
102
RTVSPropertyOp49
 70
     1
102
RTVSPropertyOp50
 70
     1
102
RTVSPropertyOp51
 70
     0
102
RTVSPropertyOp52
 70
     0
102
RTVSPropertyOp53
 70
     1
102
RTVSPropertyOp54
 70
     1
102
RTVSPropertyOp55
 70
     1
102
RTVSPropertyOp56
 70
     1
102
RTVSPropertyOp57
 70
     1
102
RTVSPropertyOp58
 70
     1
102
RTVSPropertyOp59
 70
     1
102
RTVSPropertyOp60
 70
     1
102
RTVSPropertyOp61
 70
     1
102
RTVSPropertyOp62
 70
     1
  0
XRECORD
  5
400
102
{ACAD_REACTORS
330
3FF
102
}
330
3FF
100
AcDbXrecord
280
     1
102
RTVSPost2010Prop28
280
     0
102
RTVSPost2010PropOp28
 70
     1
102
RTVSPost2010Prop29
280
     1
102
RTVSPost2010PropOp29
 70
     1
102
RTVSPost2010Prop30
280
     1
102
RTVSPost2010PropOp30
 70
     1
102
RTVSPost2010Prop31
280
     0
102
RTVSPost2010PropOp31
 70
     1
102
RTVSPost2010Prop32
280
     0
102
RTVSPost2010PropOp32
 70
     1
102
RTVSPost2010Prop33
280
     0
102
RTVSPost2010PropOp33
 70
     1
102
RTVSPost2010Prop34
280
     0
102
RTVSPost2010PropOp34
 70
     1
102
RTVSPost2010Prop35
280
     0
102
RTVSPost2010PropOp35
 70
     1
102
RTVSPost2010Prop36
280
     0
102
RTVSPost2010PropOp36
 70
     1
102
RTVSPost2010Prop37
 90
       50
102
RTVSPost2010PropOp37
 70
     1
102
RTVSPost2010Prop38
140
0.0
102
RTVSPost2010PropOp38
 70
     1
102
RTVSPost2010Prop39
140
1.0
102
RTVSPost2010PropOp39
 70
     1
102
RTVSPost2010Prop40
 90
        0
102
RTVSPost2010PropOp40
 70
     1
102
RTVSPost2010Prop41ColorIndex
 90
       18
102
RTVSPost2010Prop41ColorRGB
 90
        0
102
RTVSPost2010PropOp41
 70
     1
102
RTVSPost2010Prop42
 90
       50
102
RTVSPost2010PropOp42
 70
     1
102
RTVSPost2010Prop43
 90
        3
102
RTVSPost2010PropOp43
 70
     1
102
RTVSPost2010Prop44ColorIndex
 90
        5
102
RTVSPost2010Prop44ColorRGB
 90
      255
102
RTVSPost2010PropOp44
 70
     1
102
RTVSPost2010Prop45
280
     0
102
RTVSPost2010PropOp45
 70
     1
102
RTVSPost2010Prop46
 90
       50
102
RTVSPost2010PropOp46
 70
     1
102
RTVSPost2010Prop47
 90
       50
102
RTVSPost2010PropOp47
 70
     1
102
RTVSPost2010Prop48
 90
       50
102
RTVSPost2010PropOp48
 70
     1
102
RTVSPost2010Prop49
280
     0
102
RTVSPost2010PropOp49
 70
     1
102
RTVSPost2010Prop50
 90
       50
102
RTVSPost2010PropOp50
 70
     1
102
RTVSPost2010Prop51ColorIndex
 90
      256
102
RTVSPost2010Prop51ColorRGB
 90
-16777216
102
RTVSPost2010PropOp51
 70
     0
102
RTVSPost2010Prop52
140
1.0
102
RTVSPost2010PropOp52
 70
     0
102
RTVSPost2010Prop53
 90
        2
102
RTVSPost2010PropOp53
 70
     1
102
RTVSPost2010Prop54
  1
strokes_ogs.tif
102
RTVSPost2010PropOp54
 70
     1
102
RTVSPost2010Prop55
280
     0
102
RTVSPost2010PropOp55
 70
     1
102
RTVSPost2010Prop56
140
1.0
102
RTVSPost2010PropOp56
 70
     1
102
RTVSPost2010Prop57
140
1.0
102
RTVSPost2010PropOp57
 70
     1
102
RTVSPropertyOp0
 70
     1
102
RTVSPropertyOp1
 70
     1
102
RTVSPropertyOp2
 70
     1
102
RTVSPropertyOp3
 70
     1
102
RTVSPropertyOp4
 70
     1
102
RTVSPropertyOp5
 70
     1
102
RTVSPropertyOp6
 70
     1
102
RTVSPropertyOp7
 70
     1
102
RTVSPropertyOp8
 70
     1
102
RTVSPropertyOp9
 70
     1
102
RTVSPropertyOp10
 70
     1
102
RTVSPropertyOp11
 70
     1
102
RTVSPropertyOp12
 70
     1
102
RTVSPropertyOp13
 70
     1
102
RTVSPropertyOp14
 70
     1
102
RTVSPropertyOp15
 70
     1
102
RTVSPropertyOp16
 70
     1
102
RTVSPropertyOp17
 70
     1
102
RTVSPropertyOp18
 70
     1
102
RTVSPropertyOp19
 70
     1
102
RTVSPropertyOp20
 70
     1
102
RTVSPropertyOp21
 70
     1
102
RTVSPropertyOp22
 70
     1
102
RTVSPropertyOp23
 70
     1
102
RTVSPropertyOp24
 70
     1
102
RTVSPropertyOp25
 70
     1
102
RTVSPropertyOp26
 70
     1
102
RTVSPropertyOp27
 70
     1
102
RTVSPropertyOp28
 70
     1
102
RTVSPropertyOp29
 70
     1
102
RTVSPropertyOp30
 70
     1
102
RTVSPropertyOp31
 70
     1
102
RTVSPropertyOp32
 70
     1
102
RTVSPropertyOp33
 70
     1
102
RTVSPropertyOp34
 70
     1
102
RTVSPropertyOp35
 70
     1
102
RTVSPropertyOp36
 70
     1
102
RTVSPropertyOp37
 70
     1
102
RTVSPropertyOp38
 70
     1
102
RTVSPropertyOp39
 70
     1
102
RTVSPropertyOp40
 70
     1
102
RTVSPropertyOp41
 70
     1
102
RTVSPropertyOp42
 70
     1
102
RTVSPropertyOp43
 70
     1
102
RTVSPropertyOp44
 70
     1
102
RTVSPropertyOp45
 70
     1
102
RTVSPropertyOp46
 70
     1
102
RTVSPropertyOp47
 70
     1
102
RTVSPropertyOp48
 70
     1
102
RTVSPropertyOp49
 70
     1
102
RTVSPropertyOp50
 70
     1
102
RTVSPropertyOp51
 70
     0
102
RTVSPropertyOp52
 70
     0
102
RTVSPropertyOp53
 70
     1
102
RTVSPropertyOp54
 70
     1
102
RTVSPropertyOp55
 70
     1
102
RTVSPropertyOp56
 70
     1
102
RTVSPropertyOp57
 70
     1
102
RTVSPropertyOp58
 70
     1
102
RTVSPropertyOp59
 70
     1
102
RTVSPropertyOp60
 70
     1
102
RTVSPropertyOp61
 70
     1
102
RTVSPropertyOp62
 70
     1
  0
XRECORD
  5
408
102
{ACAD_REACTORS
330
407
102
}
330
407
100
AcDbXrecord
280
     1
102
RTVSPost2010Prop28
280
     0
102
RTVSPost2010PropOp28
 70
     1
102
RTVSPost2010Prop29
280
     1
102
RTVSPost2010PropOp29
 70
     1
102
RTVSPost2010Prop30
280
     1
102
RTVSPost2010PropOp30
 70
     1
102
RTVSPost2010Prop31
280
     0
102
RTVSPost2010PropOp31
 70
     1
102
RTVSPost2010Prop32
280
     0
102
RTVSPost2010PropOp32
 70
     1
102
RTVSPost2010Prop33
280
     0
102
RTVSPost2010PropOp33
 70
     1
102
RTVSPost2010Prop34
280
     0
102
RTVSPost2010PropOp34
 70
     1
102
RTVSPost2010Prop35
280
     0
102
RTVSPost2010PropOp35
 70
     1
102
RTVSPost2010Prop36
280
     0
102
RTVSPost2010PropOp36
 70
     1
102
RTVSPost2010Prop37
 90
       50
102
RTVSPost2010PropOp37
 70
     1
102
RTVSPost2010Prop38
140
0.0
102
RTVSPost2010PropOp38
 70
     1
102
RTVSPost2010Prop39
140
1.0
102
RTVSPost2010PropOp39
 70
     1
102
RTVSPost2010Prop40
 90
        0
102
RTVSPost2010PropOp40
 70
     1
102
RTVSPost2010Prop41ColorIndex
 90
       18
102
RTVSPost2010Prop41ColorRGB
 90
        0
102
RTVSPost2010PropOp41
 70
     1
102
RTVSPost2010Prop42
 90
       50
102
RTVSPost2010PropOp42
 70
     1
102
RTVSPost2010Prop43
 90
        3
102
RTVSPost2010PropOp43
 70
     1
102
RTVSPost2010Prop44ColorIndex
 90
        5
102
RTVSPost2010Prop44ColorRGB
 90
      255
102
RTVSPost2010PropOp44
 70
     1
102
RTVSPost2010Prop45
280
     0
102
RTVSPost2010PropOp45
 70
     1
102
RTVSPost2010Prop46
 90
       50
102
RTVSPost2010PropOp46
 70
     1
102
RTVSPost2010Prop47
 90
       50
102
RTVSPost2010PropOp47
 70
     1
102
RTVSPost2010Prop48
 90
       50
102
RTVSPost2010PropOp48
 70
     1
102
RTVSPost2010Prop49
280
     0
102
RTVSPost2010PropOp49
 70
     1
102
RTVSPost2010Prop50
 90
       50
102
RTVSPost2010PropOp50
 70
     1
102
RTVSPost2010Prop51ColorIndex
 90
      256
102
RTVSPost2010Prop51ColorRGB
 90
-16777216
102
RTVSPost2010PropOp51
 70
     0
102
RTVSPost2010Prop52
140
1.0
102
RTVSPost2010PropOp52
 70
     0
102
RTVSPost2010Prop53
 90
        2
102
RTVSPost2010PropOp53
 70
     1
102
RTVSPost2010Prop54
  1
strokes_ogs.tif
102
RTVSPost2010PropOp54
 70
     1
102
RTVSPost2010Prop55
280
     0
102
RTVSPost2010PropOp55
 70
     1
102
RTVSPost2010Prop56
140
1.0
102
RTVSPost2010PropOp56
 70
     1
102
RTVSPost2010Prop57
140
1.0
102
RTVSPost2010PropOp57
 70
     1
102
RTVSPropertyOp0
 70
     1
102
RTVSPropertyOp1
 70
     1
102
RTVSPropertyOp2
 70
     1
102
RTVSPropertyOp3
 70
     1
102
RTVSPropertyOp4
 70
     1
102
RTVSPropertyOp5
 70
     1
102
RTVSPropertyOp6
 70
     1
102
RTVSPropertyOp7
 70
     1
102
RTVSPropertyOp8
 70
     1
102
RTVSPropertyOp9
 70
     1
102
RTVSPropertyOp10
 70
     1
102
RTVSPropertyOp11
 70
     1
102
RTVSPropertyOp12
 70
     1
102
RTVSPropertyOp13
 70
     1
102
RTVSPropertyOp14
 70
     1
102
RTVSPropertyOp15
 70
     1
102
RTVSPropertyOp16
 70
     1
102
RTVSPropertyOp17
 70
     1
102
RTVSPropertyOp18
 70
     1
102
RTVSPropertyOp19
 70
     1
102
RTVSPropertyOp20
 70
     1
102
RTVSPropertyOp21
 70
     1
102
RTVSPropertyOp22
 70
     1
102
RTVSPropertyOp23
 70
     1
102
RTVSPropertyOp24
 70
     1
102
RTVSPropertyOp25
 70
     1
102
RTVSPropertyOp26
 70
     1
102
RTVSPropertyOp27
 70
     1
102
RTVSPropertyOp28
 70
     1
102
RTVSPropertyOp29
 70
     1
102
RTVSPropertyOp30
 70
     1
102
RTVSPropertyOp31
 70
     1
102
RTVSPropertyOp32
 70
     1
102
RTVSPropertyOp33
 70
     1
102
RTVSPropertyOp34
 70
     1
102
RTVSPropertyOp35
 70
     1
102
RTVSPropertyOp36
 70
     1
102
RTVSPropertyOp37
 70
     1
102
RTVSPropertyOp38
 70
     1
102
RTVSPropertyOp39
 70
     1
102
RTVSPropertyOp40
 70
     1
102
RTVSPropertyOp41
 70
     1
102
RTVSPropertyOp42
 70
     1
102
RTVSPropertyOp43
 70
     1
102
RTVSPropertyOp44
 70
     1
102
RTVSPropertyOp45
 70
     1
102
RTVSPropertyOp46
 70
     1
102
RTVSPropertyOp47
 70
     1
102
RTVSPropertyOp48
 70
     1
102
RTVSPropertyOp49
 70
     1
102
RTVSPropertyOp50
 70
     1
102
RTVSPropertyOp51
 70
     0
102
RTVSPropertyOp52
 70
     0
102
RTVSPropertyOp53
 70
     1
102
RTVSPropertyOp54
 70
     1
102
RTVSPropertyOp55
 70
     1
102
RTVSPropertyOp56
 70
     1
102
RTVSPropertyOp57
 70
     1
102
RTVSPropertyOp58
 70
     1
102
RTVSPropertyOp59
 70
     1
102
RTVSPropertyOp60
 70
     1
102
RTVSPropertyOp61
 70
     1
102
RTVSPropertyOp62
 70
     1
  0
XRECORD
  5
424
102
{ACAD_REACTORS
330
423
102
}
330
423
100
AcDbXrecord
280
     1
102
RTVSPost2010Prop28
280
     0
102
RTVSPost2010PropOp28
 70
     1
102
RTVSPost2010Prop29
280
     1
102
RTVSPost2010PropOp29
 70
     1
102
RTVSPost2010Prop30
280
     1
102
RTVSPost2010PropOp30
 70
     1
102
RTVSPost2010Prop31
280
     0
102
RTVSPost2010PropOp31
 70
     1
102
RTVSPost2010Prop32
280
     0
102
RTVSPost2010PropOp32
 70
     1
102
RTVSPost2010Prop33
280
     0
102
RTVSPost2010PropOp33
 70
     1
102
RTVSPost2010Prop34
280
     0
102
RTVSPost2010PropOp34
 70
     1
102
RTVSPost2010Prop35
280
     0
102
RTVSPost2010PropOp35
 70
     1
102
RTVSPost2010Prop36
280
     0
102
RTVSPost2010PropOp36
 70
     1
102
RTVSPost2010Prop37
 90
       50
102
RTVSPost2010PropOp37
 70
     0
102
RTVSPost2010Prop38
140
0.0
102
RTVSPost2010PropOp38
 70
     0
102
RTVSPost2010Prop39
140
1.0
102
RTVSPost2010PropOp39
 70
     0
102
RTVSPost2010Prop40
 90
        0
102
RTVSPost2010PropOp40
 70
     0
102
RTVSPost2010Prop41ColorIndex
 90
       18
102
RTVSPost2010Prop41ColorRGB
 90
        0
102
RTVSPost2010PropOp41
 70
     0
102
RTVSPost2010Prop42
 90
       50
102
RTVSPost2010PropOp42
 70
     0
102
RTVSPost2010Prop43
 90
        3
102
RTVSPost2010PropOp43
 70
     0
102
RTVSPost2010Prop44ColorIndex
 90
        5
102
RTVSPost2010Prop44ColorRGB
 90
      255
102
RTVSPost2010PropOp44
 70
     0
102
RTVSPost2010Prop45
280
     0
102
RTVSPost2010PropOp45
 70
     1
102
RTVSPost2010Prop46
 90
       50
102
RTVSPost2010PropOp46
 70
     0
102
RTVSPost2010Prop47
 90
       50
102
RTVSPost2010PropOp47
 70
     0
102
RTVSPost2010Prop48
 90
       50
102
RTVSPost2010PropOp48
 70
     0
102
RTVSPost2010Prop49
280
     0
102
RTVSPost2010PropOp49
 70
     1
102
RTVSPost2010Prop50
 90
       50
102
RTVSPost2010PropOp50
 70
     0
102
RTVSPost2010Prop51ColorIndex
 90
      256
102
RTVSPost2010Prop51ColorRGB
 90
-16777216
102
RTVSPost2010PropOp51
 70
     0
102
RTVSPost2010Prop52
140
1.0
102
RTVSPost2010PropOp52
 70
     0
102
RTVSPost2010Prop53
 90
        2
102
RTVSPost2010PropOp53
 70
     0
102
RTVSPost2010Prop54
  1
strokes_ogs.tif
102
RTVSPost2010PropOp54
 70
     0
102
RTVSPost2010Prop55
280
     0
102
RTVSPost2010PropOp55
 70
     1
102
RTVSPost2010Prop56
140
1.0
102
RTVSPost2010PropOp56
 70
     0
102
RTVSPost2010Prop57
140
1.0
102
RTVSPost2010PropOp57
 70
     0
102
RTVSPropertyOp0
 70
     0
102
RTVSPropertyOp1
 70
     0
102
RTVSPropertyOp2
 70
     0
102
RTVSPropertyOp3
 70
     0
102
RTVSPropertyOp4
 70
     0
102
RTVSPropertyOp5
 70
     0
102
RTVSPropertyOp6
 70
     0
102
RTVSPropertyOp7
 70
     0
102
RTVSPropertyOp8
 70
     0
102
RTVSPropertyOp9
 70
     0
102
RTVSPropertyOp10
 70
     0
102
RTVSPropertyOp11
 70
     0
102
RTVSPropertyOp12
 70
     0
102
RTVSPropertyOp13
 70
     0
102
RTVSPropertyOp14
 70
     2
102
RTVSPropertyOp15
 70
     0
102
RTVSPropertyOp16
 70
     0
102
RTVSPropertyOp17
 70
     0
102
RTVSPropertyOp18
 70
     0
102
RTVSPropertyOp19
 70
     0
102
RTVSPropertyOp20
 70
     0
102
RTVSPropertyOp21
 70
     0
102
RTVSPropertyOp22
 70
     0
102
RTVSPropertyOp23
 70
     0
102
RTVSPropertyOp24
 70
     0
102
RTVSPropertyOp25
 70
     0
102
RTVSPropertyOp26
 70
     0
102
RTVSPropertyOp27
 70
     0
102
RTVSPropertyOp28
 70
     1
102
RTVSPropertyOp29
 70
     1
102
RTVSPropertyOp30
 70
     1
102
RTVSPropertyOp31
 70
     1
102
RTVSPropertyOp32
 70
     1
102
RTVSPropertyOp33
 70
     1
102
RTVSPropertyOp34
 70
     1
102
RTVSPropertyOp35
 70
     1
102
RTVSPropertyOp36
 70
     1
102
RTVSPropertyOp37
 70
     0
102
RTVSPropertyOp38
 70
     0
102
RTVSPropertyOp39
 70
     0
102
RTVSPropertyOp40
 70
     0
102
RTVSPropertyOp41
 70
     0
102
RTVSPropertyOp42
 70
     0
102
RTVSPropertyOp43
 70
     0
102
RTVSPropertyOp44
 70
     0
102
RTVSPropertyOp45
 70
     1
102
RTVSPropertyOp46
 70
     0
102
RTVSPropertyOp47
 70
     0
102
RTVSPropertyOp48
 70
     0
102
RTVSPropertyOp49
 70
     1
102
RTVSPropertyOp50
 70
     0
102
RTVSPropertyOp51
 70
     0
102
RTVSPropertyOp52
 70
     0
102
RTVSPropertyOp53
 70
     0
102
RTVSPropertyOp54
 70
     0
102
RTVSPropertyOp55
 70
     1
102
RTVSPropertyOp56
 70
     0
102
RTVSPropertyOp57
 70
     0
102
RTVSPropertyOp58
 70
     0
102
RTVSPropertyOp59
 70
     0
102
RTVSPropertyOp60
 70
     0
102
RTVSPropertyOp61
 70
     0
102
RTVSPropertyOp62
 70
     0
  0
XRECORD
  5
414
102
{ACAD_REACTORS
330
413
102
}
330
413
100
AcDbXrecord
280
     1
102
RTVSPost2010Prop28
280
     0
102
RTVSPost2010PropOp28
 70
     1
102
RTVSPost2010Prop29
280
     1
102
RTVSPost2010PropOp29
 70
     1
102
RTVSPost2010Prop30
280
     1
102
RTVSPost2010PropOp30
 70
     1
102
RTVSPost2010Prop31
280
     0
102
RTVSPost2010PropOp31
 70
     1
102
RTVSPost2010Prop32
280
     0
102
RTVSPost2010PropOp32
 70
     1
102
RTVSPost2010Prop33
280
     0
102
RTVSPost2010PropOp33
 70
     1
102
RTVSPost2010Prop34
280
     0
102
RTVSPost2010PropOp34
 70
     1
102
RTVSPost2010Prop35
280
     0
102
RTVSPost2010PropOp35
 70
     1
102
RTVSPost2010Prop36
280
     0
102
RTVSPost2010PropOp36
 70
     1
102
RTVSPost2010Prop37
 90
       50
102
RTVSPost2010PropOp37
 70
     1
102
RTVSPost2010Prop38
140
0.0
102
RTVSPost2010PropOp38
 70
     1
102
RTVSPost2010Prop39
140
1.0
102
RTVSPost2010PropOp39
 70
     1
102
RTVSPost2010Prop40
 90
        0
102
RTVSPost2010PropOp40
 70
     1
102
RTVSPost2010Prop41ColorIndex
 90
       18
102
RTVSPost2010Prop41ColorRGB
 90
        0
102
RTVSPost2010PropOp41
 70
     1
102
RTVSPost2010Prop42
 90
       50
102
RTVSPost2010PropOp42
 70
     1
102
RTVSPost2010Prop43
 90
        3
102
RTVSPost2010PropOp43
 70
     1
102
RTVSPost2010Prop44ColorIndex
 90
        5
102
RTVSPost2010Prop44ColorRGB
 90
      255
102
RTVSPost2010PropOp44
 70
     1
102
RTVSPost2010Prop45
280
     0
102
RTVSPost2010PropOp45
 70
     1
102
RTVSPost2010Prop46
 90
       50
102
RTVSPost2010PropOp46
 70
     1
102
RTVSPost2010Prop47
 90
       50
102
RTVSPost2010PropOp47
 70
     1
102
RTVSPost2010Prop48
 90
       50
102
RTVSPost2010PropOp48
 70
     1
102
RTVSPost2010Prop49
280
     0
102
RTVSPost2010PropOp49
 70
     1
102
RTVSPost2010Prop50
 90
       50
102
RTVSPost2010PropOp50
 70
     1
102
RTVSPost2010Prop51ColorIndex
 90
      256
102
RTVSPost2010Prop51ColorRGB
 90
-16777216
102
RTVSPost2010PropOp51
 70
     0
102
RTVSPost2010Prop52
140
1.0
102
RTVSPost2010PropOp52
 70
     0
102
RTVSPost2010Prop53
 90
        2
102
RTVSPost2010PropOp53
 70
     1
102
RTVSPost2010Prop54
  1
strokes_ogs.tif
102
RTVSPost2010PropOp54
 70
     1
102
RTVSPost2010Prop55
280
     0
102
RTVSPost2010PropOp55
 70
     1
102
RTVSPost2010Prop56
140
1.0
102
RTVSPost2010PropOp56
 70
     1
102
RTVSPost2010Prop57
140
1.0
102
RTVSPost2010PropOp57
 70
     1
102
RTVSPropertyOp0
 70
     1
102
RTVSPropertyOp1
 70
     1
102
RTVSPropertyOp2
 70
     1
102
RTVSPropertyOp3
 70
     1
102
RTVSPropertyOp4
 70
     1
102
RTVSPropertyOp5
 70
     1
102
RTVSPropertyOp6
 70
     1
102
RTVSPropertyOp7
 70
     1
102
RTVSPropertyOp8
 70
     1
102
RTVSPropertyOp9
 70
     1
102
RTVSPropertyOp10
 70
     1
102
RTVSPropertyOp11
 70
     1
102
RTVSPropertyOp12
 70
     1
102
RTVSPropertyOp13
 70
     1
102
RTVSPropertyOp14
 70
     1
102
RTVSPropertyOp15
 70
     1
102
RTVSPropertyOp16
 70
     1
102
RTVSPropertyOp17
 70
     1
102
RTVSPropertyOp18
 70
     1
102
RTVSPropertyOp19
 70
     1
102
RTVSPropertyOp20
 70
     1
102
RTVSPropertyOp21
 70
     1
102
RTVSPropertyOp22
 70
     1
102
RTVSPropertyOp23
 70
     1
102
RTVSPropertyOp24
 70
     1
102
RTVSPropertyOp25
 70
     1
102
RTVSPropertyOp26
 70
     1
102
RTVSPropertyOp27
 70
     1
102
RTVSPropertyOp28
 70
     1
102
RTVSPropertyOp29
 70
     1
102
RTVSPropertyOp30
 70
     1
102
RTVSPropertyOp31
 70
     1
102
RTVSPropertyOp32
 70
     1
102
RTVSPropertyOp33
 70
     1
102
RTVSPropertyOp34
 70
     1
102
RTVSPropertyOp35
 70
     1
102
RTVSPropertyOp36
 70
     1
102
RTVSPropertyOp37
 70
     1
102
RTVSPropertyOp38
 70
     1
102
RTVSPropertyOp39
 70
     1
102
RTVSPropertyOp40
 70
     1
102
RTVSPropertyOp41
 70
     1
102
RTVSPropertyOp42
 70
     1
102
RTVSPropertyOp43
 70
     1
102
RTVSPropertyOp44
 70
     1
102
RTVSPropertyOp45
 70
     1
102
RTVSPropertyOp46
 70
     1
102
RTVSPropertyOp47
 70
     1
102
RTVSPropertyOp48
 70
     1
102
RTVSPropertyOp49
 70
     1
102
RTVSPropertyOp50
 70
     1
102
RTVSPropertyOp51
 70
     0
102
RTVSPropertyOp52
 70
     0
102
RTVSPropertyOp53
 70
     1
102
RTVSPropertyOp54
 70
     1
102
RTVSPropertyOp55
 70
     1
102
RTVSPropertyOp56
 70
     1
102
RTVSPropertyOp57
 70
     1
102
RTVSPropertyOp58
 70
     1
102
RTVSPropertyOp59
 70
     1
102
RTVSPropertyOp60
 70
     1
102
RTVSPropertyOp61
 70
     1
102
RTVSPropertyOp62
 70
     1
  0
XRECORD
  5
426
102
{ACAD_REACTORS
330
425
102
}
330
425
100
AcDbXrecord
280
     1
102
RTVSPost2010Prop28
280
     0
102
RTVSPost2010PropOp28
 70
     1
102
RTVSPost2010Prop29
280
     1
102
RTVSPost2010PropOp29
 70
     1
102
RTVSPost2010Prop30
280
     1
102
RTVSPost2010PropOp30
 70
     1
102
RTVSPost2010Prop31
280
     0
102
RTVSPost2010PropOp31
 70
     1
102
RTVSPost2010Prop32
280
     0
102
RTVSPost2010PropOp32
 70
     1
102
RTVSPost2010Prop33
280
     0
102
RTVSPost2010PropOp33
 70
     1
102
RTVSPost2010Prop34
280
     0
102
RTVSPost2010PropOp34
 70
     1
102
RTVSPost2010Prop35
280
     0
102
RTVSPost2010PropOp35
 70
     1
102
RTVSPost2010Prop36
280
     0
102
RTVSPost2010PropOp36
 70
     1
102
RTVSPost2010Prop37
 90
       50
102
RTVSPost2010PropOp37
 70
     0
102
RTVSPost2010Prop38
140
0.0
102
RTVSPost2010PropOp38
 70
     0
102
RTVSPost2010Prop39
140
1.0
102
RTVSPost2010PropOp39
 70
     0
102
RTVSPost2010Prop40
 90
        0
102
RTVSPost2010PropOp40
 70
     0
102
RTVSPost2010Prop41ColorIndex
 90
       18
102
RTVSPost2010Prop41ColorRGB
 90
        0
102
RTVSPost2010PropOp41
 70
     0
102
RTVSPost2010Prop42
 90
       50
102
RTVSPost2010PropOp42
 70
     0
102
RTVSPost2010Prop43
 90
        3
102
RTVSPost2010PropOp43
 70
     0
102
RTVSPost2010Prop44ColorIndex
 90
        5
102
RTVSPost2010Prop44ColorRGB
 90
      255
102
RTVSPost2010PropOp44
 70
     0
102
RTVSPost2010Prop45
280
     0
102
RTVSPost2010PropOp45
 70
     1
102
RTVSPost2010Prop46
 90
       50
102
RTVSPost2010PropOp46
 70
     0
102
RTVSPost2010Prop47
 90
       50
102
RTVSPost2010PropOp47
 70
     0
102
RTVSPost2010Prop48
 90
       50
102
RTVSPost2010PropOp48
 70
     0
102
RTVSPost2010Prop49
280
     0
102
RTVSPost2010PropOp49
 70
     1
102
RTVSPost2010Prop50
 90
       50
102
RTVSPost2010PropOp50
 70
     0
102
RTVSPost2010Prop51ColorIndex
 90
      256
102
RTVSPost2010Prop51ColorRGB
 90
-16777216
102
RTVSPost2010PropOp51
 70
     0
102
RTVSPost2010Prop52
140
1.0
102
RTVSPost2010PropOp52
 70
     0
102
RTVSPost2010Prop53
 90
        2
102
RTVSPost2010PropOp53
 70
     0
102
RTVSPost2010Prop54
  1
strokes_ogs.tif
102
RTVSPost2010PropOp54
 70
     0
102
RTVSPost2010Prop55
280
     0
102
RTVSPost2010PropOp55
 70
     1
102
RTVSPost2010Prop56
140
1.0
102
RTVSPost2010PropOp56
 70
     0
102
RTVSPost2010Prop57
140
1.0
102
RTVSPost2010PropOp57
 70
     0
102
RTVSPropertyOp0
 70
     0
102
RTVSPropertyOp1
 70
     0
102
RTVSPropertyOp2
 70
     0
102
RTVSPropertyOp3
 70
     0
102
RTVSPropertyOp4
 70
     0
102
RTVSPropertyOp5
 70
     0
102
RTVSPropertyOp6
 70
     0
102
RTVSPropertyOp7
 70
     0
102
RTVSPropertyOp8
 70
     0
102
RTVSPropertyOp9
 70
     0
102
RTVSPropertyOp10
 70
     0
102
RTVSPropertyOp11
 70
     0
102
RTVSPropertyOp12
 70
     0
102
RTVSPropertyOp13
 70
     0
102
RTVSPropertyOp14
 70
     2
102
RTVSPropertyOp15
 70
     0
102
RTVSPropertyOp16
 70
     0
102
RTVSPropertyOp17
 70
     0
102
RTVSPropertyOp18
 70
     0
102
RTVSPropertyOp19
 70
     0
102
RTVSPropertyOp20
 70
     0
102
RTVSPropertyOp21
 70
     0
102
RTVSPropertyOp22
 70
     0
102
RTVSPropertyOp23
 70
     0
102
RTVSPropertyOp24
 70
     0
102
RTVSPropertyOp25
 70
     0
102
RTVSPropertyOp26
 70
     0
102
RTVSPropertyOp27
 70
     0
102
RTVSPropertyOp28
 70
     1
102
RTVSPropertyOp29
 70
     1
102
RTVSPropertyOp30
 70
     1
102
RTVSPropertyOp31
 70
     1
102
RTVSPropertyOp32
 70
     1
102
RTVSPropertyOp33
 70
     1
102
RTVSPropertyOp34
 70
     1
102
RTVSPropertyOp35
 70
     1
102
RTVSPropertyOp36
 70
     1
102
RTVSPropertyOp37
 70
     0
102
RTVSPropertyOp38
 70
     0
102
RTVSPropertyOp39
 70
     0
102
RTVSPropertyOp40
 70
     0
102
RTVSPropertyOp41
 70
     0
102
RTVSPropertyOp42
 70
     0
102
RTVSPropertyOp43
 70
     0
102
RTVSPropertyOp44
 70
     0
102
RTVSPropertyOp45
 70
     1
102
RTVSPropertyOp46
 70
     0
102
RTVSPropertyOp47
 70
     0
102
RTVSPropertyOp48
 70
     0
102
RTVSPropertyOp49
 70
     1
102
RTVSPropertyOp50
 70
     0
102
RTVSPropertyOp51
 70
     0
102
RTVSPropertyOp52
 70
     0
102
RTVSPropertyOp53
 70
     0
102
RTVSPropertyOp54
 70
     0
102
RTVSPropertyOp55
 70
     1
102
RTVSPropertyOp56
 70
     0
102
RTVSPropertyOp57
 70
     0
102
RTVSPropertyOp58
 70
     0
102
RTVSPropertyOp59
 70
     0
102
RTVSPropertyOp60
 70
     0
102
RTVSPropertyOp61
 70
     0
102
RTVSPropertyOp62
 70
     0
  0
XRECORD
  5
40C
102
{ACAD_REACTORS
330
40B
102
}
330
40B
100
AcDbXrecord
280
     1
102
RTVSPost2010Prop28
280
     0
102
RTVSPost2010PropOp28
 70
     1
102
RTVSPost2010Prop29
280
     1
102
RTVSPost2010PropOp29
 70
     1
102
RTVSPost2010Prop30
280
     1
102
RTVSPost2010PropOp30
 70
     1
102
RTVSPost2010Prop31
280
     0
102
RTVSPost2010PropOp31
 70
     1
102
RTVSPost2010Prop32
280
     0
102
RTVSPost2010PropOp32
 70
     1
102
RTVSPost2010Prop33
280
     0
102
RTVSPost2010PropOp33
 70
     1
102
RTVSPost2010Prop34
280
     0
102
RTVSPost2010PropOp34
 70
     1
102
RTVSPost2010Prop35
280
     0
102
RTVSPost2010PropOp35
 70
     1
102
RTVSPost2010Prop36
280
     0
102
RTVSPost2010PropOp36
 70
     1
102
RTVSPost2010Prop37
 90
       50
102
RTVSPost2010PropOp37
 70
     1
102
RTVSPost2010Prop38
140
0.0
102
RTVSPost2010PropOp38
 70
     1
102
RTVSPost2010Prop39
140
1.0
102
RTVSPost2010PropOp39
 70
     1
102
RTVSPost2010Prop40
 90
        0
102
RTVSPost2010PropOp40
 70
     1
102
RTVSPost2010Prop41ColorIndex
 90
       18
102
RTVSPost2010Prop41ColorRGB
 90
        0
102
RTVSPost2010PropOp41
 70
     1
102
RTVSPost2010Prop42
 90
       50
102
RTVSPost2010PropOp42
 70
     1
102
RTVSPost2010Prop43
 90
        3
102
RTVSPost2010PropOp43
 70
     1
102
RTVSPost2010Prop44ColorIndex
 90
        5
102
RTVSPost2010Prop44ColorRGB
 90
      255
102
RTVSPost2010PropOp44
 70
     1
102
RTVSPost2010Prop45
280
     0
102
RTVSPost2010PropOp45
 70
     1
102
RTVSPost2010Prop46
 90
       50
102
RTVSPost2010PropOp46
 70
     1
102
RTVSPost2010Prop47
 90
       50
102
RTVSPost2010PropOp47
 70
     1
102
RTVSPost2010Prop48
 90
       50
102
RTVSPost2010PropOp48
 70
     1
102
RTVSPost2010Prop49
280
     0
102
RTVSPost2010PropOp49
 70
     1
102
RTVSPost2010Prop50
 90
       50
102
RTVSPost2010PropOp50
 70
     1
102
RTVSPost2010Prop51ColorIndex
 90
      256
102
RTVSPost2010Prop51ColorRGB
 90
-16777216
102
RTVSPost2010PropOp51
 70
     0
102
RTVSPost2010Prop52
140
1.0
102
RTVSPost2010PropOp52
 70
     0
102
RTVSPost2010Prop53
 90
        2
102
RTVSPost2010PropOp53
 70
     1
102
RTVSPost2010Prop54
  1
strokes_ogs.tif
102
RTVSPost2010PropOp54
 70
     1
102
RTVSPost2010Prop55
280
     0
102
RTVSPost2010PropOp55
 70
     1
102
RTVSPost2010Prop56
140
1.0
102
RTVSPost2010PropOp56
 70
     1
102
RTVSPost2010Prop57
140
1.0
102
RTVSPost2010PropOp57
 70
     1
102
RTVSPropertyOp0
 70
     1
102
RTVSPropertyOp1
 70
     1
102
RTVSPropertyOp2
 70
     1
102
RTVSPropertyOp3
 70
     1
102
RTVSPropertyOp4
 70
     1
102
RTVSPropertyOp5
 70
     1
102
RTVSPropertyOp6
 70
     1
102
RTVSPropertyOp7
 70
     1
102
RTVSPropertyOp8
 70
     1
102
RTVSPropertyOp9
 70
     1
102
RTVSPropertyOp10
 70
     1
102
RTVSPropertyOp11
 70
     1
102
RTVSPropertyOp12
 70
     1
102
RTVSPropertyOp13
 70
     1
102
RTVSPropertyOp14
 70
     1
102
RTVSPropertyOp15
 70
     1
102
RTVSPropertyOp16
 70
     1
102
RTVSPropertyOp17
 70
     1
102
RTVSPropertyOp18
 70
     1
102
RTVSPropertyOp19
 70
     1
102
RTVSPropertyOp20
 70
     1
102
RTVSPropertyOp21
 70
     1
102
RTVSPropertyOp22
 70
     1
102
RTVSPropertyOp23
 70
     1
102
RTVSPropertyOp24
 70
     1
102
RTVSPropertyOp25
 70
     1
102
RTVSPropertyOp26
 70
     1
102
RTVSPropertyOp27
 70
     1
102
RTVSPropertyOp28
 70
     1
102
RTVSPropertyOp29
 70
     1
102
RTVSPropertyOp30
 70
     1
102
RTVSPropertyOp31
 70
     1
102
RTVSPropertyOp32
 70
     1
102
RTVSPropertyOp33
 70
     1
102
RTVSPropertyOp34
 70
     1
102
RTVSPropertyOp35
 70
     1
102
RTVSPropertyOp36
 70
     1
102
RTVSPropertyOp37
 70
     1
102
RTVSPropertyOp38
 70
     1
102
RTVSPropertyOp39
 70
     1
102
RTVSPropertyOp40
 70
     1
102
RTVSPropertyOp41
 70
     1
102
RTVSPropertyOp42
 70
     1
102
RTVSPropertyOp43
 70
     1
102
RTVSPropertyOp44
 70
     1
102
RTVSPropertyOp45
 70
     1
102
RTVSPropertyOp46
 70
     1
102
RTVSPropertyOp47
 70
     1
102
RTVSPropertyOp48
 70
     1
102
RTVSPropertyOp49
 70
     1
102
RTVSPropertyOp50
 70
     1
102
RTVSPropertyOp51
 70
     0
102
RTVSPropertyOp52
 70
     0
102
RTVSPropertyOp53
 70
     1
102
RTVSPropertyOp54
 70
     1
102
RTVSPropertyOp55
 70
     1
102
RTVSPropertyOp56
 70
     1
102
RTVSPropertyOp57
 70
     1
102
RTVSPropertyOp58
 70
     1
102
RTVSPropertyOp59
 70
     1
102
RTVSPropertyOp60
 70
     1
102
RTVSPropertyOp61
 70
     1
102
RTVSPropertyOp62
 70
     1
  0
XRECORD
  5
422
102
{ACAD_REACTORS
330
421
102
}
330
421
100
AcDbXrecord
280
     1
102
RTVSPost2010Prop28
280
     0
102
RTVSPost2010PropOp28
 70
     1
102
RTVSPost2010Prop29
280
     1
102
RTVSPost2010PropOp29
 70
     1
102
RTVSPost2010Prop30
280
     1
102
RTVSPost2010PropOp30
 70
     1
102
RTVSPost2010Prop31
280
     0
102
RTVSPost2010PropOp31
 70
     1
102
RTVSPost2010Prop32
280
     0
102
RTVSPost2010PropOp32
 70
     1
102
RTVSPost2010Prop33
280
     0
102
RTVSPost2010PropOp33
 70
     1
102
RTVSPost2010Prop34
280
     0
102
RTVSPost2010PropOp34
 70
     1
102
RTVSPost2010Prop35
280
     0
102
RTVSPost2010PropOp35
 70
     1
102
RTVSPost2010Prop36
280
     0
102
RTVSPost2010PropOp36
 70
     1
102
RTVSPost2010Prop37
 90
       50
102
RTVSPost2010PropOp37
 70
     1
102
RTVSPost2010Prop38
140
0.0
102
RTVSPost2010PropOp38
 70
     1
102
RTVSPost2010Prop39
140
1.0
102
RTVSPost2010PropOp39
 70
     1
102
RTVSPost2010Prop40
 90
        0
102
RTVSPost2010PropOp40
 70
     1
102
RTVSPost2010Prop41ColorIndex
 90
       18
102
RTVSPost2010Prop41ColorRGB
 90
        0
102
RTVSPost2010PropOp41
 70
     1
102
RTVSPost2010Prop42
 90
       50
102
RTVSPost2010PropOp42
 70
     1
102
RTVSPost2010Prop43
 90
        3
102
RTVSPost2010PropOp43
 70
     1
102
RTVSPost2010Prop44ColorIndex
 90
        5
102
RTVSPost2010Prop44ColorRGB
 90
      255
102
RTVSPost2010PropOp44
 70
     1
102
RTVSPost2010Prop45
280
     0
102
RTVSPost2010PropOp45
 70
     1
102
RTVSPost2010Prop46
 90
       50
102
RTVSPost2010PropOp46
 70
     1
102
RTVSPost2010Prop47
 90
       50
102
RTVSPost2010PropOp47
 70
     1
102
RTVSPost2010Prop48
 90
       50
102
RTVSPost2010PropOp48
 70
     1
102
RTVSPost2010Prop49
280
     0
102
RTVSPost2010PropOp49
 70
     1
102
RTVSPost2010Prop50
 90
       50
102
RTVSPost2010PropOp50
 70
     1
102
RTVSPost2010Prop51ColorIndex
 90
      256
102
RTVSPost2010Prop51ColorRGB
 90
-16777216
102
RTVSPost2010PropOp51
 70
     0
102
RTVSPost2010Prop52
140
1.0
102
RTVSPost2010PropOp52
 70
     0
102
RTVSPost2010Prop53
 90
        2
102
RTVSPost2010PropOp53
 70
     1
102
RTVSPost2010Prop54
  1
strokes_ogs.tif
102
RTVSPost2010PropOp54
 70
     1
102
RTVSPost2010Prop55
280
     0
102
RTVSPost2010PropOp55
 70
     1
102
RTVSPost2010Prop56
140
1.0
102
RTVSPost2010PropOp56
 70
     1
102
RTVSPost2010Prop57
140
1.0
102
RTVSPost2010PropOp57
 70
     1
102
RTVSPropertyOp0
 70
     1
102
RTVSPropertyOp1
 70
     1
102
RTVSPropertyOp2
 70
     1
102
RTVSPropertyOp3
 70
     1
102
RTVSPropertyOp4
 70
     1
102
RTVSPropertyOp5
 70
     1
102
RTVSPropertyOp6
 70
     1
102
RTVSPropertyOp7
 70
     1
102
RTVSPropertyOp8
 70
     1
102
RTVSPropertyOp9
 70
     1
102
RTVSPropertyOp10
 70
     1
102
RTVSPropertyOp11
 70
     1
102
RTVSPropertyOp12
 70
     1
102
RTVSPropertyOp13
 70
     1
102
RTVSPropertyOp14
 70
     1
102
RTVSPropertyOp15
 70
     1
102
RTVSPropertyOp16
 70
     1
102
RTVSPropertyOp17
 70
     1
102
RTVSPropertyOp18
 70
     1
102
RTVSPropertyOp19
 70
     1
102
RTVSPropertyOp20
 70
     1
102
RTVSPropertyOp21
 70
     1
102
RTVSPropertyOp22
 70
     1
102
RTVSPropertyOp23
 70
     1
102
RTVSPropertyOp24
 70
     1
102
RTVSPropertyOp25
 70
     1
102
RTVSPropertyOp26
 70
     1
102
RTVSPropertyOp27
 70
     1
102
RTVSPropertyOp28
 70
     1
102
RTVSPropertyOp29
 70
     1
102
RTVSPropertyOp30
 70
     1
102
RTVSPropertyOp31
 70
     1
102
RTVSPropertyOp32
 70
     1
102
RTVSPropertyOp33
 70
     1
102
RTVSPropertyOp34
 70
     1
102
RTVSPropertyOp35
 70
     1
102
RTVSPropertyOp36
 70
     1
102
RTVSPropertyOp37
 70
     1
102
RTVSPropertyOp38
 70
     1
102
RTVSPropertyOp39
 70
     1
102
RTVSPropertyOp40
 70
     1
102
RTVSPropertyOp41
 70
     1
102
RTVSPropertyOp42
 70
     1
102
RTVSPropertyOp43
 70
     1
102
RTVSPropertyOp44
 70
     1
102
RTVSPropertyOp45
 70
     1
102
RTVSPropertyOp46
 70
     1
102
RTVSPropertyOp47
 70
     1
102
RTVSPropertyOp48
 70
     1
102
RTVSPropertyOp49
 70
     1
102
RTVSPropertyOp50
 70
     1
102
RTVSPropertyOp51
 70
     0
102
RTVSPropertyOp52
 70
     0
102
RTVSPropertyOp53
 70
     1
102
RTVSPropertyOp54
 70
     1
102
RTVSPropertyOp55
 70
     1
102
RTVSPropertyOp56
 70
     1
102
RTVSPropertyOp57
 70
     1
102
RTVSPropertyOp58
 70
     1
102
RTVSPropertyOp59
 70
     1
102
RTVSPropertyOp60
 70
     1
102
RTVSPropertyOp61
 70
     1
102
RTVSPropertyOp62
 70
     1
  0
XRECORD
  5
420
102
{ACAD_REACTORS
330
41F
102
}
330
41F
100
AcDbXrecord
280
     1
102
RTVSPost2010Prop28
280
     0
102
RTVSPost2010PropOp28
 70
     1
102
RTVSPost2010Prop29
280
     1
102
RTVSPost2010PropOp29
 70
     1
102
RTVSPost2010Prop30
280
     1
102
RTVSPost2010PropOp30
 70
     1
102
RTVSPost2010Prop31
280
     0
102
RTVSPost2010PropOp31
 70
     1
102
RTVSPost2010Prop32
280
     0
102
RTVSPost2010PropOp32
 70
     1
102
RTVSPost2010Prop33
280
     0
102
RTVSPost2010PropOp33
 70
     1
102
RTVSPost2010Prop34
280
     0
102
RTVSPost2010PropOp34
 70
     1
102
RTVSPost2010Prop35
280
     0
102
RTVSPost2010PropOp35
 70
     1
102
RTVSPost2010Prop36
280
     0
102
RTVSPost2010PropOp36
 70
     1
102
RTVSPost2010Prop37
 90
       50
102
RTVSPost2010PropOp37
 70
     1
102
RTVSPost2010Prop38
140
0.0
102
RTVSPost2010PropOp38
 70
     1
102
RTVSPost2010Prop39
140
1.0
102
RTVSPost2010PropOp39
 70
     1
102
RTVSPost2010Prop40
 90
        0
102
RTVSPost2010PropOp40
 70
     1
102
RTVSPost2010Prop41ColorIndex
 90
       18
102
RTVSPost2010Prop41ColorRGB
 90
        0
102
RTVSPost2010PropOp41
 70
     1
102
RTVSPost2010Prop42
 90
       50
102
RTVSPost2010PropOp42
 70
     1
102
RTVSPost2010Prop43
 90
        3
102
RTVSPost2010PropOp43
 70
     1
102
RTVSPost2010Prop44ColorIndex
 90
        5
102
RTVSPost2010Prop44ColorRGB
 90
      255
102
RTVSPost2010PropOp44
 70
     1
102
RTVSPost2010Prop45
280
     0
102
RTVSPost2010PropOp45
 70
     1
102
RTVSPost2010Prop46
 90
       50
102
RTVSPost2010PropOp46
 70
     1
102
RTVSPost2010Prop47
 90
       50
102
RTVSPost2010PropOp47
 70
     1
102
RTVSPost2010Prop48
 90
       50
102
RTVSPost2010PropOp48
 70
     1
102
RTVSPost2010Prop49
280
     0
102
RTVSPost2010PropOp49
 70
     1
102
RTVSPost2010Prop50
 90
       50
102
RTVSPost2010PropOp50
 70
     1
102
RTVSPost2010Prop51ColorIndex
 90
      256
102
RTVSPost2010Prop51ColorRGB
 90
-16777216
102
RTVSPost2010PropOp51
 70
     0
102
RTVSPost2010Prop52
140
1.0
102
RTVSPost2010PropOp52
 70
     0
102
RTVSPost2010Prop53
 90
        2
102
RTVSPost2010PropOp53
 70
     1
102
RTVSPost2010Prop54
  1
strokes_ogs.tif
102
RTVSPost2010PropOp54
 70
     1
102
RTVSPost2010Prop55
280
     0
102
RTVSPost2010PropOp55
 70
     1
102
RTVSPost2010Prop56
140
1.0
102
RTVSPost2010PropOp56
 70
     1
102
RTVSPost2010Prop57
140
1.0
102
RTVSPost2010PropOp57
 70
     1
102
RTVSPropertyOp0
 70
     1
102
RTVSPropertyOp1
 70
     1
102
RTVSPropertyOp2
 70
     1
102
RTVSPropertyOp3
 70
     1
102
RTVSPropertyOp4
 70
     1
102
RTVSPropertyOp5
 70
     1
102
RTVSPropertyOp6
 70
     1
102
RTVSPropertyOp7
 70
     1
102
RTVSPropertyOp8
 70
     1
102
RTVSPropertyOp9
 70
     1
102
RTVSPropertyOp10
 70
     1
102
RTVSPropertyOp11
 70
     1
102
RTVSPropertyOp12
 70
     1
102
RTVSPropertyOp13
 70
     1
102
RTVSPropertyOp14
 70
     1
102
RTVSPropertyOp15
 70
     1
102
RTVSPropertyOp16
 70
     1
102
RTVSPropertyOp17
 70
     1
102
RTVSPropertyOp18
 70
     1
102
RTVSPropertyOp19
 70
     1
102
RTVSPropertyOp20
 70
     1
102
RTVSPropertyOp21
 70
     1
102
RTVSPropertyOp22
 70
     1
102
RTVSPropertyOp23
 70
     1
102
RTVSPropertyOp24
 70
     1
102
RTVSPropertyOp25
 70
     1
102
RTVSPropertyOp26
 70
     1
102
RTVSPropertyOp27
 70
     1
102
RTVSPropertyOp28
 70
     1
102
RTVSPropertyOp29
 70
     1
102
RTVSPropertyOp30
 70
     1
102
RTVSPropertyOp31
 70
     1
102
RTVSPropertyOp32
 70
     1
102
RTVSPropertyOp33
 70
     1
102
RTVSPropertyOp34
 70
     1
102
RTVSPropertyOp35
 70
     1
102
RTVSPropertyOp36
 70
     1
102
RTVSPropertyOp37
 70
     1
102
RTVSPropertyOp38
 70
     1
102
RTVSPropertyOp39
 70
     1
102
RTVSPropertyOp40
 70
     1
102
RTVSPropertyOp41
 70
     1
102
RTVSPropertyOp42
 70
     1
102
RTVSPropertyOp43
 70
     1
102
RTVSPropertyOp44
 70
     1
102
RTVSPropertyOp45
 70
     1
102
RTVSPropertyOp46
 70
     1
102
RTVSPropertyOp47
 70
     1
102
RTVSPropertyOp48
 70
     1
102
RTVSPropertyOp49
 70
     1
102
RTVSPropertyOp50
 70
     1
102
RTVSPropertyOp51
 70
     0
102
RTVSPropertyOp52
 70
     0
102
RTVSPropertyOp53
 70
     1
102
RTVSPropertyOp54
 70
     1
102
RTVSPropertyOp55
 70
     1
102
RTVSPropertyOp56
 70
     1
102
RTVSPropertyOp57
 70
     1
102
RTVSPropertyOp58
 70
     1
102
RTVSPropertyOp59
 70
     1
102
RTVSPropertyOp60
 70
     1
102
RTVSPropertyOp61
 70
     1
102
RTVSPropertyOp62
 70
     1
  0
XRECORD
  5
41A
102
{ACAD_REACTORS
330
419
102
}
330
419
100
AcDbXrecord
280
     1
102
RTVSPost2010Prop28
280
     0
102
RTVSPost2010PropOp28
 70
     1
102
RTVSPost2010Prop29
280
     1
102
RTVSPost2010PropOp29
 70
     1
102
RTVSPost2010Prop30
280
     1
102
RTVSPost2010PropOp30
 70
     1
102
RTVSPost2010Prop31
280
     0
102
RTVSPost2010PropOp31
 70
     1
102
RTVSPost2010Prop32
280
     0
102
RTVSPost2010PropOp32
 70
     1
102
RTVSPost2010Prop33
280
     0
102
RTVSPost2010PropOp33
 70
     1
102
RTVSPost2010Prop34
280
     0
102
RTVSPost2010PropOp34
 70
     1
102
RTVSPost2010Prop35
280
     0
102
RTVSPost2010PropOp35
 70
     1
102
RTVSPost2010Prop36
280
     0
102
RTVSPost2010PropOp36
 70
     1
102
RTVSPost2010Prop37
 90
       50
102
RTVSPost2010PropOp37
 70
     1
102
RTVSPost2010Prop38
140
0.0
102
RTVSPost2010PropOp38
 70
     1
102
RTVSPost2010Prop39
140
1.0
102
RTVSPost2010PropOp39
 70
     1
102
RTVSPost2010Prop40
 90
        0
102
RTVSPost2010PropOp40
 70
     1
102
RTVSPost2010Prop41ColorIndex
 90
       18
102
RTVSPost2010Prop41ColorRGB
 90
        0
102
RTVSPost2010PropOp41
 70
     1
102
RTVSPost2010Prop42
 90
       50
102
RTVSPost2010PropOp42
 70
     1
102
RTVSPost2010Prop43
 90
        3
102
RTVSPost2010PropOp43
 70
     1
102
RTVSPost2010Prop44ColorIndex
 90
        5
102
RTVSPost2010Prop44ColorRGB
 90
      255
102
RTVSPost2010PropOp44
 70
     1
102
RTVSPost2010Prop45
280
     0
102
RTVSPost2010PropOp45
 70
     1
102
RTVSPost2010Prop46
 90
       50
102
RTVSPost2010PropOp46
 70
     1
102
RTVSPost2010Prop47
 90
       50
102
RTVSPost2010PropOp47
 70
     1
102
RTVSPost2010Prop48
 90
       50
102
RTVSPost2010PropOp48
 70
     1
102
RTVSPost2010Prop49
280
     0
102
RTVSPost2010PropOp49
 70
     1
102
RTVSPost2010Prop50
 90
       50
102
RTVSPost2010PropOp50
 70
     1
102
RTVSPost2010Prop51ColorIndex
 90
      256
102
RTVSPost2010Prop51ColorRGB
 90
-16777216
102
RTVSPost2010PropOp51
 70
     0
102
RTVSPost2010Prop52
140
1.0
102
RTVSPost2010PropOp52
 70
     0
102
RTVSPost2010Prop53
 90
        2
102
RTVSPost2010PropOp53
 70
     1
102
RTVSPost2010Prop54
  1
strokes_ogs.tif
102
RTVSPost2010PropOp54
 70
     1
102
RTVSPost2010Prop55
280
     0
102
RTVSPost2010PropOp55
 70
     1
102
RTVSPost2010Prop56
140
1.0
102
RTVSPost2010PropOp56
 70
     1
102
RTVSPost2010Prop57
140
1.0
102
RTVSPost2010PropOp57
 70
     1
102
RTVSPropertyOp0
 70
     1
102
RTVSPropertyOp1
 70
     1
102
RTVSPropertyOp2
 70
     1
102
RTVSPropertyOp3
 70
     1
102
RTVSPropertyOp4
 70
     1
102
RTVSPropertyOp5
 70
     1
102
RTVSPropertyOp6
 70
     1
102
RTVSPropertyOp7
 70
     1
102
RTVSPropertyOp8
 70
     1
102
RTVSPropertyOp9
 70
     1
102
RTVSPropertyOp10
 70
     1
102
RTVSPropertyOp11
 70
     1
102
RTVSPropertyOp12
 70
     1
102
RTVSPropertyOp13
 70
     1
102
RTVSPropertyOp14
 70
     1
102
RTVSPropertyOp15
 70
     1
102
RTVSPropertyOp16
 70
     1
102
RTVSPropertyOp17
 70
     1
102
RTVSPropertyOp18
 70
     1
102
RTVSPropertyOp19
 70
     1
102
RTVSPropertyOp20
 70
     1
102
RTVSPropertyOp21
 70
     1
102
RTVSPropertyOp22
 70
     1
102
RTVSPropertyOp23
 70
     1
102
RTVSPropertyOp24
 70
     1
102
RTVSPropertyOp25
 70
     1
102
RTVSPropertyOp26
 70
     1
102
RTVSPropertyOp27
 70
     1
102
RTVSPropertyOp28
 70
     1
102
RTVSPropertyOp29
 70
     1
102
RTVSPropertyOp30
 70
     1
102
RTVSPropertyOp31
 70
     1
102
RTVSPropertyOp32
 70
     1
102
RTVSPropertyOp33
 70
     1
102
RTVSPropertyOp34
 70
     1
102
RTVSPropertyOp35
 70
     1
102
RTVSPropertyOp36
 70
     1
102
RTVSPropertyOp37
 70
     1
102
RTVSPropertyOp38
 70
     1
102
RTVSPropertyOp39
 70
     1
102
RTVSPropertyOp40
 70
     1
102
RTVSPropertyOp41
 70
     1
102
RTVSPropertyOp42
 70
     1
102
RTVSPropertyOp43
 70
     1
102
RTVSPropertyOp44
 70
     1
102
RTVSPropertyOp45
 70
     1
102
RTVSPropertyOp46
 70
     1
102
RTVSPropertyOp47
 70
     1
102
RTVSPropertyOp48
 70
     1
102
RTVSPropertyOp49
 70
     1
102
RTVSPropertyOp50
 70
     1
102
RTVSPropertyOp51
 70
     0
102
RTVSPropertyOp52
 70
     0
102
RTVSPropertyOp53
 70
     1
102
RTVSPropertyOp54
 70
     1
102
RTVSPropertyOp55
 70
     1
102
RTVSPropertyOp56
 70
     1
102
RTVSPropertyOp57
 70
     1
102
RTVSPropertyOp58
 70
     1
102
RTVSPropertyOp59
 70
     1
102
RTVSPropertyOp60
 70
     1
102
RTVSPropertyOp61
 70
     1
102
RTVSPropertyOp62
 70
     1
  0
XRECORD
  5
41C
102
{ACAD_REACTORS
330
41B
102
}
330
41B
100
AcDbXrecord
280
     1
102
RTVSPost2010Prop28
280
     0
102
RTVSPost2010PropOp28
 70
     1
102
RTVSPost2010Prop29
280
     1
102
RTVSPost2010PropOp29
 70
     1
102
RTVSPost2010Prop30
280
     1
102
RTVSPost2010PropOp30
 70
     1
102
RTVSPost2010Prop31
280
     0
102
RTVSPost2010PropOp31
 70
     1
102
RTVSPost2010Prop32
280
     0
102
RTVSPost2010PropOp32
 70
     1
102
RTVSPost2010Prop33
280
     0
102
RTVSPost2010PropOp33
 70
     1
102
RTVSPost2010Prop34
280
     0
102
RTVSPost2010PropOp34
 70
     1
102
RTVSPost2010Prop35
280
     0
102
RTVSPost2010PropOp35
 70
     1
102
RTVSPost2010Prop36
280
     0
102
RTVSPost2010PropOp36
 70
     1
102
RTVSPost2010Prop37
 90
       50
102
RTVSPost2010PropOp37
 70
     1
102
RTVSPost2010Prop38
140
0.0
102
RTVSPost2010PropOp38
 70
     1
102
RTVSPost2010Prop39
140
1.0
102
RTVSPost2010PropOp39
 70
     1
102
RTVSPost2010Prop40
 90
        0
102
RTVSPost2010PropOp40
 70
     1
102
RTVSPost2010Prop41ColorIndex
 90
       18
102
RTVSPost2010Prop41ColorRGB
 90
        0
102
RTVSPost2010PropOp41
 70
     1
102
RTVSPost2010Prop42
 90
       50
102
RTVSPost2010PropOp42
 70
     1
102
RTVSPost2010Prop43
 90
        3
102
RTVSPost2010PropOp43
 70
     1
102
RTVSPost2010Prop44ColorIndex
 90
        5
102
RTVSPost2010Prop44ColorRGB
 90
      255
102
RTVSPost2010PropOp44
 70
     1
102
RTVSPost2010Prop45
280
     0
102
RTVSPost2010PropOp45
 70
     1
102
RTVSPost2010Prop46
 90
       50
102
RTVSPost2010PropOp46
 70
     1
102
RTVSPost2010Prop47
 90
       50
102
RTVSPost2010PropOp47
 70
     1
102
RTVSPost2010Prop48
 90
       50
102
RTVSPost2010PropOp48
 70
     1
102
RTVSPost2010Prop49
280
     0
102
RTVSPost2010PropOp49
 70
     1
102
RTVSPost2010Prop50
 90
       50
102
RTVSPost2010PropOp50
 70
     1
102
RTVSPost2010Prop51ColorIndex
 90
      256
102
RTVSPost2010Prop51ColorRGB
 90
-16777216
102
RTVSPost2010PropOp51
 70
     0
102
RTVSPost2010Prop52
140
1.0
102
RTVSPost2010PropOp52
 70
     0
102
RTVSPost2010Prop53
 90
        2
102
RTVSPost2010PropOp53
 70
     1
102
RTVSPost2010Prop54
  1
strokes_ogs.tif
102
RTVSPost2010PropOp54
 70
     1
102
RTVSPost2010Prop55
280
     0
102
RTVSPost2010PropOp55
 70
     1
102
RTVSPost2010Prop56
140
1.0
102
RTVSPost2010PropOp56
 70
     1
102
RTVSPost2010Prop57
140
1.0
102
RTVSPost2010PropOp57
 70
     1
102
RTVSPropertyOp0
 70
     1
102
RTVSPropertyOp1
 70
     1
102
RTVSPropertyOp2
 70
     1
102
RTVSPropertyOp3
 70
     1
102
RTVSPropertyOp4
 70
     1
102
RTVSPropertyOp5
 70
     1
102
RTVSPropertyOp6
 70
     1
102
RTVSPropertyOp7
 70
     1
102
RTVSPropertyOp8
 70
     1
102
RTVSPropertyOp9
 70
     1
102
RTVSPropertyOp10
 70
     1
102
RTVSPropertyOp11
 70
     1
102
RTVSPropertyOp12
 70
     1
102
RTVSPropertyOp13
 70
     1
102
RTVSPropertyOp14
 70
     1
102
RTVSPropertyOp15
 70
     1
102
RTVSPropertyOp16
 70
     1
102
RTVSPropertyOp17
 70
     1
102
RTVSPropertyOp18
 70
     1
102
RTVSPropertyOp19
 70
     1
102
RTVSPropertyOp20
 70
     1
102
RTVSPropertyOp21
 70
     1
102
RTVSPropertyOp22
 70
     1
102
RTVSPropertyOp23
 70
     1
102
RTVSPropertyOp24
 70
     1
102
RTVSPropertyOp25
 70
     1
102
RTVSPropertyOp26
 70
     1
102
RTVSPropertyOp27
 70
     1
102
RTVSPropertyOp28
 70
     1
102
RTVSPropertyOp29
 70
     1
102
RTVSPropertyOp30
 70
     1
102
RTVSPropertyOp31
 70
     1
102
RTVSPropertyOp32
 70
     1
102
RTVSPropertyOp33
 70
     1
102
RTVSPropertyOp34
 70
     1
102
RTVSPropertyOp35
 70
     1
102
RTVSPropertyOp36
 70
     1
102
RTVSPropertyOp37
 70
     1
102
RTVSPropertyOp38
 70
     1
102
RTVSPropertyOp39
 70
     1
102
RTVSPropertyOp40
 70
     1
102
RTVSPropertyOp41
 70
     1
102
RTVSPropertyOp42
 70
     1
102
RTVSPropertyOp43
 70
     1
102
RTVSPropertyOp44
 70
     1
102
RTVSPropertyOp45
 70
     1
102
RTVSPropertyOp46
 70
     1
102
RTVSPropertyOp47
 70
     1
102
RTVSPropertyOp48
 70
     1
102
RTVSPropertyOp49
 70
     1
102
RTVSPropertyOp50
 70
     1
102
RTVSPropertyOp51
 70
     0
102
RTVSPropertyOp52
 70
     0
102
RTVSPropertyOp53
 70
     1
102
RTVSPropertyOp54
 70
     1
102
RTVSPropertyOp55
 70
     1
102
RTVSPropertyOp56
 70
     1
102
RTVSPropertyOp57
 70
     1
102
RTVSPropertyOp58
 70
     1
102
RTVSPropertyOp59
 70
     1
102
RTVSPropertyOp60
 70
     1
102
RTVSPropertyOp61
 70
     1
102
RTVSPropertyOp62
 70
     1
  0
XRECORD
  5
412
102
{ACAD_REACTORS
330
411
102
}
330
411
100
AcDbXrecord
280
     1
102
RTVSPost2010Prop28
280
     0
102
RTVSPost2010PropOp28
 70
     1
102
RTVSPost2010Prop29
280
     1
102
RTVSPost2010PropOp29
 70
     1
102
RTVSPost2010Prop30
280
     1
102
RTVSPost2010PropOp30
 70
     1
102
RTVSPost2010Prop31
280
     0
102
RTVSPost2010PropOp31
 70
     1
102
RTVSPost2010Prop32
280
     0
102
RTVSPost2010PropOp32
 70
     1
102
RTVSPost2010Prop33
280
     0
102
RTVSPost2010PropOp33
 70
     1
102
RTVSPost2010Prop34
280
     0
102
RTVSPost2010PropOp34
 70
     1
102
RTVSPost2010Prop35
280
     0
102
RTVSPost2010PropOp35
 70
     1
102
RTVSPost2010Prop36
280
     0
102
RTVSPost2010PropOp36
 70
     1
102
RTVSPost2010Prop37
 90
       50
102
RTVSPost2010PropOp37
 70
     1
102
RTVSPost2010Prop38
140
0.0
102
RTVSPost2010PropOp38
 70
     1
102
RTVSPost2010Prop39
140
1.0
102
RTVSPost2010PropOp39
 70
     1
102
RTVSPost2010Prop40
 90
        0
102
RTVSPost2010PropOp40
 70
     1
102
RTVSPost2010Prop41ColorIndex
 90
       18
102
RTVSPost2010Prop41ColorRGB
 90
        0
102
RTVSPost2010PropOp41
 70
     1
102
RTVSPost2010Prop42
 90
       50
102
RTVSPost2010PropOp42
 70
     1
102
RTVSPost2010Prop43
 90
        3
102
RTVSPost2010PropOp43
 70
     1
102
RTVSPost2010Prop44ColorIndex
 90
        5
102
RTVSPost2010Prop44ColorRGB
 90
      255
102
RTVSPost2010PropOp44
 70
     1
102
RTVSPost2010Prop45
280
     0
102
RTVSPost2010PropOp45
 70
     1
102
RTVSPost2010Prop46
 90
       50
102
RTVSPost2010PropOp46
 70
     1
102
RTVSPost2010Prop47
 90
       50
102
RTVSPost2010PropOp47
 70
     1
102
RTVSPost2010Prop48
 90
       50
102
RTVSPost2010PropOp48
 70
     1
102
RTVSPost2010Prop49
280
     0
102
RTVSPost2010PropOp49
 70
     1
102
RTVSPost2010Prop50
 90
       50
102
RTVSPost2010PropOp50
 70
     1
102
RTVSPost2010Prop51ColorIndex
 90
      256
102
RTVSPost2010Prop51ColorRGB
 90
-16777216
102
RTVSPost2010PropOp51
 70
     0
102
RTVSPost2010Prop52
140
1.0
102
RTVSPost2010PropOp52
 70
     0
102
RTVSPost2010Prop53
 90
        2
102
RTVSPost2010PropOp53
 70
     1
102
RTVSPost2010Prop54
  1
strokes_ogs.tif
102
RTVSPost2010PropOp54
 70
     1
102
RTVSPost2010Prop55
280
     0
102
RTVSPost2010PropOp55
 70
     1
102
RTVSPost2010Prop56
140
1.0
102
RTVSPost2010PropOp56
 70
     1
102
RTVSPost2010Prop57
140
1.0
102
RTVSPost2010PropOp57
 70
     1
102
RTVSPropertyOp0
 70
     1
102
RTVSPropertyOp1
 70
     1
102
RTVSPropertyOp2
 70
     1
102
RTVSPropertyOp3
 70
     1
102
RTVSPropertyOp4
 70
     1
102
RTVSPropertyOp5
 70
     1
102
RTVSPropertyOp6
 70
     1
102
RTVSPropertyOp7
 70
     1
102
RTVSPropertyOp8
 70
     1
102
RTVSPropertyOp9
 70
     1
102
RTVSPropertyOp10
 70
     1
102
RTVSPropertyOp11
 70
     1
102
RTVSPropertyOp12
 70
     1
102
RTVSPropertyOp13
 70
     1
102
RTVSPropertyOp14
 70
     1
102
RTVSPropertyOp15
 70
     1
102
RTVSPropertyOp16
 70
     1
102
RTVSPropertyOp17
 70
     1
102
RTVSPropertyOp18
 70
     1
102
RTVSPropertyOp19
 70
     1
102
RTVSPropertyOp20
 70
     1
102
RTVSPropertyOp21
 70
     1
102
RTVSPropertyOp22
 70
     1
102
RTVSPropertyOp23
 70
     1
102
RTVSPropertyOp24
 70
     1
102
RTVSPropertyOp25
 70
     1
102
RTVSPropertyOp26
 70
     1
102
RTVSPropertyOp27
 70
     1
102
RTVSPropertyOp28
 70
     1
102
RTVSPropertyOp29
 70
     1
102
RTVSPropertyOp30
 70
     1
102
RTVSPropertyOp31
 70
     1
102
RTVSPropertyOp32
 70
     1
102
RTVSPropertyOp33
 70
     1
102
RTVSPropertyOp34
 70
     1
102
RTVSPropertyOp35
 70
     1
102
RTVSPropertyOp36
 70
     1
102
RTVSPropertyOp37
 70
     1
102
RTVSPropertyOp38
 70
     1
102
RTVSPropertyOp39
 70
     1
102
RTVSPropertyOp40
 70
     1
102
RTVSPropertyOp41
 70
     1
102
RTVSPropertyOp42
 70
     1
102
RTVSPropertyOp43
 70
     1
102
RTVSPropertyOp44
 70
     1
102
RTVSPropertyOp45
 70
     1
102
RTVSPropertyOp46
 70
     1
102
RTVSPropertyOp47
 70
     1
102
RTVSPropertyOp48
 70
     1
102
RTVSPropertyOp49
 70
     1
102
RTVSPropertyOp50
 70
     1
102
RTVSPropertyOp51
 70
     0
102
RTVSPropertyOp52
 70
     0
102
RTVSPropertyOp53
 70
     1
102
RTVSPropertyOp54
 70
     1
102
RTVSPropertyOp55
 70
     1
102
RTVSPropertyOp56
 70
     1
102
RTVSPropertyOp57
 70
     1
102
RTVSPropertyOp58
 70
     1
102
RTVSPropertyOp59
 70
     1
102
RTVSPropertyOp60
 70
     1
102
RTVSPropertyOp61
 70
     1
102
RTVSPropertyOp62
 70
     1
  0
XRECORD
  5
406
102
{ACAD_REACTORS
330
405
102
}
330
405
100
AcDbXrecord
280
     1
102
RTVSPost2010Prop28
280
     0
102
RTVSPost2010PropOp28
 70
     1
102
RTVSPost2010Prop29
280
     1
102
RTVSPost2010PropOp29
 70
     1
102
RTVSPost2010Prop30
280
     1
102
RTVSPost2010PropOp30
 70
     1
102
RTVSPost2010Prop31
280
     0
102
RTVSPost2010PropOp31
 70
     1
102
RTVSPost2010Prop32
280
     0
102
RTVSPost2010PropOp32
 70
     1
102
RTVSPost2010Prop33
280
     0
102
RTVSPost2010PropOp33
 70
     1
102
RTVSPost2010Prop34
280
     0
102
RTVSPost2010PropOp34
 70
     1
102
RTVSPost2010Prop35
280
     0
102
RTVSPost2010PropOp35
 70
     1
102
RTVSPost2010Prop36
280
     0
102
RTVSPost2010PropOp36
 70
     1
102
RTVSPost2010Prop37
 90
       50
102
RTVSPost2010PropOp37
 70
     1
102
RTVSPost2010Prop38
140
0.0
102
RTVSPost2010PropOp38
 70
     1
102
RTVSPost2010Prop39
140
1.0
102
RTVSPost2010PropOp39
 70
     1
102
RTVSPost2010Prop40
 90
        0
102
RTVSPost2010PropOp40
 70
     1
102
RTVSPost2010Prop41ColorIndex
 90
       18
102
RTVSPost2010Prop41ColorRGB
 90
        0
102
RTVSPost2010PropOp41
 70
     1
102
RTVSPost2010Prop42
 90
       50
102
RTVSPost2010PropOp42
 70
     1
102
RTVSPost2010Prop43
 90
        3
102
RTVSPost2010PropOp43
 70
     1
102
RTVSPost2010Prop44ColorIndex
 90
        5
102
RTVSPost2010Prop44ColorRGB
 90
      255
102
RTVSPost2010PropOp44
 70
     1
102
RTVSPost2010Prop45
280
     0
102
RTVSPost2010PropOp45
 70
     1
102
RTVSPost2010Prop46
 90
       50
102
RTVSPost2010PropOp46
 70
     1
102
RTVSPost2010Prop47
 90
       50
102
RTVSPost2010PropOp47
 70
     1
102
RTVSPost2010Prop48
 90
       50
102
RTVSPost2010PropOp48
 70
     1
102
RTVSPost2010Prop49
280
     0
102
RTVSPost2010PropOp49
 70
     1
102
RTVSPost2010Prop50
 90
       50
102
RTVSPost2010PropOp50
 70
     1
102
RTVSPost2010Prop51ColorIndex
 90
      256
102
RTVSPost2010Prop51ColorRGB
 90
-16777216
102
RTVSPost2010PropOp51
 70
     0
102
RTVSPost2010Prop52
140
1.0
102
RTVSPost2010PropOp52
 70
     0
102
RTVSPost2010Prop53
 90
        2
102
RTVSPost2010PropOp53
 70
     1
102
RTVSPost2010Prop54
  1
strokes_ogs.tif
102
RTVSPost2010PropOp54
 70
     1
102
RTVSPost2010Prop55
280
     0
102
RTVSPost2010PropOp55
 70
     1
102
RTVSPost2010Prop56
140
1.0
102
RTVSPost2010PropOp56
 70
     1
102
RTVSPost2010Prop57
140
1.0
102
RTVSPost2010PropOp57
 70
     1
102
RTVSPropertyOp0
 70
     1
102
RTVSPropertyOp1
 70
     1
102
RTVSPropertyOp2
 70
     1
102
RTVSPropertyOp3
 70
     1
102
RTVSPropertyOp4
 70
     1
102
RTVSPropertyOp5
 70
     1
102
RTVSPropertyOp6
 70
     1
102
RTVSPropertyOp7
 70
     1
102
RTVSPropertyOp8
 70
     1
102
RTVSPropertyOp9
 70
     1
102
RTVSPropertyOp10
 70
     1
102
RTVSPropertyOp11
 70
     1
102
RTVSPropertyOp12
 70
     1
102
RTVSPropertyOp13
 70
     1
102
RTVSPropertyOp14
 70
     1
102
RTVSPropertyOp15
 70
     1
102
RTVSPropertyOp16
 70
     1
102
RTVSPropertyOp17
 70
     1
102
RTVSPropertyOp18
 70
     1
102
RTVSPropertyOp19
 70
     1
102
RTVSPropertyOp20
 70
     1
102
RTVSPropertyOp21
 70
     1
102
RTVSPropertyOp22
 70
     1
102
RTVSPropertyOp23
 70
     1
102
RTVSPropertyOp24
 70
     1
102
RTVSPropertyOp25
 70
     1
102
RTVSPropertyOp26
 70
     1
102
RTVSPropertyOp27
 70
     1
102
RTVSPropertyOp28
 70
     1
102
RTVSPropertyOp29
 70
     1
102
RTVSPropertyOp30
 70
     1
102
RTVSPropertyOp31
 70
     1
102
RTVSPropertyOp32
 70
     1
102
RTVSPropertyOp33
 70
     1
102
RTVSPropertyOp34
 70
     1
102
RTVSPropertyOp35
 70
     1
102
RTVSPropertyOp36
 70
     1
102
RTVSPropertyOp37
 70
     1
102
RTVSPropertyOp38
 70
     1
102
RTVSPropertyOp39
 70
     1
102
RTVSPropertyOp40
 70
     1
102
RTVSPropertyOp41
 70
     1
102
RTVSPropertyOp42
 70
     1
102
RTVSPropertyOp43
 70
     1
102
RTVSPropertyOp44
 70
     1
102
RTVSPropertyOp45
 70
     1
102
RTVSPropertyOp46
 70
     1
102
RTVSPropertyOp47
 70
     1
102
RTVSPropertyOp48
 70
     1
102
RTVSPropertyOp49
 70
     1
102
RTVSPropertyOp50
 70
     1
102
RTVSPropertyOp51
 70
     0
102
RTVSPropertyOp52
 70
     0
102
RTVSPropertyOp53
 70
     1
102
RTVSPropertyOp54
 70
     1
102
RTVSPropertyOp55
 70
     1
102
RTVSPropertyOp56
 70
     1
102
RTVSPropertyOp57
 70
     1
102
RTVSPropertyOp58
 70
     1
102
RTVSPropertyOp59
 70
     1
102
RTVSPropertyOp60
 70
     1
102
RTVSPropertyOp61
 70
     1
102
RTVSPropertyOp62
 70
     1
  0
XRECORD
  5
41E
102
{ACAD_REACTORS
330
41D
102
}
330
41D
100
AcDbXrecord
280
     1
102
RTVSPost2010Prop28
280
     0
102
RTVSPost2010PropOp28
 70
     1
102
RTVSPost2010Prop29
280
     1
102
RTVSPost2010PropOp29
 70
     1
102
RTVSPost2010Prop30
280
     1
102
RTVSPost2010PropOp30
 70
     1
102
RTVSPost2010Prop31
280
     0
102
RTVSPost2010PropOp31
 70
     1
102
RTVSPost2010Prop32
280
     0
102
RTVSPost2010PropOp32
 70
     1
102
RTVSPost2010Prop33
280
     0
102
RTVSPost2010PropOp33
 70
     1
102
RTVSPost2010Prop34
280
     0
102
RTVSPost2010PropOp34
 70
     1
102
RTVSPost2010Prop35
280
     0
102
RTVSPost2010PropOp35
 70
     1
102
RTVSPost2010Prop36
280
     0
102
RTVSPost2010PropOp36
 70
     1
102
RTVSPost2010Prop37
 90
       50
102
RTVSPost2010PropOp37
 70
     1
102
RTVSPost2010Prop38
140
0.0
102
RTVSPost2010PropOp38
 70
     1
102
RTVSPost2010Prop39
140
1.0
102
RTVSPost2010PropOp39
 70
     1
102
RTVSPost2010Prop40
 90
        0
102
RTVSPost2010PropOp40
 70
     1
102
RTVSPost2010Prop41ColorIndex
 90
       18
102
RTVSPost2010Prop41ColorRGB
 90
        0
102
RTVSPost2010PropOp41
 70
     1
102
RTVSPost2010Prop42
 90
       50
102
RTVSPost2010PropOp42
 70
     1
102
RTVSPost2010Prop43
 90
        3
102
RTVSPost2010PropOp43
 70
     1
102
RTVSPost2010Prop44ColorIndex
 90
        5
102
RTVSPost2010Prop44ColorRGB
 90
      255
102
RTVSPost2010PropOp44
 70
     1
102
RTVSPost2010Prop45
280
     0
102
RTVSPost2010PropOp45
 70
     1
102
RTVSPost2010Prop46
 90
       50
102
RTVSPost2010PropOp46
 70
     1
102
RTVSPost2010Prop47
 90
       50
102
RTVSPost2010PropOp47
 70
     1
102
RTVSPost2010Prop48
 90
       50
102
RTVSPost2010PropOp48
 70
     1
102
RTVSPost2010Prop49
280
     0
102
RTVSPost2010PropOp49
 70
     1
102
RTVSPost2010Prop50
 90
       50
102
RTVSPost2010PropOp50
 70
     1
102
RTVSPost2010Prop51ColorIndex
 90
      256
102
RTVSPost2010Prop51ColorRGB
 90
-16777216
102
RTVSPost2010PropOp51
 70
     0
102
RTVSPost2010Prop52
140
1.0
102
RTVSPost2010PropOp52
 70
     0
102
RTVSPost2010Prop53
 90
        2
102
RTVSPost2010PropOp53
 70
     1
102
RTVSPost2010Prop54
  1
strokes_ogs.tif
102
RTVSPost2010PropOp54
 70
     1
102
RTVSPost2010Prop55
280
     0
102
RTVSPost2010PropOp55
 70
     1
102
RTVSPost2010Prop56
140
1.0
102
RTVSPost2010PropOp56
 70
     1
102
RTVSPost2010Prop57
140
1.0
102
RTVSPost2010PropOp57
 70
     1
102
RTVSPropertyOp0
 70
     1
102
RTVSPropertyOp1
 70
     1
102
RTVSPropertyOp2
 70
     1
102
RTVSPropertyOp3
 70
     1
102
RTVSPropertyOp4
 70
     1
102
RTVSPropertyOp5
 70
     1
102
RTVSPropertyOp6
 70
     1
102
RTVSPropertyOp7
 70
     1
102
RTVSPropertyOp8
 70
     1
102
RTVSPropertyOp9
 70
     1
102
RTVSPropertyOp10
 70
     1
102
RTVSPropertyOp11
 70
     1
102
RTVSPropertyOp12
 70
     1
102
RTVSPropertyOp13
 70
     1
102
RTVSPropertyOp14
 70
     1
102
RTVSPropertyOp15
 70
     1
102
RTVSPropertyOp16
 70
     1
102
RTVSPropertyOp17
 70
     1
102
RTVSPropertyOp18
 70
     1
102
RTVSPropertyOp19
 70
     1
102
RTVSPropertyOp20
 70
     1
102
RTVSPropertyOp21
 70
     1
102
RTVSPropertyOp22
 70
     1
102
RTVSPropertyOp23
 70
     1
102
RTVSPropertyOp24
 70
     1
102
RTVSPropertyOp25
 70
     1
102
RTVSPropertyOp26
 70
     1
102
RTVSPropertyOp27
 70
     1
102
RTVSPropertyOp28
 70
     1
102
RTVSPropertyOp29
 70
     1
102
RTVSPropertyOp30
 70
     1
102
RTVSPropertyOp31
 70
     1
102
RTVSPropertyOp32
 70
     1
102
RTVSPropertyOp33
 70
     1
102
RTVSPropertyOp34
 70
     1
102
RTVSPropertyOp35
 70
     1
102
RTVSPropertyOp36
 70
     1
102
RTVSPropertyOp37
 70
     1
102
RTVSPropertyOp38
 70
     1
102
RTVSPropertyOp39
 70
     1
102
RTVSPropertyOp40
 70
     1
102
RTVSPropertyOp41
 70
     1
102
RTVSPropertyOp42
 70
     1
102
RTVSPropertyOp43
 70
     1
102
RTVSPropertyOp44
 70
     1
102
RTVSPropertyOp45
 70
     1
102
RTVSPropertyOp46
 70
     1
102
RTVSPropertyOp47
 70
     1
102
RTVSPropertyOp48
 70
     1
102
RTVSPropertyOp49
 70
     1
102
RTVSPropertyOp50
 70
     1
102
RTVSPropertyOp51
 70
     0
102
RTVSPropertyOp52
 70
     0
102
RTVSPropertyOp53
 70
     1
102
RTVSPropertyOp54
 70
     1
102
RTVSPropertyOp55
 70
     1
102
RTVSPropertyOp56
 70
     1
102
RTVSPropertyOp57
 70
     1
102
RTVSPropertyOp58
 70
     1
102
RTVSPropertyOp59
 70
     1
102
RTVSPropertyOp60
 70
     1
102
RTVSPropertyOp61
 70
     1
102
RTVSPropertyOp62
 70
     1
  0
ENDSEC
  0
EOF
