  0
SECTION
  2
HEADER
  9
$ACADVER
  1
AC1015
  9
$ACADMAINTVER
 70
    20
  9
$DWGCODEPAGE
  3
ANSI_932
  9
$INSBASE
 10
0.0
 20
0.0
 30
0.0
  9
$EXTMIN
 10
14.9949651479277
 20
3.63383987560644
 30
-0.0000000349181948
  9
$EXTMAX
 10
285.0173966121536
 20
405.0247215014811
 30
0.0000000814935747
  9
$LIMMIN
 10
0.0
 20
0.0
  9
$LIMMAX
 10
0.0
 20
0.0
  9
$ORTHOMODE
 70
     0
  9
$REGENMODE
 70
     1
  9
$FILLMODE
 70
     1
  9
$QTEXTMODE
 70
     0
  9
$MIRRTEXT
 70
     1
  9
$LTSCALE
 40
7.619999999999998
  9
$ATTMODE
 70
     1
  9
$TEXTSIZE
 40
0.0
  9
$TRACEWID
 40
1.0
  9
$TEXTSTYLE
  7
STANDARD
  9
$CLAYER
  8
DATA
  9
$CELTYPE
  6
ByLayer
  9
$CECOLOR
 62
   256
  9
$CELTSCALE
 40
1.0
  9
$DISPSILH
 70
     0
  9
$DIMSCALE
 40
1.0
  9
$DIMASZ
 40
0.18
  9
$DIMEXO
 40
0.0625
  9
$DIMDLI
 40
0.38
  9
$DIMRND
 40
0.0
  9
$DIMDLE
 40
0.0
  9
$DIMEXE
 40
0.18
  9
$DIMTP
 40
0.0
  9
$DIMTM
 40
0.0
  9
$DIMTXT
 40
0.18
  9
$DIMCEN
 40
0.09
  9
$DIMTSZ
 40
0.0
  9
$DIMTOL
 70
     0
  9
$DIMLIM
 70
     0
  9
$DIMTIH
 70
     1
  9
$DIMTOH
 70
     1
  9
$DIMSE1
 70
     0
  9
$DIMSE2
 70
     0
  9
$DIMTAD
 70
     0
  9
$DIMZIN
 70
     0
  9
$DIMBLK
  1

  9
$DIMASO
 70
     1
  9
$DIMSHO
 70
     1
  9
$DIMPOST
  1

  9
$DIMAPOST
  1

  9
$DIMALT
 70
     0
  9
$DIMALTD
 70
     2
  9
$DIMALTF
 40
25.4
  9
$DIMLFAC
 40
1.0
  9
$DIMTOFL
 70
     0
  9
$DIMTVP
 40
0.0
  9
$DIMTIX
 70
     0
  9
$DIMSOXD
 70
     0
  9
$DIMSAH
 70
     0
  9
$DIMBLK1
  1

  9
$DIMBLK2
  1

  9
$DIMSTYLE
  2
STANDARD
  9
$DIMCLRD
 70
     0
  9
$DIMCLRE
 70
     0
  9
$DIMCLRT
 70
     0
  9
$DIMTFAC
 40
1.0
  9
$DIMGAP
 40
0.09
  9
$DIMJUST
 70
     0
  9
$DIMSD1
 70
     0
  9
$DIMSD2
 70
     0
  9
$DIMTOLJ
 70
     1
  9
$DIMTZIN
 70
     0
  9
$DIMALTZ
 70
     0
  9
$DIMALTTZ
 70
     0
  9
$DIMUPT
 70
     0
  9
$DIMDEC
 70
     4
  9
$DIMTDEC
 70
     4
  9
$DIMALTU
 70
     2
  9
$DIMALTTD
 70
     2
  9
$DIMTXSTY
  7
STANDARD
  9
$DIMAUNIT
 70
     0
  9
$DIMADEC
 70
     0
  9
$DIMALTRND
 40
0.0
  9
$DIMAZIN
 70
     0
  9
$DIMDSEP
 70
    46
  9
$DIMATFIT
 70
     3
  9
$DIMFRAC
 70
     0
  9
$DIMLDRBLK
  1

  9
$DIMLUNIT
 70
     2
  9
$DIMLWD
 70
    -2
  9
$DIMLWE
 70
    -2
  9
$DIMTMOVE
 70
     0
  9
$LUNITS
 70
     2
  9
$LUPREC
 70
     4
  9
$SKETCHINC
 40
0.1
  9
$FILLETRAD
 40
0.0
  9
$AUNITS
 70
     0
  9
$AUPREC
 70
     0
  9
$MENU
  1
acad
  9
$ELEVATION
 40
0.0
  9
$PELEVATION
 40
0.0
  9
$THICKNESS
 40
0.0
  9
$LIMCHECK
 70
     0
  9
$CHAMFERA
 40
0.0
  9
$CHAMFERB
 40
0.0
  9
$CHAMFERC
 40
0.0
  9
$CHAMFERD
 40
0.0
  9
$SKPOLY
 70
     0
  9
$TDCREATE
 40
2455202.659131945
  9
$TDUCREATE
 40
2455202.284131945
  9
$TDUPDATE
 40
2457150.576034480
  9
$TDUUPDATE
 40
2457150.201034480
  9
$TDINDWG
 40
0.0082761921
  9
$TDUSRTIMER
 40
0.0082760069
  9
$USRTIMER
 70
     1
  9
$ANGBASE
 50
0.0
  9
$ANGDIR
 70
     0
  9
$PDMODE
 70
     1
  9
$PDSIZE
 40
-2.0
  9
$PLINEWID
 40
0.0
  9
$SPLFRAME
 70
     0
  9
$SPLINETYPE
 70
     6
  9
$SPLINESEGS
 70
     8
  9
$HANDSEED
  5
6DD
  9
$SURFTAB1
 70
     6
  9
$SURFTAB2
 70
     6
  9
$SURFTYPE
 70
     6
  9
$SURFU
 70
     6
  9
$SURFV
 70
     6
  9
$UCSBASE
  2

  9
$UCSNAME
  2

  9
$UCSORG
 10
0.0
 20
0.0
 30
0.0
  9
$UCSXDIR
 10
1.0
 20
0.0
 30
0.0
  9
$UCSYDIR
 10
0.0
 20
1.0
 30
0.0
  9
$UCSORTHOREF
  2

  9
$UCSORTHOVIEW
 70
     0
  9
$UCSORGTOP
 10
0.0
 20
0.0
 30
0.0
  9
$UCSORGBOTTOM
 10
0.0
 20
0.0
 30
0.0
  9
$UCSORGLEFT
 10
0.0
 20
0.0
 30
0.0
  9
$UCSORGRIGHT
 10
0.0
 20
0.0
 30
0.0
  9
$UCSORGFRONT
 10
0.0
 20
0.0
 30
0.0
  9
$UCSORGBACK
 10
0.0
 20
0.0
 30
0.0
  9
$PUCSBASE
  2

  9
$PUCSNAME
  2

  9
$PUCSORG
 10
0.0
 20
0.0
 30
0.0
  9
$PUCSXDIR
 10
1.0
 20
0.0
 30
0.0
  9
$PUCSYDIR
 10
0.0
 20
1.0
 30
0.0
  9
$PUCSORTHOREF
  2

  9
$PUCSORTHOVIEW
 70
     0
  9
$PUCSORGTOP
 10
0.0
 20
0.0
 30
0.0
  9
$PUCSORGBOTTOM
 10
0.0
 20
0.0
 30
0.0
  9
$PUCSORGLEFT
 10
0.0
 20
0.0
 30
0.0
  9
$PUCSORGRIGHT
 10
0.0
 20
0.0
 30
0.0
  9
$PUCSORGFRONT
 10
0.0
 20
0.0
 30
0.0
  9
$PUCSORGBACK
 10
0.0
 20
0.0
 30
0.0
  9
$USERI1
 70
     0
  9
$USERI2
 70
     0
  9
$USERI3
 70
     0
  9
$USERI4
 70
     0
  9
$USERI5
 70
     0
  9
$USERR1
 40
0.0
  9
$USERR2
 40
0.0
  9
$USERR3
 40
0.0
  9
$USERR4
 40
0.0
  9
$USERR5
 40
0.0
  9
$WORLDVIEW
 70
     1
  9
$SHADEDGE
 70
     3
  9
$SHADEDIF
 70
    70
  9
$TILEMODE
 70
     1
  9
$MAXACTVP
 70
    64
  9
$PINSBASE
 10
0.0
 20
0.0
 30
0.0
  9
$PLIMCHECK
 70
     0
  9
$PEXTMIN
 10
1.000000000000000E+20
 20
1.000000000000000E+20
 30
1.000000000000000E+20
  9
$PEXTMAX
 10
-1.000000000000000E+20
 20
-1.000000000000000E+20
 30
-1.000000000000000E+20
  9
$PLIMMIN
 10
0.0
 20
0.0
  9
$PLIMMAX
 10
12.0
 20
9.0
  9
$UNITMODE
 70
     0
  9
$VISRETAIN
 70
     0
  9
$PLINEGEN
 70
     1
  9
$PSLTSCALE
 70
     0
  9
$TREEDEPTH
 70
  3020
  9
$CMLSTYLE
  2
Standard
  9
$CMLJUST
 70
     0
  9
$CMLSCALE
 40
1.0
  9
$PROXYGRAPHICS
 70
     1
  9
$MEASUREMENT
 70
     0
  9
$CELWEIGHT
370
    -1
  9
$ENDCAPS
280
     0
  9
$JOINSTYLE
280
     0
  9
$LWDISPLAY
290
     0
  9
$INSUNITS
 70
     0
  9
$HYPERLINKBASE
  1

  9
$STYLESHEET
  1

  9
$XEDIT
290
     1
  9
$CEPSNTYPE
380
     0
  9
$PSTYLEMODE
290
     1
  9
$FINGERPRINTGUID
  2
{00EE078C-063B-475B-A277-D059D4B059C8}
  9
$VERSIONGUID
  2
{AB98602A-058D-4AFA-8BED-7193AFD8F54D}
  9
$EXTNAMES
290
     1
  9
$PSVPSCALE
 40
0.0
  9
$OLESTARTUP
290
     0
  0
ENDSEC
  0
SECTION
  2
CLASSES
  0
CLASS
  1
ACDBDICTIONARYWDFLT
  2
AcDbDictionaryWithDefault
  3
ObjectDBX Classes
 90
        0
280
     0
281
     0
  0
CLASS
  1
MATERIAL
  2
AcDbMaterial
  3
ObjectDBX Classes
 90
     1153
280
     0
281
     0
  0
CLASS
  1
VISUALSTYLE
  2
AcDbVisualStyle
  3
ObjectDBX Classes
 90
     4095
280
     0
281
     0
  0
CLASS
  1
SCALE
  2
AcDbScale
  3
ObjectDBX Classes
 90
     1153
280
     0
281
     0
  0
CLASS
  1
TABLESTYLE
  2
AcDbTableStyle
  3
ObjectDBX Classes
 90
     4095
280
     0
281
     0
  0
CLASS
  1
MLEADERSTYLE
  2
AcDbMLeaderStyle
  3
ACDB_MLEADERSTYLE_CLASS
 90
     4095
280
     0
281
     0
  0
CLASS
  1
DICTIONARYVAR
  2
AcDbDictionaryVar
  3
ObjectDBX Classes
 90
        0
280
     0
281
     0
  0
CLASS
  1
CELLSTYLEMAP
  2
AcDbCellStyleMap
  3
ObjectDBX Classes
 90
     1152
280
     0
281
     0
  0
CLASS
  1
PLOTSETTINGS
  2
AcDbPlotSettings
  3
ObjectDBX Classes
 90
        0
280
     0
281
     0
  0
CLASS
  1
ACDBPLACEHOLDER
  2
AcDbPlaceHolder
  3
ObjectDBX Classes
 90
        0
280
     0
281
     0
  0
CLASS
  1
LAYOUT
  2
AcDbLayout
  3
ObjectDBX Classes
 90
        0
280
     0
281
     0
  0
ENDSEC
  0
SECTION
  2
TABLES
  0
TABLE
  2
VPORT
  5
5AF
330
0
100
AcDbSymbolTable
 70
     1
  0
VPORT
  5
617
330
5AF
100
AcDbSymbolTableRecord
100
AcDbViewportTableRecord
  2
*ACTIVE
 70
     0
 10
0.0
 20
0.0
 11
1.0
 21
1.0
 12
229.0488754831374
 22
204.7397162455985
 13
0.0
 23
0.0
 14
1.0
 24
1.0
 15
0.0
 25
0.0
 16
0.0
 26
0.0
 36
1.0
 17
0.0
 27
0.0
 37
0.0
 40
447.2425374585925
 41
2.292270531400966
 42
50.0
 43
0.0
 44
0.0
 50
0.0
 51
0.0
 71
     0
 72
  2000
 73
     1
 74
     1
 75
     0
 76
     0
 77
     0
 78
     0
281
     0
 65
     1
110
0.0
120
0.0
130
0.0
111
1.0
121
0.0
131
0.0
112
0.0
122
1.0
132
0.0
 79
     0
146
0.0
1001
ACAD_NAV_VCDISPLAY
1070
     3
  0
ENDTAB
  0
TABLE
  2
LTYPE
  5
5AC
330
0
100
AcDbSymbolTable
 70
     2
  0
LTYPE
  5
601
330
5AC
100
AcDbSymbolTableRecord
100
AcDbLinetypeTableRecord
  2
ByBlock
 70
     0
  3

 72
    65
 73
     0
 40
0.0
  0
LTYPE
  5
602
330
5AC
100
AcDbSymbolTableRecord
100
AcDbLinetypeTableRecord
  2
ByLayer
 70
     0
  3

 72
    65
 73
     0
 40
0.0
  0
LTYPE
  5
603
330
5AC
100
AcDbSymbolTableRecord
100
AcDbLinetypeTableRecord
  2
CONTINUOUS
 70
     0
  3
Solid line
 72
    65
 73
     0
 40
0.0
  0
ENDTAB
  0
TABLE
  2
LAYER
  5
5A9
330
0
100
AcDbSymbolTable
 70
     5
  0
LAYER
  5
5FB
102
{ACAD_XDICTIONARY
360
62F
102
}
330
5A9
100
AcDbSymbolTableRecord
100
AcDbLayerTableRecord
  2
0
 70
     0
 62
     7
  6
CONTINUOUS
370
    -3
390
5B6
  0
LAYER
  5
616
102
{ACAD_XDICTIONARY
360
631
102
}
330
5A9
100
AcDbSymbolTableRecord
100
AcDbLayerTableRecord
  2
DATA
 70
     0
 62
     7
  6
CONTINUOUS
370
    -3
390
5B6
  0
LAYER
  5
618
102
{ACAD_XDICTIONARY
360
633
102
}
330
5A9
100
AcDbSymbolTableRecord
100
AcDbLayerTableRecord
  2
HIBINO-BASE
 70
     0
 62
     7
  6
CONTINUOUS
370
    -3
390
5B6
  0
LAYER
  5
619
102
{ACAD_XDICTIONARY
360
635
102
}
330
5A9
100
AcDbSymbolTableRecord
100
AcDbLayerTableRecord
  2
SPEC
 70
     0
 62
     7
  6
CONTINUOUS
370
    -3
390
5B6
  0
LAYER
  5
61A
102
{ACAD_XDICTIONARY
360
637
102
}
330
5A9
100
AcDbSymbolTableRecord
100
AcDbLayerTableRecord
  2
DIMNSIONS
 70
     0
 62
     7
  6
CONTINUOUS
370
    -3
390
5B6
  0
ENDTAB
  0
TABLE
  2
STYLE
  5
5AA
330
0
100
AcDbSymbolTable
 70
     6
  0
STYLE
  5
5FC
330
5AA
100
AcDbSymbolTableRecord
100
AcDbTextStyleTableRecord
  2
STANDARD
 70
     0
 40
0.0
 41
1.0
 50
0.0
 71
     0
 42
0.0
  3
txt
  4
BIGFONT.SHX
  0
STYLE
  5
600
330
5AA
100
AcDbSymbolTableRecord
100
AcDbTextStyleTableRecord
  2
Annotative
 70
     0
 40
0.0
 41
1.0
 50
0.0
 71
     0
 42
0.2
  3
txt
  4

1001
ACADANNOTATIVE
1000
AnnotativeData
1002
{
1070
     1
1070
     1
1002
}
  0
ENDTAB
  0
TABLE
  2
VIEW
  5
5AD
330
0
100
AcDbSymbolTable
 70
     0
  0
ENDTAB
  0
TABLE
  2
UCS
  5
5AE
330
0
100
AcDbSymbolTable
 70
     0
  0
ENDTAB
  0
TABLE
  2
APPID
  5
5B0
330
0
100
AcDbSymbolTable
 70
     6
  0
APPID
  5
5FD
330
5B0
100
AcDbSymbolTableRecord
100
AcDbRegAppTableRecord
  2
ACAD
 70
     0
  0
APPID
  5
604
330
5B0
100
AcDbSymbolTableRecord
100
AcDbRegAppTableRecord
  2
ACADANNOTATIVE
 70
     0
  0
APPID
  5
61B
330
5B0
100
AcDbSymbolTableRecord
100
AcDbRegAppTableRecord
  2
ACAD_MLEADERVER
 70
     0
  0
APPID
  5
624
330
5B0
100
AcDbSymbolTableRecord
100
AcDbRegAppTableRecord
  2
ACAD_EXEMPT_FROM_CAD_STANDARDS
 70
     0
  0
APPID
  5
626
330
5B0
100
AcDbSymbolTableRecord
100
AcDbRegAppTableRecord
  2
ACAD_NAV_VCDISPLAY
 70
     0
  0
APPID
  5
67D
330
5B0
100
AcDbSymbolTableRecord
100
AcDbRegAppTableRecord
  2
ACAD_PSEXT
 70
     0
  0
ENDTAB
  0
TABLE
  2
DIMSTYLE
  5
5B1
330
0
100
AcDbSymbolTable
 70
     6
100
AcDbDimStyleTable
 71
     1
340
5FE
  0
DIMSTYLE
105
5FE
330
5B1
100
AcDbSymbolTableRecord
100
AcDbDimStyleTableRecord
  2
STANDARD
 70
     0
279
     2
340
5FC
  0
DIMSTYLE
105
5FF
330
5B1
100
AcDbSymbolTableRecord
100
AcDbDimStyleTableRecord
  2
Annotative
 70
     0
340
5FC
1001
ACADANNOTATIVE
1000
AnnotativeData
1002
{
1070
     1
1070
     1
1002
}
  0
ENDTAB
  0
TABLE
  2
BLOCK_RECORD
  5
5A8
330
0
100
AcDbSymbolTable
 70
     6
  0
BLOCK_RECORD
  5
612
330
5A8
100
AcDbSymbolTableRecord
100
AcDbBlockTableRecord
  2
*Model_Space
340
615
  0
BLOCK_RECORD
  5
60E
330
5A8
100
AcDbSymbolTableRecord
100
AcDbBlockTableRecord
  2
*Paper_Space
340
611
  0
BLOCK_RECORD
  5
61E
330
5A8
100
AcDbSymbolTableRecord
100
AcDbBlockTableRecord
  2
$MODEL_SPACE
340
0
  0
BLOCK_RECORD
  5
620
330
5A8
100
AcDbSymbolTableRecord
100
AcDbBlockTableRecord
  2
$PAPER_SPACE
340
0
  0
ENDTAB
  0
ENDSEC
  0
SECTION
  2
BLOCKS
  0
BLOCK
  5
613
330
612
100
AcDbEntity
  8
0
100
AcDbBlockBegin
  2
*Model_Space
 70
     0
 10
0.0
 20
0.0
 30
0.0
  3
*Model_Space
  1

  0
ENDBLK
  5
614
330
612
100
AcDbEntity
  8
0
100
AcDbBlockEnd
  0
BLOCK
  5
60F
330
60E
100
AcDbEntity
 67
     1
  8
0
100
AcDbBlockBegin
  2
*Paper_Space
 70
     0
 10
0.0
 20
0.0
 30
0.0
  3
*Paper_Space
  1

  0
ENDBLK
  5
610
330
60E
100
AcDbEntity
 67
     1
  8
0
100
AcDbBlockEnd
  0
BLOCK
  5
61F
330
61E
100
AcDbEntity
  8
0
100
AcDbBlockBegin
  2
$MODEL_SPACE
 70
     0
 10
0.0
 20
0.0
 30
0.0
  3
$MODEL_SPACE
  1

  0
ENDBLK
  5
44F
330
61E
100
AcDbEntity
  8
0
100
AcDbBlockEnd
  0
BLOCK
  5
621
330
620
100
AcDbEntity
  8
0
100
AcDbBlockBegin
  2
$PAPER_SPACE
 70
     0
 10
0.0
 20
0.0
 30
0.0
  3
$PAPER_SPACE
  1

  0
ENDBLK
  5
44B
330
620
100
AcDbEntity
  8
0
100
AcDbBlockEnd
  0
ENDSEC
  0
SECTION
  2
ENTITIES
  0
LINE
  5
2C
330
612
100
AcDbEntity
  8
HIBINO-BASE
  6
Continuous
 62
     7
100
AcDbLine
 10
15.0
 20
405.0
 30
0.0
 11
285.0
 21
405.0
 31
0.0
  0
LINE
  5
2D
330
612
100
AcDbEntity
  8
HIBINO-BASE
  6
Continuous
 62
     7
100
AcDbLine
 10
285.0
 20
15.0
 30
0.0
 11
15.0
 21
15.0
 31
0.0
  0
LINE
  5
2E
330
612
100
AcDbEntity
  8
HIBINO-BASE
  6
Continuous
 62
     7
100
AcDbLine
 10
15.0
 20
15.0
 30
0.0
 11
15.0
 21
405.0
 31
0.0
  0
LINE
  5
2F
330
612
100
AcDbEntity
  8
HIBINO-BASE
  6
Continuous
 62
     7
100
AcDbLine
 10
285.0
 20
405.0
 30
0.0
 11
285.0
 21
15.0
 31
0.0
  0
LINE
  5
30
330
612
100
AcDbEntity
  8
HIBINO-BASE
  6
Continuous
 62
     7
100
AcDbLine
 10
150.0
 20
48.75000000000002
 30
0.0
 11
285.0
 21
48.75000000000002
 31
0.0
  0
LINE
  5
31
330
612
100
AcDbEntity
  8
HIBINO-BASE
  6
Continuous
 62
     7
100
AcDbLine
 10
150.0
 20
15.0
 30
0.0
 11
150.0
 21
48.75000000000002
 31
0.0
  0
TEXT
  5
32
330
612
100
AcDbEntity
  8
HIBINO-BASE
 62
     7
100
AcDbText
 10
151.3499999999999
 20
44.98696000000001
 30
0.0
 40
2.44326171875
  1
NOTE
 41
0.7
 11
151.3499999999999
 21
47.43022171875001
 31
0.0
100
AcDbText
 73
     3
  0
LINE
  5
33
330
612
100
AcDbEntity
  8
HIBINO-BASE
  6
Continuous
 62
     7
100
AcDbLine
 10
202.5
 20
15.0
 30
0.0
 11
202.5
 21
48.75000000000002
 31
0.0
  0
TEXT
  5
34
330
612
100
AcDbEntity
  8
HIBINO-BASE
 62
     7
100
AcDbText
 10
203.85
 20
44.98696000000001
 30
0.0
 40
2.44326171875
  1
TITLE
 41
0.7
 11
203.85
 21
47.43022171875001
 31
0.0
100
AcDbText
 73
     3
  0
LINE
  5
35
330
612
100
AcDbEntity
  8
HIBINO-BASE
  6
Continuous
 62
     7
100
AcDbLine
 10
150.0
 20
30.00000000000003
 30
0.0
 11
285.0
 21
30.00000000000003
 31
0.0
  0
TEXT
  5
36
330
612
100
AcDbEntity
  8
HIBINO-BASE
 62
     7
100
AcDbText
 10
222.6
 20
26.32143999999999
 30
0.0
 40
2.44326171875
  1
DRAWN
 41
0.7
 11
222.6
 21
28.76470171874999
 31
0.0
100
AcDbText
 73
     3
  0
TEXT
  5
37
330
612
100
AcDbEntity
  8
HIBINO-BASE
 62
     7
100
AcDbText
 10
185.1
 20
26.32143999999999
 30
0.0
 40
2.44326171875
  1
DATE
 41
0.7
 11
185.1
 21
28.76470171874999
 31
0.0
100
AcDbText
 73
     3
  0
TEXT
  5
38
330
612
100
AcDbEntity
  8
HIBINO-BASE
 62
     7
100
AcDbText
 10
170.0999999999999
 20
26.32143999999999
 30
0.0
 40
2.44326171875
  1
SCALE
 41
0.7
 11
170.0999999999999
 21
28.76470171874999
 31
0.0
100
AcDbText
 73
     3
  0
TEXT
  5
39
330
612
100
AcDbEntity
  8
HIBINO-BASE
 62
     7
100
AcDbText
 10
203.85
 20
26.32143999999999
 30
0.0
 40
2.44326171875
  1
DESIGN
 41
0.7
 11
203.85
 21
28.76470171874999
 31
0.0
100
AcDbText
 73
     3
  0
TEXT
  5
3A
330
612
100
AcDbEntity
  8
HIBINO-BASE
 62
     7
100
AcDbText
 10
260.1
 20
26.32143999999999
 30
0.0
 40
2.44326171875
  1
DRAWING NO.
 41
0.7
 11
260.1
 21
28.76470171874999
 31
0.0
100
AcDbText
 73
     3
  0
TEXT
  5
3B
330
612
100
AcDbEntity
  8
HIBINO-BASE
 62
     7
100
AcDbText
 10
241.35
 20
26.32143999999999
 30
0.0
 40
2.44326171875
  1
CHECK
 41
0.7
 11
241.35
 21
28.76470171874999
 31
0.0
100
AcDbText
 73
     3
  0
LINE
  5
3C
330
612
100
AcDbEntity
  8
HIBINO-BASE
  6
Continuous
 62
     7
100
AcDbLine
 10
171.5625
 20
16.875
 30
0.0
 11
177.1874999999999
 21
22.50000000000003
 31
0.0
  0
TEXT
  5
3D
330
612
100
AcDbEntity
  8
HIBINO-BASE
 62
     7
100
AcDbText
 10
170.625
 20
20.83658500000001
 30
0.0
 40
2.44326171875
  1
1
 41
0.7
 11
170.625
 21
23.27984671875001
 31
0.0
100
AcDbText
 73
     3
  0
LINE
  5
3E
330
612
100
AcDbEntity
  8
HIBINO-BASE
  6
Continuous
 62
     7
100
AcDbLine
 10
168.75
 20
15.0
 30
0.0
 11
168.75
 21
30.00000000000003
 31
0.0
  0
LINE
  5
3F
330
612
100
AcDbEntity
  8
HIBINO-BASE
  6
Continuous
 62
     7
100
AcDbLine
 10
183.75
 20
15.0
 30
0.0
 11
183.75
 21
30.00000000000003
 31
0.0
  0
LINE
  5
40
330
612
100
AcDbEntity
  8
HIBINO-BASE
  6
Continuous
 62
     7
100
AcDbLine
 10
221.25
 20
30.00000000000003
 30
0.0
 11
221.25
 21
15.0
 31
0.0
  0
LINE
  5
41
330
612
100
AcDbEntity
  8
HIBINO-BASE
  6
Continuous
 62
     7
100
AcDbLine
 10
258.75
 20
30.00000000000003
 30
0.0
 11
258.75
 21
15.0
 31
0.0
  0
LINE
  5
42
330
612
100
AcDbEntity
  8
HIBINO-BASE
  6
Continuous
 62
     7
100
AcDbLine
 10
240.0
 20
15.0
 30
0.0
 11
240.0
 21
30.00000000000003
 31
0.0
  0
TEXT
  5
43
330
612
100
AcDbEntity
  8
HIBINO-BASE
 62
     7
100
AcDbText
 10
185.03481
 20
19.29546999999999
 30
0.0
 40
2.44326171875
  1
'09.10.
 41
0.7
 11
185.03481
 21
21.73873171874999
 31
0.0
100
AcDbText
 73
     3
  0
TEXT
  5
44
330
612
100
AcDbEntity
  8
HIBINO-BASE
 62
     7
100
AcDbText
 10
176.25
 20
18.02408500000001
 30
0.0
 40
2.44326171875
  1
1.5
 41
0.7
 11
176.25
 21
20.46734671875001
 31
0.0
100
AcDbText
 73
     3
  0
TEXT
  5
45
330
612
100
AcDbEntity
  8
HIBINO-BASE
 62
     7
100
AcDbText
 10
155.825
 20
17.96400000000001
 30
0.0
 40
4.886523437499999
  1
A4
 41
0.7
 11
155.825
 21
22.85052343750002
 31
0.0
100
AcDbText
 73
     3
  0
TEXT
  5
46
330
612
100
AcDbEntity
  8
HIBINO-BASE
 62
     7
100
AcDbText
 10
151.4375
 20
26.07081750000003
 30
0.0
 40
2.44326171875
  1
PAPER SIZE
 41
0.7
 11
151.4375
 21
28.51407921875003
 31
0.0
100
AcDbText
 73
     3
  0
TEXT
  5
47
330
612
100
AcDbEntity
  8
HIBINO-BASE
 62
     7
100
AcDbText
 10
19.37131612019718
 20
5.408259692617797
 30
0.0
 40
5.293733723958331
  1
Hibino-Intersound Corporation
 41
0.7
 11
19.37131612019718
 21
10.70199341657613
 31
0.0
100
AcDbText
 73
     3
  0
TEXT
  5
48
330
612
100
AcDbEntity
  8
HIBINO-BASE
 62
     7
100
AcDbText
 10
180.9689499059816
 20
5.87376819330674
 30
0.0
 40
5.293733723958331
  1
ヒビノインターサウンド株式会社
 41
0.7
 11
180.9689499059816
 21
11.16750191726507
 31
0.0
100
AcDbText
 73
     3
  0
TEXT
  5
49
330
612
100
AcDbEntity
  8
HIBINO-BASE
 62
     7
100
AcDbText
 10
224.4003416977045
 20
19.4242520627645
 30
0.0
 40
2.44326171875
  1
T.Ootake
 41
0.7
 11
224.4003416977045
 21
21.8675137815145
 31
0.0
100
AcDbText
 73
     3
  0
TEXT
  5
4A
330
612
100
AcDbEntity
  8
SPEC
 62
     7
100
AcDbText
 10
28.125
 20
392.0899049999999
 30
0.0
 40
3.664892578124999
  1
仕様
 41
0.7
 11
28.125
 21
395.7547975781249
 31
0.0
100
AcDbText
 73
     3
  0
LINE
  5
4B
330
612
100
AcDbEntity
  8
SPEC
  6
Continuous
 62
     7
100
AcDbLine
 10
26.24999999999997
 20
389.9999999998328
 30
0.0
 11
211.621813336034
 21
389.9999999998328
 31
0.0
  0
LINE
  5
4C
330
612
100
AcDbEntity
  8
SPEC
  6
Continuous
 62
     7
100
AcDbLine
 10
26.24999999999997
 20
384.3749999998328
 30
0.0
 11
211.621813336034
 21
384.3749999998328
 31
0.0
  0
LINE
  5
4D
330
612
100
AcDbEntity
  8
SPEC
  6
Continuous
 62
     7
100
AcDbLine
 10
26.24999999999997
 20
361.8749999998328
 30
0.0
 11
211.621813336034
 21
361.8749999998328
 31
0.0
  0
LINE
  5
4E
330
612
100
AcDbEntity
  8
SPEC
  6
Continuous
 62
     7
100
AcDbLine
 10
26.24999999999997
 20
367.4999999998328
 30
0.0
 11
211.621813336034
 21
367.4999999998328
 31
0.0
  0
LINE
  5
4F
330
612
100
AcDbEntity
  8
SPEC
  6
Continuous
 62
     7
100
AcDbLine
 10
26.24999999999997
 20
373.1249999998328
 30
0.0
 11
211.621813336034
 21
373.1249999998328
 31
0.0
  0
LINE
  5
50
330
612
100
AcDbEntity
  8
SPEC
  6
Continuous
 62
     7
100
AcDbLine
 10
211.621813336034
 20
356.2499999998328
 30
0.0
 11
26.24999999999997
 21
356.2499999998328
 31
0.0
  0
LINE
  5
51
330
612
100
AcDbEntity
  8
SPEC
  6
Continuous
 62
     7
100
AcDbLine
 10
26.24999999999997
 20
378.7499999998328
 30
0.0
 11
211.621813336034
 21
378.7499999998328
 31
0.0
  0
LINE
  5
52
330
612
100
AcDbEntity
  8
SPEC
  6
Continuous
 62
     7
100
AcDbLine
 10
26.24999999999997
 20
389.9999999998328
 30
0.0
 11
26.24999999999997
 21
328.0999999998328
 31
0.0
  0
LINE
  5
53
330
612
100
AcDbEntity
  8
SPEC
  6
Continuous
 62
     7
100
AcDbLine
 10
74.99999999999997
 20
389.9999999998328
 30
0.0
 11
74.99999999999997
 21
356.2499999998328
 31
0.0
  0
LINE
  5
54
330
612
100
AcDbEntity
  8
SPEC
  6
Continuous
 62
     7
100
AcDbLine
 10
211.621813336034
 20
389.9999999998328
 30
0.0
 11
211.621813336034
 21
328.0999999998328
 31
0.0
  0
TEXT
  5
55
330
612
100
AcDbEntity
  8
SPEC
 62
     7
100
AcDbText
 10
27.52686704392063
 20
385.8870292750213
 30
0.0
 40
2.850466875
  1
形式
 41
0.7
 11
27.52686704392063
 21
388.7374961500213
 31
0.0
100
AcDbText
 73
     3
  0
LINE
  5
56
330
612
100
AcDbEntity
  8
SPEC
  6
Continuous
 62
     7
100
AcDbLine
 10
74.99999999999997
 20
389.9999999998328
 30
0.0
 11
74.99999999999997
 21
328.0999999998328
 31
0.0
  0
TEXT
  5
57
330
612
100
AcDbEntity
  8
SPEC
 62
     7
100
AcDbText
 10
27.45981296625613
 20
335.1668845045401
 30
0.0
 40
2.850472005208332
  1
寸法
 41
0.7
 11
27.45981296625613
 21
338.0173565097485
 31
0.0
100
AcDbText
 73
     3
  0
TEXT
  5
58
330
612
100
AcDbEntity
  8
SPEC
 62
     7
100
AcDbText
 10
27.50601458338801
 20
329.5865433676348
 30
0.0
 40
2.850472005208332
  1
重量
 41
0.7
 11
27.50601458338801
 21
332.4370153728432
 31
0.0
100
AcDbText
 73
     3
  0
TEXT
  5
59
330
612
100
AcDbEntity
  8
SPEC
 62
     7
100
AcDbText
 10
27.51604348862401
 20
340.8397766461625
 30
0.0
 40
2.850472005208332
  1
電源
 41
0.7
 11
27.51604348862401
 21
343.6902486513708
 31
0.0
100
AcDbText
 73
     3
  0
TEXT
  5
5A
330
612
100
AcDbEntity
  8
SPEC
 62
     7
100
AcDbText
 10
76.38235740838192
 20
340.521010029136
 30
0.0
 40
2.850472005208332
  1
5V DC
 41
0.7
 11
76.38235740838192
 21
343.3714820343443
 31
0.0
100
AcDbText
 73
     3
  0
TEXT
  5
5B
330
612
100
AcDbEntity
  8
SPEC
 62
     7
100
AcDbText
 10
76.44089858979253
 20
335.1773340208225
 30
0.0
 40
2.850472005208332
  1
39(W)\U+00D715(H)\U+00D769(D)mm(突起部含まず)、(センダー、レシーバー共に)
 41
0.7
 11
76.44089858979253
 21
338.0278060260309
 31
0.0
100
AcDbText
 73
     3
  0
TEXT
  5
5C
330
612
100
AcDbEntity
  8
SPEC
 62
     7
100
AcDbText
 10
76.29408271507142
 20
329.5845193048724
 30
0.0
 40
2.850472005208332
  1
約90g(センダー、レシーバー共に)
 41
0.7
 11
76.29408271507142
 21
332.4349913100807
 31
0.0
100
AcDbText
 73
     3
  0
TEXT
  5
5D
330
612
100
AcDbEntity
  8
SPEC
 62
     7
100
AcDbText
 10
76.46976947658138
 20
385.6857297292965
 30
0.0
 40
2.850472005208332
  1
DVI延長機
 41
0.7
 11
76.46976947658138
 21
388.5362017345049
 31
0.0
100
AcDbText
 73
     3
  0
LINE
  5
5E
330
612
100
AcDbEntity
  8
SPEC
  6
Continuous
 62
     7
100
AcDbLine
 10
211.621813336034
 20
350.6199999998328
 30
0.0
 11
26.24999999999997
 21
350.6199999998328
 31
0.0
  0
LINE
  5
5F
330
612
100
AcDbEntity
  8
SPEC
  6
Continuous
 62
     7
100
AcDbLine
 10
211.621813336034
 20
344.9899999998328
 30
0.0
 11
26.24999999999997
 21
344.9899999998328
 31
0.0
  0
LINE
  5
60
330
612
100
AcDbEntity
  8
SPEC
  6
Continuous
 62
     7
100
AcDbLine
 10
211.621813336034
 20
339.3599999998328
 30
0.0
 11
26.24999999999997
 21
339.3599999998328
 31
0.0
  0
LINE
  5
61
330
612
100
AcDbEntity
  8
SPEC
  6
Continuous
 62
     7
100
AcDbLine
 10
211.621813336034
 20
333.7299999998328
 30
0.0
 11
26.24999999999997
 21
333.7299999998328
 31
0.0
  0
TEXT
  5
62
330
612
100
AcDbEntity
  8
SPEC
 62
     7
100
AcDbText
 10
26.97540348096928
 20
380.2539059282286
 30
0.0
 40
2.850466875
  1
ビデオアンプ帯域
 41
0.7
 11
26.97540348096928
 21
383.1043728032286
 31
0.0
100
AcDbText
 73
     3
  0
TEXT
  5
63
330
612
100
AcDbEntity
  8
SPEC
 62
     7
100
AcDbText
 10
76.14085290014154
 20
380.0564264244605
 30
0.0
 40
2.850472005208332
  1
165MHz
 41
0.7
 11
76.14085290014154
 21
382.9068984296689
 31
0.0
100
AcDbText
 73
     3
  0
TEXT
  5
64
330
612
100
AcDbEntity
  8
SPEC
 62
     7
100
AcDbText
 10
27.54063382895691
 20
368.9533366102219
 30
0.0
 40
2.850466875
  1
動作温度
 41
0.7
 11
27.54063382895691
 21
371.8038034852219
 31
0.0
100
AcDbText
 73
     3
  0
TEXT
  5
65
330
612
100
AcDbEntity
  8
SPEC
 62
     7
100
AcDbText
 10
76.48126114779177
 20
368.716546069857
 30
0.0
 40
2.850472005208332
  1
0℃～50℃
 41
0.7
 11
76.48126114779177
 21
371.5670180750654
 31
0.0
100
AcDbText
 73
     3
  0
TEXT
  5
66
330
612
100
AcDbEntity
  8
SPEC
 62
     7
100
AcDbText
 10
27.53264863181008
 20
357.6433958858225
 30
0.0
 40
2.850466875
  1
動作湿度
 41
0.7
 11
27.53264863181008
 21
360.4938627608226
 31
0.0
100
AcDbText
 73
     3
  0
TEXT
  5
67
330
612
100
AcDbEntity
  8
SPEC
 62
     7
100
AcDbText
 10
76.4589946684352
 20
357.4447680538693
 30
0.0
 40
2.850472005208332
  1
5%%%～85%%%
 41
0.7
 11
76.4589946684352
 21
360.2952400590776
 31
0.0
100
AcDbText
 73
     3
  0
TEXT
  5
68
330
612
100
AcDbEntity
  8
SPEC
 62
     7
100
AcDbText
 10
27.60627584162612
 20
374.5883618456031
 30
0.0
 40
2.850466875
  1
最大対応解像度
 41
0.7
 11
27.60627584162612
 21
377.4388287206031
 31
0.0
100
AcDbText
 73
     3
  0
TEXT
  5
69
330
612
100
AcDbEntity
  8
SPEC
 62
     7
100
AcDbText
 10
76.60430961539735
 20
374.3559434391424
 30
0.0
 40
2.850472005208332
  1
WUXGA(1920\U+00D71200)
 41
0.7
 11
76.60430961539735
 21
377.2064154443508
 31
0.0
100
AcDbText
 73
     3
  0
TEXT
  5
6A
330
612
100
AcDbEntity
  8
SPEC
 62
     7
100
AcDbText
 10
27.58070973309667
 20
363.3958835354949
 30
0.0
 40
2.850466875
  1
保管温度
 41
0.7
 11
27.58070973309667
 21
366.2463504104949
 31
0.0
100
AcDbText
 73
     3
  0
TEXT
  5
6B
330
612
100
AcDbEntity
  8
SPEC
 62
     7
100
AcDbText
 10
76.55266173793844
 20
363.1577610439705
 30
0.0
 40
2.850472005208332
  1
-10℃～85℃
 41
0.7
 11
76.55266173793844
 21
366.0082330491789
 31
0.0
100
AcDbText
 73
     3
  0
TEXT
  5
6C
330
612
100
AcDbEntity
  8
SPEC
 62
     7
100
AcDbText
 10
27.16156770268893
 20
352.0752427073429
 30
0.0
 40
2.850466875
  1
フォーマットサポート
 41
0.7
 11
27.16156770268893
 21
354.9257095823429
 31
0.0
100
AcDbText
 73
     3
  0
TEXT
  5
6D
330
612
100
AcDbEntity
  8
SPEC
 62
     7
100
AcDbText
 10
76.52035607648333
 20
351.8760325627488
 30
0.0
 40
2.850472005208332
  1
Virtual DDC経由でのDVI 1.0及び、DDC2Bをフルサポート
 41
0.7
 11
76.52035607648333
 21
354.7265045679572
 31
0.0
100
AcDbText
 73
     3
  0
TEXT
  5
6E
330
612
100
AcDbEntity
  8
SPEC
 62
     7
100
AcDbText
 10
27.59449545333027
 20
346.3833958858226
 30
0.0
 40
2.850466875
  1
EDID初期値
 41
0.7
 11
27.59449545333027
 21
349.2338627608226
 31
0.0
100
AcDbText
 73
     3
  0
TEXT
  5
6F
330
612
100
AcDbEntity
  8
SPEC
 62
     7
100
AcDbText
 10
76.4588977692666
 20
346.2460325627487
 30
0.0
 40
2.850472005208332
  1
UXGA(1600\U+00D71200)
 41
0.7
 11
76.4588977692666
 21
349.0965045679571
 31
0.0
100
AcDbText
 73
     3
  0
LINE
  5
70
330
612
100
AcDbEntity
  8
SPEC
  6
Continuous
 62
     7
100
AcDbLine
 10
211.621813336034
 20
328.0999999998328
 30
0.0
 11
26.24999999999997
 21
328.0999999998328
 31
0.0
  0
TEXT
  5
71
330
612
100
AcDbEntity
  8
DIMNSIONS
 62
     7
100
AcDbText
 10
119.9999999999999
 20
33.40423500000003
 30
0.0
 40
3.664892578124999
  1
(単位：mm)
 41
0.7
 11
119.9999999999999
 21
37.06912757812503
 31
0.0
100
AcDbText
 73
     3
  0
LINE
  5
72
330
612
100
AcDbEntity
  8
DIMNSIONS
  6
Continuous
 62
     7
100
AcDbLine
 10
56.24999999972304
 20
117.75
 30
0.0
 11
56.24999999972304
 21
103.25
 31
0.0
  0
LINE
  5
73
330
612
100
AcDbEntity
  8
DIMNSIONS
  6
Continuous
 62
     7
100
AcDbLine
 10
95.24999999972306
 20
117.75
 30
0.0
 11
95.24999999972306
 21
103.25
 31
0.0
  0
LINE
  5
74
330
612
100
AcDbEntity
  8
DIMNSIONS
  6
Continuous
 62
     7
100
AcDbLine
 10
56.24999999972304
 20
106.25
 30
0.0
 11
95.24999999972306
 21
106.25
 31
0.0
  0
LINE
  5
75
330
612
100
AcDbEntity
  8
DIMNSIONS
  6
Continuous
 62
     7
100
AcDbLine
 10
56.24999999972304
 20
106.25
 30
0.0
 11
60.00093383761367
 21
107.2550596927253
 31
0.0
  0
LINE
  5
76
330
612
100
AcDbEntity
  8
DIMNSIONS
  6
Continuous
 62
     7
100
AcDbLine
 10
56.24999999972304
 20
106.25
 30
0.0
 11
60.00093383761367
 21
105.2449403072746
 31
0.0
  0
LINE
  5
77
330
612
100
AcDbEntity
  8
DIMNSIONS
  6
Continuous
 62
     7
100
AcDbLine
 10
95.24999999972306
 20
106.25
 30
0.0
 11
91.4990661618324
 21
105.2449403072746
 31
0.0
  0
LINE
  5
78
330
612
100
AcDbEntity
  8
DIMNSIONS
  6
Continuous
 62
     7
100
AcDbLine
 10
95.24999999972306
 20
106.25
 30
0.0
 11
91.4990661618324
 21
107.2550596927253
 31
0.0
  0
TEXT
  5
79
330
612
100
AcDbEntity
  8
DIMNSIONS
 62
     7
100
AcDbText
 10
73.1041666663897
 20
107.7408333333333
 30
0.0
 40
4.072102864583333
  1
39
 41
0.7
 11
73.1041666663897
 21
111.8129361979167
 31
0.0
100
AcDbText
 73
     3
  0
LINE
  5
7A
330
612
100
AcDbEntity
  8
DIMNSIONS
  6
Continuous
 62
     7
100
AcDbLine
 10
55.24999999972305
 20
118.75
 30
0.0
 11
40.75
 21
118.75
 31
0.0
  0
LINE
  5
7B
330
612
100
AcDbEntity
  8
DIMNSIONS
  6
Continuous
 62
     7
100
AcDbLine
 10
55.24999999972305
 20
133.75
 30
0.0
 11
40.75
 21
133.75
 31
0.0
  0
LINE
  5
7C
330
612
100
AcDbEntity
  8
DIMNSIONS
  6
Continuous
 62
     7
100
AcDbLine
 10
43.75
 20
118.75
 30
0.0
 11
43.75
 21
133.75
 31
0.0
  0
LINE
  5
7D
330
612
100
AcDbEntity
  8
DIMNSIONS
  6
Continuous
 62
     7
100
AcDbLine
 10
43.75
 20
118.75
 30
0.0
 11
42.74494030727463
 21
122.5009338378906
 31
0.0
  0
LINE
  5
7E
330
612
100
AcDbEntity
  8
DIMNSIONS
  6
Continuous
 62
     7
100
AcDbLine
 10
43.75
 20
118.75
 30
0.0
 11
44.75505969272536
 21
122.5009338378906
 31
0.0
  0
LINE
  5
7F
330
612
100
AcDbEntity
  8
DIMNSIONS
  6
Continuous
 62
     7
100
AcDbLine
 10
43.75
 20
133.75
 30
0.0
 11
44.75505969272536
 21
129.9990661621094
 31
0.0
  0
LINE
  5
80
330
612
100
AcDbEntity
  8
DIMNSIONS
  6
Continuous
 62
     7
100
AcDbLine
 10
43.75
 20
133.75
 30
0.0
 11
42.74494030727463
 21
129.9990661621094
 31
0.0
  0
TEXT
  5
81
330
612
100
AcDbEntity
  8
DIMNSIONS
 62
     7
100
AcDbText
 10
42.25916666666669
 20
123.6041666666667
 30
0.0
 40
4.072102864583333
  1
15
 50
90.0
 41
0.7
 11
38.18706380208335
 21
123.6041666666667
 31
0.0
100
AcDbText
 73
     3
  0
LINE
  5
82
330
612
100
AcDbEntity
  8
DIMNSIONS
  6
Continuous
 62
     7
100
AcDbLine
 10
59.24999999999997
 20
156.25
 30
0.0
 11
40.75
 21
156.25
 31
0.0
  0
LINE
  5
83
330
612
100
AcDbEntity
  8
DIMNSIONS
  6
Continuous
 62
     7
100
AcDbLine
 10
53.25
 20
225.25
 30
0.0
 11
40.75
 21
225.25
 31
0.0
  0
LINE
  5
84
330
612
100
AcDbEntity
  8
DIMNSIONS
  6
Continuous
 62
     7
100
AcDbLine
 10
43.75
 20
156.25
 30
0.0
 11
43.75
 21
225.25
 31
0.0
  0
LINE
  5
85
330
612
100
AcDbEntity
  8
DIMNSIONS
  6
Continuous
 62
     7
100
AcDbLine
 10
43.75
 20
156.25
 30
0.0
 11
42.74494030727463
 21
160.0009338378906
 31
0.0
  0
LINE
  5
86
330
612
100
AcDbEntity
  8
DIMNSIONS
  6
Continuous
 62
     7
100
AcDbLine
 10
43.75
 20
156.25
 30
0.0
 11
44.75505969272536
 21
160.0009338378906
 31
0.0
  0
LINE
  5
87
330
612
100
AcDbEntity
  8
DIMNSIONS
  6
Continuous
 62
     7
100
AcDbLine
 10
43.75
 20
225.25
 30
0.0
 11
44.75505969272536
 21
221.4990661621094
 31
0.0
  0
LINE
  5
88
330
612
100
AcDbEntity
  8
DIMNSIONS
  6
Continuous
 62
     7
100
AcDbLine
 10
43.75
 20
225.25
 30
0.0
 11
42.74494030727463
 21
221.4990661621094
 31
0.0
  0
TEXT
  5
89
330
612
100
AcDbEntity
  8
DIMNSIONS
 62
     7
100
AcDbText
 10
42.25916666666669
 20
188.1041666666666
 30
0.0
 40
4.072102864583333
  1
69
 50
90.0
 41
0.7
 11
38.18706380208335
 21
188.1041666666666
 31
0.0
100
AcDbText
 73
     3
  0
LINE
  5
8A
330
612
100
AcDbEntity
  8
DIMNSIONS
  6
Continuous
 62
     7
100
AcDbLine
 10
181.2499999996754
 20
117.75
 30
0.0
 11
181.2499999996754
 21
103.25
 31
0.0
  0
LINE
  5
8B
330
612
100
AcDbEntity
  8
DIMNSIONS
  6
Continuous
 62
     7
100
AcDbLine
 10
220.2499999996754
 20
117.75
 30
0.0
 11
220.2499999996754
 21
103.25
 31
0.0
  0
LINE
  5
8C
330
612
100
AcDbEntity
  8
DIMNSIONS
  6
Continuous
 62
     7
100
AcDbLine
 10
181.2499999996754
 20
106.25
 30
0.0
 11
220.2499999996754
 21
106.25
 31
0.0
  0
LINE
  5
8D
330
612
100
AcDbEntity
  8
DIMNSIONS
  6
Continuous
 62
     7
100
AcDbLine
 10
181.2499999996754
 20
106.25
 30
0.0
 11
185.000933837566
 21
107.2550596927253
 31
0.0
  0
LINE
  5
8E
330
612
100
AcDbEntity
  8
DIMNSIONS
  6
Continuous
 62
     7
100
AcDbLine
 10
181.2499999996754
 20
106.25
 30
0.0
 11
185.000933837566
 21
105.2449403072746
 31
0.0
  0
LINE
  5
8F
330
612
100
AcDbEntity
  8
DIMNSIONS
  6
Continuous
 62
     7
100
AcDbLine
 10
220.2499999996754
 20
106.25
 30
0.0
 11
216.4990661617848
 21
105.2449403072746
 31
0.0
  0
LINE
  5
90
330
612
100
AcDbEntity
  8
DIMNSIONS
  6
Continuous
 62
     7
100
AcDbLine
 10
220.2499999996754
 20
106.25
 30
0.0
 11
216.4990661617848
 21
107.2550596927253
 31
0.0
  0
TEXT
  5
91
330
612
100
AcDbEntity
  8
DIMNSIONS
 62
     7
100
AcDbText
 10
198.104166666342
 20
107.7408333333333
 30
0.0
 40
4.072102864583333
  1
39
 41
0.7
 11
198.104166666342
 21
111.8129361979167
 31
0.0
100
AcDbText
 73
     3
  0
LINE
  5
92
330
612
100
AcDbEntity
  8
DIMNSIONS
  6
Continuous
 62
     7
100
AcDbLine
 10
180.2499999996754
 20
118.75
 30
0.0
 11
165.75
 21
118.75
 31
0.0
  0
LINE
  5
93
330
612
100
AcDbEntity
  8
DIMNSIONS
  6
Continuous
 62
     7
100
AcDbLine
 10
180.2499999996754
 20
133.75
 30
0.0
 11
165.75
 21
133.75
 31
0.0
  0
LINE
  5
94
330
612
100
AcDbEntity
  8
DIMNSIONS
  6
Continuous
 62
     7
100
AcDbLine
 10
168.75
 20
118.75
 30
0.0
 11
168.75
 21
133.75
 31
0.0
  0
LINE
  5
95
330
612
100
AcDbEntity
  8
DIMNSIONS
  6
Continuous
 62
     7
100
AcDbLine
 10
168.75
 20
118.75
 30
0.0
 11
167.7449403072746
 21
122.5009338378906
 31
0.0
  0
LINE
  5
96
330
612
100
AcDbEntity
  8
DIMNSIONS
  6
Continuous
 62
     7
100
AcDbLine
 10
168.75
 20
118.75
 30
0.0
 11
169.7550596927254
 21
122.5009338378906
 31
0.0
  0
LINE
  5
97
330
612
100
AcDbEntity
  8
DIMNSIONS
  6
Continuous
 62
     7
100
AcDbLine
 10
168.75
 20
133.75
 30
0.0
 11
169.7550596927254
 21
129.9990661621094
 31
0.0
  0
LINE
  5
98
330
612
100
AcDbEntity
  8
DIMNSIONS
  6
Continuous
 62
     7
100
AcDbLine
 10
168.75
 20
133.75
 30
0.0
 11
167.7449403072746
 21
129.9990661621094
 31
0.0
  0
TEXT
  5
99
330
612
100
AcDbEntity
  8
DIMNSIONS
 62
     7
100
AcDbText
 10
167.2591666666666
 20
123.6041666666667
 30
0.0
 40
4.072102864583333
  1
15
 50
90.0
 41
0.7
 11
163.1870638020833
 21
123.6041666666667
 31
0.0
100
AcDbText
 73
     3
  0
LINE
  5
9A
330
612
100
AcDbEntity
  8
DIMNSIONS
  6
Continuous
 62
     7
100
AcDbLine
 10
184.25
 20
156.25
 30
0.0
 11
165.75
 21
156.25
 31
0.0
  0
LINE
  5
9B
330
612
100
AcDbEntity
  8
DIMNSIONS
  6
Continuous
 62
     7
100
AcDbLine
 10
178.25
 20
225.25
 30
0.0
 11
165.75
 21
225.25
 31
0.0
  0
LINE
  5
9C
330
612
100
AcDbEntity
  8
DIMNSIONS
  6
Continuous
 62
     7
100
AcDbLine
 10
168.75
 20
156.25
 30
0.0
 11
168.75
 21
225.25
 31
0.0
  0
LINE
  5
9D
330
612
100
AcDbEntity
  8
DIMNSIONS
  6
Continuous
 62
     7
100
AcDbLine
 10
168.75
 20
156.25
 30
0.0
 11
167.7449403072746
 21
160.0009338378906
 31
0.0
  0
LINE
  5
9E
330
612
100
AcDbEntity
  8
DIMNSIONS
  6
Continuous
 62
     7
100
AcDbLine
 10
168.75
 20
156.25
 30
0.0
 11
169.7550596927254
 21
160.0009338378906
 31
0.0
  0
LINE
  5
9F
330
612
100
AcDbEntity
  8
DIMNSIONS
  6
Continuous
 62
     7
100
AcDbLine
 10
168.75
 20
225.25
 30
0.0
 11
169.7550596927254
 21
221.4990661621094
 31
0.0
  0
LINE
  5
A0
330
612
100
AcDbEntity
  8
DIMNSIONS
  6
Continuous
 62
     7
100
AcDbLine
 10
168.75
 20
225.25
 30
0.0
 11
167.7449403072746
 21
221.4990661621094
 31
0.0
  0
TEXT
  5
A1
330
612
100
AcDbEntity
  8
DIMNSIONS
 62
     7
100
AcDbText
 10
167.2591666666666
 20
188.1041666666666
 30
0.0
 40
4.072102864583333
  1
69
 50
90.0
 41
0.7
 11
163.1870638020833
 21
188.1041666666666
 31
0.0
100
AcDbText
 73
     3
  0
LINE
  5
A2
330
612
100
AcDbEntity
  8
DIMNSIONS
  6
Continuous
 62
     7
100
AcDbLine
 10
53.25
 20
225.25
 30
0.0
 11
40.75
 21
225.25
 31
0.0
  0
LINE
  5
A3
330
612
100
AcDbEntity
  8
DIMNSIONS
  6
Continuous
 62
     7
100
AcDbLine
 10
60.0
 20
230.25
 30
0.0
 11
40.75
 21
230.25
 31
0.0
  0
LINE
  5
A4
330
612
100
AcDbEntity
  8
DIMNSIONS
  6
Continuous
 62
     7
100
AcDbLine
 10
43.75
 20
230.25
 30
0.0
 11
43.75
 21
225.25
 31
0.0
  0
LINE
  5
A5
330
612
100
AcDbEntity
  8
DIMNSIONS
  6
Continuous
 62
     7
100
AcDbLine
 10
43.75
 20
225.25
 30
0.0
 11
43.75
 21
217.75
 31
0.0
  0
LINE
  5
A6
330
612
100
AcDbEntity
  8
DIMNSIONS
  6
Continuous
 62
     7
100
AcDbLine
 10
43.75
 20
225.25
 30
0.0
 11
44.75505969272536
 21
221.4990661621094
 31
0.0
  0
LINE
  5
A7
330
612
100
AcDbEntity
  8
DIMNSIONS
  6
Continuous
 62
     7
100
AcDbLine
 10
43.75
 20
225.25
 30
0.0
 11
42.74494030727463
 21
221.4990661621094
 31
0.0
  0
LINE
  5
A8
330
612
100
AcDbEntity
  8
DIMNSIONS
  6
Continuous
 62
     7
100
AcDbLine
 10
43.75
 20
230.25
 30
0.0
 11
43.75
 21
237.75
 31
0.0
  0
LINE
  5
A9
330
612
100
AcDbEntity
  8
DIMNSIONS
  6
Continuous
 62
     7
100
AcDbLine
 10
43.75
 20
230.25
 30
0.0
 11
42.74494030727463
 21
234.0009338378906
 31
0.0
  0
LINE
  5
AA
330
612
100
AcDbEntity
  8
DIMNSIONS
  6
Continuous
 62
     7
100
AcDbLine
 10
43.75
 20
230.25
 30
0.0
 11
44.75505969272536
 21
234.0009338378906
 31
0.0
  0
TEXT
  5
AB
330
612
100
AcDbEntity
  8
DIMNSIONS
 62
     7
100
AcDbText
 10
42.25916666666666
 20
226.4270833333333
 30
0.0
 40
4.072102864583333
  1
5
 50
90.0
 41
0.7
 11
38.18706380208333
 21
226.4270833333333
 31
0.0
100
AcDbText
 73
     3
  0
LINE
  5
AC
330
612
100
AcDbEntity
  8
DIMNSIONS
  6
Continuous
 62
     7
100
AcDbLine
 10
178.25
 20
225.25
 30
0.0
 11
165.75
 21
225.25
 31
0.0
  0
LINE
  5
AD
330
612
100
AcDbEntity
  8
DIMNSIONS
  6
Continuous
 62
     7
100
AcDbLine
 10
185.0
 20
230.25
 30
0.0
 11
165.75
 21
230.25
 31
0.0
  0
LINE
  5
AE
330
612
100
AcDbEntity
  8
DIMNSIONS
  6
Continuous
 62
     7
100
AcDbLine
 10
168.75
 20
230.25
 30
0.0
 11
168.75
 21
225.25
 31
0.0
  0
LINE
  5
AF
330
612
100
AcDbEntity
  8
DIMNSIONS
  6
Continuous
 62
     7
100
AcDbLine
 10
168.75
 20
225.25
 30
0.0
 11
168.75
 21
217.75
 31
0.0
  0
LINE
  5
B0
330
612
100
AcDbEntity
  8
DIMNSIONS
  6
Continuous
 62
     7
100
AcDbLine
 10
168.75
 20
225.25
 30
0.0
 11
169.7550596927254
 21
221.4990661621094
 31
0.0
  0
LINE
  5
B1
330
612
100
AcDbEntity
  8
DIMNSIONS
  6
Continuous
 62
     7
100
AcDbLine
 10
168.75
 20
225.25
 30
0.0
 11
167.7449403072746
 21
221.4990661621094
 31
0.0
  0
LINE
  5
B2
330
612
100
AcDbEntity
  8
DIMNSIONS
  6
Continuous
 62
     7
100
AcDbLine
 10
168.75
 20
230.25
 30
0.0
 11
168.75
 21
237.75
 31
0.0
  0
LINE
  5
B3
330
612
100
AcDbEntity
  8
DIMNSIONS
  6
Continuous
 62
     7
100
AcDbLine
 10
168.75
 20
230.25
 30
0.0
 11
167.7449403072746
 21
234.0009338378906
 31
0.0
  0
LINE
  5
B4
330
612
100
AcDbEntity
  8
DIMNSIONS
  6
Continuous
 62
     7
100
AcDbLine
 10
168.75
 20
230.25
 30
0.0
 11
169.7550596927254
 21
234.0009338378906
 31
0.0
  0
TEXT
  5
B5
330
612
100
AcDbEntity
  8
DIMNSIONS
 62
     7
100
AcDbText
 10
167.2591666666666
 20
226.4270833333333
 30
0.0
 40
4.072102864583333
  1
5
 50
90.0
 41
0.7
 11
163.1870638020833
 21
226.4270833333333
 31
0.0
100
AcDbText
 73
     3
  0
TEXT
  5
B6
330
612
100
AcDbEntity
  8
DATA
 62
     7
100
AcDbText
 10
30.0
 20
21.35699999999999
 30
0.0
 40
2.44326171875
  1
仕様および外観は予告なく変更されることがありますので、ご了承ください。
 41
0.7
 11
30.0
 21
23.80026171874999
 31
0.0
100
AcDbText
 73
     3
  0
TEXT
  5
B7
330
612
100
AcDbEntity
  8
DATA
 62
     7
100
AcDbText
 10
224.775
 20
31.60663306505956
 30
0.0
 40
3.664892578124999
  1
EXT-DVI-FM500
 41
0.7
 11
224.775
 21
35.27152564318456
 31
0.0
100
AcDbText
 73
     3
  0
TEXT
  5
B8
330
612
100
AcDbEntity
  8
DATA
 62
     7
100
AcDbText
 10
224.8320650654141
 20
43.14337015648664
 30
0.0
 40
3.664892578124999
  1
Gefen
 41
0.7
 11
224.8320650654141
 21
46.80826273461164
 31
0.0
100
AcDbText
 73
     3
  0
TEXT
  5
B9
330
612
100
AcDbEntity
  8
DATA
 62
     7
100
AcDbText
 10
221.85
 20
37.98315821596353
 30
0.0
 40
2.44326171875
  1
DVI延長機
 41
0.7
 11
221.85
 21
40.42641993471352
 31
0.0
100
AcDbText
 73
     3
  0
TEXT
  5
BA
330
612
100
AcDbEntity
  8
DATA
 62
     7
100
AcDbText
 10
64.51202956651049
 20
88.96564770519923
 30
0.0
 40
4.072102864583333
  1
センダー
 41
0.7
 11
64.51202956651049
 21
93.03775056978256
 31
0.0
100
AcDbText
 73
     3
  0
LINE
  5
BB
330
612
100
AcDbEntity
  8
DATA
  6
Continuous
 62
     7
100
AcDbLine
 10
56.25
 20
225.25
 30
0.0
 11
56.25
 21
206.25
 31
0.0
  0
LINE
  5
BC
330
612
100
AcDbEntity
  8
DATA
  6
Continuous
 62
     7
100
AcDbLine
 10
56.25
 20
195.25
 30
0.0
 11
56.25
 21
175.0382079766732
 31
0.0
  0
LINE
  5
BD
330
612
100
AcDbEntity
  8
DATA
  6
Continuous
 62
     7
100
AcDbLine
 10
95.25
 20
225.25
 30
0.0
 11
95.25
 21
206.25
 31
0.0
  0
LINE
  5
BE
330
612
100
AcDbEntity
  8
DATA
  6
Continuous
 62
     7
100
AcDbLine
 10
95.25
 20
195.25
 30
0.0
 11
95.25
 21
175.0382079766732
 31
0.0
  0
LINE
  5
BF
330
612
100
AcDbEntity
  8
DATA
  6
Continuous
 62
     7
100
AcDbLine
 10
56.25
 20
225.25
 30
0.0
 11
95.25
 21
225.25
 31
0.0
  0
LINE
  5
C0
330
612
100
AcDbEntity
  8
DATA
  6
Continuous
 62
     7
100
AcDbLine
 10
56.25
 20
206.25
 30
0.0
 11
64.24999999999997
 21
206.25
 31
0.0
  0
LINE
  5
C1
330
612
100
AcDbEntity
  8
DATA
  6
Continuous
 62
     7
100
AcDbLine
 10
87.24999999999996
 20
206.25
 30
0.0
 11
95.25
 21
206.25
 31
0.0
  0
LINE
  5
C2
330
612
100
AcDbEntity
  8
DATA
  6
Continuous
 62
     7
100
AcDbLine
 10
56.25
 20
195.25
 30
0.0
 11
64.24999999999997
 21
195.25
 31
0.0
  0
LINE
  5
C3
330
612
100
AcDbEntity
  8
DATA
  6
Continuous
 62
     7
100
AcDbLine
 10
87.24999999999996
 20
195.25
 30
0.0
 11
95.25
 21
195.25
 31
0.0
  0
ARC
  5
C4
330
612
100
AcDbEntity
  8
DATA
  6
Continuous
 62
     7
100
AcDbCircle
 10
103.7875000000012
 20
180.0958333333337
 30
0.0
 40
47.89559137970042
100
AcDbArc
 50
188.0998263756249
 51
209.85925631858
  0
ARC
  5
C5
330
612
100
AcDbEntity
  8
DATA
  6
Continuous
 62
     7
100
AcDbCircle
 10
47.71249999999876
 20
180.0958333333337
 30
0.0
 40
47.89559137970042
100
AcDbArc
 50
330.14074368142
 51
351.9001736243752
  0
LINE
  5
C6
330
612
100
AcDbEntity
  8
DATA
  6
Continuous
 62
     7
100
AcDbLine
 10
62.24999999999997
 20
156.25
 30
0.0
 11
89.25000000000004
 21
156.25
 31
0.0
  0
ARC
  5
C7
330
612
100
AcDbEntity
  8
DATA
  6
Continuous
 62
     7
100
AcDbCircle
 10
68.25000000000018
 20
175.0382079766732
 30
0.0
 40
12.00000000000019
100
AcDbArc
 50
180.0
 51
188.0998263756248
  0
ARC
  5
C8
330
612
100
AcDbEntity
  8
DATA
  6
Continuous
 62
     7
100
AcDbCircle
 10
83.2500000000005
 20
175.0382079766732
 30
0.0
 40
11.99999999999949
100
AcDbArc
 50
351.9001736243749
 51
0.0
  0
LINE
  5
C9
330
612
100
AcDbEntity
  8
DATA
  6
Continuous
 62
     7
100
AcDbLine
 10
87.24999999999996
 20
206.25
 30
0.0
 11
87.24999999999996
 21
195.25
 31
0.0
  0
LINE
  5
CA
330
612
100
AcDbEntity
  8
DATA
  6
Continuous
 62
     7
100
AcDbLine
 10
64.24999999999997
 20
195.25
 30
0.0
 11
64.24999999999997
 21
206.25
 31
0.0
  0
LINE
  5
CB
330
612
100
AcDbEntity
  8
DATA
  6
Continuous
 62
     7
100
AcDbLine
 10
56.25
 20
220.25
 30
0.0
 11
59.99999999999997
 21
220.25
 31
0.0
  0
LINE
  5
CC
330
612
100
AcDbEntity
  8
DATA
  6
Continuous
 62
     7
100
AcDbLine
 10
63.0
 20
230.25
 30
0.0
 11
88.49999999999999
 21
230.25
 31
0.0
  0
LWPOLYLINE
  5
CD
330
612
100
AcDbEntity
  8
DATA
  6
Continuous
 62
     7
100
AcDbPolyline
 90
        4
 70
     0
 43
0.0
 10
57.87016306276162
 20
225.25
 10
57.87016306276162
 20
227.7235842313261
 10
60.57016306276162
 20
227.7235842313261
 10
60.57016306276162
 20
225.25
  0
LINE
  5
D4
330
612
100
AcDbEntity
  8
DATA
  6
Continuous
 62
     7
100
AcDbLine
 10
57.87016306276162
 20
225.25
 30
0.0
 11
60.57016306276162
 21
225.53
 31
0.0
  0
LINE
  5
D5
330
612
100
AcDbEntity
  8
DATA
  6
Continuous
 62
     7
100
AcDbLine
 10
57.87016306276162
 20
226.05
 30
0.0
 11
60.57016306276162
 21
226.33
 31
0.0
  0
LINE
  5
D6
330
612
100
AcDbEntity
  8
DATA
  6
Continuous
 62
     7
100
AcDbLine
 10
57.87016306276162
 20
226.85
 30
0.0
 11
60.57016306276162
 21
227.13
 31
0.0
  0
LWPOLYLINE
  5
D7
330
612
100
AcDbEntity
  8
DATA
  6
Continuous
 62
     7
100
AcDbPolyline
 90
        4
 70
     0
 43
0.0
 10
90.87016306276165
 20
225.25
 10
90.87016306276165
 20
227.7235842313261
 10
93.57016306276165
 20
227.7235842313261
 10
93.57016306276165
 20
225.25
  0
LINE
  5
DE
330
612
100
AcDbEntity
  8
DATA
  6
Continuous
 62
     7
100
AcDbLine
 10
90.87016306276165
 20
225.25
 30
0.0
 11
93.57016306276165
 21
225.53
 31
0.0
  0
LINE
  5
DF
330
612
100
AcDbEntity
  8
DATA
  6
Continuous
 62
     7
100
AcDbLine
 10
90.87016306276165
 20
226.05
 30
0.0
 11
93.57016306276165
 21
226.33
 31
0.0
  0
LINE
  5
E0
330
612
100
AcDbEntity
  8
DATA
  6
Continuous
 62
     7
100
AcDbLine
 10
90.87016306276165
 20
226.85
 30
0.0
 11
93.57016306276165
 21
227.13
 31
0.0
  0
LINE
  5
E1
330
612
100
AcDbEntity
  8
DATA
  6
Continuous
 62
     7
100
AcDbLine
 10
55.34999999999997
 20
204.9097526159584
 30
0.0
 11
63.14999999999998
 21
204.9097526159584
 31
0.0
  0
LINE
  5
E2
330
612
100
AcDbEntity
  8
DATA
  6
Continuous
 62
     7
100
AcDbLine
 10
62.97999999999993
 20
196.9097526159584
 30
0.0
 11
55.52
 21
196.9097526159584
 31
0.0
  0
LINE
  5
E3
330
612
100
AcDbEntity
  8
DATA
  6
Continuous
 62
     7
100
AcDbLine
 10
57.87016306276162
 20
206.25
 30
0.0
 11
57.87016306276162
 21
204.9097526159584
 31
0.0
  0
LINE
  5
E4
330
612
100
AcDbEntity
  8
DATA
  6
Continuous
 62
     7
100
AcDbLine
 10
60.57016306276162
 20
206.25
 30
0.0
 11
60.57016306276162
 21
204.9097526159584
 31
0.0
  0
LINE
  5
E5
330
612
100
AcDbEntity
  8
DATA
  6
Continuous
 62
     7
100
AcDbLine
 10
55.34999999999997
 20
204.9097526159584
 30
0.0
 11
55.52
 21
196.9097526159584
 31
0.0
  0
LINE
  5
E6
330
612
100
AcDbEntity
  8
DATA
  6
Continuous
 62
     7
100
AcDbLine
 10
63.14999999999998
 20
204.9097526159584
 30
0.0
 11
62.97999999999993
 21
196.9097526159584
 31
0.0
  0
LINE
  5
E7
330
612
100
AcDbEntity
  8
DATA
  6
Continuous
 62
     7
100
AcDbLine
 10
57.87016306276162
 20
204.9097526159584
 30
0.0
 11
60.57016306276162
 21
205.18
 31
0.0
  0
LINE
  5
E8
330
612
100
AcDbEntity
  8
DATA
  6
Continuous
 62
     7
100
AcDbLine
 10
57.87016306276162
 20
205.7097526159584
 30
0.0
 11
60.57016306276162
 21
205.98
 31
0.0
  0
LINE
  5
E9
330
612
100
AcDbEntity
  8
DATA
  6
Continuous
 62
     7
100
AcDbLine
 10
55.72856248773253
 20
196.9097526159584
 30
0.0
 11
55.72856248773253
 21
204.9097526159584
 31
0.0
  0
LINE
  5
EA
330
612
100
AcDbEntity
  8
DATA
  6
Continuous
 62
     7
100
AcDbLine
 10
56.72856248773253
 20
196.9097526159584
 30
0.0
 11
56.72856248773253
 21
204.9097526159584
 31
0.0
  0
LINE
  5
EB
330
612
100
AcDbEntity
  8
DATA
  6
Continuous
 62
     7
100
AcDbLine
 10
57.72856248773253
 20
196.9097526159584
 30
0.0
 11
57.72856248773253
 21
204.9097526159584
 31
0.0
  0
LINE
  5
EC
330
612
100
AcDbEntity
  8
DATA
  6
Continuous
 62
     7
100
AcDbLine
 10
58.72856248773253
 20
196.9097526159584
 30
0.0
 11
58.72856248773253
 21
204.9097526159584
 31
0.0
  0
LINE
  5
ED
330
612
100
AcDbEntity
  8
DATA
  6
Continuous
 62
     7
100
AcDbLine
 10
59.72856248773253
 20
196.9097526159584
 30
0.0
 11
59.72856248773253
 21
204.9097526159584
 31
0.0
  0
LINE
  5
EE
330
612
100
AcDbEntity
  8
DATA
  6
Continuous
 62
     7
100
AcDbLine
 10
60.72856248773253
 20
196.9097526159584
 30
0.0
 11
60.72856248773253
 21
204.9097526159584
 31
0.0
  0
LINE
  5
EF
330
612
100
AcDbEntity
  8
DATA
  6
Continuous
 62
     7
100
AcDbLine
 10
61.72856248773253
 20
196.9097526159584
 30
0.0
 11
61.72856248773253
 21
204.9097526159584
 31
0.0
  0
LINE
  5
F0
330
612
100
AcDbEntity
  8
DATA
  6
Continuous
 62
     7
100
AcDbLine
 10
62.72856248773253
 20
196.9097526159584
 30
0.0
 11
62.72856248773253
 21
204.9097526159584
 31
0.0
  0
LINE
  5
F1
330
612
100
AcDbEntity
  8
DATA
  6
Continuous
 62
     7
100
AcDbLine
 10
88.34999999999997
 20
204.9097526159584
 30
0.0
 11
96.14999999999996
 21
204.9097526159584
 31
0.0
  0
LINE
  5
F2
330
612
100
AcDbEntity
  8
DATA
  6
Continuous
 62
     7
100
AcDbLine
 10
95.97999999999995
 20
196.9097526159584
 30
0.0
 11
88.51999999999998
 21
196.9097526159584
 31
0.0
  0
LINE
  5
F3
330
612
100
AcDbEntity
  8
DATA
  6
Continuous
 62
     7
100
AcDbLine
 10
90.87016306276165
 20
206.25
 30
0.0
 11
90.87016306276165
 21
204.9097526159584
 31
0.0
  0
LINE
  5
F4
330
612
100
AcDbEntity
  8
DATA
  6
Continuous
 62
     7
100
AcDbLine
 10
93.57016306276165
 20
206.25
 30
0.0
 11
93.57016306276165
 21
204.9097526159584
 31
0.0
  0
LINE
  5
F5
330
612
100
AcDbEntity
  8
DATA
  6
Continuous
 62
     7
100
AcDbLine
 10
88.34999999999997
 20
204.9097526159584
 30
0.0
 11
88.51999999999998
 21
196.9097526159584
 31
0.0
  0
LINE
  5
F6
330
612
100
AcDbEntity
  8
DATA
  6
Continuous
 62
     7
100
AcDbLine
 10
96.14999999999996
 20
204.9097526159584
 30
0.0
 11
95.97999999999995
 21
196.9097526159584
 31
0.0
  0
LINE
  5
F7
330
612
100
AcDbEntity
  8
DATA
  6
Continuous
 62
     7
100
AcDbLine
 10
90.87016306276165
 20
205.7097526159584
 30
0.0
 11
93.57016306276165
 21
205.98
 31
0.0
  0
LINE
  5
F8
330
612
100
AcDbEntity
  8
DATA
  6
Continuous
 62
     7
100
AcDbLine
 10
88.72856248773253
 20
196.9097526159584
 30
0.0
 11
88.72856248773253
 21
204.9097526159584
 31
0.0
  0
LINE
  5
F9
330
612
100
AcDbEntity
  8
DATA
  6
Continuous
 62
     7
100
AcDbLine
 10
89.72856248773252
 20
196.9097526159584
 30
0.0
 11
89.72856248773252
 21
204.9097526159584
 31
0.0
  0
LINE
  5
FA
330
612
100
AcDbEntity
  8
DATA
  6
Continuous
 62
     7
100
AcDbLine
 10
90.72856248773254
 20
196.9097526159584
 30
0.0
 11
90.72856248773254
 21
204.9097526159584
 31
0.0
  0
LINE
  5
FB
330
612
100
AcDbEntity
  8
DATA
  6
Continuous
 62
     7
100
AcDbLine
 10
91.72856248773253
 20
196.9097526159584
 30
0.0
 11
91.72856248773253
 21
204.9097526159584
 31
0.0
  0
LINE
  5
FC
330
612
100
AcDbEntity
  8
DATA
  6
Continuous
 62
     7
100
AcDbLine
 10
92.72856248773253
 20
196.9097526159584
 30
0.0
 11
92.72856248773253
 21
204.9097526159584
 31
0.0
  0
LINE
  5
FD
330
612
100
AcDbEntity
  8
DATA
  6
Continuous
 62
     7
100
AcDbLine
 10
93.72856248773253
 20
196.9097526159584
 30
0.0
 11
93.72856248773253
 21
204.9097526159584
 31
0.0
  0
LINE
  5
FE
330
612
100
AcDbEntity
  8
DATA
  6
Continuous
 62
     7
100
AcDbLine
 10
94.72856248773252
 20
196.9097526159584
 30
0.0
 11
94.72856248773252
 21
204.9097526159584
 31
0.0
  0
LINE
  5
FF
330
612
100
AcDbEntity
  8
DATA
  6
Continuous
 62
     7
100
AcDbLine
 10
95.72856248773254
 20
196.9097526159584
 30
0.0
 11
95.72856248773254
 21
204.9097526159584
 31
0.0
  0
LINE
  5
100
330
612
100
AcDbEntity
  8
DATA
  6
Continuous
 62
     7
100
AcDbLine
 10
59.99999999999997
 20
220.25
 30
0.0
 11
59.99999999999997
 21
212.8
 31
0.0
  0
ARC
  5
101
330
612
100
AcDbEntity
  8
DATA
  6
Continuous
 62
     7
100
AcDbCircle
 10
67.47667088607602
 20
213.7865189873419
 30
0.0
 40
7.541473811602292
100
AcDbArc
 50
187.5165456672564
 51
272.0770522664144
  0
ARC
  5
102
330
612
100
AcDbEntity
  8
DATA
  6
Continuous
 62
     7
100
AcDbCircle
 10
84.02332911392397
 20
213.7865189873419
 30
0.0
 40
7.541473811602284
100
AcDbArc
 50
267.9229477335857
 51
352.4834543327433
  0
LINE
  5
103
330
612
100
AcDbEntity
  8
DATA
  6
Continuous
 62
     7
100
AcDbLine
 10
95.25
 20
220.25
 30
0.0
 11
91.50000000000003
 21
220.25
 31
0.0
  0
LINE
  5
104
330
612
100
AcDbEntity
  8
DATA
  6
Continuous
 62
     7
100
AcDbLine
 10
91.50000000000003
 20
220.25
 30
0.0
 11
91.50000000000003
 21
212.8
 31
0.0
  0
LINE
  5
105
330
612
100
AcDbEntity
  8
DATA
  6
Continuous
 62
     7
100
AcDbLine
 10
67.74999999999997
 20
206.25
 30
0.0
 11
67.74999999999997
 21
195.1587479397604
 31
0.0
  0
LINE
  5
106
330
612
100
AcDbEntity
  8
DATA
  6
Continuous
 62
     7
100
AcDbLine
 10
83.75000000000003
 20
206.25
 30
0.0
 11
83.75000000000003
 21
195.1587479397604
 31
0.0
  0
LINE
  5
107
330
612
100
AcDbEntity
  8
DATA
  6
Continuous
 62
     7
100
AcDbLine
 10
59.99999999999997
 20
166.25
 30
0.0
 11
59.99999999999997
 21
188.6087479397604
 31
0.0
  0
ARC
  5
108
330
612
100
AcDbEntity
  8
DATA
  6
Continuous
 62
     7
100
AcDbCircle
 10
67.47667088607602
 20
187.6222289524185
 30
0.0
 40
7.541473811602332
100
AcDbArc
 50
87.92294773358563
 51
172.4834543327432
  0
ARC
  5
109
330
612
100
AcDbEntity
  8
DATA
  6
Continuous
 62
     7
100
AcDbCircle
 10
84.02332911392397
 20
187.6222289524185
 30
0.0
 40
7.5414738116023
100
AcDbArc
 50
7.516545667256795
 51
92.07705226641435
  0
LINE
  5
10A
330
612
100
AcDbEntity
  8
DATA
  6
Continuous
 62
     7
100
AcDbLine
 10
91.50000000000003
 20
166.25
 30
0.0
 11
91.50000000000003
 21
188.6087479397604
 31
0.0
  0
ARC
  5
10B
330
612
100
AcDbEntity
  8
DATA
  6
Continuous
 62
     7
100
AcDbCircle
 10
75.33907894736879
 20
167.8489421052634
 30
0.0
 40
15.42219046729736
100
AcDbArc
 50
185.9510067365683
 51
228.7721229039736
  0
ARC
  5
10C
330
612
100
AcDbEntity
  8
DATA
  6
Continuous
 62
     7
100
AcDbCircle
 10
76.16092105263118
 20
167.8489421052634
 30
0.0
 40
15.42219046729736
100
AcDbArc
 50
311.2278770960265
 51
354.0489932634318
  0
CIRCLE
  5
10D
330
612
100
AcDbEntity
  8
DATA
  6
Continuous
 62
     7
100
AcDbCircle
 10
79.76697765621006
 20
208.818869952693
 30
0.0
 40
2.900000000000004
  0
CIRCLE
  5
10E
330
612
100
AcDbEntity
  8
DATA
  6
Continuous
 62
     7
100
AcDbCircle
 10
79.76697765621006
 20
208.818869952693
 30
0.0
 40
0.75
  0
LINE
  5
10F
330
612
100
AcDbEntity
  8
DATA
  6
Continuous
 62
     7
100
AcDbLine
 10
67.74999999999997
 20
204.6
 30
0.0
 11
83.75000000000003
 21
204.6
 31
0.0
  0
LINE
  5
110
330
612
100
AcDbEntity
  8
DATA
  6
Continuous
 62
     7
100
AcDbLine
 10
67.74999999999997
 20
202.2
 30
0.0
 11
83.75000000000003
 21
202.2
 31
0.0
  0
LINE
  5
111
330
612
100
AcDbEntity
  8
DATA
  6
Continuous
 62
     7
100
AcDbLine
 10
67.74999999999997
 20
196.8087479397604
 30
0.0
 11
83.75000000000003
 21
196.8087479397604
 31
0.0
  0
LINE
  5
112
330
612
100
AcDbEntity
  8
DATA
  6
Continuous
 62
     7
100
AcDbLine
 10
67.74999999999997
 20
199.2087479397604
 30
0.0
 11
83.75000000000003
 21
199.2087479397604
 31
0.0
  0
LINE
  5
113
330
612
100
AcDbEntity
  8
DATA
  6
Continuous
 62
     7
100
AcDbLine
 10
58.24999999972304
 20
118.75
 30
0.0
 11
93.24999999972305
 21
118.75
 31
0.0
  0
LINE
  5
114
330
612
100
AcDbEntity
  8
DATA
  6
Continuous
 62
     7
100
AcDbLine
 10
58.24999999972304
 20
133.75
 30
0.0
 11
93.24999999972305
 21
133.75
 31
0.0
  0
LINE
  5
115
330
612
100
AcDbEntity
  8
DATA
  6
Continuous
 62
     7
100
AcDbLine
 10
95.24999999972306
 20
131.75
 30
0.0
 11
95.24999999972306
 21
120.75
 31
0.0
  0
LINE
  5
116
330
612
100
AcDbEntity
  8
DATA
  6
Continuous
 62
     7
100
AcDbLine
 10
56.24999999972304
 20
120.75
 30
0.0
 11
56.24999999972304
 21
131.75
 31
0.0
  0
LINE
  5
117
330
612
100
AcDbEntity
  8
DATA
  6
Continuous
 62
     7
100
AcDbLine
 10
62.99999999972304
 20
133.75
 30
0.0
 11
62.99999999972304
 21
118.75
 31
0.0
  0
LINE
  5
118
330
612
100
AcDbEntity
  8
DATA
  6
Continuous
 62
     7
100
AcDbLine
 10
89.99999999972306
 20
133.75
 30
0.0
 11
89.99999999972306
 21
118.75
 31
0.0
  0
LINE
  5
119
330
612
100
AcDbEntity
  8
DATA
  6
Continuous
 62
     7
100
AcDbLine
 10
58.24999999972304
 20
118.75
 30
0.0
 11
58.24999999972304
 21
133.75
 31
0.0
  0
LINE
  5
11A
330
612
100
AcDbEntity
  8
DATA
  6
Continuous
 62
     7
100
AcDbLine
 10
56.24999999972304
 20
131.75
 30
0.0
 11
58.24999999972304
 21
133.75
 31
0.0
  0
LINE
  5
11B
330
612
100
AcDbEntity
  8
DATA
  6
Continuous
 62
     7
100
AcDbLine
 10
58.24999999972304
 20
118.75
 30
0.0
 11
56.24999999972304
 21
120.75
 31
0.0
  0
LINE
  5
11C
330
612
100
AcDbEntity
  8
DATA
  6
Continuous
 62
     7
100
AcDbLine
 10
93.24999999972305
 20
133.75
 30
0.0
 11
93.24999999972305
 21
118.75
 31
0.0
  0
LINE
  5
11D
330
612
100
AcDbEntity
  8
DATA
  6
Continuous
 62
     7
100
AcDbLine
 10
95.24999999972306
 20
131.75
 30
0.0
 11
93.24999999972305
 21
133.75
 31
0.0
  0
LINE
  5
11E
330
612
100
AcDbEntity
  8
DATA
  6
Continuous
 62
     7
100
AcDbLine
 10
95.24999999972306
 20
120.75
 30
0.0
 11
93.24999999972305
 21
118.75
 31
0.0
  0
LINE
  5
11F
330
612
100
AcDbEntity
  8
DATA
  6
Continuous
 62
     7
100
AcDbLine
 10
62.99999999972304
 20
131.75
 30
0.0
 11
58.24999999972304
 21
131.75
 31
0.0
  0
LINE
  5
120
330
612
100
AcDbEntity
  8
DATA
  6
Continuous
 62
     7
100
AcDbLine
 10
62.99999999972304
 20
120.75
 30
0.0
 11
58.24999999972304
 21
120.75
 31
0.0
  0
LINE
  5
121
330
612
100
AcDbEntity
  8
DATA
  6
Continuous
 62
     7
100
AcDbLine
 10
93.24999999972305
 20
131.75
 30
0.0
 11
89.99999999972306
 21
131.75
 31
0.0
  0
LINE
  5
122
330
612
100
AcDbEntity
  8
DATA
  6
Continuous
 62
     7
100
AcDbLine
 10
93.24999999972305
 20
120.75
 30
0.0
 11
89.99999999972306
 21
120.75
 31
0.0
  0
CIRCLE
  5
123
330
612
100
AcDbEntity
  8
DATA
  6
Continuous
 62
     7
100
AcDbCircle
 10
66.50662424568924
 20
130.5347006032271
 30
0.0
 40
2.549999999999995
  0
CIRCLE
  5
124
330
612
100
AcDbEntity
  8
DATA
  6
Continuous
 62
     7
100
AcDbCircle
 10
66.50662424568924
 20
130.5347006032271
 30
0.0
 40
1.849999999999994
  0
CIRCLE
  5
125
330
612
100
AcDbEntity
  8
DATA
  6
Continuous
 62
     7
100
AcDbCircle
 10
66.50662424568924
 20
130.5347006032271
 30
0.0
 40
0.4000000000000057
  0
LINE
  5
126
330
612
100
AcDbEntity
  8
DATA
  6
Continuous
 62
     7
100
AcDbLine
 10
85.29999999972305
 20
120.15
 30
0.0
 11
80.5999999997231
 21
120.15
 31
0.0
  0
LINE
  5
127
330
612
100
AcDbEntity
  8
DATA
  6
Continuous
 62
     7
100
AcDbLine
 10
84.24999999972305
 20
127.35
 30
0.0
 11
81.64999999972309
 21
127.35
 31
0.0
  0
LINE
  5
128
330
612
100
AcDbEntity
  8
DATA
  6
Continuous
 62
     7
100
AcDbLine
 10
85.29999999972305
 20
120.15
 30
0.0
 11
85.29999999972305
 21
124.6674461436753
 31
0.0
  0
LINE
  5
129
330
612
100
AcDbEntity
  8
DATA
  6
Continuous
 62
     7
100
AcDbLine
 10
85.29999999972305
 20
125.4174461436753
 30
0.0
 11
85.29999999972305
 21
126.35
 31
0.0
  0
LINE
  5
12A
330
612
100
AcDbEntity
  8
DATA
  6
Continuous
 62
     7
100
AcDbLine
 10
80.5999999997231
 20
120.15
 30
0.0
 11
80.5999999997231
 21
124.6674461436753
 31
0.0
  0
LINE
  5
12B
330
612
100
AcDbEntity
  8
DATA
  6
Continuous
 62
     7
100
AcDbLine
 10
80.5999999997231
 20
125.4174461436753
 30
0.0
 11
80.5999999997231
 21
126.35
 31
0.0
  0
LINE
  5
12C
330
612
100
AcDbEntity
  8
DATA
  6
Continuous
 62
     7
100
AcDbLine
 10
85.29999999972305
 20
126.35
 30
0.0
 11
84.24999999972305
 21
126.35
 31
0.0
  0
LINE
  5
12D
330
612
100
AcDbEntity
  8
DATA
  6
Continuous
 62
     7
100
AcDbLine
 10
81.64999999972309
 20
126.35
 30
0.0
 11
80.5999999997231
 21
126.35
 31
0.0
  0
LINE
  5
12E
330
612
100
AcDbEntity
  8
DATA
  6
Continuous
 62
     7
100
AcDbLine
 10
84.24999999972305
 20
127.35
 30
0.0
 11
84.24999999972305
 21
126.35
 31
0.0
  0
LINE
  5
12F
330
612
100
AcDbEntity
  8
DATA
  6
Continuous
 62
     7
100
AcDbLine
 10
81.64999999972309
 20
126.35
 30
0.0
 11
81.64999999972309
 21
127.35
 31
0.0
  0
LINE
  5
130
330
612
100
AcDbEntity
  8
DATA
  6
Continuous
 62
     7
100
AcDbLine
 10
81.1499999997231
 20
125.4174461436753
 30
0.0
 11
80.5999999997231
 21
125.4174461436753
 31
0.0
  0
LINE
  5
131
330
612
100
AcDbEntity
  8
DATA
  6
Continuous
 62
     7
100
AcDbLine
 10
81.1499999997231
 20
124.6674461436753
 30
0.0
 11
80.5999999997231
 21
124.6674461436753
 31
0.0
  0
LINE
  5
132
330
612
100
AcDbEntity
  8
DATA
  6
Continuous
 62
     7
100
AcDbLine
 10
84.74999999972306
 20
125.4174461436753
 30
0.0
 11
85.29999999972305
 21
125.4174461436753
 31
0.0
  0
LINE
  5
133
330
612
100
AcDbEntity
  8
DATA
  6
Continuous
 62
     7
100
AcDbLine
 10
84.74999999972306
 20
124.6674461436753
 30
0.0
 11
85.29999999972305
 21
124.6674461436753
 31
0.0
  0
LINE
  5
134
330
612
100
AcDbEntity
  8
DATA
  6
Continuous
 62
     7
100
AcDbLine
 10
81.1499999997231
 20
124.6674461436753
 30
0.0
 11
81.1499999997231
 21
125.4174461436753
 31
0.0
  0
LINE
  5
135
330
612
100
AcDbEntity
  8
DATA
  6
Continuous
 62
     7
100
AcDbLine
 10
84.74999999972306
 20
124.6674461436753
 30
0.0
 11
84.74999999972306
 21
125.4174461436753
 31
0.0
  0
LINE
  5
136
330
612
100
AcDbEntity
  8
DATA
  6
Continuous
 62
     7
100
AcDbLine
 10
79.29999999972306
 20
120.15
 30
0.0
 11
74.5999999997231
 21
120.15
 31
0.0
  0
LINE
  5
137
330
612
100
AcDbEntity
  8
DATA
  6
Continuous
 62
     7
100
AcDbLine
 10
78.24999999972304
 20
127.35
 30
0.0
 11
75.64999999972309
 21
127.35
 31
0.0
  0
LINE
  5
138
330
612
100
AcDbEntity
  8
DATA
  6
Continuous
 62
     7
100
AcDbLine
 10
79.29999999972306
 20
120.15
 30
0.0
 11
79.29999999972306
 21
124.6674461436753
 31
0.0
  0
LINE
  5
139
330
612
100
AcDbEntity
  8
DATA
  6
Continuous
 62
     7
100
AcDbLine
 10
79.29999999972306
 20
125.4174461436753
 30
0.0
 11
79.29999999972306
 21
126.35
 31
0.0
  0
LINE
  5
13A
330
612
100
AcDbEntity
  8
DATA
  6
Continuous
 62
     7
100
AcDbLine
 10
74.5999999997231
 20
120.15
 30
0.0
 11
74.5999999997231
 21
124.6674461436753
 31
0.0
  0
LINE
  5
13B
330
612
100
AcDbEntity
  8
DATA
  6
Continuous
 62
     7
100
AcDbLine
 10
74.5999999997231
 20
125.4174461436753
 30
0.0
 11
74.5999999997231
 21
126.35
 31
0.0
  0
LINE
  5
13C
330
612
100
AcDbEntity
  8
DATA
  6
Continuous
 62
     7
100
AcDbLine
 10
79.29999999972306
 20
126.35
 30
0.0
 11
78.24999999972304
 21
126.35
 31
0.0
  0
LINE
  5
13D
330
612
100
AcDbEntity
  8
DATA
  6
Continuous
 62
     7
100
AcDbLine
 10
75.64999999972309
 20
126.35
 30
0.0
 11
74.5999999997231
 21
126.35
 31
0.0
  0
LINE
  5
13E
330
612
100
AcDbEntity
  8
DATA
  6
Continuous
 62
     7
100
AcDbLine
 10
78.24999999972304
 20
127.35
 30
0.0
 11
78.24999999972304
 21
126.35
 31
0.0
  0
LINE
  5
13F
330
612
100
AcDbEntity
  8
DATA
  6
Continuous
 62
     7
100
AcDbLine
 10
75.64999999972309
 20
126.35
 30
0.0
 11
75.64999999972309
 21
127.35
 31
0.0
  0
LINE
  5
140
330
612
100
AcDbEntity
  8
DATA
  6
Continuous
 62
     7
100
AcDbLine
 10
75.14999999972309
 20
125.4174461436753
 30
0.0
 11
74.5999999997231
 21
125.4174461436753
 31
0.0
  0
LINE
  5
141
330
612
100
AcDbEntity
  8
DATA
  6
Continuous
 62
     7
100
AcDbLine
 10
75.14999999972309
 20
124.6674461436753
 30
0.0
 11
74.5999999997231
 21
124.6674461436753
 31
0.0
  0
LINE
  5
142
330
612
100
AcDbEntity
  8
DATA
  6
Continuous
 62
     7
100
AcDbLine
 10
78.74999999972306
 20
125.4174461436753
 30
0.0
 11
79.29999999972306
 21
125.4174461436753
 31
0.0
  0
LINE
  5
143
330
612
100
AcDbEntity
  8
DATA
  6
Continuous
 62
     7
100
AcDbLine
 10
78.74999999972306
 20
124.6674461436753
 30
0.0
 11
79.29999999972306
 21
124.6674461436753
 31
0.0
  0
LINE
  5
144
330
612
100
AcDbEntity
  8
DATA
  6
Continuous
 62
     7
100
AcDbLine
 10
75.14999999972309
 20
124.6674461436753
 30
0.0
 11
75.14999999972309
 21
125.4174461436753
 31
0.0
  0
LINE
  5
145
330
612
100
AcDbEntity
  8
DATA
  6
Continuous
 62
     7
100
AcDbLine
 10
78.74999999972306
 20
124.6674461436753
 30
0.0
 11
78.74999999972306
 21
125.4174461436753
 31
0.0
  0
LINE
  5
146
330
612
100
AcDbEntity
  8
DATA
  6
Continuous
 62
     7
100
AcDbLine
 10
57.25
 20
243.75
 30
0.0
 11
94.25
 21
243.75
 31
0.0
  0
LINE
  5
147
330
612
100
AcDbEntity
  8
DATA
  6
Continuous
 62
     7
100
AcDbLine
 10
57.25
 20
258.75
 30
0.0
 11
94.25
 21
258.75
 31
0.0
  0
LINE
  5
148
330
612
100
AcDbEntity
  8
DATA
  6
Continuous
 62
     7
100
AcDbLine
 10
56.25
 20
244.75
 30
0.0
 11
56.25
 21
257.75
 31
0.0
  0
LINE
  5
149
330
612
100
AcDbEntity
  8
DATA
  6
Continuous
 62
     7
100
AcDbLine
 10
95.25
 20
244.75
 30
0.0
 11
95.25
 21
257.75
 31
0.0
  0
CIRCLE
  5
14A
330
612
100
AcDbEntity
  8
DATA
  6
Continuous
 62
     7
100
AcDbCircle
 10
59.22016306276162
 20
251.25
 30
0.0
 40
1.349999999999994
  0
CIRCLE
  5
14B
330
612
100
AcDbEntity
  8
DATA
  6
Continuous
 62
     7
100
AcDbCircle
 10
92.22016306276165
 20
251.25
 30
0.0
 40
1.35
  0
ARC
  5
14C
330
612
100
AcDbEntity
  8
DATA
  6
Continuous
 62
     7
100
AcDbCircle
 10
57.25
 20
257.75
 30
0.0
 40
1.0
100
AcDbArc
 50
90.0
 51
180.0
  0
ARC
  5
14D
330
612
100
AcDbEntity
  8
DATA
  6
Continuous
 62
     7
100
AcDbCircle
 10
57.25
 20
244.75
 30
0.0
 40
1.0
100
AcDbArc
 50
180.0
 51
270.0
  0
ARC
  5
14E
330
612
100
AcDbEntity
  8
DATA
  6
Continuous
 62
     7
100
AcDbCircle
 10
94.25
 20
257.75
 30
0.0
 40
1.0
100
AcDbArc
 50
0.0
 51
90.0
  0
ARC
  5
14F
330
612
100
AcDbEntity
  8
DATA
  6
Continuous
 62
     7
100
AcDbCircle
 10
94.25
 20
244.75
 30
0.0
 40
1.0
100
AcDbArc
 50
270.0
 51
0.0
  0
LINE
  5
150
330
612
100
AcDbEntity
  8
DATA
  6
Continuous
 62
     7
100
AcDbLine
 10
64.90579162496114
 20
255.8
 30
0.0
 11
86.59420837503885
 21
255.8
 31
0.0
  0
LINE
  5
151
330
612
100
AcDbEntity
  8
DATA
  6
Continuous
 62
     7
100
AcDbLine
 10
64.0
 20
246.7
 30
0.0
 11
87.5
 21
246.7
 31
0.0
  0
LWPOLYLINE
  5
152
330
612
100
AcDbEntity
  8
DATA
  6
Continuous
 62
     7
100
AcDbPolyline
 90
        4
 70
     1
 43
0.0
 10
83.15304454722681
 20
251.475
 10
85.5530445472268
 20
251.475
 10
85.5530445472268
 20
251.025
 10
83.15304454722681
 20
251.025
  0
LWPOLYLINE
  5
159
330
612
100
AcDbEntity
  8
DATA
  6
Continuous
 62
     7
100
AcDbPolyline
 90
        4
 70
     1
 43
0.0
 10
66.37212255520239
 20
251.9571067811865
 10
67.43278272698221
 20
250.8964466094067
 10
67.07922933638894
 20
250.5428932188134
 10
66.01856916460912
 20
251.6035533905933
  0
LWPOLYLINE
  5
160
330
612
100
AcDbEntity
  8
DATA
  6
Continuous
 62
     7
100
AcDbPolyline
 90
        4
 70
     1
 43
0.0
 10
67.87212255520239
 20
251.9571067811865
 10
68.93278272698221
 20
250.8964466094067
 10
68.57922933638893
 20
250.5428932188134
 10
67.51856916460912
 20
251.6035533905933
  0
LWPOLYLINE
  5
167
330
612
100
AcDbEntity
  8
DATA
  6
Continuous
 62
     7
100
AcDbPolyline
 90
        4
 70
     1
 43
0.0
 10
69.3721225552024
 20
251.9571067811865
 10
70.4327827269822
 20
250.8964466094067
 10
70.07922933638893
 20
250.5428932188134
 10
69.01856916460912
 20
251.6035533905933
  0
LWPOLYLINE
  5
16E
330
612
100
AcDbEntity
  8
DATA
  6
Continuous
 62
     7
100
AcDbPolyline
 90
        4
 70
     1
 43
0.0
 10
73.87212255520238
 20
251.9571067811865
 10
74.93278272698218
 20
250.8964466094067
 10
74.57922933638894
 20
250.5428932188134
 10
73.51856916460913
 20
251.6035533905933
  0
LWPOLYLINE
  5
175
330
612
100
AcDbEntity
  8
DATA
  6
Continuous
 62
     7
100
AcDbPolyline
 90
        4
 70
     1
 43
0.0
 10
75.37212255520238
 20
251.9571067811865
 10
76.43278272698218
 20
250.8964466094067
 10
76.07922933638893
 20
250.5428932188134
 10
75.01856916460913
 20
251.6035533905933
  0
LWPOLYLINE
  5
17C
330
612
100
AcDbEntity
  8
DATA
  6
Continuous
 62
     7
100
AcDbPolyline
 90
        4
 70
     1
 43
0.0
 10
76.87212255520238
 20
251.9571067811865
 10
77.93278272698218
 20
250.8964466094067
 10
77.57922933638893
 20
250.5428932188134
 10
76.51856916460913
 20
251.6035533905933
  0
LWPOLYLINE
  5
183
330
612
100
AcDbEntity
  8
DATA
  6
Continuous
 62
     7
100
AcDbPolyline
 90
        4
 70
     1
 43
0.0
 10
78.37212255520238
 20
251.9571067811865
 10
79.43278272698218
 20
250.8964466094067
 10
79.07922933638893
 20
250.5428932188134
 10
78.01856916460913
 20
251.6035533905933
  0
LWPOLYLINE
  5
18A
330
612
100
AcDbEntity
  8
DATA
  6
Continuous
 62
     7
100
AcDbPolyline
 90
        4
 70
     1
 43
0.0
 10
66.37212255520239
 20
253.7571067811866
 10
67.43278272698221
 20
252.6964466094067
 10
67.07922933638894
 20
252.3428932188134
 10
66.01856916460912
 20
253.4035533905933
  0
LWPOLYLINE
  5
191
330
612
100
AcDbEntity
  8
DATA
  6
Continuous
 62
     7
100
AcDbPolyline
 90
        4
 70
     1
 43
0.0
 10
67.87212255520239
 20
253.7571067811866
 10
68.93278272698221
 20
252.6964466094067
 10
68.57922933638893
 20
252.3428932188134
 10
67.51856916460912
 20
253.4035533905933
  0
LWPOLYLINE
  5
198
330
612
100
AcDbEntity
  8
DATA
  6
Continuous
 62
     7
100
AcDbPolyline
 90
        4
 70
     1
 43
0.0
 10
69.3721225552024
 20
253.7571067811866
 10
70.4327827269822
 20
252.6964466094067
 10
70.07922933638893
 20
252.3428932188134
 10
69.01856916460912
 20
253.4035533905933
  0
LWPOLYLINE
  5
19F
330
612
100
AcDbEntity
  8
DATA
  6
Continuous
 62
     7
100
AcDbPolyline
 90
        4
 70
     1
 43
0.0
 10
73.87212255520238
 20
253.7571067811866
 10
74.93278272698218
 20
252.6964466094067
 10
74.57922933638894
 20
252.3428932188134
 10
73.51856916460913
 20
253.4035533905933
  0
LWPOLYLINE
  5
1A6
330
612
100
AcDbEntity
  8
DATA
  6
Continuous
 62
     7
100
AcDbPolyline
 90
        4
 70
     1
 43
0.0
 10
75.37212255520238
 20
253.7571067811866
 10
76.43278272698218
 20
252.6964466094067
 10
76.07922933638893
 20
252.3428932188134
 10
75.01856916460913
 20
253.4035533905933
  0
LWPOLYLINE
  5
1AD
330
612
100
AcDbEntity
  8
DATA
  6
Continuous
 62
     7
100
AcDbPolyline
 90
        4
 70
     1
 43
0.0
 10
76.87212255520238
 20
253.7571067811866
 10
77.93278272698218
 20
252.6964466094067
 10
77.57922933638893
 20
252.3428932188134
 10
76.51856916460913
 20
253.4035533905933
  0
LWPOLYLINE
  5
1B4
330
612
100
AcDbEntity
  8
DATA
  6
Continuous
 62
     7
100
AcDbPolyline
 90
        4
 70
     1
 43
0.0
 10
78.37212255520238
 20
253.7571067811866
 10
79.43278272698218
 20
252.6964466094067
 10
79.07922933638893
 20
252.3428932188134
 10
78.01856916460913
 20
253.4035533905933
  0
LWPOLYLINE
  5
1BB
330
612
100
AcDbEntity
  8
DATA
  6
Continuous
 62
     7
100
AcDbPolyline
 90
        4
 70
     1
 43
0.0
 10
66.37212255520239
 20
250.1571067811865
 10
67.43278272698221
 20
249.0964466094067
 10
67.07922933638894
 20
248.7428932188134
 10
66.01856916460912
 20
249.8035533905933
  0
LWPOLYLINE
  5
1C2
330
612
100
AcDbEntity
  8
DATA
  6
Continuous
 62
     7
100
AcDbPolyline
 90
        4
 70
     1
 43
0.0
 10
67.87212255520239
 20
250.1571067811865
 10
68.93278272698221
 20
249.0964466094067
 10
68.57922933638893
 20
248.7428932188134
 10
67.51856916460912
 20
249.8035533905933
  0
LWPOLYLINE
  5
1C9
330
612
100
AcDbEntity
  8
DATA
  6
Continuous
 62
     7
100
AcDbPolyline
 90
        4
 70
     1
 43
0.0
 10
69.3721225552024
 20
250.1571067811865
 10
70.4327827269822
 20
249.0964466094067
 10
70.07922933638893
 20
248.7428932188134
 10
69.01856916460912
 20
249.8035533905933
  0
LWPOLYLINE
  5
1D0
330
612
100
AcDbEntity
  8
DATA
  6
Continuous
 62
     7
100
AcDbPolyline
 90
        4
 70
     1
 43
0.0
 10
73.87212255520238
 20
250.1571067811865
 10
74.93278272698218
 20
249.0964466094067
 10
74.57922933638894
 20
248.7428932188134
 10
73.51856916460913
 20
249.8035533905933
  0
LWPOLYLINE
  5
1D7
330
612
100
AcDbEntity
  8
DATA
  6
Continuous
 62
     7
100
AcDbPolyline
 90
        4
 70
     1
 43
0.0
 10
75.37212255520238
 20
250.1571067811865
 10
76.43278272698218
 20
249.0964466094067
 10
76.07922933638893
 20
248.7428932188134
 10
75.01856916460913
 20
249.8035533905933
  0
LWPOLYLINE
  5
1DE
330
612
100
AcDbEntity
  8
DATA
  6
Continuous
 62
     7
100
AcDbPolyline
 90
        4
 70
     1
 43
0.0
 10
76.87212255520238
 20
250.1571067811865
 10
77.93278272698218
 20
249.0964466094067
 10
77.57922933638893
 20
248.7428932188134
 10
76.51856916460913
 20
249.8035533905933
  0
LWPOLYLINE
  5
1E5
330
612
100
AcDbEntity
  8
DATA
  6
Continuous
 62
     7
100
AcDbPolyline
 90
        4
 70
     1
 43
0.0
 10
78.37212255520238
 20
250.1571067811865
 10
79.43278272698218
 20
249.0964466094067
 10
79.07922933638893
 20
248.7428932188134
 10
78.01856916460913
 20
249.8035533905933
  0
LWPOLYLINE
  5
1EC
330
612
100
AcDbEntity
  8
DATA
  6
Continuous
 62
     7
100
AcDbPolyline
 90
        4
 70
     1
 43
0.0
 10
70.99866786210244
 20
253.7571067811866
 10
72.93866786210244
 20
253.7571067811866
 10
72.93866786210244
 20
248.7428932188134
 10
70.99866786210244
 20
248.7428932188134
  0
TEXT
  5
1F3
330
612
100
AcDbEntity
  8
DATA
 62
     7
100
AcDbText
 10
70.81258404431629
 20
186.203591990255
 30
0.0
 40
3.909218749999999
  1
DVI
 41
0.7
 11
70.81258404431629
 21
190.112810740255
 31
0.0
100
AcDbText
 73
     3
  0
TEXT
  5
1F4
330
612
100
AcDbEntity
  8
DATA
 62
     7
100
AcDbText
 10
80.58700690760161
 20
186.203591990255
 30
0.0
 40
3.909218749999999
  1
FM
 41
0.7
 11
80.58700690760161
 21
190.112810740255
 31
0.0
100
AcDbText
 73
     3
  0
TEXT
  5
1F5
330
612
100
AcDbEntity
  8
DATA
 62
     7
100
AcDbText
 10
77.70064207384656
 20
180.9650736136175
 30
0.0
 40
3.909218749999999
  1
500
 41
0.7
 11
77.70064207384656
 21
184.8742923636175
 31
0.0
100
AcDbText
 73
     3
  0
TEXT
  5
1F6
330
612
100
AcDbEntity
  8
DATA
 62
     7
100
AcDbText
 10
69.43447829205687
 20
169.4234392337062
 30
0.0
 40
3.257682291666665
  1
Sender
 41
0.7
 11
69.43447829205687
 21
172.6811215253729
 31
0.0
100
AcDbText
 73
     3
  0
TEXT
  5
1F7
330
612
100
AcDbEntity
  8
DATA
 62
     7
100
AcDbText
 10
64.52133216357282
 20
157.9695
 30
0.0
 40
2.44326171875
  1
5V
 41
0.7
 11
64.52133216357282
 21
160.41276171875
 31
0.0
100
AcDbText
 73
     3
  0
TEXT
  5
1F8
330
612
100
AcDbEntity
  8
DATA
 62
     7
100
AcDbText
 10
75.3189875773097
 20
157.9695
 30
0.0
 40
2.44326171875
  1
1
 41
0.7
 11
75.3189875773097
 21
160.41276171875
 31
0.0
100
AcDbText
 73
     3
  0
TEXT
  5
1F9
330
612
100
AcDbEntity
  8
DATA
 62
     7
100
AcDbText
 10
81.41047604999895
 20
157.9695
 30
0.0
 40
2.44326171875
  1
2
 41
0.7
 11
81.41047604999895
 21
160.41276171875
 31
0.0
100
AcDbText
 73
     3
  0
LINE
  5
1FA
330
612
100
AcDbEntity
  8
DATA
  6
Continuous
 62
     7
100
AcDbLine
 10
112.5
 20
157.75
 30
0.0
 11
112.5
 21
225.25
 31
0.0
  0
LINE
  5
1FB
330
612
100
AcDbEntity
  8
DATA
  6
Continuous
 62
     7
100
AcDbLine
 10
127.5
 20
157.75
 30
0.0
 11
127.5
 21
225.25
 31
0.0
  0
LINE
  5
1FC
330
612
100
AcDbEntity
  8
DATA
  6
Continuous
 62
     7
100
AcDbLine
 10
112.5
 20
225.25
 30
0.0
 11
115.0
 21
225.25
 31
0.0
  0
LINE
  5
1FD
330
612
100
AcDbEntity
  8
DATA
  6
Continuous
 62
     7
100
AcDbLine
 10
125.0
 20
225.25
 30
0.0
 11
127.5
 21
225.25
 31
0.0
  0
LINE
  5
1FE
330
612
100
AcDbEntity
  8
DATA
  6
Continuous
 62
     7
100
AcDbLine
 10
120.0
 20
224.65
 30
0.0
 11
120.0
 21
206.25
 31
0.0
  0
LINE
  5
1FF
330
612
100
AcDbEntity
  8
DATA
  6
Continuous
 62
     7
100
AcDbLine
 10
120.0
 20
195.3108436115522
 30
0.0
 11
120.0
 21
156.25
 31
0.0
  0
LINE
  5
200
330
612
100
AcDbEntity
  8
DATA
  6
Continuous
 62
     7
100
AcDbLine
 10
121.35
 20
227.7235842313261
 30
0.0
 11
121.35
 21
224.65
 31
0.0
  0
LINE
  5
201
330
612
100
AcDbEntity
  8
DATA
  6
Continuous
 62
     7
100
AcDbLine
 10
118.65
 20
227.7235842313261
 30
0.0
 11
121.35
 21
227.7235842313261
 31
0.0
  0
LINE
  5
202
330
612
100
AcDbEntity
  8
DATA
  6
Continuous
 62
     7
100
AcDbLine
 10
118.65
 20
224.65
 30
0.0
 11
118.65
 21
227.7235842313261
 31
0.0
  0
LINE
  5
203
330
612
100
AcDbEntity
  8
DATA
  6
Continuous
 62
     7
100
AcDbLine
 10
118.65
 20
225.25
 30
0.0
 11
121.35
 21
225.8
 31
0.0
  0
LINE
  5
204
330
612
100
AcDbEntity
  8
DATA
  6
Continuous
 62
     7
100
AcDbLine
 10
118.65
 20
226.05
 30
0.0
 11
121.35
 21
226.6
 31
0.0
  0
LINE
  5
205
330
612
100
AcDbEntity
  8
DATA
  6
Continuous
 62
     7
100
AcDbLine
 10
118.65
 20
226.85
 30
0.0
 11
121.35
 21
227.4
 31
0.0
  0
LINE
  5
206
330
612
100
AcDbEntity
  8
DATA
  6
Continuous
 62
     7
100
AcDbLine
 10
112.5
 20
220.25
 30
0.0
 11
115.0
 21
220.25
 31
0.0
  0
LINE
  5
207
330
612
100
AcDbEntity
  8
DATA
  6
Continuous
 62
     7
100
AcDbLine
 10
125.0
 20
220.25
 30
0.0
 11
127.5
 21
220.25
 31
0.0
  0
LINE
  5
208
330
612
100
AcDbEntity
  8
DATA
  6
Continuous
 62
     7
100
AcDbLine
 10
56.25
 20
256.25
 30
0.0
 11
95.25
 21
256.25
 31
0.0
  0
LINE
  5
209
330
612
100
AcDbEntity
  8
DATA
  6
Continuous
 62
     7
100
AcDbLine
 10
95.25
 20
246.25
 30
0.0
 11
56.25
 21
246.25
 31
0.0
  0
LINE
  5
20A
330
612
100
AcDbEntity
  8
DATA
  6
Continuous
 62
     7
100
AcDbLine
 10
56.25
 20
246.25
 30
0.0
 11
56.25
 21
256.25
 31
0.0
  0
LINE
  5
20B
330
612
100
AcDbEntity
  8
DATA
  6
Continuous
 62
     7
100
AcDbLine
 10
57.25
 20
246.25
 30
0.0
 11
57.25
 21
256.25
 31
0.0
  0
LINE
  5
20C
330
612
100
AcDbEntity
  8
DATA
  6
Continuous
 62
     7
100
AcDbLine
 10
95.25
 20
246.25
 30
0.0
 11
95.25
 21
256.25
 31
0.0
  0
LINE
  5
20D
330
612
100
AcDbEntity
  8
DATA
  6
Continuous
 62
     7
100
AcDbLine
 10
94.25
 20
246.25
 30
0.0
 11
94.25
 21
256.25
 31
0.0
  0
LINE
  5
20E
330
612
100
AcDbEntity
  8
DATA
  6
Continuous
 62
     7
100
AcDbLine
 10
88.49999999999999
 20
230.25
 30
0.0
 11
88.49999999999999
 21
225.25
 31
0.0
  0
LINE
  5
20F
330
612
100
AcDbEntity
  8
DATA
  6
Continuous
 62
     7
100
AcDbLine
 10
63.0
 20
225.25
 30
0.0
 11
63.0
 21
230.25
 31
0.0
  0
ARC
  5
210
330
612
100
AcDbEntity
  8
DATA
  6
Continuous
 62
     7
100
AcDbCircle
 10
64.0
 20
247.7
 30
0.0
 40
1.0
100
AcDbArc
 50
180.0
 51
270.0
  0
ARC
  5
211
330
612
100
AcDbEntity
  8
DATA
  6
Continuous
 62
     7
100
AcDbCircle
 10
87.5
 20
247.7
 30
0.0
 40
1.0
100
AcDbArc
 50
270.0
 51
0.0
  0
ARC
  5
212
330
612
100
AcDbEntity
  8
DATA
  6
Continuous
 62
     7
100
AcDbCircle
 10
69.66811160443008
 20
251.7255057714573
 30
0.0
 40
6.668527705515008
100
AcDbArc
 50
147.1542188009644
 51
179.3599346272914
  0
ARC
  5
213
330
612
100
AcDbEntity
  8
DATA
  6
Continuous
 62
     7
100
AcDbCircle
 10
81.83188839556992
 20
251.7255057714573
 30
0.0
 40
6.668527705515009
100
AcDbArc
 50
0.640065372708576
 51
32.84578119903545
  0
LINE
  5
214
330
612
100
AcDbEntity
  8
DATA
  6
Continuous
 62
     7
100
AcDbLine
 10
63.0
 20
247.7
 30
0.0
 11
63.0
 21
251.8
 31
0.0
  0
LINE
  5
215
330
612
100
AcDbEntity
  8
DATA
  6
Continuous
 62
     7
100
AcDbLine
 10
88.49999999999999
 20
247.7
 30
0.0
 11
88.49999999999999
 21
251.7999999999996
 31
0.0
  0
ARC
  5
216
330
612
100
AcDbEntity
  8
DATA
  6
Continuous
 62
     7
100
AcDbCircle
 10
64.90579162496114
 20
254.8000000000001
 30
0.0
 40
0.9999999999999504
100
AcDbArc
 50
90.0
 51
147.1542188009668
  0
ARC
  5
217
330
612
100
AcDbEntity
  8
DATA
  6
Continuous
 62
     7
100
AcDbCircle
 10
86.59420837503885
 20
254.8
 30
0.0
 40
0.9999999999999927
100
AcDbArc
 50
32.84578119903507
 51
90.0
  0
LINE
  5
218
330
612
100
AcDbEntity
  8
DATA
  6
Continuous
 62
     7
100
AcDbLine
 10
125.0
 20
225.25
 30
0.0
 11
125.0
 21
224.65
 31
0.0
  0
LINE
  5
219
330
612
100
AcDbEntity
  8
DATA
  6
Continuous
 62
     7
100
AcDbLine
 10
115.0
 20
224.65
 30
0.0
 11
115.0
 21
225.25
 31
0.0
  0
LINE
  5
21A
330
612
100
AcDbEntity
  8
DATA
  6
Continuous
 62
     7
100
AcDbLine
 10
115.0
 20
224.65
 30
0.0
 11
125.0
 21
224.65
 31
0.0
  0
LINE
  5
21B
330
612
100
AcDbEntity
  8
DATA
  6
Continuous
 62
     7
100
AcDbLine
 10
120.6136363636363
 20
224.65
 30
0.0
 11
121.35
 21
224.8
 31
0.0
  0
ARC
  5
21C
330
612
100
AcDbEntity
  8
DATA
  6
Continuous
 62
     7
100
AcDbCircle
 10
120.0
 20
211.25
 30
0.0
 40
5.0
100
AcDbArc
 50
180.0
 51
0.0
  0
LINE
  5
21D
330
612
100
AcDbEntity
  8
DATA
  6
Continuous
 62
     7
100
AcDbLine
 10
115.0
 20
211.25
 30
0.0
 11
115.0
 21
220.25
 31
0.0
  0
LINE
  5
21E
330
612
100
AcDbEntity
  8
DATA
  6
Continuous
 62
     7
100
AcDbLine
 10
125.0
 20
211.25
 30
0.0
 11
125.0
 21
220.25
 31
0.0
  0
ARC
  5
21F
330
612
100
AcDbEntity
  8
DATA
  6
Continuous
 62
     7
100
AcDbCircle
 10
120.0
 20
190.3108436115522
 30
0.0
 40
5.0
100
AcDbArc
 50
0.0
 51
180.0
  0
LINE
  5
220
330
612
100
AcDbEntity
  8
DATA
  6
Continuous
 62
     7
100
AcDbLine
 10
115.0
 20
190.3108436115522
 30
0.0
 11
115.0
 21
157.25
 31
0.0
  0
LINE
  5
221
330
612
100
AcDbEntity
  8
DATA
  6
Continuous
 62
     7
100
AcDbLine
 10
125.0
 20
190.3108436115522
 30
0.0
 11
125.0
 21
157.25
 31
0.0
  0
ARC
  5
222
330
612
100
AcDbEntity
  8
DATA
  6
Continuous
 62
     7
100
AcDbCircle
 10
114.0
 20
157.75
 30
0.0
 40
1.5
100
AcDbArc
 50
180.0
 51
270.0
  0
ARC
  5
223
330
612
100
AcDbEntity
  8
DATA
  6
Continuous
 62
     7
100
AcDbCircle
 10
126.0
 20
157.75
 30
0.0
 40
1.5
100
AcDbArc
 50
270.0
 51
0.0
  0
ARC
  5
224
330
612
100
AcDbEntity
  8
DATA
  6
Continuous
 62
     7
100
AcDbCircle
 10
116.0
 20
157.25
 30
0.0
 40
1.0
100
AcDbArc
 50
180.0
 51
270.0
  0
ARC
  5
225
330
612
100
AcDbEntity
  8
DATA
  6
Continuous
 62
     7
100
AcDbCircle
 10
124.0
 20
157.25
 30
0.0
 40
1.0
100
AcDbArc
 50
270.0
 51
0.0
  0
LINE
  5
226
330
612
100
AcDbEntity
  8
DATA
  6
Continuous
 62
     7
100
AcDbLine
 10
114.0
 20
156.25
 30
0.0
 11
126.05
 21
156.25
 31
0.0
  0
LINE
  5
227
330
612
100
AcDbEntity
  8
DATA
  6
Continuous
 62
     7
100
AcDbLine
 10
116.0999999999998
 20
204.9097526159584
 30
0.0
 11
123.9
 21
204.9097526159584
 31
0.0
  0
LINE
  5
228
330
612
100
AcDbEntity
  8
DATA
  6
Continuous
 62
     7
100
AcDbLine
 10
123.7299999999999
 20
196.9097526159584
 30
0.0
 11
116.27
 21
196.9097526159584
 31
0.0
  0
LINE
  5
229
330
612
100
AcDbEntity
  8
DATA
  6
Continuous
 62
     7
100
AcDbLine
 10
118.6201630627616
 20
206.4441650021425
 30
0.0
 11
118.6201630627616
 21
204.9097526159584
 31
0.0
  0
LINE
  5
22A
330
612
100
AcDbEntity
  8
DATA
  6
Continuous
 62
     7
100
AcDbLine
 10
121.3201630627616
 20
206.4274312355634
 30
0.0
 11
121.3201630627616
 21
204.9097526159584
 31
0.0
  0
LINE
  5
22B
330
612
100
AcDbEntity
  8
DATA
  6
Continuous
 62
     7
100
AcDbLine
 10
116.0999999999998
 20
204.9097526159584
 30
0.0
 11
116.27
 21
196.9097526159584
 31
0.0
  0
LINE
  5
22C
330
612
100
AcDbEntity
  8
DATA
  6
Continuous
 62
     7
100
AcDbLine
 10
123.9
 20
204.9097526159584
 30
0.0
 11
123.7299999999999
 21
196.9097526159584
 31
0.0
  0
LINE
  5
22D
330
612
100
AcDbEntity
  8
DATA
  6
Continuous
 62
     7
100
AcDbLine
 10
118.6201630627616
 20
205.7097526159584
 30
0.0
 11
121.3201630627616
 21
205.98
 31
0.0
  0
LINE
  5
22E
330
612
100
AcDbEntity
  8
DATA
  6
Continuous
 62
     7
100
AcDbLine
 10
116.4785624877325
 20
196.9097526159584
 30
0.0
 11
116.4785624877325
 21
204.9097526159584
 31
0.0
  0
LINE
  5
22F
330
612
100
AcDbEntity
  8
DATA
  6
Continuous
 62
     7
100
AcDbLine
 10
117.4785624877325
 20
196.9097526159584
 30
0.0
 11
117.4785624877325
 21
204.9097526159584
 31
0.0
  0
LINE
  5
230
330
612
100
AcDbEntity
  8
DATA
  6
Continuous
 62
     7
100
AcDbLine
 10
118.4785624877325
 20
196.9097526159584
 30
0.0
 11
118.4785624877325
 21
204.9097526159584
 31
0.0
  0
LINE
  5
231
330
612
100
AcDbEntity
  8
DATA
  6
Continuous
 62
     7
100
AcDbLine
 10
119.4785624877325
 20
196.9097526159584
 30
0.0
 11
119.4785624877325
 21
204.9097526159584
 31
0.0
  0
LINE
  5
232
330
612
100
AcDbEntity
  8
DATA
  6
Continuous
 62
     7
100
AcDbLine
 10
120.4785624877325
 20
196.9097526159584
 30
0.0
 11
120.4785624877325
 21
204.9097526159584
 31
0.0
  0
LINE
  5
233
330
612
100
AcDbEntity
  8
DATA
  6
Continuous
 62
     7
100
AcDbLine
 10
121.4785624877325
 20
196.9097526159584
 30
0.0
 11
121.4785624877325
 21
204.9097526159584
 31
0.0
  0
LINE
  5
234
330
612
100
AcDbEntity
  8
DATA
  6
Continuous
 62
     7
100
AcDbLine
 10
122.4785624877325
 20
196.9097526159584
 30
0.0
 11
122.4785624877325
 21
204.9097526159584
 31
0.0
  0
LINE
  5
235
330
612
100
AcDbEntity
  8
DATA
  6
Continuous
 62
     7
100
AcDbLine
 10
123.4785624877325
 20
196.9097526159584
 30
0.0
 11
123.4785624877325
 21
204.9097526159584
 31
0.0
  0
LINE
  5
236
330
612
100
AcDbEntity
  8
DATA
  6
Continuous
 62
     7
100
AcDbLine
 10
112.5
 20
195.3108436115522
 30
0.0
 11
127.5
 21
195.3108436115522
 31
0.0
  0
LINE
  5
237
330
612
100
AcDbEntity
  8
DATA
  6
Continuous
 62
     7
100
AcDbLine
 10
127.5
 20
206.25
 30
0.0
 11
121.3201630627616
 21
206.25
 31
0.0
  0
LINE
  5
238
330
612
100
AcDbEntity
  8
DATA
  6
Continuous
 62
     7
100
AcDbLine
 10
118.6201630627616
 20
206.25
 30
0.0
 11
112.5
 21
206.25
 31
0.0
  0
LINE
  5
239
330
612
100
AcDbEntity
  8
DATA
  6
Continuous
 62
     7
100
AcDbLine
 10
114.0
 20
195.3108436115522
 30
0.0
 11
114.0
 21
206.25
 31
0.0
  0
LINE
  5
23A
330
612
100
AcDbEntity
  8
DATA
  6
Continuous
 62
     7
100
AcDbLine
 10
126.0
 20
195.3108436115522
 30
0.0
 11
126.0
 21
206.25
 31
0.0
  0
TEXT
  5
23B
330
612
100
AcDbEntity
  8
DATA
 62
     7
100
AcDbText
 10
186.6630490902105
 20
88.96564770519923
 30
0.0
 40
4.072102864583333
  1
レシーバー
 41
0.7
 11
186.6630490902105
 21
93.03775056978256
 31
0.0
100
AcDbText
 73
     3
  0
LINE
  5
23C
330
612
100
AcDbEntity
  8
DATA
  6
Continuous
 62
     7
100
AcDbLine
 10
181.25
 20
225.25
 30
0.0
 11
181.25
 21
206.25
 31
0.0
  0
LINE
  5
23D
330
612
100
AcDbEntity
  8
DATA
  6
Continuous
 62
     7
100
AcDbLine
 10
181.25
 20
195.25
 30
0.0
 11
181.25
 21
175.0382079766732
 31
0.0
  0
LINE
  5
23E
330
612
100
AcDbEntity
  8
DATA
  6
Continuous
 62
     7
100
AcDbLine
 10
220.25
 20
225.25
 30
0.0
 11
220.25
 21
206.25
 31
0.0
  0
LINE
  5
23F
330
612
100
AcDbEntity
  8
DATA
  6
Continuous
 62
     7
100
AcDbLine
 10
220.25
 20
195.25
 30
0.0
 11
220.25
 21
175.0382079766732
 31
0.0
  0
LINE
  5
240
330
612
100
AcDbEntity
  8
DATA
  6
Continuous
 62
     7
100
AcDbLine
 10
181.25
 20
225.25
 30
0.0
 11
220.25
 21
225.25
 31
0.0
  0
LINE
  5
241
330
612
100
AcDbEntity
  8
DATA
  6
Continuous
 62
     7
100
AcDbLine
 10
181.25
 20
206.25
 30
0.0
 11
189.25
 21
206.25
 31
0.0
  0
LINE
  5
242
330
612
100
AcDbEntity
  8
DATA
  6
Continuous
 62
     7
100
AcDbLine
 10
212.25
 20
206.25
 30
0.0
 11
220.25
 21
206.25
 31
0.0
  0
LINE
  5
243
330
612
100
AcDbEntity
  8
DATA
  6
Continuous
 62
     7
100
AcDbLine
 10
181.25
 20
195.25
 30
0.0
 11
189.25
 21
195.25
 31
0.0
  0
LINE
  5
244
330
612
100
AcDbEntity
  8
DATA
  6
Continuous
 62
     7
100
AcDbLine
 10
212.25
 20
195.25
 30
0.0
 11
220.25
 21
195.25
 31
0.0
  0
ARC
  5
245
330
612
100
AcDbEntity
  8
DATA
  6
Continuous
 62
     7
100
AcDbCircle
 10
228.7875000000012
 20
180.0958333333337
 30
0.0
 40
47.89559137970042
100
AcDbArc
 50
188.0998263756249
 51
209.85925631858
  0
ARC
  5
246
330
612
100
AcDbEntity
  8
DATA
  6
Continuous
 62
     7
100
AcDbCircle
 10
172.7124999999987
 20
180.0958333333337
 30
0.0
 40
47.89559137970042
100
AcDbArc
 50
330.14074368142
 51
351.9001736243752
  0
LINE
  5
247
330
612
100
AcDbEntity
  8
DATA
  6
Continuous
 62
     7
100
AcDbLine
 10
187.25
 20
156.25
 30
0.0
 11
214.25
 21
156.25
 31
0.0
  0
ARC
  5
248
330
612
100
AcDbEntity
  8
DATA
  6
Continuous
 62
     7
100
AcDbCircle
 10
193.2500000000001
 20
175.0382079766732
 30
0.0
 40
12.00000000000019
100
AcDbArc
 50
180.0
 51
188.0998263756248
  0
ARC
  5
249
330
612
100
AcDbEntity
  8
DATA
  6
Continuous
 62
     7
100
AcDbCircle
 10
208.2500000000004
 20
175.0382079766732
 30
0.0
 40
11.99999999999948
100
AcDbArc
 50
351.9001736243749
 51
0.0
  0
LINE
  5
24A
330
612
100
AcDbEntity
  8
DATA
  6
Continuous
 62
     7
100
AcDbLine
 10
212.25
 20
206.25
 30
0.0
 11
212.25
 21
195.25
 31
0.0
  0
LINE
  5
24B
330
612
100
AcDbEntity
  8
DATA
  6
Continuous
 62
     7
100
AcDbLine
 10
189.25
 20
195.25
 30
0.0
 11
189.25
 21
206.25
 31
0.0
  0
LINE
  5
24C
330
612
100
AcDbEntity
  8
DATA
  6
Continuous
 62
     7
100
AcDbLine
 10
181.25
 20
220.25
 30
0.0
 11
185.0
 21
220.25
 31
0.0
  0
LINE
  5
24D
330
612
100
AcDbEntity
  8
DATA
  6
Continuous
 62
     7
100
AcDbLine
 10
188.0
 20
230.25
 30
0.0
 11
213.5
 21
230.25
 31
0.0
  0
LWPOLYLINE
  5
24E
330
612
100
AcDbEntity
  8
DATA
  6
Continuous
 62
     7
100
AcDbPolyline
 90
        4
 70
     0
 43
0.0
 10
182.8701630627616
 20
225.25
 10
182.8701630627616
 20
227.7235842313261
 10
185.5701630627616
 20
227.7235842313261
 10
185.5701630627616
 20
225.25
  0
LINE
  5
255
330
612
100
AcDbEntity
  8
DATA
  6
Continuous
 62
     7
100
AcDbLine
 10
182.8701630627616
 20
225.25
 30
0.0
 11
185.5701630627616
 21
225.53
 31
0.0
  0
LINE
  5
256
330
612
100
AcDbEntity
  8
DATA
  6
Continuous
 62
     7
100
AcDbLine
 10
182.8701630627616
 20
226.05
 30
0.0
 11
185.5701630627616
 21
226.33
 31
0.0
  0
LINE
  5
257
330
612
100
AcDbEntity
  8
DATA
  6
Continuous
 62
     7
100
AcDbLine
 10
182.8701630627616
 20
226.85
 30
0.0
 11
185.5701630627616
 21
227.13
 31
0.0
  0
LWPOLYLINE
  5
258
330
612
100
AcDbEntity
  8
DATA
  6
Continuous
 62
     7
100
AcDbPolyline
 90
        4
 70
     0
 43
0.0
 10
215.8701630627616
 20
225.25
 10
215.8701630627616
 20
227.7235842313261
 10
218.5701630627616
 20
227.7235842313261
 10
218.5701630627616
 20
225.25
  0
LINE
  5
25F
330
612
100
AcDbEntity
  8
DATA
  6
Continuous
 62
     7
100
AcDbLine
 10
215.8701630627616
 20
225.25
 30
0.0
 11
218.5701630627616
 21
225.53
 31
0.0
  0
LINE
  5
260
330
612
100
AcDbEntity
  8
DATA
  6
Continuous
 62
     7
100
AcDbLine
 10
215.8701630627616
 20
226.05
 30
0.0
 11
218.5701630627616
 21
226.33
 31
0.0
  0
LINE
  5
261
330
612
100
AcDbEntity
  8
DATA
  6
Continuous
 62
     7
100
AcDbLine
 10
215.8701630627616
 20
226.85
 30
0.0
 11
218.5701630627616
 21
227.13
 31
0.0
  0
LINE
  5
262
330
612
100
AcDbEntity
  8
DATA
  6
Continuous
 62
     7
100
AcDbLine
 10
180.35
 20
204.9097526159584
 30
0.0
 11
188.15
 21
204.9097526159584
 31
0.0
  0
LINE
  5
263
330
612
100
AcDbEntity
  8
DATA
  6
Continuous
 62
     7
100
AcDbLine
 10
187.98
 20
196.9097526159584
 30
0.0
 11
180.52
 21
196.9097526159584
 31
0.0
  0
LINE
  5
264
330
612
100
AcDbEntity
  8
DATA
  6
Continuous
 62
     7
100
AcDbLine
 10
182.8701630627616
 20
206.25
 30
0.0
 11
182.8701630627616
 21
204.9097526159584
 31
0.0
  0
LINE
  5
265
330
612
100
AcDbEntity
  8
DATA
  6
Continuous
 62
     7
100
AcDbLine
 10
185.5701630627616
 20
206.25
 30
0.0
 11
185.5701630627616
 21
204.9097526159584
 31
0.0
  0
LINE
  5
266
330
612
100
AcDbEntity
  8
DATA
  6
Continuous
 62
     7
100
AcDbLine
 10
180.35
 20
204.9097526159584
 30
0.0
 11
180.52
 21
196.9097526159584
 31
0.0
  0
LINE
  5
267
330
612
100
AcDbEntity
  8
DATA
  6
Continuous
 62
     7
100
AcDbLine
 10
188.15
 20
204.9097526159584
 30
0.0
 11
187.98
 21
196.9097526159584
 31
0.0
  0
LINE
  5
268
330
612
100
AcDbEntity
  8
DATA
  6
Continuous
 62
     7
100
AcDbLine
 10
182.8701630627616
 20
204.9097526159584
 30
0.0
 11
185.5701630627616
 21
205.18
 31
0.0
  0
LINE
  5
269
330
612
100
AcDbEntity
  8
DATA
  6
Continuous
 62
     7
100
AcDbLine
 10
182.8701630627616
 20
205.7097526159584
 30
0.0
 11
185.5701630627616
 21
205.98
 31
0.0
  0
LINE
  5
26A
330
612
100
AcDbEntity
  8
DATA
  6
Continuous
 62
     7
100
AcDbLine
 10
180.7285624877324
 20
196.9097526159584
 30
0.0
 11
180.7285624877324
 21
204.9097526159584
 31
0.0
  0
LINE
  5
26B
330
612
100
AcDbEntity
  8
DATA
  6
Continuous
 62
     7
100
AcDbLine
 10
181.7285624877324
 20
196.9097526159584
 30
0.0
 11
181.7285624877324
 21
204.9097526159584
 31
0.0
  0
LINE
  5
26C
330
612
100
AcDbEntity
  8
DATA
  6
Continuous
 62
     7
100
AcDbLine
 10
182.7285624877324
 20
196.9097526159584
 30
0.0
 11
182.7285624877324
 21
204.9097526159584
 31
0.0
  0
LINE
  5
26D
330
612
100
AcDbEntity
  8
DATA
  6
Continuous
 62
     7
100
AcDbLine
 10
183.7285624877324
 20
196.9097526159584
 30
0.0
 11
183.7285624877324
 21
204.9097526159584
 31
0.0
  0
LINE
  5
26E
330
612
100
AcDbEntity
  8
DATA
  6
Continuous
 62
     7
100
AcDbLine
 10
184.7285624877324
 20
196.9097526159584
 30
0.0
 11
184.7285624877324
 21
204.9097526159584
 31
0.0
  0
LINE
  5
26F
330
612
100
AcDbEntity
  8
DATA
  6
Continuous
 62
     7
100
AcDbLine
 10
185.7285624877324
 20
196.9097526159584
 30
0.0
 11
185.7285624877324
 21
204.9097526159584
 31
0.0
  0
LINE
  5
270
330
612
100
AcDbEntity
  8
DATA
  6
Continuous
 62
     7
100
AcDbLine
 10
186.7285624877324
 20
196.9097526159584
 30
0.0
 11
186.7285624877324
 21
204.9097526159584
 31
0.0
  0
LINE
  5
271
330
612
100
AcDbEntity
  8
DATA
  6
Continuous
 62
     7
100
AcDbLine
 10
187.7285624877324
 20
196.9097526159584
 30
0.0
 11
187.7285624877324
 21
204.9097526159584
 31
0.0
  0
LINE
  5
272
330
612
100
AcDbEntity
  8
DATA
  6
Continuous
 62
     7
100
AcDbLine
 10
213.35
 20
204.9097526159584
 30
0.0
 11
221.15
 21
204.9097526159584
 31
0.0
  0
LINE
  5
273
330
612
100
AcDbEntity
  8
DATA
  6
Continuous
 62
     7
100
AcDbLine
 10
220.98
 20
196.9097526159584
 30
0.0
 11
213.52
 21
196.9097526159584
 31
0.0
  0
LINE
  5
274
330
612
100
AcDbEntity
  8
DATA
  6
Continuous
 62
     7
100
AcDbLine
 10
215.8701630627616
 20
206.25
 30
0.0
 11
215.8701630627616
 21
204.9097526159584
 31
0.0
  0
LINE
  5
275
330
612
100
AcDbEntity
  8
DATA
  6
Continuous
 62
     7
100
AcDbLine
 10
218.5701630627616
 20
206.25
 30
0.0
 11
218.5701630627616
 21
204.9097526159584
 31
0.0
  0
LINE
  5
276
330
612
100
AcDbEntity
  8
DATA
  6
Continuous
 62
     7
100
AcDbLine
 10
213.35
 20
204.9097526159584
 30
0.0
 11
213.52
 21
196.9097526159584
 31
0.0
  0
LINE
  5
277
330
612
100
AcDbEntity
  8
DATA
  6
Continuous
 62
     7
100
AcDbLine
 10
221.15
 20
204.9097526159584
 30
0.0
 11
220.98
 21
196.9097526159584
 31
0.0
  0
LINE
  5
278
330
612
100
AcDbEntity
  8
DATA
  6
Continuous
 62
     7
100
AcDbLine
 10
215.8701630627616
 20
205.7097526159584
 30
0.0
 11
218.5701630627616
 21
205.98
 31
0.0
  0
LINE
  5
279
330
612
100
AcDbEntity
  8
DATA
  6
Continuous
 62
     7
100
AcDbLine
 10
213.7285624877325
 20
196.9097526159584
 30
0.0
 11
213.7285624877325
 21
204.9097526159584
 31
0.0
  0
LINE
  5
27A
330
612
100
AcDbEntity
  8
DATA
  6
Continuous
 62
     7
100
AcDbLine
 10
214.7285624877325
 20
196.9097526159584
 30
0.0
 11
214.7285624877325
 21
204.9097526159584
 31
0.0
  0
LINE
  5
27B
330
612
100
AcDbEntity
  8
DATA
  6
Continuous
 62
     7
100
AcDbLine
 10
215.7285624877324
 20
196.9097526159584
 30
0.0
 11
215.7285624877324
 21
204.9097526159584
 31
0.0
  0
LINE
  5
27C
330
612
100
AcDbEntity
  8
DATA
  6
Continuous
 62
     7
100
AcDbLine
 10
216.7285624877325
 20
196.9097526159584
 30
0.0
 11
216.7285624877325
 21
204.9097526159584
 31
0.0
  0
LINE
  5
27D
330
612
100
AcDbEntity
  8
DATA
  6
Continuous
 62
     7
100
AcDbLine
 10
217.7285624877324
 20
196.9097526159584
 30
0.0
 11
217.7285624877324
 21
204.9097526159584
 31
0.0
  0
LINE
  5
27E
330
612
100
AcDbEntity
  8
DATA
  6
Continuous
 62
     7
100
AcDbLine
 10
218.7285624877325
 20
196.9097526159584
 30
0.0
 11
218.7285624877325
 21
204.9097526159584
 31
0.0
  0
LINE
  5
27F
330
612
100
AcDbEntity
  8
DATA
  6
Continuous
 62
     7
100
AcDbLine
 10
219.7285624877324
 20
196.9097526159584
 30
0.0
 11
219.7285624877324
 21
204.9097526159584
 31
0.0
  0
LINE
  5
280
330
612
100
AcDbEntity
  8
DATA
  6
Continuous
 62
     7
100
AcDbLine
 10
220.7285624877325
 20
196.9097526159584
 30
0.0
 11
220.7285624877325
 21
204.9097526159584
 31
0.0
  0
LINE
  5
281
330
612
100
AcDbEntity
  8
DATA
  6
Continuous
 62
     7
100
AcDbLine
 10
185.0
 20
220.25
 30
0.0
 11
185.0
 21
212.8
 31
0.0
  0
ARC
  5
282
330
612
100
AcDbEntity
  8
DATA
  6
Continuous
 62
     7
100
AcDbCircle
 10
192.476670886076
 20
213.7865189873419
 30
0.0
 40
7.541473811602292
100
AcDbArc
 50
187.5165456672564
 51
272.0770522664144
  0
ARC
  5
283
330
612
100
AcDbEntity
  8
DATA
  6
Continuous
 62
     7
100
AcDbCircle
 10
209.023329113924
 20
213.7865189873419
 30
0.0
 40
7.541473811602284
100
AcDbArc
 50
267.9229477335857
 51
352.4834543327433
  0
LINE
  5
284
330
612
100
AcDbEntity
  8
DATA
  6
Continuous
 62
     7
100
AcDbLine
 10
220.25
 20
220.25
 30
0.0
 11
216.5
 21
220.25
 31
0.0
  0
LINE
  5
285
330
612
100
AcDbEntity
  8
DATA
  6
Continuous
 62
     7
100
AcDbLine
 10
216.5
 20
220.25
 30
0.0
 11
216.5
 21
212.8
 31
0.0
  0
LINE
  5
286
330
612
100
AcDbEntity
  8
DATA
  6
Continuous
 62
     7
100
AcDbLine
 10
192.75
 20
206.25
 30
0.0
 11
192.75
 21
195.1587479397604
 31
0.0
  0
LINE
  5
287
330
612
100
AcDbEntity
  8
DATA
  6
Continuous
 62
     7
100
AcDbLine
 10
208.75
 20
206.25
 30
0.0
 11
208.75
 21
195.1587479397604
 31
0.0
  0
LINE
  5
288
330
612
100
AcDbEntity
  8
DATA
  6
Continuous
 62
     7
100
AcDbLine
 10
185.0
 20
166.25
 30
0.0
 11
185.0
 21
188.6087479397604
 31
0.0
  0
ARC
  5
289
330
612
100
AcDbEntity
  8
DATA
  6
Continuous
 62
     7
100
AcDbCircle
 10
192.476670886076
 20
187.6222289524185
 30
0.0
 40
7.541473811602332
100
AcDbArc
 50
87.92294773358563
 51
172.4834543327432
  0
ARC
  5
28A
330
612
100
AcDbEntity
  8
DATA
  6
Continuous
 62
     7
100
AcDbCircle
 10
209.023329113924
 20
187.6222289524185
 30
0.0
 40
7.5414738116023
100
AcDbArc
 50
7.516545667256795
 51
92.07705226641435
  0
LINE
  5
28B
330
612
100
AcDbEntity
  8
DATA
  6
Continuous
 62
     7
100
AcDbLine
 10
216.5
 20
166.25
 30
0.0
 11
216.5
 21
188.6087479397604
 31
0.0
  0
ARC
  5
28C
330
612
100
AcDbEntity
  8
DATA
  6
Continuous
 62
     7
100
AcDbCircle
 10
200.3390789473688
 20
167.8489421052634
 30
0.0
 40
15.42219046729736
100
AcDbArc
 50
185.9510067365683
 51
228.7721229039736
  0
ARC
  5
28D
330
612
100
AcDbEntity
  8
DATA
  6
Continuous
 62
     7
100
AcDbCircle
 10
201.1609210526312
 20
167.8489421052634
 30
0.0
 40
15.42219046729736
100
AcDbArc
 50
311.2278770960265
 51
354.0489932634318
  0
CIRCLE
  5
28E
330
612
100
AcDbEntity
  8
DATA
  6
Continuous
 62
     7
100
AcDbCircle
 10
204.7669776562101
 20
208.818869952693
 30
0.0
 40
2.900000000000004
  0
CIRCLE
  5
28F
330
612
100
AcDbEntity
  8
DATA
  6
Continuous
 62
     7
100
AcDbCircle
 10
204.7669776562101
 20
208.818869952693
 30
0.0
 40
0.75
  0
LINE
  5
290
330
612
100
AcDbEntity
  8
DATA
  6
Continuous
 62
     7
100
AcDbLine
 10
192.75
 20
204.6
 30
0.0
 11
208.75
 21
204.6
 31
0.0
  0
LINE
  5
291
330
612
100
AcDbEntity
  8
DATA
  6
Continuous
 62
     7
100
AcDbLine
 10
192.75
 20
202.2
 30
0.0
 11
208.75
 21
202.2
 31
0.0
  0
LINE
  5
292
330
612
100
AcDbEntity
  8
DATA
  6
Continuous
 62
     7
100
AcDbLine
 10
192.75
 20
196.8087479397604
 30
0.0
 11
208.75
 21
196.8087479397604
 31
0.0
  0
LINE
  5
293
330
612
100
AcDbEntity
  8
DATA
  6
Continuous
 62
     7
100
AcDbLine
 10
192.75
 20
199.2087479397604
 30
0.0
 11
208.75
 21
199.2087479397604
 31
0.0
  0
LINE
  5
294
330
612
100
AcDbEntity
  8
DATA
  6
Continuous
 62
     7
100
AcDbLine
 10
183.2499999996754
 20
118.75
 30
0.0
 11
218.2499999996754
 21
118.75
 31
0.0
  0
LINE
  5
295
330
612
100
AcDbEntity
  8
DATA
  6
Continuous
 62
     7
100
AcDbLine
 10
183.2499999996754
 20
133.75
 30
0.0
 11
218.2499999996754
 21
133.75
 31
0.0
  0
LINE
  5
296
330
612
100
AcDbEntity
  8
DATA
  6
Continuous
 62
     7
100
AcDbLine
 10
220.2499999996754
 20
131.75
 30
0.0
 11
220.2499999996754
 21
120.75
 31
0.0
  0
LINE
  5
297
330
612
100
AcDbEntity
  8
DATA
  6
Continuous
 62
     7
100
AcDbLine
 10
181.2499999996754
 20
120.75
 30
0.0
 11
181.2499999996754
 21
131.75
 31
0.0
  0
LINE
  5
298
330
612
100
AcDbEntity
  8
DATA
  6
Continuous
 62
     7
100
AcDbLine
 10
187.9999999996754
 20
133.75
 30
0.0
 11
187.9999999996754
 21
118.75
 31
0.0
  0
LINE
  5
299
330
612
100
AcDbEntity
  8
DATA
  6
Continuous
 62
     7
100
AcDbLine
 10
214.9999999996754
 20
133.75
 30
0.0
 11
214.9999999996754
 21
118.75
 31
0.0
  0
LINE
  5
29A
330
612
100
AcDbEntity
  8
DATA
  6
Continuous
 62
     7
100
AcDbLine
 10
183.2499999996754
 20
118.75
 30
0.0
 11
183.2499999996754
 21
133.75
 31
0.0
  0
LINE
  5
29B
330
612
100
AcDbEntity
  8
DATA
  6
Continuous
 62
     7
100
AcDbLine
 10
181.2499999996754
 20
131.75
 30
0.0
 11
183.2499999996754
 21
133.75
 31
0.0
  0
LINE
  5
29C
330
612
100
AcDbEntity
  8
DATA
  6
Continuous
 62
     7
100
AcDbLine
 10
183.2499999996754
 20
118.75
 30
0.0
 11
181.2499999996754
 21
120.75
 31
0.0
  0
LINE
  5
29D
330
612
100
AcDbEntity
  8
DATA
  6
Continuous
 62
     7
100
AcDbLine
 10
218.2499999996754
 20
133.75
 30
0.0
 11
218.2499999996754
 21
118.75
 31
0.0
  0
LINE
  5
29E
330
612
100
AcDbEntity
  8
DATA
  6
Continuous
 62
     7
100
AcDbLine
 10
220.2499999996754
 20
131.75
 30
0.0
 11
218.2499999996754
 21
133.75
 31
0.0
  0
LINE
  5
29F
330
612
100
AcDbEntity
  8
DATA
  6
Continuous
 62
     7
100
AcDbLine
 10
220.2499999996754
 20
120.75
 30
0.0
 11
218.2499999996754
 21
118.75
 31
0.0
  0
LINE
  5
2A0
330
612
100
AcDbEntity
  8
DATA
  6
Continuous
 62
     7
100
AcDbLine
 10
187.9999999996754
 20
131.75
 30
0.0
 11
183.2499999996754
 21
131.75
 31
0.0
  0
LINE
  5
2A1
330
612
100
AcDbEntity
  8
DATA
  6
Continuous
 62
     7
100
AcDbLine
 10
187.9999999996754
 20
120.75
 30
0.0
 11
183.2499999996754
 21
120.75
 31
0.0
  0
LINE
  5
2A2
330
612
100
AcDbEntity
  8
DATA
  6
Continuous
 62
     7
100
AcDbLine
 10
218.2499999996754
 20
131.75
 30
0.0
 11
214.9999999996754
 21
131.75
 31
0.0
  0
LINE
  5
2A3
330
612
100
AcDbEntity
  8
DATA
  6
Continuous
 62
     7
100
AcDbLine
 10
218.2499999996754
 20
120.75
 30
0.0
 11
214.9999999996754
 21
120.75
 31
0.0
  0
CIRCLE
  5
2A4
330
612
100
AcDbEntity
  8
DATA
  6
Continuous
 62
     7
100
AcDbCircle
 10
191.5066242456416
 20
130.5347006032271
 30
0.0
 40
2.549999999999995
  0
CIRCLE
  5
2A5
330
612
100
AcDbEntity
  8
DATA
  6
Continuous
 62
     7
100
AcDbCircle
 10
191.5066242456416
 20
130.5347006032271
 30
0.0
 40
1.849999999999994
  0
CIRCLE
  5
2A6
330
612
100
AcDbEntity
  8
DATA
  6
Continuous
 62
     7
100
AcDbCircle
 10
191.5066242456416
 20
130.5347006032271
 30
0.0
 40
0.4000000000000057
  0
LINE
  5
2A7
330
612
100
AcDbEntity
  8
DATA
  6
Continuous
 62
     7
100
AcDbLine
 10
210.2999999996754
 20
120.15
 30
0.0
 11
205.5999999996755
 21
120.15
 31
0.0
  0
LINE
  5
2A8
330
612
100
AcDbEntity
  8
DATA
  6
Continuous
 62
     7
100
AcDbLine
 10
209.2499999996754
 20
127.35
 30
0.0
 11
206.6499999996755
 21
127.35
 31
0.0
  0
LINE
  5
2A9
330
612
100
AcDbEntity
  8
DATA
  6
Continuous
 62
     7
100
AcDbLine
 10
210.2999999996754
 20
120.15
 30
0.0
 11
210.2999999996754
 21
124.6674461436753
 31
0.0
  0
LINE
  5
2AA
330
612
100
AcDbEntity
  8
DATA
  6
Continuous
 62
     7
100
AcDbLine
 10
210.2999999996754
 20
125.4174461436753
 30
0.0
 11
210.2999999996754
 21
126.35
 31
0.0
  0
LINE
  5
2AB
330
612
100
AcDbEntity
  8
DATA
  6
Continuous
 62
     7
100
AcDbLine
 10
205.5999999996755
 20
120.15
 30
0.0
 11
205.5999999996755
 21
124.6674461436753
 31
0.0
  0
LINE
  5
2AC
330
612
100
AcDbEntity
  8
DATA
  6
Continuous
 62
     7
100
AcDbLine
 10
205.5999999996755
 20
125.4174461436753
 30
0.0
 11
205.5999999996755
 21
126.35
 31
0.0
  0
LINE
  5
2AD
330
612
100
AcDbEntity
  8
DATA
  6
Continuous
 62
     7
100
AcDbLine
 10
210.2999999996754
 20
126.35
 30
0.0
 11
209.2499999996754
 21
126.35
 31
0.0
  0
LINE
  5
2AE
330
612
100
AcDbEntity
  8
DATA
  6
Continuous
 62
     7
100
AcDbLine
 10
206.6499999996755
 20
126.35
 30
0.0
 11
205.5999999996755
 21
126.35
 31
0.0
  0
LINE
  5
2AF
330
612
100
AcDbEntity
  8
DATA
  6
Continuous
 62
     7
100
AcDbLine
 10
209.2499999996754
 20
127.35
 30
0.0
 11
209.2499999996754
 21
126.35
 31
0.0
  0
LINE
  5
2B0
330
612
100
AcDbEntity
  8
DATA
  6
Continuous
 62
     7
100
AcDbLine
 10
206.6499999996755
 20
126.35
 30
0.0
 11
206.6499999996755
 21
127.35
 31
0.0
  0
LINE
  5
2B1
330
612
100
AcDbEntity
  8
DATA
  6
Continuous
 62
     7
100
AcDbLine
 10
206.1499999996755
 20
125.4174461436753
 30
0.0
 11
205.5999999996755
 21
125.4174461436753
 31
0.0
  0
LINE
  5
2B2
330
612
100
AcDbEntity
  8
DATA
  6
Continuous
 62
     7
100
AcDbLine
 10
206.1499999996755
 20
124.6674461436753
 30
0.0
 11
205.5999999996755
 21
124.6674461436753
 31
0.0
  0
LINE
  5
2B3
330
612
100
AcDbEntity
  8
DATA
  6
Continuous
 62
     7
100
AcDbLine
 10
209.7499999996755
 20
125.4174461436753
 30
0.0
 11
210.2999999996754
 21
125.4174461436753
 31
0.0
  0
LINE
  5
2B4
330
612
100
AcDbEntity
  8
DATA
  6
Continuous
 62
     7
100
AcDbLine
 10
209.7499999996755
 20
124.6674461436753
 30
0.0
 11
210.2999999996754
 21
124.6674461436753
 31
0.0
  0
LINE
  5
2B5
330
612
100
AcDbEntity
  8
DATA
  6
Continuous
 62
     7
100
AcDbLine
 10
206.1499999996755
 20
124.6674461436753
 30
0.0
 11
206.1499999996755
 21
125.4174461436753
 31
0.0
  0
LINE
  5
2B6
330
612
100
AcDbEntity
  8
DATA
  6
Continuous
 62
     7
100
AcDbLine
 10
209.7499999996755
 20
124.6674461436753
 30
0.0
 11
209.7499999996755
 21
125.4174461436753
 31
0.0
  0
LINE
  5
2B7
330
612
100
AcDbEntity
  8
DATA
  6
Continuous
 62
     7
100
AcDbLine
 10
204.2999999996754
 20
120.15
 30
0.0
 11
199.5999999996753
 21
120.15
 31
0.0
  0
LINE
  5
2B8
330
612
100
AcDbEntity
  8
DATA
  6
Continuous
 62
     7
100
AcDbLine
 10
203.2499999996754
 20
127.35
 30
0.0
 11
200.6499999996754
 21
127.35
 31
0.0
  0
LINE
  5
2B9
330
612
100
AcDbEntity
  8
DATA
  6
Continuous
 62
     7
100
AcDbLine
 10
204.2999999996754
 20
120.15
 30
0.0
 11
204.2999999996754
 21
124.6674461436753
 31
0.0
  0
LINE
  5
2BA
330
612
100
AcDbEntity
  8
DATA
  6
Continuous
 62
     7
100
AcDbLine
 10
204.2999999996754
 20
125.4174461436753
 30
0.0
 11
204.2999999996754
 21
126.35
 31
0.0
  0
LINE
  5
2BB
330
612
100
AcDbEntity
  8
DATA
  6
Continuous
 62
     7
100
AcDbLine
 10
199.5999999996753
 20
120.15
 30
0.0
 11
199.5999999996753
 21
124.6674461436753
 31
0.0
  0
LINE
  5
2BC
330
612
100
AcDbEntity
  8
DATA
  6
Continuous
 62
     7
100
AcDbLine
 10
199.5999999996753
 20
125.4174461436753
 30
0.0
 11
199.5999999996753
 21
126.35
 31
0.0
  0
LINE
  5
2BD
330
612
100
AcDbEntity
  8
DATA
  6
Continuous
 62
     7
100
AcDbLine
 10
204.2999999996754
 20
126.35
 30
0.0
 11
203.2499999996754
 21
126.35
 31
0.0
  0
LINE
  5
2BE
330
612
100
AcDbEntity
  8
DATA
  6
Continuous
 62
     7
100
AcDbLine
 10
200.6499999996754
 20
126.35
 30
0.0
 11
199.5999999996753
 21
126.35
 31
0.0
  0
LINE
  5
2BF
330
612
100
AcDbEntity
  8
DATA
  6
Continuous
 62
     7
100
AcDbLine
 10
203.2499999996754
 20
127.35
 30
0.0
 11
203.2499999996754
 21
126.35
 31
0.0
  0
LINE
  5
2C0
330
612
100
AcDbEntity
  8
DATA
  6
Continuous
 62
     7
100
AcDbLine
 10
200.6499999996754
 20
126.35
 30
0.0
 11
200.6499999996754
 21
127.35
 31
0.0
  0
LINE
  5
2C1
330
612
100
AcDbEntity
  8
DATA
  6
Continuous
 62
     7
100
AcDbLine
 10
200.1499999996755
 20
125.4174461436753
 30
0.0
 11
199.5999999996753
 21
125.4174461436753
 31
0.0
  0
LINE
  5
2C2
330
612
100
AcDbEntity
  8
DATA
  6
Continuous
 62
     7
100
AcDbLine
 10
200.1499999996755
 20
124.6674461436753
 30
0.0
 11
199.5999999996753
 21
124.6674461436753
 31
0.0
  0
LINE
  5
2C3
330
612
100
AcDbEntity
  8
DATA
  6
Continuous
 62
     7
100
AcDbLine
 10
203.7499999996755
 20
125.4174461436753
 30
0.0
 11
204.2999999996754
 21
125.4174461436753
 31
0.0
  0
LINE
  5
2C4
330
612
100
AcDbEntity
  8
DATA
  6
Continuous
 62
     7
100
AcDbLine
 10
203.7499999996755
 20
124.6674461436753
 30
0.0
 11
204.2999999996754
 21
124.6674461436753
 31
0.0
  0
LINE
  5
2C5
330
612
100
AcDbEntity
  8
DATA
  6
Continuous
 62
     7
100
AcDbLine
 10
200.1499999996755
 20
124.6674461436753
 30
0.0
 11
200.1499999996755
 21
125.4174461436753
 31
0.0
  0
LINE
  5
2C6
330
612
100
AcDbEntity
  8
DATA
  6
Continuous
 62
     7
100
AcDbLine
 10
203.7499999996755
 20
124.6674461436753
 30
0.0
 11
203.7499999996755
 21
125.4174461436753
 31
0.0
  0
LINE
  5
2C7
330
612
100
AcDbEntity
  8
DATA
  6
Continuous
 62
     7
100
AcDbLine
 10
182.25
 20
243.75
 30
0.0
 11
219.25
 21
243.75
 31
0.0
  0
LINE
  5
2C8
330
612
100
AcDbEntity
  8
DATA
  6
Continuous
 62
     7
100
AcDbLine
 10
182.25
 20
258.75
 30
0.0
 11
219.25
 21
258.75
 31
0.0
  0
LINE
  5
2C9
330
612
100
AcDbEntity
  8
DATA
  6
Continuous
 62
     7
100
AcDbLine
 10
181.25
 20
244.75
 30
0.0
 11
181.25
 21
257.75
 31
0.0
  0
LINE
  5
2CA
330
612
100
AcDbEntity
  8
DATA
  6
Continuous
 62
     7
100
AcDbLine
 10
220.25
 20
244.75
 30
0.0
 11
220.25
 21
257.75
 31
0.0
  0
CIRCLE
  5
2CB
330
612
100
AcDbEntity
  8
DATA
  6
Continuous
 62
     7
100
AcDbCircle
 10
184.2201630627616
 20
251.25
 30
0.0
 40
1.349999999999994
  0
CIRCLE
  5
2CC
330
612
100
AcDbEntity
  8
DATA
  6
Continuous
 62
     7
100
AcDbCircle
 10
217.2201630627616
 20
251.25
 30
0.0
 40
1.349999999999994
  0
ARC
  5
2CD
330
612
100
AcDbEntity
  8
DATA
  6
Continuous
 62
     7
100
AcDbCircle
 10
182.25
 20
257.75
 30
0.0
 40
1.0
100
AcDbArc
 50
90.0
 51
180.0
  0
ARC
  5
2CE
330
612
100
AcDbEntity
  8
DATA
  6
Continuous
 62
     7
100
AcDbCircle
 10
182.25
 20
244.75
 30
0.0
 40
1.0
100
AcDbArc
 50
180.0
 51
270.0
  0
ARC
  5
2CF
330
612
100
AcDbEntity
  8
DATA
  6
Continuous
 62
     7
100
AcDbCircle
 10
219.25
 20
257.75
 30
0.0
 40
1.0
100
AcDbArc
 50
0.0
 51
90.0
  0
ARC
  5
2D0
330
612
100
AcDbEntity
  8
DATA
  6
Continuous
 62
     7
100
AcDbCircle
 10
219.25
 20
244.75
 30
0.0
 40
1.0
100
AcDbArc
 50
270.0
 51
0.0
  0
LINE
  5
2D1
330
612
100
AcDbEntity
  8
DATA
  6
Continuous
 62
     7
100
AcDbLine
 10
189.9057916249611
 20
255.8
 30
0.0
 11
211.5942083750388
 21
255.8
 31
0.0
  0
LINE
  5
2D2
330
612
100
AcDbEntity
  8
DATA
  6
Continuous
 62
     7
100
AcDbLine
 10
189.0
 20
246.7
 30
0.0
 11
212.5
 21
246.7
 31
0.0
  0
LWPOLYLINE
  5
2D3
330
612
100
AcDbEntity
  8
DATA
  6
Continuous
 62
     7
100
AcDbPolyline
 90
        4
 70
     1
 43
0.0
 10
208.1530445472268
 20
251.475
 10
210.5530445472268
 20
251.475
 10
210.5530445472268
 20
251.025
 10
208.1530445472268
 20
251.025
  0
LWPOLYLINE
  5
2DA
330
612
100
AcDbEntity
  8
DATA
  6
Continuous
 62
     7
100
AcDbPolyline
 90
        4
 70
     1
 43
0.0
 10
191.3721225552024
 20
251.9571067811865
 10
192.4327827269822
 20
250.8964466094067
 10
192.0792293363889
 20
250.5428932188134
 10
191.0185691646091
 20
251.6035533905933
  0
LWPOLYLINE
  5
2E1
330
612
100
AcDbEntity
  8
DATA
  6
Continuous
 62
     7
100
AcDbPolyline
 90
        4
 70
     1
 43
0.0
 10
192.8721225552024
 20
251.9571067811865
 10
193.9327827269822
 20
250.8964466094067
 10
193.5792293363889
 20
250.5428932188134
 10
192.5185691646091
 20
251.6035533905933
  0
LWPOLYLINE
  5
2E8
330
612
100
AcDbEntity
  8
DATA
  6
Continuous
 62
     7
100
AcDbPolyline
 90
        4
 70
     1
 43
0.0
 10
194.3721225552024
 20
251.9571067811865
 10
195.4327827269822
 20
250.8964466094067
 10
195.0792293363889
 20
250.5428932188134
 10
194.0185691646091
 20
251.6035533905933
  0
LWPOLYLINE
  5
2EF
330
612
100
AcDbEntity
  8
DATA
  6
Continuous
 62
     7
100
AcDbPolyline
 90
        4
 70
     1
 43
0.0
 10
198.8721225552024
 20
251.9571067811865
 10
199.9327827269822
 20
250.8964466094067
 10
199.5792293363889
 20
250.5428932188134
 10
198.5185691646091
 20
251.6035533905933
  0
LWPOLYLINE
  5
2F6
330
612
100
AcDbEntity
  8
DATA
  6
Continuous
 62
     7
100
AcDbPolyline
 90
        4
 70
     1
 43
0.0
 10
200.3721225552024
 20
251.9571067811865
 10
201.4327827269822
 20
250.8964466094067
 10
201.0792293363889
 20
250.5428932188134
 10
200.0185691646091
 20
251.6035533905933
  0
LWPOLYLINE
  5
2FD
330
612
100
AcDbEntity
  8
DATA
  6
Continuous
 62
     7
100
AcDbPolyline
 90
        4
 70
     1
 43
0.0
 10
201.8721225552024
 20
251.9571067811865
 10
202.9327827269822
 20
250.8964466094067
 10
202.5792293363889
 20
250.5428932188134
 10
201.5185691646091
 20
251.6035533905933
  0
LWPOLYLINE
  5
304
330
612
100
AcDbEntity
  8
DATA
  6
Continuous
 62
     7
100
AcDbPolyline
 90
        4
 70
     1
 43
0.0
 10
203.3721225552024
 20
251.9571067811865
 10
204.4327827269822
 20
250.8964466094067
 10
204.0792293363889
 20
250.5428932188134
 10
203.0185691646091
 20
251.6035533905933
  0
LWPOLYLINE
  5
30B
330
612
100
AcDbEntity
  8
DATA
  6
Continuous
 62
     7
100
AcDbPolyline
 90
        4
 70
     1
 43
0.0
 10
191.3721225552024
 20
253.7571067811866
 10
192.4327827269822
 20
252.6964466094067
 10
192.0792293363889
 20
252.3428932188134
 10
191.0185691646091
 20
253.4035533905933
  0
LWPOLYLINE
  5
312
330
612
100
AcDbEntity
  8
DATA
  6
Continuous
 62
     7
100
AcDbPolyline
 90
        4
 70
     1
 43
0.0
 10
192.8721225552024
 20
253.7571067811866
 10
193.9327827269822
 20
252.6964466094067
 10
193.5792293363889
 20
252.3428932188134
 10
192.5185691646091
 20
253.4035533905933
  0
LWPOLYLINE
  5
319
330
612
100
AcDbEntity
  8
DATA
  6
Continuous
 62
     7
100
AcDbPolyline
 90
        4
 70
     1
 43
0.0
 10
194.3721225552024
 20
253.7571067811866
 10
195.4327827269822
 20
252.6964466094067
 10
195.0792293363889
 20
252.3428932188134
 10
194.0185691646091
 20
253.4035533905933
  0
LWPOLYLINE
  5
320
330
612
100
AcDbEntity
  8
DATA
  6
Continuous
 62
     7
100
AcDbPolyline
 90
        4
 70
     1
 43
0.0
 10
198.8721225552024
 20
253.7571067811866
 10
199.9327827269822
 20
252.6964466094067
 10
199.5792293363889
 20
252.3428932188134
 10
198.5185691646091
 20
253.4035533905933
  0
LWPOLYLINE
  5
327
330
612
100
AcDbEntity
  8
DATA
  6
Continuous
 62
     7
100
AcDbPolyline
 90
        4
 70
     1
 43
0.0
 10
200.3721225552024
 20
253.7571067811866
 10
201.4327827269822
 20
252.6964466094067
 10
201.0792293363889
 20
252.3428932188134
 10
200.0185691646091
 20
253.4035533905933
  0
LWPOLYLINE
  5
32E
330
612
100
AcDbEntity
  8
DATA
  6
Continuous
 62
     7
100
AcDbPolyline
 90
        4
 70
     1
 43
0.0
 10
201.8721225552024
 20
253.7571067811866
 10
202.9327827269822
 20
252.6964466094067
 10
202.5792293363889
 20
252.3428932188134
 10
201.5185691646091
 20
253.4035533905933
  0
LWPOLYLINE
  5
335
330
612
100
AcDbEntity
  8
DATA
  6
Continuous
 62
     7
100
AcDbPolyline
 90
        4
 70
     1
 43
0.0
 10
203.3721225552024
 20
253.7571067811866
 10
204.4327827269822
 20
252.6964466094067
 10
204.0792293363889
 20
252.3428932188134
 10
203.0185691646091
 20
253.4035533905933
  0
LWPOLYLINE
  5
33C
330
612
100
AcDbEntity
  8
DATA
  6
Continuous
 62
     7
100
AcDbPolyline
 90
        4
 70
     1
 43
0.0
 10
191.3721225552024
 20
250.1571067811865
 10
192.4327827269822
 20
249.0964466094067
 10
192.0792293363889
 20
248.7428932188134
 10
191.0185691646091
 20
249.8035533905933
  0
LWPOLYLINE
  5
343
330
612
100
AcDbEntity
  8
DATA
  6
Continuous
 62
     7
100
AcDbPolyline
 90
        4
 70
     1
 43
0.0
 10
192.8721225552024
 20
250.1571067811865
 10
193.9327827269822
 20
249.0964466094067
 10
193.5792293363889
 20
248.7428932188134
 10
192.5185691646091
 20
249.8035533905933
  0
LWPOLYLINE
  5
34A
330
612
100
AcDbEntity
  8
DATA
  6
Continuous
 62
     7
100
AcDbPolyline
 90
        4
 70
     1
 43
0.0
 10
194.3721225552024
 20
250.1571067811865
 10
195.4327827269822
 20
249.0964466094067
 10
195.0792293363889
 20
248.7428932188134
 10
194.0185691646091
 20
249.8035533905933
  0
LWPOLYLINE
  5
351
330
612
100
AcDbEntity
  8
DATA
  6
Continuous
 62
     7
100
AcDbPolyline
 90
        4
 70
     1
 43
0.0
 10
198.8721225552024
 20
250.1571067811865
 10
199.9327827269822
 20
249.0964466094067
 10
199.5792293363889
 20
248.7428932188134
 10
198.5185691646091
 20
249.8035533905933
  0
LWPOLYLINE
  5
358
330
612
100
AcDbEntity
  8
DATA
  6
Continuous
 62
     7
100
AcDbPolyline
 90
        4
 70
     1
 43
0.0
 10
200.3721225552024
 20
250.1571067811865
 10
201.4327827269822
 20
249.0964466094067
 10
201.0792293363889
 20
248.7428932188134
 10
200.0185691646091
 20
249.8035533905933
  0
LWPOLYLINE
  5
35F
330
612
100
AcDbEntity
  8
DATA
  6
Continuous
 62
     7
100
AcDbPolyline
 90
        4
 70
     1
 43
0.0
 10
201.8721225552024
 20
250.1571067811865
 10
202.9327827269822
 20
249.0964466094067
 10
202.5792293363889
 20
248.7428932188134
 10
201.5185691646091
 20
249.8035533905933
  0
LWPOLYLINE
  5
366
330
612
100
AcDbEntity
  8
DATA
  6
Continuous
 62
     7
100
AcDbPolyline
 90
        4
 70
     1
 43
0.0
 10
203.3721225552024
 20
250.1571067811865
 10
204.4327827269822
 20
249.0964466094067
 10
204.0792293363889
 20
248.7428932188134
 10
203.0185691646091
 20
249.8035533905933
  0
LWPOLYLINE
  5
36D
330
612
100
AcDbEntity
  8
DATA
  6
Continuous
 62
     7
100
AcDbPolyline
 90
        4
 70
     1
 43
0.0
 10
195.9986678621024
 20
253.7571067811866
 10
197.9386678621024
 20
253.7571067811866
 10
197.9386678621024
 20
248.7428932188134
 10
195.9986678621024
 20
248.7428932188134
  0
TEXT
  5
374
330
612
100
AcDbEntity
  8
DATA
 62
     7
100
AcDbText
 10
195.8125840443163
 20
186.203591990255
 30
0.0
 40
3.909218749999999
  1
DVI
 41
0.7
 11
195.8125840443163
 21
190.112810740255
 31
0.0
100
AcDbText
 73
     3
  0
TEXT
  5
375
330
612
100
AcDbEntity
  8
DATA
 62
     7
100
AcDbText
 10
205.5870069076017
 20
186.203591990255
 30
0.0
 40
3.909218749999999
  1
FM
 41
0.7
 11
205.5870069076017
 21
190.112810740255
 31
0.0
100
AcDbText
 73
     3
  0
TEXT
  5
376
330
612
100
AcDbEntity
  8
DATA
 62
     7
100
AcDbText
 10
202.7006420738465
 20
180.9650736136175
 30
0.0
 40
3.909218749999999
  1
500
 41
0.7
 11
202.7006420738465
 21
184.8742923636175
 31
0.0
100
AcDbText
 73
     3
  0
TEXT
  5
377
330
612
100
AcDbEntity
  8
DATA
 62
     7
100
AcDbText
 10
194.4344782920569
 20
169.4234392337062
 30
0.0
 40
3.257682291666665
  1
Receiver
 41
0.7
 11
194.4344782920569
 21
172.6811215253729
 31
0.0
100
AcDbText
 73
     3
  0
TEXT
  5
378
330
612
100
AcDbEntity
  8
DATA
 62
     7
100
AcDbText
 10
189.5213321635728
 20
157.9695
 30
0.0
 40
2.44326171875
  1
5V
 41
0.7
 11
189.5213321635728
 21
160.41276171875
 31
0.0
100
AcDbText
 73
     3
  0
TEXT
  5
379
330
612
100
AcDbEntity
  8
DATA
 62
     7
100
AcDbText
 10
200.3189875773097
 20
157.9695
 30
0.0
 40
2.44326171875
  1
2
 41
0.7
 11
200.3189875773097
 21
160.41276171875
 31
0.0
100
AcDbText
 73
     3
  0
TEXT
  5
37A
330
612
100
AcDbEntity
  8
DATA
 62
     7
100
AcDbText
 10
206.4104760499989
 20
157.9695
 30
0.0
 40
2.44326171875
  1
1
 41
0.7
 11
206.4104760499989
 21
160.41276171875
 31
0.0
100
AcDbText
 73
     3
  0
LINE
  5
37B
330
612
100
AcDbEntity
  8
DATA
  6
Continuous
 62
     7
100
AcDbLine
 10
237.5
 20
157.75
 30
0.0
 11
237.5
 21
225.25
 31
0.0
  0
LINE
  5
37C
330
612
100
AcDbEntity
  8
DATA
  6
Continuous
 62
     7
100
AcDbLine
 10
252.5
 20
157.75
 30
0.0
 11
252.5
 21
225.25
 31
0.0
  0
LINE
  5
37D
330
612
100
AcDbEntity
  8
DATA
  6
Continuous
 62
     7
100
AcDbLine
 10
237.5
 20
225.25
 30
0.0
 11
240.0
 21
225.25
 31
0.0
  0
LINE
  5
37E
330
612
100
AcDbEntity
  8
DATA
  6
Continuous
 62
     7
100
AcDbLine
 10
250.0
 20
225.25
 30
0.0
 11
252.5
 21
225.25
 31
0.0
  0
LINE
  5
37F
330
612
100
AcDbEntity
  8
DATA
  6
Continuous
 62
     7
100
AcDbLine
 10
245.0
 20
224.65
 30
0.0
 11
245.0
 21
206.25
 31
0.0
  0
LINE
  5
380
330
612
100
AcDbEntity
  8
DATA
  6
Continuous
 62
     7
100
AcDbLine
 10
245.0
 20
195.3108436115522
 30
0.0
 11
245.0
 21
156.25
 31
0.0
  0
LINE
  5
381
330
612
100
AcDbEntity
  8
DATA
  6
Continuous
 62
     7
100
AcDbLine
 10
246.35
 20
227.7235842313261
 30
0.0
 11
246.35
 21
224.65
 31
0.0
  0
LINE
  5
382
330
612
100
AcDbEntity
  8
DATA
  6
Continuous
 62
     7
100
AcDbLine
 10
243.65
 20
227.7235842313261
 30
0.0
 11
246.35
 21
227.7235842313261
 31
0.0
  0
LINE
  5
383
330
612
100
AcDbEntity
  8
DATA
  6
Continuous
 62
     7
100
AcDbLine
 10
243.65
 20
224.65
 30
0.0
 11
243.65
 21
227.7235842313261
 31
0.0
  0
LINE
  5
384
330
612
100
AcDbEntity
  8
DATA
  6
Continuous
 62
     7
100
AcDbLine
 10
243.65
 20
225.25
 30
0.0
 11
246.35
 21
225.8
 31
0.0
  0
LINE
  5
385
330
612
100
AcDbEntity
  8
DATA
  6
Continuous
 62
     7
100
AcDbLine
 10
243.65
 20
226.05
 30
0.0
 11
246.35
 21
226.6
 31
0.0
  0
LINE
  5
386
330
612
100
AcDbEntity
  8
DATA
  6
Continuous
 62
     7
100
AcDbLine
 10
243.65
 20
226.85
 30
0.0
 11
246.35
 21
227.4
 31
0.0
  0
LINE
  5
387
330
612
100
AcDbEntity
  8
DATA
  6
Continuous
 62
     7
100
AcDbLine
 10
237.5
 20
220.25
 30
0.0
 11
240.0
 21
220.25
 31
0.0
  0
LINE
  5
388
330
612
100
AcDbEntity
  8
DATA
  6
Continuous
 62
     7
100
AcDbLine
 10
250.0
 20
220.25
 30
0.0
 11
252.5
 21
220.25
 31
0.0
  0
LINE
  5
389
330
612
100
AcDbEntity
  8
DATA
  6
Continuous
 62
     7
100
AcDbLine
 10
181.25
 20
256.25
 30
0.0
 11
220.25
 21
256.25
 31
0.0
  0
LINE
  5
38A
330
612
100
AcDbEntity
  8
DATA
  6
Continuous
 62
     7
100
AcDbLine
 10
220.25
 20
246.25
 30
0.0
 11
181.25
 21
246.25
 31
0.0
  0
LINE
  5
38B
330
612
100
AcDbEntity
  8
DATA
  6
Continuous
 62
     7
100
AcDbLine
 10
181.25
 20
246.25
 30
0.0
 11
181.25
 21
256.25
 31
0.0
  0
LINE
  5
38C
330
612
100
AcDbEntity
  8
DATA
  6
Continuous
 62
     7
100
AcDbLine
 10
182.25
 20
246.25
 30
0.0
 11
182.25
 21
256.25
 31
0.0
  0
LINE
  5
38D
330
612
100
AcDbEntity
  8
DATA
  6
Continuous
 62
     7
100
AcDbLine
 10
220.25
 20
246.25
 30
0.0
 11
220.25
 21
256.25
 31
0.0
  0
LINE
  5
38E
330
612
100
AcDbEntity
  8
DATA
  6
Continuous
 62
     7
100
AcDbLine
 10
219.25
 20
246.25
 30
0.0
 11
219.25
 21
256.25
 31
0.0
  0
LINE
  5
38F
330
612
100
AcDbEntity
  8
DATA
  6
Continuous
 62
     7
100
AcDbLine
 10
213.5
 20
230.25
 30
0.0
 11
213.5
 21
225.25
 31
0.0
  0
LINE
  5
390
330
612
100
AcDbEntity
  8
DATA
  6
Continuous
 62
     7
100
AcDbLine
 10
188.0
 20
225.25
 30
0.0
 11
188.0
 21
230.25
 31
0.0
  0
ARC
  5
391
330
612
100
AcDbEntity
  8
DATA
  6
Continuous
 62
     7
100
AcDbCircle
 10
189.0
 20
247.7
 30
0.0
 40
1.0
100
AcDbArc
 50
180.0
 51
270.0
  0
ARC
  5
392
330
612
100
AcDbEntity
  8
DATA
  6
Continuous
 62
     7
100
AcDbCircle
 10
212.5
 20
247.7
 30
0.0
 40
1.0
100
AcDbArc
 50
270.0
 51
0.0
  0
ARC
  5
393
330
612
100
AcDbEntity
  8
DATA
  6
Continuous
 62
     7
100
AcDbCircle
 10
194.6681116044301
 20
251.7255057714573
 30
0.0
 40
6.668527705515008
100
AcDbArc
 50
147.1542188009644
 51
179.3599346272914
  0
ARC
  5
394
330
612
100
AcDbEntity
  8
DATA
  6
Continuous
 62
     7
100
AcDbCircle
 10
206.83188839557
 20
251.7255057714573
 30
0.0
 40
6.668527705515009
100
AcDbArc
 50
0.640065372708576
 51
32.84578119903545
  0
LINE
  5
395
330
612
100
AcDbEntity
  8
DATA
  6
Continuous
 62
     7
100
AcDbLine
 10
188.0
 20
247.7
 30
0.0
 11
188.0
 21
251.8
 31
0.0
  0
LINE
  5
396
330
612
100
AcDbEntity
  8
DATA
  6
Continuous
 62
     7
100
AcDbLine
 10
213.5
 20
247.7
 30
0.0
 11
213.5
 21
251.7999999999996
 31
0.0
  0
ARC
  5
397
330
612
100
AcDbEntity
  8
DATA
  6
Continuous
 62
     7
100
AcDbCircle
 10
189.9057916249611
 20
254.8000000000001
 30
0.0
 40
0.9999999999999504
100
AcDbArc
 50
90.0
 51
147.1542188009668
  0
ARC
  5
398
330
612
100
AcDbEntity
  8
DATA
  6
Continuous
 62
     7
100
AcDbCircle
 10
211.5942083750388
 20
254.8
 30
0.0
 40
0.9999999999999927
100
AcDbArc
 50
32.84578119903507
 51
90.0
  0
LINE
  5
399
330
612
100
AcDbEntity
  8
DATA
  6
Continuous
 62
     7
100
AcDbLine
 10
250.0
 20
225.25
 30
0.0
 11
250.0
 21
224.65
 31
0.0
  0
LINE
  5
39A
330
612
100
AcDbEntity
  8
DATA
  6
Continuous
 62
     7
100
AcDbLine
 10
240.0
 20
224.65
 30
0.0
 11
240.0
 21
225.25
 31
0.0
  0
LINE
  5
39B
330
612
100
AcDbEntity
  8
DATA
  6
Continuous
 62
     7
100
AcDbLine
 10
240.0
 20
224.65
 30
0.0
 11
250.0
 21
224.65
 31
0.0
  0
LINE
  5
39C
330
612
100
AcDbEntity
  8
DATA
  6
Continuous
 62
     7
100
AcDbLine
 10
245.6136363636363
 20
224.65
 30
0.0
 11
246.35
 21
224.8
 31
0.0
  0
ARC
  5
39D
330
612
100
AcDbEntity
  8
DATA
  6
Continuous
 62
     7
100
AcDbCircle
 10
245.0
 20
211.25
 30
0.0
 40
5.0
100
AcDbArc
 50
180.0
 51
0.0
  0
LINE
  5
39E
330
612
100
AcDbEntity
  8
DATA
  6
Continuous
 62
     7
100
AcDbLine
 10
240.0
 20
211.25
 30
0.0
 11
240.0
 21
220.25
 31
0.0
  0
LINE
  5
39F
330
612
100
AcDbEntity
  8
DATA
  6
Continuous
 62
     7
100
AcDbLine
 10
250.0
 20
211.25
 30
0.0
 11
250.0
 21
220.25
 31
0.0
  0
ARC
  5
3A0
330
612
100
AcDbEntity
  8
DATA
  6
Continuous
 62
     7
100
AcDbCircle
 10
245.0
 20
190.3108436115522
 30
0.0
 40
5.0
100
AcDbArc
 50
0.0
 51
180.0
  0
LINE
  5
3A1
330
612
100
AcDbEntity
  8
DATA
  6
Continuous
 62
     7
100
AcDbLine
 10
240.0
 20
190.3108436115522
 30
0.0
 11
240.0
 21
157.25
 31
0.0
  0
LINE
  5
3A2
330
612
100
AcDbEntity
  8
DATA
  6
Continuous
 62
     7
100
AcDbLine
 10
250.0
 20
190.3108436115522
 30
0.0
 11
250.0
 21
157.25
 31
0.0
  0
ARC
  5
3A3
330
612
100
AcDbEntity
  8
DATA
  6
Continuous
 62
     7
100
AcDbCircle
 10
239.0
 20
157.75
 30
0.0
 40
1.5
100
AcDbArc
 50
180.0
 51
270.0
  0
ARC
  5
3A4
330
612
100
AcDbEntity
  8
DATA
  6
Continuous
 62
     7
100
AcDbCircle
 10
251.0
 20
157.75
 30
0.0
 40
1.5
100
AcDbArc
 50
270.0
 51
0.0
  0
ARC
  5
3A5
330
612
100
AcDbEntity
  8
DATA
  6
Continuous
 62
     7
100
AcDbCircle
 10
241.0
 20
157.25
 30
0.0
 40
1.0
100
AcDbArc
 50
180.0
 51
270.0
  0
ARC
  5
3A6
330
612
100
AcDbEntity
  8
DATA
  6
Continuous
 62
     7
100
AcDbCircle
 10
249.0
 20
157.25
 30
0.0
 40
1.0
100
AcDbArc
 50
270.0
 51
0.0
  0
LINE
  5
3A7
330
612
100
AcDbEntity
  8
DATA
  6
Continuous
 62
     7
100
AcDbLine
 10
239.0
 20
156.25
 30
0.0
 11
251.05
 21
156.25
 31
0.0
  0
LINE
  5
3A8
330
612
100
AcDbEntity
  8
DATA
  6
Continuous
 62
     7
100
AcDbLine
 10
241.1
 20
204.9097526159584
 30
0.0
 11
248.9
 21
204.9097526159584
 31
0.0
  0
LINE
  5
3A9
330
612
100
AcDbEntity
  8
DATA
  6
Continuous
 62
     7
100
AcDbLine
 10
248.73
 20
196.9097526159584
 30
0.0
 11
241.27
 21
196.9097526159584
 31
0.0
  0
LINE
  5
3AA
330
612
100
AcDbEntity
  8
DATA
  6
Continuous
 62
     7
100
AcDbLine
 10
243.6201630627616
 20
206.4441650021425
 30
0.0
 11
243.6201630627616
 21
204.9097526159584
 31
0.0
  0
LINE
  5
3AB
330
612
100
AcDbEntity
  8
DATA
  6
Continuous
 62
     7
100
AcDbLine
 10
246.3201630627616
 20
206.4274312355634
 30
0.0
 11
246.3201630627616
 21
204.9097526159584
 31
0.0
  0
LINE
  5
3AC
330
612
100
AcDbEntity
  8
DATA
  6
Continuous
 62
     7
100
AcDbLine
 10
241.1
 20
204.9097526159584
 30
0.0
 11
241.27
 21
196.9097526159584
 31
0.0
  0
LINE
  5
3AD
330
612
100
AcDbEntity
  8
DATA
  6
Continuous
 62
     7
100
AcDbLine
 10
248.9
 20
204.9097526159584
 30
0.0
 11
248.73
 21
196.9097526159584
 31
0.0
  0
LINE
  5
3AE
330
612
100
AcDbEntity
  8
DATA
  6
Continuous
 62
     7
100
AcDbLine
 10
243.6201630627616
 20
205.7097526159584
 30
0.0
 11
246.3201630627616
 21
205.98
 31
0.0
  0
LINE
  5
3AF
330
612
100
AcDbEntity
  8
DATA
  6
Continuous
 62
     7
100
AcDbLine
 10
241.4785624877325
 20
196.9097526159584
 30
0.0
 11
241.4785624877325
 21
204.9097526159584
 31
0.0
  0
LINE
  5
3B0
330
612
100
AcDbEntity
  8
DATA
  6
Continuous
 62
     7
100
AcDbLine
 10
242.4785624877324
 20
196.9097526159584
 30
0.0
 11
242.4785624877324
 21
204.9097526159584
 31
0.0
  0
LINE
  5
3B1
330
612
100
AcDbEntity
  8
DATA
  6
Continuous
 62
     7
100
AcDbLine
 10
243.4785624877325
 20
196.9097526159584
 30
0.0
 11
243.4785624877325
 21
204.9097526159584
 31
0.0
  0
LINE
  5
3B2
330
612
100
AcDbEntity
  8
DATA
  6
Continuous
 62
     7
100
AcDbLine
 10
244.4785624877324
 20
196.9097526159584
 30
0.0
 11
244.4785624877324
 21
204.9097526159584
 31
0.0
  0
LINE
  5
3B3
330
612
100
AcDbEntity
  8
DATA
  6
Continuous
 62
     7
100
AcDbLine
 10
245.4785624877325
 20
196.9097526159584
 30
0.0
 11
245.4785624877325
 21
204.9097526159584
 31
0.0
  0
LINE
  5
3B4
330
612
100
AcDbEntity
  8
DATA
  6
Continuous
 62
     7
100
AcDbLine
 10
246.4785624877324
 20
196.9097526159584
 30
0.0
 11
246.4785624877324
 21
204.9097526159584
 31
0.0
  0
LINE
  5
3B5
330
612
100
AcDbEntity
  8
DATA
  6
Continuous
 62
     7
100
AcDbLine
 10
247.4785624877325
 20
196.9097526159584
 30
0.0
 11
247.4785624877325
 21
204.9097526159584
 31
0.0
  0
LINE
  5
3B6
330
612
100
AcDbEntity
  8
DATA
  6
Continuous
 62
     7
100
AcDbLine
 10
248.4785624877325
 20
196.9097526159584
 30
0.0
 11
248.4785624877325
 21
204.9097526159584
 31
0.0
  0
LINE
  5
3B7
330
612
100
AcDbEntity
  8
DATA
  6
Continuous
 62
     7
100
AcDbLine
 10
237.5
 20
195.3108436115522
 30
0.0
 11
252.5
 21
195.3108436115522
 31
0.0
  0
LINE
  5
3B8
330
612
100
AcDbEntity
  8
DATA
  6
Continuous
 62
     7
100
AcDbLine
 10
252.5
 20
206.25
 30
0.0
 11
246.3201630627616
 21
206.25
 31
0.0
  0
LINE
  5
3B9
330
612
100
AcDbEntity
  8
DATA
  6
Continuous
 62
     7
100
AcDbLine
 10
243.6201630627616
 20
206.25
 30
0.0
 11
237.5
 21
206.25
 31
0.0
  0
LINE
  5
3BA
330
612
100
AcDbEntity
  8
DATA
  6
Continuous
 62
     7
100
AcDbLine
 10
239.0
 20
195.3108436115522
 30
0.0
 11
239.0
 21
206.25
 31
0.0
  0
LINE
  5
3BB
330
612
100
AcDbEntity
  8
DATA
  6
Continuous
 62
     7
100
AcDbLine
 10
251.0
 20
195.3108436115522
 30
0.0
 11
251.0
 21
206.25
 31
0.0
  0
LINE
  5
3BC
330
612
100
AcDbEntity
  8
DATA
  6
Continuous
 62
     7
100
AcDbLine
 10
181.42180188
 20
87.5
 30
0.0
 11
218.92180188
 21
87.5
 31
0.0
  0
LINE
  5
3BD
330
612
100
AcDbEntity
  8
DATA
  6
Continuous
 62
     7
100
AcDbLine
 10
62.5
 20
87.5
 30
0.0
 11
87.5
 21
87.5
 31
0.0
  0
LINE
  5
3BE
330
612
100
AcDbEntity
  8
DATA
  6
Continuous
 62
     7
100
AcDbLine
 10
56.24999999972304
 20
122.35
 30
0.0
 11
55.31852543169997
 21
122.35
 31
0.0
  0
LINE
  5
3BF
330
612
100
AcDbEntity
  8
DATA
  6
Continuous
 62
     7
100
AcDbLine
 10
55.31852543169997
 20
130.15
 30
0.0
 11
56.24999999972304
 21
130.15
 31
0.0
  0
LINE
  5
3C0
330
612
100
AcDbEntity
  8
DATA
  6
Continuous
 62
     7
100
AcDbLine
 10
96.11852543169998
 20
122.35
 30
0.0
 11
95.24999999972306
 21
122.35
 31
0.0
  0
LINE
  5
3C1
330
612
100
AcDbEntity
  8
DATA
  6
Continuous
 62
     7
100
AcDbLine
 10
95.24999999972306
 20
130.15
 30
0.0
 11
96.11852543169998
 21
130.15
 31
0.0
  0
LINE
  5
3C2
330
612
100
AcDbEntity
  8
DATA
  6
Continuous
 62
     7
100
AcDbLine
 10
55.31852543169997
 20
122.35
 30
0.0
 11
55.31852543169997
 21
130.15
 31
0.0
  0
LINE
  5
3C3
330
612
100
AcDbEntity
  8
DATA
  6
Continuous
 62
     7
100
AcDbLine
 10
96.11852543169998
 20
122.35
 30
0.0
 11
96.11852543169998
 21
130.15
 31
0.0
  0
LINE
  5
3C4
330
612
100
AcDbEntity
  8
DATA
  6
Continuous
 62
     7
100
AcDbLine
 10
180.35
 20
247.35
 30
0.0
 11
180.35
 21
255.15
 31
0.0
  0
LINE
  5
3C5
330
612
100
AcDbEntity
  8
DATA
  6
Continuous
 62
     7
100
AcDbLine
 10
221.15
 20
247.35
 30
0.0
 11
221.15
 21
255.15
 31
0.0
  0
LINE
  5
3C6
330
612
100
AcDbEntity
  8
DATA
  6
Continuous
 62
     7
100
AcDbLine
 10
180.35
 20
255.15
 30
0.0
 11
181.25
 21
255.15
 31
0.0
  0
LINE
  5
3C7
330
612
100
AcDbEntity
  8
DATA
  6
Continuous
 62
     7
100
AcDbLine
 10
180.35
 20
247.35
 30
0.0
 11
181.25
 21
247.35
 31
0.0
  0
LINE
  5
3C8
330
612
100
AcDbEntity
  8
DATA
  6
Continuous
 62
     7
100
AcDbLine
 10
220.25
 20
255.15
 30
0.0
 11
221.15
 21
255.15
 31
0.0
  0
LINE
  5
3C9
330
612
100
AcDbEntity
  8
DATA
  6
Continuous
 62
     7
100
AcDbLine
 10
220.25
 20
247.35
 30
0.0
 11
221.15
 21
247.35
 31
0.0
  0
LINE
  5
3CA
330
612
100
AcDbEntity
  8
DATA
  6
Continuous
 62
     7
100
AcDbLine
 10
181.2499999996754
 20
122.35
 30
0.0
 11
180.35
 21
122.35
 31
0.0
  0
LINE
  5
3CB
330
612
100
AcDbEntity
  8
DATA
  6
Continuous
 62
     7
100
AcDbLine
 10
180.35
 20
130.15
 30
0.0
 11
181.2499999996754
 21
130.15
 31
0.0
  0
LINE
  5
3CC
330
612
100
AcDbEntity
  8
DATA
  6
Continuous
 62
     7
100
AcDbLine
 10
221.15
 20
122.35
 30
0.0
 11
220.2499999996754
 21
122.35
 31
0.0
  0
LINE
  5
3CD
330
612
100
AcDbEntity
  8
DATA
  6
Continuous
 62
     7
100
AcDbLine
 10
220.2499999996754
 20
130.15
 30
0.0
 11
221.15
 21
130.15
 31
0.0
  0
LINE
  5
3CE
330
612
100
AcDbEntity
  8
DATA
  6
Continuous
 62
     7
100
AcDbLine
 10
180.35
 20
122.35
 30
0.0
 11
180.35
 21
130.15
 31
0.0
  0
LINE
  5
3CF
330
612
100
AcDbEntity
  8
DATA
  6
Continuous
 62
     7
100
AcDbLine
 10
221.15
 20
122.35
 30
0.0
 11
221.15
 21
130.15
 31
0.0
  0
LINE
  5
3D0
330
612
100
AcDbEntity
  8
DATA
  6
Continuous
 62
     7
100
AcDbLine
 10
56.25
 20
247.35
 30
0.0
 11
55.34999999999997
 21
247.35
 31
0.0
  0
LINE
  5
3D1
330
612
100
AcDbEntity
  8
DATA
  6
Continuous
 62
     7
100
AcDbLine
 10
55.34999999999997
 20
255.15
 30
0.0
 11
56.25
 21
255.15
 31
0.0
  0
LINE
  5
3D2
330
612
100
AcDbEntity
  8
DATA
  6
Continuous
 62
     7
100
AcDbLine
 10
96.14999999999996
 20
247.35
 30
0.0
 11
95.25
 21
247.35
 31
0.0
  0
LINE
  5
3D3
330
612
100
AcDbEntity
  8
DATA
  6
Continuous
 62
     7
100
AcDbLine
 10
95.25
 20
255.15
 30
0.0
 11
96.14999999999996
 21
255.15
 31
0.0
  0
LINE
  5
3D4
330
612
100
AcDbEntity
  8
DATA
  6
Continuous
 62
     7
100
AcDbLine
 10
55.34999999999997
 20
247.35
 30
0.0
 11
55.34999999999997
 21
255.15
 31
0.0
  0
LINE
  5
3D5
330
612
100
AcDbEntity
  8
DATA
  6
Continuous
 62
     7
100
AcDbLine
 10
96.14999999999996
 20
247.35
 30
0.0
 11
96.14999999999996
 21
255.15
 31
0.0
  0
ENDSEC
  0
SECTION
  2
OBJECTS
  0
DICTIONARY
  5
5B3
330
0
100
AcDbDictionary
281
     1
  3
ACAD_CIP_PREVIOUS_PRODUCT_INFO
350
623
  3
ACAD_COLOR
350
609
  3
ACAD_GROUP
350
5B4
  3
ACAD_LAYOUT
350
608
  3
ACAD_MATERIAL
350
5B7
  3
ACAD_MLEADERSTYLE
350
60C
  3
ACAD_MLINESTYLE
350
605
  3
ACAD_PLOTSETTINGS
350
607
  3
ACAD_PLOTSTYLENAME
350
5B5
  3
ACAD_SCALELIST
350
5E9
  3
ACAD_TABLESTYLE
350
60A
  3
ACAD_VISUALSTYLE
350
5D0
  3
ACDB_RECOMPOSE_DATA
350
6A1
  3
AcDbVariableDictionary
350
639
  3
DWGPROPS
350
6A2
  0
DICTIONARY
  5
62F
330
5FB
100
AcDbDictionary
280
     1
281
     1
  3
ADSK_XREC_LAYER_RECONCILED
360
630
  0
DICTIONARY
  5
631
330
616
100
AcDbDictionary
280
     1
281
     1
  3
ADSK_XREC_LAYER_RECONCILED
360
632
  0
DICTIONARY
  5
633
330
618
100
AcDbDictionary
280
     1
281
     1
  3
ADSK_XREC_LAYER_RECONCILED
360
634
  0
DICTIONARY
  5
635
330
619
100
AcDbDictionary
280
     1
281
     1
  3
ADSK_XREC_LAYER_RECONCILED
360
636
  0
DICTIONARY
  5
637
330
61A
100
AcDbDictionary
280
     1
281
     1
  3
ADSK_XREC_LAYER_RECONCILED
360
638
  0
XRECORD
  5
623
102
{ACAD_REACTORS
330
5B3
102
}
330
5B3
100
AcDbXrecord
280
     1
300
ACDLT
300
2012
300
ACDLT_F_S
  0
DICTIONARY
  5
609
102
{ACAD_REACTORS
330
5B3
102
}
330
5B3
100
AcDbDictionary
281
     1
  0
DICTIONARY
  5
5B4
102
{ACAD_REACTORS
330
5B3
102
}
330
5B3
100
AcDbDictionary
281
     1
  0
DICTIONARY
  5
608
102
{ACAD_REACTORS
330
5B3
102
}
330
5B3
100
AcDbDictionary
281
     1
  3
Model
350
615
  3
レイアウト1
350
611
  0
DICTIONARY
  5
5B7
102
{ACAD_REACTORS
330
5B3
102
}
330
5B3
100
AcDbDictionary
281
     1
  3
ByBlock
350
5C0
  3
ByLayer
350
5B8
  3
Global
350
5C8
  0
DICTIONARY
  5
60C
102
{ACAD_REACTORS
330
5B3
102
}
330
5B3
100
AcDbDictionary
281
     1
  3
Standard
350
60D
  0
DICTIONARY
  5
605
102
{ACAD_REACTORS
330
5B3
102
}
330
5B3
100
AcDbDictionary
281
     1
  3
Standard
350
606
  0
DICTIONARY
  5
607
102
{ACAD_REACTORS
330
5B3
102
}
330
5B3
100
AcDbDictionary
281
     1
  3
A4 縦
350
696
  0
ACDBDICTIONARYWDFLT
  5
5B5
102
{ACAD_REACTORS
330
5B3
102
}
330
5B3
100
AcDbDictionary
281
     1
  3
Normal
350
5B6
100
AcDbDictionaryWithDefault
340
5B6
  0
DICTIONARY
  5
5E9
102
{ACAD_REACTORS
330
5B3
102
}
330
5B3
100
AcDbDictionary
281
     1
  3
A0
350
5EA
  3
A1
350
5EB
  3
A2
350
5EC
  3
A3
350
5ED
  3
A4
350
5EE
  3
A5
350
5EF
  3
A6
350
5F0
  3
A7
350
5F1
  3
A8
350
5F2
  3
A9
350
5F3
  3
B0
350
5F4
  3
B1
350
5F5
  3
B2
350
5F6
  3
B3
350
5F7
  3
B4
350
5F8
  3
B5
350
5F9
  3
B6
350
5FA
  0
DICTIONARY
  5
60A
102
{ACAD_REACTORS
330
5B3
102
}
330
5B3
100
AcDbDictionary
281
     1
  3
Standard
350
60B
  0
DICTIONARY
  5
5D0
102
{ACAD_REACTORS
330
5B3
102
}
330
5B3
100
AcDbDictionary
281
     1
  3
2dWireframe
350
5D6
  3
Basic
350
5D5
  3
Brighten
350
5DC
  3
ColorChange
350
5E0
  3
Conceptual
350
5D9
  3
Dim
350
5DB
  3
EdgeColorOff
350
5E8
  3
Facepattern
350
5DF
  3
Flat
350
5D1
  3
FlatWithEdges
350
5D2
  3
Gouraud
350
5D3
  3
GouraudWithEdges
350
5D4
  3
Hidden
350
5D8
  3
JitterOff
350
5E6
  3
Linepattern
350
5DE
  3
OverhangOff
350
5E7
  3
Realistic
350
5DA
  3
Shaded
350
5E5
  3
Shaded with edges
350
5E4
  3
Shades of Gray
350
5E1
  3
Sketchy
350
5E2
  3
Thicken
350
5DD
  3
Wireframe
350
5D7
  3
X-Ray
350
5E3
  0
XRECORD
  5
6A1
102
{ACAD_REACTORS
330
5B3
102
}
330
5B3
100
AcDbXrecord
280
     1
 90
        1
330
60B
  0
DICTIONARY
  5
639
102
{ACAD_REACTORS
330
5B3
102
}
330
5B3
100
AcDbDictionary
281
     1
  3
CANNOSCALE
350
63C
  3
CMLEADERSTYLE
350
63B
  3
CTABLESTYLE
350
63A
  3
DIMASSOC
350
63F
  3
INDEXCTL
350
63E
  3
SORTENTS
350
63D
  3
XCLIPFRAME
350
640
  0
XRECORD
  5
6A2
102
{ACAD_REACTORS
330
5B3
102
}
330
5B3
100
AcDbXrecord
280
     1
  1
DWGPROPS COOKIE
  2

  3

  4

  6

  7

  8
fukuda_r
  9

300
=
301
=
302
=
303
=
304
=
305
=
306
=
307
=
308
=
309
=
 40
0.008276087962963
 41
2455202.659131945
 42
2457150.57603448
  1

 90
        0
  0
XRECORD
  5
630
102
{ACAD_REACTORS
330
62F
102
}
330
62F
100
AcDbXrecord
280
     1
290
     1
  0
XRECORD
  5
632
102
{ACAD_REACTORS
330
631
102
}
330
631
100
AcDbXrecord
280
     1
290
     1
  0
XRECORD
  5
634
102
{ACAD_REACTORS
330
633
102
}
330
633
100
AcDbXrecord
280
     1
290
     1
  0
XRECORD
  5
636
102
{ACAD_REACTORS
330
635
102
}
330
635
100
AcDbXrecord
280
     1
290
     1
  0
XRECORD
  5
638
102
{ACAD_REACTORS
330
637
102
}
330
637
100
AcDbXrecord
280
     1
290
     1
  0
LAYOUT
  5
615
102
{ACAD_XDICTIONARY
360
6D9
102
}
102
{ACAD_REACTORS
330
608
102
}
330
608
100
AcDbPlotSettings
  1

  2
none_device
  4
Letter_(8.50_x_11.00_Inches)
  6

 40
6.349999904632568
 41
6.349999904632568
 42
6.350006103515625
 43
6.350006103515625
 44
215.8999938964844
 45
279.3999938964844
 46
0.0
 47
0.0
 48
0.0
 49
0.0
140
0.0
141
0.0
142
1.0
143
14.91411382453609
 70
 11952
 72
     0
 73
     1
 74
     0
  7

 75
     0
147
0.0670505811987864
148
-406.5008610764409
149
-8229.260498821826
100
AcDbLayout
  1
Model
 70
     1
 71
     0
 10
0.0
 20
0.0
 11
12.0
 21
9.0
 12
0.0
 22
0.0
 32
0.0
 14
0.0
 24
0.0
 34
0.0
 15
0.0
 25
0.0
 35
0.0
146
0.0
 13
0.0
 23
0.0
 33
0.0
 16
1.0
 26
0.0
 36
0.0
 17
0.0
 27
1.0
 37
0.0
 76
     0
330
612
331
617
1001
ACAD_PSEXT
1000
なし
1000
なし
1000
適切ではありません
1000
新しいプロッタ環境設定名を選択しない限り、レイアウトは印刷されません。
1070
     0
  0
LAYOUT
  5
611
102
{ACAD_XDICTIONARY
360
6D7
102
}
102
{ACAD_REACTORS
330
608
102
}
330
608
100
AcDbPlotSettings
  1

  2
DocuPrint 255-2 - B2F
  4

  6

 40
0.0
 41
0.0
 42
0.0
 43
0.0
 44
0.0
 45
0.0
 46
0.0
 47
0.0
 48
0.0
 49
0.0
140
0.0
141
0.0
142
1.0
143
1.0
 70
   688
 72
     0
 73
     0
 74
     5
  7

 75
    16
147
1.0
148
0.0
149
0.0
100
AcDbLayout
  1
レイアウト1
 70
     0
 71
     1
 10
0.0
 20
0.0
 11
12.0
 21
9.0
 12
0.0
 22
0.0
 32
0.0
 14
1.000000000000000E+20
 24
1.000000000000000E+20
 34
1.000000000000000E+20
 15
-1.000000000000000E+20
 25
-1.000000000000000E+20
 35
-1.000000000000000E+20
146
0.0
 13
0.0
 23
0.0
 33
0.0
 16
1.0
 26
0.0
 36
0.0
 17
0.0
 27
1.0
 37
0.0
 76
     0
330
60E
  0
MATERIAL
  5
5C0
102
{ACAD_XDICTIONARY
360
5C1
102
}
102
{ACAD_REACTORS
330
5B7
102
}
330
5B7
100
AcDbMaterial
  1
ByBlock
 72
     0
 43
0.0208333333333333
 43
0.0
 43
0.0
 43
0.0
 43
0.0
 43
0.0208333333333333
 43
0.0
 43
0.0
 43
0.0
 43
0.0
 43
1.0
 43
0.0
 43
0.0
 43
0.0
 43
0.0
 43
1.0
 77
     0
 47
0.0208333333333333
 47
0.0
 47
0.0
 47
0.0
 47
0.0
 47
0.0208333333333333
 47
0.0
 47
0.0
 47
0.0
 47
0.0
 47
1.0
 47
0.0
 47
0.0
 47
0.0
 47
0.0
 47
1.0
171
     0
 49
0.0208333333333333
 49
0.0
 49
0.0
 49
0.0
 49
0.0
 49
0.0208333333333333
 49
0.0
 49
0.0
 49
0.0
 49
0.0
 49
1.0
 49
0.0
 49
0.0
 49
0.0
 49
0.0
 49
1.0
175
     0
142
0.0208333333333333
142
0.0
142
0.0
142
0.0
142
0.0
142
0.0208333333333333
142
0.0
142
0.0
142
0.0
142
0.0
142
1.0
142
0.0
142
0.0
142
0.0
142
0.0
142
1.0
179
     0
144
0.0208333333333333
144
0.0
144
0.0
144
0.0
144
0.0
144
0.0208333333333333
144
0.0
144
0.0
144
0.0
144
0.0
144
1.0
144
0.0
144
0.0
144
0.0
144
0.0
144
1.0
147
0.0208333333333333
147
0.0
147
0.0
147
0.0
147
0.0
147
0.0208333333333333
147
0.0
147
0.0
147
0.0
147
0.0
147
1.0
147
0.0
147
0.0
147
0.0
147
0.0
147
1.0
  0
MATERIAL
  5
5B8
102
{ACAD_XDICTIONARY
360
5B9
102
}
102
{ACAD_REACTORS
330
5B7
102
}
330
5B7
100
AcDbMaterial
  1
ByLayer
 72
     0
 43
0.0208333333333333
 43
0.0
 43
0.0
 43
0.0
 43
0.0
 43
0.0208333333333333
 43
0.0
 43
0.0
 43
0.0
 43
0.0
 43
1.0
 43
0.0
 43
0.0
 43
0.0
 43
0.0
 43
1.0
 77
     0
 47
0.0208333333333333
 47
0.0
 47
0.0
 47
0.0
 47
0.0
 47
0.0208333333333333
 47
0.0
 47
0.0
 47
0.0
 47
0.0
 47
1.0
 47
0.0
 47
0.0
 47
0.0
 47
0.0
 47
1.0
171
     0
 49
0.0208333333333333
 49
0.0
 49
0.0
 49
0.0
 49
0.0
 49
0.0208333333333333
 49
0.0
 49
0.0
 49
0.0
 49
0.0
 49
1.0
 49
0.0
 49
0.0
 49
0.0
 49
0.0
 49
1.0
175
     0
142
0.0208333333333333
142
0.0
142
0.0
142
0.0
142
0.0
142
0.0208333333333333
142
0.0
142
0.0
142
0.0
142
0.0
142
1.0
142
0.0
142
0.0
142
0.0
142
0.0
142
1.0
179
     0
144
0.0208333333333333
144
0.0
144
0.0
144
0.0
144
0.0
144
0.0208333333333333
144
0.0
144
0.0
144
0.0
144
0.0
144
1.0
144
0.0
144
0.0
144
0.0
144
0.0
144
1.0
147
0.0208333333333333
147
0.0
147
0.0
147
0.0
147
0.0
147
0.0208333333333333
147
0.0
147
0.0
147
0.0
147
0.0
147
1.0
147
0.0
147
0.0
147
0.0
147
0.0
147
1.0
  0
MATERIAL
  5
5C8
102
{ACAD_XDICTIONARY
360
5C9
102
}
102
{ACAD_REACTORS
330
5B7
102
}
330
5B7
100
AcDbMaterial
  1
Global
 72
     0
 43
0.0208333333333333
 43
0.0
 43
0.0
 43
0.0
 43
0.0
 43
0.0208333333333333
 43
0.0
 43
0.0
 43
0.0
 43
0.0
 43
1.0
 43
0.0
 43
0.0
 43
0.0
 43
0.0
 43
1.0
 77
     0
 47
0.0208333333333333
 47
0.0
 47
0.0
 47
0.0
 47
0.0
 47
0.0208333333333333
 47
0.0
 47
0.0
 47
0.0
 47
0.0
 47
1.0
 47
0.0
 47
0.0
 47
0.0
 47
0.0
 47
1.0
171
     0
 49
0.0208333333333333
 49
0.0
 49
0.0
 49
0.0
 49
0.0
 49
0.0208333333333333
 49
0.0
 49
0.0
 49
0.0
 49
0.0
 49
1.0
 49
0.0
 49
0.0
 49
0.0
 49
0.0
 49
1.0
175
     0
142
0.0208333333333333
142
0.0
142
0.0
142
0.0
142
0.0
142
0.0208333333333333
142
0.0
142
0.0
142
0.0
142
0.0
142
1.0
142
0.0
142
0.0
142
0.0
142
0.0
142
1.0
179
     0
144
0.0208333333333333
144
0.0
144
0.0
144
0.0
144
0.0
144
0.0208333333333333
144
0.0
144
0.0
144
0.0
144
0.0
144
1.0
144
0.0
144
0.0
144
0.0
144
0.0
144
1.0
147
0.0208333333333333
147
0.0
147
0.0
147
0.0
147
0.0
147
0.0208333333333333
147
0.0
147
0.0
147
0.0
147
0.0
147
1.0
147
0.0
147
0.0
147
0.0
147
0.0
147
1.0
  0
MLEADERSTYLE
  5
60D
102
{ACAD_REACTORS
330
60C
102
}
330
60C
100
AcDbMLeaderStyle
170
     2
171
     1
172
     0
 90
        2
 40
0.0
 41
0.0
173
     1
 91
-1056964608
340
601
 92
       -2
290
     1
 42
0.09
291
     1
 43
0.36
  3
Standard
 44
0.18
300

342
5FC
174
     1
178
     6
175
     1
176
     0
 93
-1056964608
 45
0.18
292
     0
297
     0
 46
0.18
 94
-1056964608
 47
1.0
 49
1.0
140
1.0
293
     1
141
0.0
294
     1
177
     0
142
1.0
295
     0
296
     0
143
0.125
1001
ACAD_MLEADERVER
1070
     2
  0
MLINESTYLE
  5
606
102
{ACAD_REACTORS
330
605
102
}
330
605
100
AcDbMlineStyle
  2
STANDARD
 70
     0
  3

 62
   256
 51
90.0
 52
90.0
 71
     2
 49
0.5
 62
   256
  6
BYLAYER
 49
-0.5
 62
   256
  6
BYLAYER
  0
PLOTSETTINGS
  5
696
102
{ACAD_XDICTIONARY
360
6DB
102
}
102
{ACAD_REACTORS
330
607
102
}
330
607
100
AcDbPlotSettings
  1
A4 縦
  2
Adobe PDF
  4
A4
  6

 40
3.174999952316284
 41
3.174999952316284
 42
3.175003051757812
 43
3.17498779296875
 44
209.9733276367187
 45
297.0318298339844
 46
4.262903828370696
 47
0.0
 48
15.0
 49
2.428556399832928
140
285.1946860094254
141
405.0
142
1.0
143
1.384921193245106
 70
 11956
 72
     1
 73
     0
 74
     4
  7

 75
     0
147
0.7220627461529631
148
-15.0
149
-2.428556399832928
1001
ACAD_PSEXT
1000
Adobe PDF
1000
Adobe PDF Converter
1000
Documents\*.pdf
1000

1070
     0
  0
ACDBPLACEHOLDER
  5
5B6
102
{ACAD_REACTORS
330
5B5
102
}
330
5B5
  0
SCALE
  5
5EA
102
{ACAD_REACTORS
330
5E9
102
}
330
5E9
100
AcDbScale
 70
     0
300
1:1
140
1.0
141
1.0
290
     1
  0
SCALE
  5
5EB
102
{ACAD_REACTORS
330
5E9
102
}
330
5E9
100
AcDbScale
 70
     0
300
1/128" = 1'-0"
140
0.0078125
141
12.0
290
     0
  0
SCALE
  5
5EC
102
{ACAD_REACTORS
330
5E9
102
}
330
5E9
100
AcDbScale
 70
     0
300
1/64" = 1'-0"
140
0.015625
141
12.0
290
     0
  0
SCALE
  5
5ED
102
{ACAD_REACTORS
330
5E9
102
}
330
5E9
100
AcDbScale
 70
     0
300
1/32" = 1'-0"
140
0.03125
141
12.0
290
     0
  0
SCALE
  5
5EE
102
{ACAD_REACTORS
330
5E9
102
}
330
5E9
100
AcDbScale
 70
     0
300
1/16" = 1'-0"
140
0.0625
141
12.0
290
     0
  0
SCALE
  5
5EF
102
{ACAD_REACTORS
330
5E9
102
}
330
5E9
100
AcDbScale
 70
     0
300
3/32" = 1'-0"
140
0.09375
141
12.0
290
     0
  0
SCALE
  5
5F0
102
{ACAD_REACTORS
330
5E9
102
}
330
5E9
100
AcDbScale
 70
     0
300
1/8" = 1'-0"
140
0.125
141
12.0
290
     0
  0
SCALE
  5
5F1
102
{ACAD_REACTORS
330
5E9
102
}
330
5E9
100
AcDbScale
 70
     0
300
3/16" = 1'-0"
140
0.1875
141
12.0
290
     0
  0
SCALE
  5
5F2
102
{ACAD_REACTORS
330
5E9
102
}
330
5E9
100
AcDbScale
 70
     0
300
1/4" = 1'-0"
140
0.25
141
12.0
290
     0
  0
SCALE
  5
5F3
102
{ACAD_REACTORS
330
5E9
102
}
330
5E9
100
AcDbScale
 70
     0
300
3/8" = 1'-0"
140
0.375
141
12.0
290
     0
  0
SCALE
  5
5F4
102
{ACAD_REACTORS
330
5E9
102
}
330
5E9
100
AcDbScale
 70
     0
300
1/2" = 1'-0"
140
0.5
141
12.0
290
     0
  0
SCALE
  5
5F5
102
{ACAD_REACTORS
330
5E9
102
}
330
5E9
100
AcDbScale
 70
     0
300
3/4" = 1'-0"
140
0.75
141
12.0
290
     0
  0
SCALE
  5
5F6
102
{ACAD_REACTORS
330
5E9
102
}
330
5E9
100
AcDbScale
 70
     0
300
1" = 1'-0"
140
1.0
141
12.0
290
     0
  0
SCALE
  5
5F7
102
{ACAD_REACTORS
330
5E9
102
}
330
5E9
100
AcDbScale
 70
     0
300
1-1/2" = 1'-0"
140
1.5
141
12.0
290
     0
  0
SCALE
  5
5F8
102
{ACAD_REACTORS
330
5E9
102
}
330
5E9
100
AcDbScale
 70
     0
300
3" = 1'-0"
140
3.0
141
12.0
290
     0
  0
SCALE
  5
5F9
102
{ACAD_REACTORS
330
5E9
102
}
330
5E9
100
AcDbScale
 70
     0
300
6" = 1'-0"
140
6.0
141
12.0
290
     0
  0
SCALE
  5
5FA
102
{ACAD_REACTORS
330
5E9
102
}
330
5E9
100
AcDbScale
 70
     0
300
1'-0" = 1'-0"
140
12.0
141
12.0
290
     0
  0
TABLESTYLE
  5
60B
102
{ACAD_XDICTIONARY
360
69F
102
}
102
{ACAD_REACTORS
330
60A
102
}
330
60A
100
AcDbTableStyle
  3
Standard
 70
     0
 71
     0
 40
0.06
 41
0.06
280
     0
281
     0
  7
STANDARD
140
0.18
170
     2
 62
     0
 63
     7
283
     0
274
    -2
284
     1
 64
     0
275
    -2
285
     1
 65
     0
276
    -2
286
     1
 66
     0
277
    -2
287
     1
 67
     0
278
    -2
288
     1
 68
     0
279
    -2
289
     1
 69
     0
  7
STANDARD
140
0.25
170
     5
 62
     0
 63
     7
283
     0
274
    -2
284
     1
 64
     0
275
    -2
285
     1
 65
     0
276
    -2
286
     1
 66
     0
277
    -2
287
     1
 67
     0
278
    -2
288
     1
 68
     0
279
    -2
289
     1
 69
     0
  7
STANDARD
140
0.18
170
     5
 62
     0
 63
     7
283
     0
274
    -2
284
     1
 64
     0
275
    -2
285
     1
 65
     0
276
    -2
286
     1
 66
     0
277
    -2
287
     1
 67
     0
278
    -2
288
     1
 68
     0
279
    -2
289
     1
 69
     0
  0
VISUALSTYLE
  5
5D6
102
{ACAD_XDICTIONARY
360
6B0
102
}
102
{ACAD_REACTORS
330
5D0
102
}
330
5D0
100
AcDbVisualStyle
  2
2dWireframe
 70
     4
 71
     0
 72
     2
 73
     0
 90
        0
 40
-0.6
 41
-30.0
 62
     5
 63
     7
 74
     1
 91
        4
 64
     7
 65
   257
 75
     1
175
     1
 42
1.0
 92
        0
 66
   257
 43
1.0
 76
     1
 77
     6
 78
     2
 67
     7
 79
     5
170
     0
171
     0
290
     0
174
     0
 93
        1
 44
0.0
173
     0
291
     0
 45
0.0
1001
ACAD
1000
AcDbSavedByObjectVersion
1070
     0
  0
VISUALSTYLE
  5
5D5
102
{ACAD_XDICTIONARY
360
6AE
102
}
102
{ACAD_REACTORS
330
5D0
102
}
330
5D0
100
AcDbVisualStyle
  2
Basic
 70
     7
 71
     1
 72
     0
 73
     1
 90
        0
 40
-0.6
 41
-30.0
 62
     5
 63
     7
 74
     0
 91
        4
 64
     7
 65
   257
 75
     1
175
     1
 42
1.0
 92
        8
 66
     7
 43
1.0
 76
     1
 77
     6
 78
     2
 67
     7
 79
     5
170
     0
171
     0
290
     0
174
     0
 93
        1
 44
0.0
173
     0
291
     1
 45
0.0
1001
ACAD
1000
AcDbSavedByObjectVersion
1070
     0
  0
VISUALSTYLE
  5
5DC
102
{ACAD_XDICTIONARY
360
6BC
102
}
102
{ACAD_REACTORS
330
5D0
102
}
330
5D0
100
AcDbVisualStyle
  2
Brighten
 70
    12
 71
     2
 72
     2
 73
     0
 90
        0
 40
-0.6
 41
-30.0
 62
     5
 63
     7
 74
     1
 91
        4
 64
     7
 65
   257
 75
     1
175
     1
 42
1.0
 92
        8
 66
     7
 43
1.0
 76
     1
 77
     6
 78
     2
 67
     7
 79
     5
170
     0
171
     0
290
     0
174
     0
 93
        1
 44
50.0
173
     0
291
     1
 45
0.0
1001
ACAD
1000
AcDbSavedByObjectVersion
1070
     0
  0
VISUALSTYLE
  5
5E0
102
{ACAD_XDICTIONARY
360
6C4
102
}
102
{ACAD_REACTORS
330
5D0
102
}
330
5D0
100
AcDbVisualStyle
  2
ColorChange
 70
    16
 71
     2
 72
     2
 73
     3
 90
        0
 40
-0.6
 41
-30.0
 62
     5
 63
     8
 74
     1
 91
        4
 64
     7
 65
   257
 75
     1
175
     1
 42
1.0
 92
        8
 66
     8
 43
1.0
 76
     1
 77
     6
 78
     2
 67
     7
 79
     5
170
     0
171
     0
290
     0
174
     0
 93
        1
 44
0.0
173
     0
291
     1
 45
0.0
1001
ACAD
1000
AcDbSavedByObjectVersion
1070
     0
  0
VISUALSTYLE
  5
5D9
102
{ACAD_XDICTIONARY
360
6B6
102
}
102
{ACAD_REACTORS
330
5D0
102
}
330
5D0
100
AcDbVisualStyle
  2
Conceptual
 70
     9
 71
     3
 72
     2
 73
     0
 90
        0
 40
-0.6
 41
-30.0
 62
     5
 63
     7
 74
     2
 91
        2
 64
     7
 65
   257
 75
     1
175
     1
 42
179.0
 92
        8
 66
     7
 43
1.0
 76
     1
 77
     6
 78
     2
 67
     7
 79
     3
170
     0
171
     0
290
     0
174
     0
 93
        1
 44
0.0
173
     0
291
     0
 45
0.0
1001
ACAD
1000
AcDbSavedByObjectVersion
1070
     0
  0
VISUALSTYLE
  5
5DB
102
{ACAD_XDICTIONARY
360
6BA
102
}
102
{ACAD_REACTORS
330
5D0
102
}
330
5D0
100
AcDbVisualStyle
  2
Dim
 70
    11
 71
     2
 72
     2
 73
     0
 90
        0
 40
-0.6
 41
-30.0
 62
     5
 63
     7
 74
     1
 91
        4
 64
     7
 65
   257
 75
     1
175
     1
 42
1.0
 92
        8
 66
     7
 43
1.0
 76
     1
 77
     6
 78
     2
 67
     7
 79
     5
170
     0
171
     0
290
     0
174
     0
 93
        1
 44
-50.0
173
     0
291
     1
 45
0.0
1001
ACAD
1000
AcDbSavedByObjectVersion
1070
     0
  0
VISUALSTYLE
  5
5E8
102
{ACAD_XDICTIONARY
360
6D4
102
}
102
{ACAD_REACTORS
330
5D0
102
}
330
5D0
100
AcDbVisualStyle
  2
EdgeColorOff
 70
    22
 71
     2
 72
     2
 73
     0
 90
        0
 40
-0.6
 41
-30.0
 62
     5
 63
     7
 74
     1
 91
        4
 64
     7
 65
   257
 75
     1
175
     1
 42
1.0
 92
        8
 66
     7
 43
1.0
 76
     1
 77
     6
 78
     2
 67
     7
 79
     5
170
     0
171
     0
290
     0
174
     0
 93
        1
 44
0.0
173
     0
291
     1
 45
0.0
1001
ACAD
1000
AcDbSavedByObjectVersion
1070
     0
  0
VISUALSTYLE
  5
5DF
102
{ACAD_XDICTIONARY
360
6C2
102
}
102
{ACAD_REACTORS
330
5D0
102
}
330
5D0
100
AcDbVisualStyle
  2
Facepattern
 70
    15
 71
     2
 72
     2
 73
     0
 90
        0
 40
-0.6
 41
-30.0
 62
     5
 63
     7
 74
     1
 91
        4
 64
     7
 65
   257
 75
     1
175
     1
 42
1.0
 92
        8
 66
     7
 43
1.0
 76
     1
 77
     6
 78
     2
 67
     7
 79
     5
170
     0
171
     0
290
     0
174
     0
 93
        1
 44
0.0
173
     0
291
     1
 45
0.0
1001
ACAD
1000
AcDbSavedByObjectVersion
1070
     0
  0
VISUALSTYLE
  5
5D1
102
{ACAD_XDICTIONARY
360
6A6
102
}
102
{ACAD_REACTORS
330
5D0
102
}
330
5D0
100
AcDbVisualStyle
  2
Flat
 70
     0
 71
     2
 72
     1
 73
     1
 90
        2
 40
-0.6
 41
30.0
 62
     5
 63
     7
 74
     0
 91
        0
 64
     7
 65
   257
 75
     1
175
     1
 42
1.0
 92
        8
 66
     7
 43
1.0
 76
     1
 77
     6
 78
     2
 67
     7
 79
     5
170
     0
171
     0
290
     0
174
     0
 93
       13
 44
0.0
173
     0
291
     1
 45
0.0
1001
ACAD
1000
AcDbSavedByObjectVersion
1070
     0
  0
VISUALSTYLE
  5
5D2
102
{ACAD_XDICTIONARY
360
6A8
102
}
102
{ACAD_REACTORS
330
5D0
102
}
330
5D0
100
AcDbVisualStyle
  2
FlatWithEdges
 70
     1
 71
     2
 72
     1
 73
     1
 90
        2
 40
-0.6
 41
30.0
 62
     5
 63
     7
 74
     1
 91
        0
 64
     7
 65
   257
 75
     1
175
     1
 42
1.0
 92
        0
 66
   257
 43
1.0
 76
     1
 77
     6
 78
     2
 67
     7
 79
     5
170
     0
171
     0
290
     0
174
     0
 93
       13
 44
0.0
173
     0
291
     1
 45
0.0
1001
ACAD
1000
AcDbSavedByObjectVersion
1070
     0
  0
VISUALSTYLE
  5
5D3
102
{ACAD_XDICTIONARY
360
6AA
102
}
102
{ACAD_REACTORS
330
5D0
102
}
330
5D0
100
AcDbVisualStyle
  2
Gouraud
 70
     2
 71
     2
 72
     2
 73
     1
 90
        2
 40
-0.6
 41
30.0
 62
     5
 63
     7
 74
     0
 91
        0
 64
     7
 65
   257
 75
     1
175
     1
 42
1.0
 92
        0
 66
     7
 43
1.0
 76
     1
 77
     6
 78
     2
 67
     7
 79
     5
170
     0
171
     0
290
     0
174
     0
 93
       13
 44
0.0
173
     0
291
     1
 45
0.0
1001
ACAD
1000
AcDbSavedByObjectVersion
1070
     0
  0
VISUALSTYLE
  5
5D4
102
{ACAD_XDICTIONARY
360
6AC
102
}
102
{ACAD_REACTORS
330
5D0
102
}
330
5D0
100
AcDbVisualStyle
  2
GouraudWithEdges
 70
     3
 71
     2
 72
     2
 73
     1
 90
        2
 40
-0.6
 41
30.0
 62
     5
 63
     7
 74
     1
 91
        0
 64
     7
 65
   257
 75
     1
175
     1
 42
1.0
 92
        0
 66
   257
 43
1.0
 76
     1
 77
     6
 78
     2
 67
     7
 79
     5
170
     0
171
     0
290
     0
174
     0
 93
       13
 44
0.0
173
     0
291
     1
 45
0.0
1001
ACAD
1000
AcDbSavedByObjectVersion
1070
     0
  0
VISUALSTYLE
  5
5D8
102
{ACAD_XDICTIONARY
360
6B4
102
}
102
{ACAD_REACTORS
330
5D0
102
}
330
5D0
100
AcDbVisualStyle
  2
Hidden
 70
     6
 71
     1
 72
     2
 73
     2
 90
        0
 40
-0.6
 41
-30.0
 62
     5
 63
     7
 74
     2
 91
        2
 64
     7
 65
   257
 75
     2
175
     1
 42
40.0
 92
        0
 66
   257
 43
1.0
 76
     1
 77
     6
 78
     2
 67
     7
 79
     3
170
     0
171
     0
290
     0
174
     0
 93
        1
 44
0.0
173
     0
291
     0
 45
0.0
1001
ACAD
1000
AcDbSavedByObjectVersion
1070
     0
  0
VISUALSTYLE
  5
5E6
102
{ACAD_XDICTIONARY
360
6D0
102
}
102
{ACAD_REACTORS
330
5D0
102
}
330
5D0
100
AcDbVisualStyle
  2
JitterOff
 70
    20
 71
     2
 72
     2
 73
     0
 90
        0
 40
-0.6
 41
-30.0
 62
     5
 63
     7
 74
     1
 91
        4
 64
     7
 65
   257
 75
     1
175
     1
 42
1.0
 92
       10
 66
     7
 43
1.0
 76
     1
 77
     6
 78
     2
 67
     7
 79
     5
170
     0
171
     0
290
     0
174
     0
 93
        1
 44
0.0
173
     0
291
     1
 45
0.0
1001
ACAD
1000
AcDbSavedByObjectVersion
1070
     0
  0
VISUALSTYLE
  5
5DE
102
{ACAD_XDICTIONARY
360
6C0
102
}
102
{ACAD_REACTORS
330
5D0
102
}
330
5D0
100
AcDbVisualStyle
  2
Linepattern
 70
    14
 71
     2
 72
     2
 73
     0
 90
        0
 40
-0.6
 41
-30.0
 62
     5
 63
     7
 74
     1
 91
        4
 64
     7
 65
   257
 75
     7
175
     7
 42
1.0
 92
        8
 66
     7
 43
1.0
 76
     1
 77
     6
 78
     2
 67
     7
 79
     5
170
     0
171
     0
290
     0
174
     0
 93
        1
 44
0.0
173
     0
291
     1
 45
0.0
1001
ACAD
1000
AcDbSavedByObjectVersion
1070
     0
  0
VISUALSTYLE
  5
5E7
102
{ACAD_XDICTIONARY
360
6D2
102
}
102
{ACAD_REACTORS
330
5D0
102
}
330
5D0
100
AcDbVisualStyle
  2
OverhangOff
 70
    21
 71
     2
 72
     2
 73
     0
 90
        0
 40
-0.6
 41
-30.0
 62
     5
 63
     7
 74
     1
 91
        4
 64
     7
 65
   257
 75
     1
175
     1
 42
1.0
 92
        9
 66
     7
 43
1.0
 76
     1
 77
     6
 78
     2
 67
     7
 79
     5
170
     0
171
     0
290
     0
174
     0
 93
        1
 44
0.0
173
     0
291
     1
 45
0.0
1001
ACAD
1000
AcDbSavedByObjectVersion
1070
     0
  0
VISUALSTYLE
  5
5DA
102
{ACAD_XDICTIONARY
360
6B8
102
}
102
{ACAD_REACTORS
330
5D0
102
}
330
5D0
100
AcDbVisualStyle
  2
Realistic
 70
     8
 71
     2
 72
     3
 73
     0
 90
        2
 40
-0.6
 41
30.0
 62
     5
 63
     7
 74
     0
 91
        0
 64
     7
 65
   257
 75
     1
175
     1
 42
1.0
 92
        8
 66
   257
 43
1.0
 76
     1
 77
     6
 78
     2
 67
     7
 79
     3
170
     0
171
     0
290
     0
174
     0
 93
       13
 44
0.0
173
     0
291
     0
 45
0.0
1001
ACAD
1000
AcDbSavedByObjectVersion
1070
     0
  0
VISUALSTYLE
  5
5E5
102
{ACAD_XDICTIONARY
360
6CE
102
}
102
{ACAD_REACTORS
330
5D0
102
}
330
5D0
100
AcDbVisualStyle
  2
Shaded
 70
    27
 71
     2
 72
     2
 73
     1
 90
        2
 40
-0.6
 41
30.0
 62
     5
 63
     7
 74
     0
 91
        4
 64
     7
 65
   257
 75
     1
175
     1
 42
1.0
 92
        8
 66
   257
 43
1.0
 76
     1
 77
     6
 78
     2
 67
     8
 79
     3
170
     0
171
     0
290
     0
174
     0
 93
        5
 44
0.0
173
     0
291
     0
 45
0.0
1001
ACAD
1000
AcDbSavedByObjectVersion
1070
     0
  0
VISUALSTYLE
  5
5E4
102
{ACAD_XDICTIONARY
360
6CC
102
}
102
{ACAD_REACTORS
330
5D0
102
}
330
5D0
100
AcDbVisualStyle
  2
Shaded with edges
 70
    26
 71
     2
 72
     2
 73
     1
 90
        2
 40
-0.6
 41
30.0
 62
     5
 63
     7
 74
     1
 91
       10
 64
     7
 65
   257
 75
     2
175
     1
 42
1.0
 92
        8
 66
   257
 43
1.0
 76
     1
 77
     6
 78
     2
 67
     7
 79
     3
170
     0
171
     0
290
     0
174
     0
 93
        5
 44
0.0
173
     0
291
     0
 45
0.0
1001
ACAD
1000
AcDbSavedByObjectVersion
1070
     0
  0
VISUALSTYLE
  5
5E1
102
{ACAD_XDICTIONARY
360
6C6
102
}
102
{ACAD_REACTORS
330
5D0
102
}
330
5D0
100
AcDbVisualStyle
  2
Shades of Gray
 70
    23
 71
     2
 72
     2
 73
     3
 90
        0
 40
-0.6
 41
-30.0
 62
     5
 63
     7
 74
     2
 91
        2
 64
     7
 65
     7
 75
     1
175
     1
 42
40.0
 92
        8
 66
     7
 43
1.0
 76
     1
 77
     6
 78
     2
 67
     7
 79
     3
170
     0
171
     0
290
     0
174
     0
 93
        1
 44
0.0
173
     0
291
     0
 45
0.0
1001
ACAD
1000
AcDbSavedByObjectVersion
1070
     0
  0
VISUALSTYLE
  5
5E2
102
{ACAD_XDICTIONARY
360
6C8
102
}
102
{ACAD_REACTORS
330
5D0
102
}
330
5D0
100
AcDbVisualStyle
  2
Sketchy
 70
    24
 71
     1
 72
     2
 73
     2
 90
        0
 40
-0.6
 41
-30.0
 62
     5
 63
     7
 74
     2
 91
        2
 64
     7
 65
     7
 75
     1
175
     1
 42
40.0
 92
       11
 66
     7
 43
1.0
 76
     1
 77
     6
 78
     2
 67
     7
 79
     6
170
     0
171
     0
290
     0
174
     0
 93
        1
 44
0.0
173
     0
291
     0
 45
0.0
1001
ACAD
1000
AcDbSavedByObjectVersion
1070
     0
  0
VISUALSTYLE
  5
5DD
102
{ACAD_XDICTIONARY
360
6BE
102
}
102
{ACAD_REACTORS
330
5D0
102
}
330
5D0
100
AcDbVisualStyle
  2
Thicken
 70
    13
 71
     2
 72
     2
 73
     0
 90
        0
 40
-0.6
 41
-30.0
 62
     5
 63
     7
 74
     1
 91
        4
 64
     7
 65
   257
 75
     1
175
     1
 42
1.0
 92
       12
 66
     7
 43
1.0
 76
     1
 77
     6
 78
     2
 67
     7
 79
     5
170
     0
171
     0
290
     0
174
     0
 93
        1
 44
0.0
173
     0
291
     1
 45
0.0
1001
ACAD
1000
AcDbSavedByObjectVersion
1070
     0
  0
VISUALSTYLE
  5
5D7
102
{ACAD_XDICTIONARY
360
6B2
102
}
102
{ACAD_REACTORS
330
5D0
102
}
330
5D0
100
AcDbVisualStyle
  2
Wireframe
 70
     5
 71
     0
 72
     2
 73
     0
 90
        0
 40
-0.6
 41
-30.0
 62
     5
 63
     7
 74
     1
 91
        4
 64
     7
 65
   257
 75
     1
175
     1
 42
1.0
 92
        0
 66
   257
 43
1.0
 76
     1
 77
     6
 78
     2
 67
     7
 79
     3
170
     0
171
     0
290
     0
174
     0
 93
        1
 44
0.0
173
     0
291
     0
 45
0.0
1001
ACAD
1000
AcDbSavedByObjectVersion
1070
     0
  0
VISUALSTYLE
  5
5E3
102
{ACAD_XDICTIONARY
360
6CA
102
}
102
{ACAD_REACTORS
330
5D0
102
}
330
5D0
100
AcDbVisualStyle
  2
X-Ray
 70
    25
 71
     2
 72
     2
 73
     1
 90
        1
 40
0.5
 41
-30.0
 62
     5
 63
     7
 74
     1
 91
        0
 64
     7
 65
   257
 75
     1
175
     1
 42
1.0
 92
        8
 66
     7
 43
1.0
 76
     1
 77
     6
 78
     2
 67
     7
 79
     3
170
     0
171
     0
290
     0
174
     0
 93
       13
 44
0.0
173
     0
291
     0
 45
0.0
1001
ACAD
1000
AcDbSavedByObjectVersion
1070
     0
  0
DICTIONARYVAR
  5
63C
102
{ACAD_REACTORS
330
639
102
}
330
639
100
DictionaryVariables
280
     0
  1
1:1
  0
DICTIONARYVAR
  5
63B
102
{ACAD_REACTORS
330
639
102
}
330
639
100
DictionaryVariables
280
     0
  1
STANDARD
  0
DICTIONARYVAR
  5
63A
102
{ACAD_REACTORS
330
639
102
}
330
639
100
DictionaryVariables
280
     0
  1
STANDARD
  0
DICTIONARYVAR
  5
63F
102
{ACAD_REACTORS
330
639
102
}
330
639
100
DictionaryVariables
280
     0
  1
1
  0
DICTIONARYVAR
  5
63E
102
{ACAD_REACTORS
330
639
102
}
330
639
100
DictionaryVariables
280
     0
  1
0
  0
DICTIONARYVAR
  5
63D
102
{ACAD_REACTORS
330
639
102
}
330
639
100
DictionaryVariables
280
     0
  1
127
  0
DICTIONARYVAR
  5
640
102
{ACAD_REACTORS
330
639
102
}
330
639
100
DictionaryVariables
280
     0
  1
2
  0
DICTIONARY
  5
6D9
330
615
100
AcDbDictionary
280
     1
281
     1
  3
ACAD_XREC_ROUNDTRIP
360
6DA
  0
DICTIONARY
  5
6D7
330
611
100
AcDbDictionary
280
     1
281
     1
  3
ACAD_XREC_ROUNDTRIP
360
6D8
  0
DICTIONARY
  5
5C1
330
5C0
100
AcDbDictionary
280
     1
281
     1
  3
ACAD_XREC_ROUNDTRIP
360
6A4
  3
BUMPTILE
360
5C3
  3
DIFFUSETILE
360
5C2
  3
OPACITYTILE
360
5C6
  3
REFLECTIONTILE
360
5C5
  3
REFRACTIONTILE
360
5C7
  3
SPECULARTILE
360
5C4
  0
DICTIONARY
  5
5B9
330
5B8
100
AcDbDictionary
280
     1
281
     1
  3
ACAD_XREC_ROUNDTRIP
360
6A3
  3
BUMPTILE
360
5BB
  3
DIFFUSETILE
360
5BA
  3
OPACITYTILE
360
5BE
  3
REFLECTIONTILE
360
5BD
  3
REFRACTIONTILE
360
5BF
  3
SPECULARTILE
360
5BC
  0
DICTIONARY
  5
5C9
330
5C8
100
AcDbDictionary
280
     1
281
     1
  3
ACAD_XREC_ROUNDTRIP
360
6A5
  3
BUMPTILE
360
5CB
  3
DIFFUSETILE
360
5CA
  3
OPACITYTILE
360
5CE
  3
REFLECTIONTILE
360
5CD
  3
REFRACTIONTILE
360
5CF
  3
SPECULARTILE
360
5CC
  0
DICTIONARY
  5
6DB
330
696
100
AcDbDictionary
280
     1
281
     1
  3
ACAD_XREC_ROUNDTRIP
360
6DC
  0
DICTIONARY
  5
69F
330
60B
100
AcDbDictionary
280
     1
281
     1
  3
ACAD_ROUNDTRIP_2008_TABLESTYLE_CELLSTYLEMAP
360
6A0
  3
ACAD_XREC_ROUNDTRIP
360
6D6
  0
DICTIONARY
  5
6B0
330
5D6
100
AcDbDictionary
280
     1
281
     1
  3
ACAD_XREC_ROUNDTRIP
360
6B1
  0
DICTIONARY
  5
6AE
330
5D5
100
AcDbDictionary
280
     1
281
     1
  3
ACAD_XREC_ROUNDTRIP
360
6AF
  0
DICTIONARY
  5
6BC
330
5DC
100
AcDbDictionary
280
     1
281
     1
  3
ACAD_XREC_ROUNDTRIP
360
6BD
  0
DICTIONARY
  5
6C4
330
5E0
100
AcDbDictionary
280
     1
281
     1
  3
ACAD_XREC_ROUNDTRIP
360
6C5
  0
DICTIONARY
  5
6B6
330
5D9
100
AcDbDictionary
280
     1
281
     1
  3
ACAD_XREC_ROUNDTRIP
360
6B7
  0
DICTIONARY
  5
6BA
330
5DB
100
AcDbDictionary
280
     1
281
     1
  3
ACAD_XREC_ROUNDTRIP
360
6BB
  0
DICTIONARY
  5
6D4
330
5E8
100
AcDbDictionary
280
     1
281
     1
  3
ACAD_XREC_ROUNDTRIP
360
6D5
  0
DICTIONARY
  5
6C2
330
5DF
100
AcDbDictionary
280
     1
281
     1
  3
ACAD_XREC_ROUNDTRIP
360
6C3
  0
DICTIONARY
  5
6A6
330
5D1
100
AcDbDictionary
280
     1
281
     1
  3
ACAD_XREC_ROUNDTRIP
360
6A7
  0
DICTIONARY
  5
6A8
330
5D2
100
AcDbDictionary
280
     1
281
     1
  3
ACAD_XREC_ROUNDTRIP
360
6A9
  0
DICTIONARY
  5
6AA
330
5D3
100
AcDbDictionary
280
     1
281
     1
  3
ACAD_XREC_ROUNDTRIP
360
6AB
  0
DICTIONARY
  5
6AC
330
5D4
100
AcDbDictionary
280
     1
281
     1
  3
ACAD_XREC_ROUNDTRIP
360
6AD
  0
DICTIONARY
  5
6B4
330
5D8
100
AcDbDictionary
280
     1
281
     1
  3
ACAD_XREC_ROUNDTRIP
360
6B5
  0
DICTIONARY
  5
6D0
330
5E6
100
AcDbDictionary
280
     1
281
     1
  3
ACAD_XREC_ROUNDTRIP
360
6D1
  0
DICTIONARY
  5
6C0
330
5DE
100
AcDbDictionary
280
     1
281
     1
  3
ACAD_XREC_ROUNDTRIP
360
6C1
  0
DICTIONARY
  5
6D2
330
5E7
100
AcDbDictionary
280
     1
281
     1
  3
ACAD_XREC_ROUNDTRIP
360
6D3
  0
DICTIONARY
  5
6B8
330
5DA
100
AcDbDictionary
280
     1
281
     1
  3
ACAD_XREC_ROUNDTRIP
360
6B9
  0
DICTIONARY
  5
6CE
330
5E5
100
AcDbDictionary
280
     1
281
     1
  3
ACAD_XREC_ROUNDTRIP
360
6CF
  0
DICTIONARY
  5
6CC
330
5E4
100
AcDbDictionary
280
     1
281
     1
  3
ACAD_XREC_ROUNDTRIP
360
6CD
  0
DICTIONARY
  5
6C6
330
5E1
100
AcDbDictionary
280
     1
281
     1
  3
ACAD_XREC_ROUNDTRIP
360
6C7
  0
DICTIONARY
  5
6C8
330
5E2
100
AcDbDictionary
280
     1
281
     1
  3
ACAD_XREC_ROUNDTRIP
360
6C9
  0
DICTIONARY
  5
6BE
330
5DD
100
AcDbDictionary
280
     1
281
     1
  3
ACAD_XREC_ROUNDTRIP
360
6BF
  0
DICTIONARY
  5
6B2
330
5D7
100
AcDbDictionary
280
     1
281
     1
  3
ACAD_XREC_ROUNDTRIP
360
6B3
  0
DICTIONARY
  5
6CA
330
5E3
100
AcDbDictionary
280
     1
281
     1
  3
ACAD_XREC_ROUNDTRIP
360
6CB
  0
XRECORD
  5
6DA
102
{ACAD_REACTORS
330
6D9
102
}
330
6D9
100
AcDbXrecord
280
     1
102
SHADEPLOT
 70
     0
102
SHADEPLOTRESLEVEL
 70
     2
102
SHADEPLOTCUSTOMDPI
 70
   300
  0
XRECORD
  5
6D8
102
{ACAD_REACTORS
330
6D7
102
}
330
6D7
100
AcDbXrecord
280
     1
102
SHADEPLOT
 70
     0
102
SHADEPLOTRESLEVEL
 70
     2
102
SHADEPLOTCUSTOMDPI
 70
   300
  0
XRECORD
  5
6A4
102
{ACAD_REACTORS
330
5C1
102
}
330
5C1
100
AcDbXrecord
280
     1
102
MATERIAL
148
0.0
149
0.0
149
0.0
 93
        0
 94
      127
282
     0
 72
     0
 77
     0
171
     0
175
     0
179
     0
273
     0
  0
XRECORD
  5
5C3
102
{ACAD_REACTORS
330
5C1
102
}
330
5C1
100
AcDbXrecord
280
     1
270
     1
271
     1
  0
XRECORD
  5
5C2
102
{ACAD_REACTORS
330
5C1
102
}
330
5C1
100
AcDbXrecord
280
     1
270
     1
271
     1
  0
XRECORD
  5
5C6
102
{ACAD_REACTORS
330
5C1
102
}
330
5C1
100
AcDbXrecord
280
     1
270
     1
271
     1
  0
XRECORD
  5
5C5
102
{ACAD_REACTORS
330
5C1
102
}
330
5C1
100
AcDbXrecord
280
     1
270
     1
271
     1
  0
XRECORD
  5
5C7
102
{ACAD_REACTORS
330
5C1
102
}
330
5C1
100
AcDbXrecord
280
     1
270
     1
271
     1
  0
XRECORD
  5
5C4
102
{ACAD_REACTORS
330
5C1
102
}
330
5C1
100
AcDbXrecord
280
     1
270
     1
271
     1
  0
XRECORD
  5
6A3
102
{ACAD_REACTORS
330
5B9
102
}
330
5B9
100
AcDbXrecord
280
     1
102
MATERIAL
148
0.0
149
0.0
149
0.0
 93
        0
 94
      127
282
     0
 72
     0
 77
     0
171
     0
175
     0
179
     0
273
     0
  0
XRECORD
  5
5BB
102
{ACAD_REACTORS
330
5B9
102
}
330
5B9
100
AcDbXrecord
280
     1
270
     1
271
     1
  0
XRECORD
  5
5BA
102
{ACAD_REACTORS
330
5B9
102
}
330
5B9
100
AcDbXrecord
280
     1
270
     1
271
     1
  0
XRECORD
  5
5BE
102
{ACAD_REACTORS
330
5B9
102
}
330
5B9
100
AcDbXrecord
280
     1
270
     1
271
     1
  0
XRECORD
  5
5BD
102
{ACAD_REACTORS
330
5B9
102
}
330
5B9
100
AcDbXrecord
280
     1
270
     1
271
     1
  0
XRECORD
  5
5BF
102
{ACAD_REACTORS
330
5B9
102
}
330
5B9
100
AcDbXrecord
280
     1
270
     1
271
     1
  0
XRECORD
  5
5BC
102
{ACAD_REACTORS
330
5B9
102
}
330
5B9
100
AcDbXrecord
280
     1
270
     1
271
     1
  0
XRECORD
  5
6A5
102
{ACAD_REACTORS
330
5C9
102
}
330
5C9
100
AcDbXrecord
280
     1
102
MATERIAL
148
0.0
149
0.0
149
0.0
 93
        0
 94
      127
282
     0
 72
     0
 77
     0
171
     0
175
     0
179
     0
273
     0
  0
XRECORD
  5
5CB
102
{ACAD_REACTORS
330
5C9
102
}
330
5C9
100
AcDbXrecord
280
     1
270
     1
271
     1
  0
XRECORD
  5
5CA
102
{ACAD_REACTORS
330
5C9
102
}
330
5C9
100
AcDbXrecord
280
     1
270
     1
271
     1
  0
XRECORD
  5
5CE
102
{ACAD_REACTORS
330
5C9
102
}
330
5C9
100
AcDbXrecord
280
     1
270
     1
271
     1
  0
XRECORD
  5
5CD
102
{ACAD_REACTORS
330
5C9
102
}
330
5C9
100
AcDbXrecord
280
     1
270
     1
271
     1
  0
XRECORD
  5
5CF
102
{ACAD_REACTORS
330
5C9
102
}
330
5C9
100
AcDbXrecord
280
     1
270
     1
271
     1
  0
XRECORD
  5
5CC
102
{ACAD_REACTORS
330
5C9
102
}
330
5C9
100
AcDbXrecord
280
     1
270
     1
271
     1
  0
XRECORD
  5
6DC
102
{ACAD_REACTORS
330
6DB
102
}
330
6DB
100
AcDbXrecord
280
     1
102
SHADEPLOT
 70
     0
102
SHADEPLOTRESLEVEL
 70
     2
102
SHADEPLOTCUSTOMDPI
 70
   300
  0
CELLSTYLEMAP
  5
6A0
102
{ACAD_REACTORS
330
69F
102
}
330
69F
100
AcDbCellStyleMap
 90
        3
300
CELLSTYLE
  1
TABLEFORMAT_BEGIN
 90
        5
170
     1
 91
        0
 92
    32768
 62
   257
 93
        1
300
CONTENTFORMAT
  1
CONTENTFORMAT_BEGIN
 90
        0
 91
        0
 92
      512
 93
        0
300

 40
0.0
140
1.0
 94
        5
 62
     0
340
5FC
144
0.25
309
CONTENTFORMAT_END
171
     0
 94
        0
309
TABLEFORMAT_END
  1
CELLSTYLE_BEGIN
 90
        1
 91
        1
300
_TITLE
309
CELLSTYLE_END
300
CELLSTYLE
  1
TABLEFORMAT_BEGIN
 90
        5
170
     1
 91
        0
 92
        0
 62
   257
 93
        1
300
CONTENTFORMAT
  1
CONTENTFORMAT_BEGIN
 90
        0
 91
        0
 92
      512
 93
        0
300

 40
0.0
140
1.0
 94
        5
 62
     0
340
5FC
144
0.18
309
CONTENTFORMAT_END
171
     0
 94
        0
309
TABLEFORMAT_END
  1
CELLSTYLE_BEGIN
 90
        2
 91
        1
300
_HEADER
309
CELLSTYLE_END
300
CELLSTYLE
  1
TABLEFORMAT_BEGIN
 90
        5
170
     1
 91
        0
 92
        0
 62
   257
 93
        1
300
CONTENTFORMAT
  1
CONTENTFORMAT_BEGIN
 90
        0
 91
        0
 92
      512
 93
        0
300

 40
0.0
140
1.0
 94
        2
 62
     0
340
5FC
144
0.18
309
CONTENTFORMAT_END
171
     0
 94
        0
309
TABLEFORMAT_END
  1
CELLSTYLE_BEGIN
 90
        3
 91
        2
300
_DATA
309
CELLSTYLE_END
  0
XRECORD
  5
6D6
102
{ACAD_REACTORS
330
69F
102
}
330
69F
100
AcDbXrecord
280
     1
102
ACAD_ROUNDTRIP_PRE2007_TABLESTYLE
 90
      512
 91
        0
  1

 92
      512
 93
        0
  2

 94
      512
 95
        0
  3

  0
XRECORD
  5
6B1
102
{ACAD_REACTORS
330
6B0
102
}
330
6B0
100
AcDbXrecord
280
     1
102
RTVSPropertyOp0
 70
     1
102
RTVSPropertyOp1
 70
     1
102
RTVSPropertyOp2
 70
     1
102
RTVSPropertyOp3
 70
     1
102
RTVSPropertyOp4
 70
     1
102
RTVSPropertyOp5
 70
     1
102
RTVSPropertyOp6
 70
     1
102
RTVSPropertyOp7
 70
     1
102
RTVSPropertyOp8
 70
     1
102
RTVSPropertyOp9
 70
     1
102
RTVSPropertyOp10
 70
     1
102
RTVSPropertyOp11
 70
     1
102
RTVSPropertyOp12
 70
     1
102
RTVSPropertyOp13
 70
     1
102
RTVSPropertyOp14
 70
     1
102
RTVSPropertyOp15
 70
     1
102
RTVSPropertyOp16
 70
     1
102
RTVSPropertyOp17
 70
     1
102
RTVSPropertyOp18
 70
     1
102
RTVSPropertyOp19
 70
     1
102
RTVSPropertyOp20
 70
     1
102
RTVSPropertyOp21
 70
     1
102
RTVSPropertyOp22
 70
     1
102
RTVSPropertyOp23
 70
     1
102
RTVSPropertyOp24
 70
     1
102
RTVSPropertyOp25
 70
     1
102
RTVSPropertyOp26
 70
     1
102
RTVSPropertyOp27
 70
     1
102
RTVSPropertyOp28
 70
     1
102
RTVSPropertyOp29
 70
     1
102
RTVSPropertyOp30
 70
     1
102
RTVSPropertyOp31
 70
     1
102
RTVSPropertyOp32
 70
     1
  0
XRECORD
  5
6AF
102
{ACAD_REACTORS
330
6AE
102
}
330
6AE
100
AcDbXrecord
280
     1
102
RTVSPropertyOp0
 70
     1
102
RTVSPropertyOp1
 70
     1
102
RTVSPropertyOp2
 70
     1
102
RTVSPropertyOp3
 70
     1
102
RTVSPropertyOp4
 70
     1
102
RTVSPropertyOp5
 70
     1
102
RTVSPropertyOp6
 70
     1
102
RTVSPropertyOp7
 70
     1
102
RTVSPropertyOp8
 70
     1
102
RTVSPropertyOp9
 70
     1
102
RTVSPropertyOp10
 70
     1
102
RTVSPropertyOp11
 70
     1
102
RTVSPropertyOp12
 70
     1
102
RTVSPropertyOp13
 70
     1
102
RTVSPropertyOp14
 70
     1
102
RTVSPropertyOp15
 70
     1
102
RTVSPropertyOp16
 70
     1
102
RTVSPropertyOp17
 70
     1
102
RTVSPropertyOp18
 70
     1
102
RTVSPropertyOp19
 70
     1
102
RTVSPropertyOp20
 70
     1
102
RTVSPropertyOp21
 70
     1
102
RTVSPropertyOp22
 70
     1
102
RTVSPropertyOp23
 70
     1
102
RTVSPropertyOp24
 70
     1
102
RTVSPropertyOp25
 70
     1
102
RTVSPropertyOp26
 70
     1
102
RTVSPropertyOp27
 70
     1
102
RTVSPropertyOp28
 70
     1
102
RTVSPropertyOp29
 70
     1
102
RTVSPropertyOp30
 70
     1
102
RTVSPropertyOp31
 70
     1
102
RTVSPropertyOp32
 70
     1
  0
XRECORD
  5
6BD
102
{ACAD_REACTORS
330
6BC
102
}
330
6BC
100
AcDbXrecord
280
     1
102
RTVSPropertyOp0
 70
     1
102
RTVSPropertyOp1
 70
     1
102
RTVSPropertyOp2
 70
     1
102
RTVSPropertyOp3
 70
     1
102
RTVSPropertyOp4
 70
     1
102
RTVSPropertyOp5
 70
     1
102
RTVSPropertyOp6
 70
     1
102
RTVSPropertyOp7
 70
     1
102
RTVSPropertyOp8
 70
     1
102
RTVSPropertyOp9
 70
     1
102
RTVSPropertyOp10
 70
     1
102
RTVSPropertyOp11
 70
     1
102
RTVSPropertyOp12
 70
     1
102
RTVSPropertyOp13
 70
     1
102
RTVSPropertyOp14
 70
     1
102
RTVSPropertyOp15
 70
     1
102
RTVSPropertyOp16
 70
     1
102
RTVSPropertyOp17
 70
     1
102
RTVSPropertyOp18
 70
     1
102
RTVSPropertyOp19
 70
     1
102
RTVSPropertyOp20
 70
     1
102
RTVSPropertyOp21
 70
     1
102
RTVSPropertyOp22
 70
     1
102
RTVSPropertyOp23
 70
     1
102
RTVSPropertyOp24
 70
     1
102
RTVSPropertyOp25
 70
     1
102
RTVSPropertyOp26
 70
     1
102
RTVSPropertyOp27
 70
     1
102
RTVSPropertyOp28
 70
     1
102
RTVSPropertyOp29
 70
     1
102
RTVSPropertyOp30
 70
     1
102
RTVSPropertyOp31
 70
     1
102
RTVSPropertyOp32
 70
     1
  0
XRECORD
  5
6C5
102
{ACAD_REACTORS
330
6C4
102
}
330
6C4
100
AcDbXrecord
280
     1
102
RTVSPropertyOp0
 70
     1
102
RTVSPropertyOp1
 70
     1
102
RTVSPropertyOp2
 70
     1
102
RTVSPropertyOp3
 70
     1
102
RTVSPropertyOp4
 70
     1
102
RTVSPropertyOp5
 70
     1
102
RTVSPropertyOp6
 70
     1
102
RTVSPropertyOp7
 70
     1
102
RTVSPropertyOp8
 70
     1
102
RTVSPropertyOp9
 70
     1
102
RTVSPropertyOp10
 70
     1
102
RTVSPropertyOp11
 70
     1
102
RTVSPropertyOp12
 70
     1
102
RTVSPropertyOp13
 70
     1
102
RTVSPropertyOp14
 70
     1
102
RTVSPropertyOp15
 70
     1
102
RTVSPropertyOp16
 70
     1
102
RTVSPropertyOp17
 70
     1
102
RTVSPropertyOp18
 70
     1
102
RTVSPropertyOp19
 70
     1
102
RTVSPropertyOp20
 70
     1
102
RTVSPropertyOp21
 70
     1
102
RTVSPropertyOp22
 70
     1
102
RTVSPropertyOp23
 70
     1
102
RTVSPropertyOp24
 70
     1
102
RTVSPropertyOp25
 70
     1
102
RTVSPropertyOp26
 70
     1
102
RTVSPropertyOp27
 70
     1
102
RTVSPropertyOp28
 70
     1
102
RTVSPropertyOp29
 70
     1
102
RTVSPropertyOp30
 70
     1
102
RTVSPropertyOp31
 70
     1
102
RTVSPropertyOp32
 70
     1
  0
XRECORD
  5
6B7
102
{ACAD_REACTORS
330
6B6
102
}
330
6B6
100
AcDbXrecord
280
     1
102
RTVSPropertyOp0
 70
     1
102
RTVSPropertyOp1
 70
     1
102
RTVSPropertyOp2
 70
     1
102
RTVSPropertyOp3
 70
     1
102
RTVSPropertyOp4
 70
     1
102
RTVSPropertyOp5
 70
     1
102
RTVSPropertyOp6
 70
     1
102
RTVSPropertyOp7
 70
     1
102
RTVSPropertyOp8
 70
     1
102
RTVSPropertyOp9
 70
     1
102
RTVSPropertyOp10
 70
     1
102
RTVSPropertyOp11
 70
     1
102
RTVSPropertyOp12
 70
     1
102
RTVSPropertyOp13
 70
     1
102
RTVSPropertyOp14
 70
     1
102
RTVSPropertyOp15
 70
     1
102
RTVSPropertyOp16
 70
     1
102
RTVSPropertyOp17
 70
     1
102
RTVSPropertyOp18
 70
     1
102
RTVSPropertyOp19
 70
     1
102
RTVSPropertyOp20
 70
     1
102
RTVSPropertyOp21
 70
     1
102
RTVSPropertyOp22
 70
     1
102
RTVSPropertyOp23
 70
     1
102
RTVSPropertyOp24
 70
     1
102
RTVSPropertyOp25
 70
     1
102
RTVSPropertyOp26
 70
     1
102
RTVSPropertyOp27
 70
     1
102
RTVSPropertyOp28
 70
     1
102
RTVSPropertyOp29
 70
     1
102
RTVSPropertyOp30
 70
     1
102
RTVSPropertyOp31
 70
     1
102
RTVSPropertyOp32
 70
     1
  0
XRECORD
  5
6BB
102
{ACAD_REACTORS
330
6BA
102
}
330
6BA
100
AcDbXrecord
280
     1
102
RTVSPropertyOp0
 70
     1
102
RTVSPropertyOp1
 70
     1
102
RTVSPropertyOp2
 70
     1
102
RTVSPropertyOp3
 70
     1
102
RTVSPropertyOp4
 70
     1
102
RTVSPropertyOp5
 70
     1
102
RTVSPropertyOp6
 70
     1
102
RTVSPropertyOp7
 70
     1
102
RTVSPropertyOp8
 70
     1
102
RTVSPropertyOp9
 70
     1
102
RTVSPropertyOp10
 70
     1
102
RTVSPropertyOp11
 70
     1
102
RTVSPropertyOp12
 70
     1
102
RTVSPropertyOp13
 70
     1
102
RTVSPropertyOp14
 70
     1
102
RTVSPropertyOp15
 70
     1
102
RTVSPropertyOp16
 70
     1
102
RTVSPropertyOp17
 70
     1
102
RTVSPropertyOp18
 70
     1
102
RTVSPropertyOp19
 70
     1
102
RTVSPropertyOp20
 70
     1
102
RTVSPropertyOp21
 70
     1
102
RTVSPropertyOp22
 70
     1
102
RTVSPropertyOp23
 70
     1
102
RTVSPropertyOp24
 70
     1
102
RTVSPropertyOp25
 70
     1
102
RTVSPropertyOp26
 70
     1
102
RTVSPropertyOp27
 70
     1
102
RTVSPropertyOp28
 70
     1
102
RTVSPropertyOp29
 70
     1
102
RTVSPropertyOp30
 70
     1
102
RTVSPropertyOp31
 70
     1
102
RTVSPropertyOp32
 70
     1
  0
XRECORD
  5
6D5
102
{ACAD_REACTORS
330
6D4
102
}
330
6D4
100
AcDbXrecord
280
     1
102
RTVSPropertyOp0
 70
     0
102
RTVSPropertyOp1
 70
     0
102
RTVSPropertyOp2
 70
     0
102
RTVSPropertyOp3
 70
     0
102
RTVSPropertyOp4
 70
     0
102
RTVSPropertyOp5
 70
     0
102
RTVSPropertyOp6
 70
     0
102
RTVSPropertyOp7
 70
     0
102
RTVSPropertyOp8
 70
     0
102
RTVSPropertyOp9
 70
     0
102
RTVSPropertyOp10
 70
     0
102
RTVSPropertyOp11
 70
     0
102
RTVSPropertyOp12
 70
     0
102
RTVSPropertyOp13
 70
     0
102
RTVSPropertyOp14
 70
     2
102
RTVSPropertyOp15
 70
     0
102
RTVSPropertyOp16
 70
     0
102
RTVSPropertyOp17
 70
     0
102
RTVSPropertyOp18
 70
     0
102
RTVSPropertyOp19
 70
     0
102
RTVSPropertyOp20
 70
     0
102
RTVSPropertyOp21
 70
     0
102
RTVSPropertyOp22
 70
     0
102
RTVSPropertyOp23
 70
     0
102
RTVSPropertyOp24
 70
     0
102
RTVSPropertyOp25
 70
     0
102
RTVSPropertyOp26
 70
     0
102
RTVSPropertyOp27
 70
     0
102
RTVSPropertyOp28
 70
     0
102
RTVSPropertyOp29
 70
     0
102
RTVSPropertyOp30
 70
     0
102
RTVSPropertyOp31
 70
     0
102
RTVSPropertyOp32
 70
     0
  0
XRECORD
  5
6C3
102
{ACAD_REACTORS
330
6C2
102
}
330
6C2
100
AcDbXrecord
280
     1
102
RTVSPropertyOp0
 70
     1
102
RTVSPropertyOp1
 70
     1
102
RTVSPropertyOp2
 70
     1
102
RTVSPropertyOp3
 70
     1
102
RTVSPropertyOp4
 70
     1
102
RTVSPropertyOp5
 70
     1
102
RTVSPropertyOp6
 70
     1
102
RTVSPropertyOp7
 70
     1
102
RTVSPropertyOp8
 70
     1
102
RTVSPropertyOp9
 70
     1
102
RTVSPropertyOp10
 70
     1
102
RTVSPropertyOp11
 70
     1
102
RTVSPropertyOp12
 70
     1
102
RTVSPropertyOp13
 70
     1
102
RTVSPropertyOp14
 70
     1
102
RTVSPropertyOp15
 70
     1
102
RTVSPropertyOp16
 70
     1
102
RTVSPropertyOp17
 70
     1
102
RTVSPropertyOp18
 70
     1
102
RTVSPropertyOp19
 70
     1
102
RTVSPropertyOp20
 70
     1
102
RTVSPropertyOp21
 70
     1
102
RTVSPropertyOp22
 70
     1
102
RTVSPropertyOp23
 70
     1
102
RTVSPropertyOp24
 70
     1
102
RTVSPropertyOp25
 70
     1
102
RTVSPropertyOp26
 70
     1
102
RTVSPropertyOp27
 70
     1
102
RTVSPropertyOp28
 70
     1
102
RTVSPropertyOp29
 70
     1
102
RTVSPropertyOp30
 70
     1
102
RTVSPropertyOp31
 70
     1
102
RTVSPropertyOp32
 70
     1
  0
XRECORD
  5
6A7
102
{ACAD_REACTORS
330
6A6
102
}
330
6A6
100
AcDbXrecord
280
     1
102
RTVSPropertyOp0
 70
     1
102
RTVSPropertyOp1
 70
     1
102
RTVSPropertyOp2
 70
     1
102
RTVSPropertyOp3
 70
     1
102
RTVSPropertyOp4
 70
     1
102
RTVSPropertyOp5
 70
     1
102
RTVSPropertyOp6
 70
     1
102
RTVSPropertyOp7
 70
     1
102
RTVSPropertyOp8
 70
     1
102
RTVSPropertyOp9
 70
     1
102
RTVSPropertyOp10
 70
     1
102
RTVSPropertyOp11
 70
     1
102
RTVSPropertyOp12
 70
     1
102
RTVSPropertyOp13
 70
     1
102
RTVSPropertyOp14
 70
     1
102
RTVSPropertyOp15
 70
     1
102
RTVSPropertyOp16
 70
     1
102
RTVSPropertyOp17
 70
     1
102
RTVSPropertyOp18
 70
     1
102
RTVSPropertyOp19
 70
     1
102
RTVSPropertyOp20
 70
     1
102
RTVSPropertyOp21
 70
     1
102
RTVSPropertyOp22
 70
     1
102
RTVSPropertyOp23
 70
     1
102
RTVSPropertyOp24
 70
     1
102
RTVSPropertyOp25
 70
     1
102
RTVSPropertyOp26
 70
     1
102
RTVSPropertyOp27
 70
     1
102
RTVSPropertyOp28
 70
     1
102
RTVSPropertyOp29
 70
     1
102
RTVSPropertyOp30
 70
     1
102
RTVSPropertyOp31
 70
     1
102
RTVSPropertyOp32
 70
     1
  0
XRECORD
  5
6A9
102
{ACAD_REACTORS
330
6A8
102
}
330
6A8
100
AcDbXrecord
280
     1
102
RTVSPropertyOp0
 70
     1
102
RTVSPropertyOp1
 70
     1
102
RTVSPropertyOp2
 70
     1
102
RTVSPropertyOp3
 70
     1
102
RTVSPropertyOp4
 70
     1
102
RTVSPropertyOp5
 70
     1
102
RTVSPropertyOp6
 70
     1
102
RTVSPropertyOp7
 70
     1
102
RTVSPropertyOp8
 70
     1
102
RTVSPropertyOp9
 70
     1
102
RTVSPropertyOp10
 70
     1
102
RTVSPropertyOp11
 70
     1
102
RTVSPropertyOp12
 70
     1
102
RTVSPropertyOp13
 70
     1
102
RTVSPropertyOp14
 70
     1
102
RTVSPropertyOp15
 70
     1
102
RTVSPropertyOp16
 70
     1
102
RTVSPropertyOp17
 70
     1
102
RTVSPropertyOp18
 70
     1
102
RTVSPropertyOp19
 70
     1
102
RTVSPropertyOp20
 70
     1
102
RTVSPropertyOp21
 70
     1
102
RTVSPropertyOp22
 70
     1
102
RTVSPropertyOp23
 70
     1
102
RTVSPropertyOp24
 70
     1
102
RTVSPropertyOp25
 70
     1
102
RTVSPropertyOp26
 70
     1
102
RTVSPropertyOp27
 70
     1
102
RTVSPropertyOp28
 70
     1
102
RTVSPropertyOp29
 70
     1
102
RTVSPropertyOp30
 70
     1
102
RTVSPropertyOp31
 70
     1
102
RTVSPropertyOp32
 70
     1
  0
XRECORD
  5
6AB
102
{ACAD_REACTORS
330
6AA
102
}
330
6AA
100
AcDbXrecord
280
     1
102
RTVSPropertyOp0
 70
     1
102
RTVSPropertyOp1
 70
     1
102
RTVSPropertyOp2
 70
     1
102
RTVSPropertyOp3
 70
     1
102
RTVSPropertyOp4
 70
     1
102
RTVSPropertyOp5
 70
     1
102
RTVSPropertyOp6
 70
     1
102
RTVSPropertyOp7
 70
     1
102
RTVSPropertyOp8
 70
     1
102
RTVSPropertyOp9
 70
     1
102
RTVSPropertyOp10
 70
     1
102
RTVSPropertyOp11
 70
     1
102
RTVSPropertyOp12
 70
     1
102
RTVSPropertyOp13
 70
     1
102
RTVSPropertyOp14
 70
     1
102
RTVSPropertyOp15
 70
     1
102
RTVSPropertyOp16
 70
     1
102
RTVSPropertyOp17
 70
     1
102
RTVSPropertyOp18
 70
     1
102
RTVSPropertyOp19
 70
     1
102
RTVSPropertyOp20
 70
     1
102
RTVSPropertyOp21
 70
     1
102
RTVSPropertyOp22
 70
     1
102
RTVSPropertyOp23
 70
     1
102
RTVSPropertyOp24
 70
     1
102
RTVSPropertyOp25
 70
     1
102
RTVSPropertyOp26
 70
     1
102
RTVSPropertyOp27
 70
     1
102
RTVSPropertyOp28
 70
     1
102
RTVSPropertyOp29
 70
     1
102
RTVSPropertyOp30
 70
     1
102
RTVSPropertyOp31
 70
     1
102
RTVSPropertyOp32
 70
     1
  0
XRECORD
  5
6AD
102
{ACAD_REACTORS
330
6AC
102
}
330
6AC
100
AcDbXrecord
280
     1
102
RTVSPropertyOp0
 70
     1
102
RTVSPropertyOp1
 70
     1
102
RTVSPropertyOp2
 70
     1
102
RTVSPropertyOp3
 70
     1
102
RTVSPropertyOp4
 70
     1
102
RTVSPropertyOp5
 70
     1
102
RTVSPropertyOp6
 70
     1
102
RTVSPropertyOp7
 70
     1
102
RTVSPropertyOp8
 70
     1
102
RTVSPropertyOp9
 70
     1
102
RTVSPropertyOp10
 70
     1
102
RTVSPropertyOp11
 70
     1
102
RTVSPropertyOp12
 70
     1
102
RTVSPropertyOp13
 70
     1
102
RTVSPropertyOp14
 70
     1
102
RTVSPropertyOp15
 70
     1
102
RTVSPropertyOp16
 70
     1
102
RTVSPropertyOp17
 70
     1
102
RTVSPropertyOp18
 70
     1
102
RTVSPropertyOp19
 70
     1
102
RTVSPropertyOp20
 70
     1
102
RTVSPropertyOp21
 70
     1
102
RTVSPropertyOp22
 70
     1
102
RTVSPropertyOp23
 70
     1
102
RTVSPropertyOp24
 70
     1
102
RTVSPropertyOp25
 70
     1
102
RTVSPropertyOp26
 70
     1
102
RTVSPropertyOp27
 70
     1
102
RTVSPropertyOp28
 70
     1
102
RTVSPropertyOp29
 70
     1
102
RTVSPropertyOp30
 70
     1
102
RTVSPropertyOp31
 70
     1
102
RTVSPropertyOp32
 70
     1
  0
XRECORD
  5
6B5
102
{ACAD_REACTORS
330
6B4
102
}
330
6B4
100
AcDbXrecord
280
     1
102
RTVSPropertyOp0
 70
     1
102
RTVSPropertyOp1
 70
     1
102
RTVSPropertyOp2
 70
     1
102
RTVSPropertyOp3
 70
     1
102
RTVSPropertyOp4
 70
     1
102
RTVSPropertyOp5
 70
     1
102
RTVSPropertyOp6
 70
     1
102
RTVSPropertyOp7
 70
     1
102
RTVSPropertyOp8
 70
     1
102
RTVSPropertyOp9
 70
     1
102
RTVSPropertyOp10
 70
     1
102
RTVSPropertyOp11
 70
     1
102
RTVSPropertyOp12
 70
     1
102
RTVSPropertyOp13
 70
     1
102
RTVSPropertyOp14
 70
     1
102
RTVSPropertyOp15
 70
     1
102
RTVSPropertyOp16
 70
     1
102
RTVSPropertyOp17
 70
     1
102
RTVSPropertyOp18
 70
     1
102
RTVSPropertyOp19
 70
     1
102
RTVSPropertyOp20
 70
     1
102
RTVSPropertyOp21
 70
     1
102
RTVSPropertyOp22
 70
     1
102
RTVSPropertyOp23
 70
     1
102
RTVSPropertyOp24
 70
     1
102
RTVSPropertyOp25
 70
     1
102
RTVSPropertyOp26
 70
     1
102
RTVSPropertyOp27
 70
     1
102
RTVSPropertyOp28
 70
     1
102
RTVSPropertyOp29
 70
     1
102
RTVSPropertyOp30
 70
     1
102
RTVSPropertyOp31
 70
     1
102
RTVSPropertyOp32
 70
     1
  0
XRECORD
  5
6D1
102
{ACAD_REACTORS
330
6D0
102
}
330
6D0
100
AcDbXrecord
280
     1
102
RTVSPropertyOp0
 70
     0
102
RTVSPropertyOp1
 70
     0
102
RTVSPropertyOp2
 70
     0
102
RTVSPropertyOp3
 70
     0
102
RTVSPropertyOp4
 70
     0
102
RTVSPropertyOp5
 70
     0
102
RTVSPropertyOp6
 70
     0
102
RTVSPropertyOp7
 70
     0
102
RTVSPropertyOp8
 70
     0
102
RTVSPropertyOp9
 70
     0
102
RTVSPropertyOp10
 70
     0
102
RTVSPropertyOp11
 70
     0
102
RTVSPropertyOp12
 70
     0
102
RTVSPropertyOp13
 70
     0
102
RTVSPropertyOp14
 70
     2
102
RTVSPropertyOp15
 70
     0
102
RTVSPropertyOp16
 70
     0
102
RTVSPropertyOp17
 70
     0
102
RTVSPropertyOp18
 70
     0
102
RTVSPropertyOp19
 70
     0
102
RTVSPropertyOp20
 70
     0
102
RTVSPropertyOp21
 70
     0
102
RTVSPropertyOp22
 70
     0
102
RTVSPropertyOp23
 70
     0
102
RTVSPropertyOp24
 70
     0
102
RTVSPropertyOp25
 70
     0
102
RTVSPropertyOp26
 70
     0
102
RTVSPropertyOp27
 70
     0
102
RTVSPropertyOp28
 70
     0
102
RTVSPropertyOp29
 70
     0
102
RTVSPropertyOp30
 70
     0
102
RTVSPropertyOp31
 70
     0
102
RTVSPropertyOp32
 70
     0
  0
XRECORD
  5
6C1
102
{ACAD_REACTORS
330
6C0
102
}
330
6C0
100
AcDbXrecord
280
     1
102
RTVSPropertyOp0
 70
     1
102
RTVSPropertyOp1
 70
     1
102
RTVSPropertyOp2
 70
     1
102
RTVSPropertyOp3
 70
     1
102
RTVSPropertyOp4
 70
     1
102
RTVSPropertyOp5
 70
     1
102
RTVSPropertyOp6
 70
     1
102
RTVSPropertyOp7
 70
     1
102
RTVSPropertyOp8
 70
     1
102
RTVSPropertyOp9
 70
     1
102
RTVSPropertyOp10
 70
     1
102
RTVSPropertyOp11
 70
     1
102
RTVSPropertyOp12
 70
     1
102
RTVSPropertyOp13
 70
     1
102
RTVSPropertyOp14
 70
     1
102
RTVSPropertyOp15
 70
     1
102
RTVSPropertyOp16
 70
     1
102
RTVSPropertyOp17
 70
     1
102
RTVSPropertyOp18
 70
     1
102
RTVSPropertyOp19
 70
     1
102
RTVSPropertyOp20
 70
     1
102
RTVSPropertyOp21
 70
     1
102
RTVSPropertyOp22
 70
     1
102
RTVSPropertyOp23
 70
     1
102
RTVSPropertyOp24
 70
     1
102
RTVSPropertyOp25
 70
     1
102
RTVSPropertyOp26
 70
     1
102
RTVSPropertyOp27
 70
     1
102
RTVSPropertyOp28
 70
     1
102
RTVSPropertyOp29
 70
     1
102
RTVSPropertyOp30
 70
     1
102
RTVSPropertyOp31
 70
     1
102
RTVSPropertyOp32
 70
     1
  0
XRECORD
  5
6D3
102
{ACAD_REACTORS
330
6D2
102
}
330
6D2
100
AcDbXrecord
280
     1
102
RTVSPropertyOp0
 70
     0
102
RTVSPropertyOp1
 70
     0
102
RTVSPropertyOp2
 70
     0
102
RTVSPropertyOp3
 70
     0
102
RTVSPropertyOp4
 70
     0
102
RTVSPropertyOp5
 70
     0
102
RTVSPropertyOp6
 70
     0
102
RTVSPropertyOp7
 70
     0
102
RTVSPropertyOp8
 70
     0
102
RTVSPropertyOp9
 70
     0
102
RTVSPropertyOp10
 70
     0
102
RTVSPropertyOp11
 70
     0
102
RTVSPropertyOp12
 70
     0
102
RTVSPropertyOp13
 70
     0
102
RTVSPropertyOp14
 70
     2
102
RTVSPropertyOp15
 70
     0
102
RTVSPropertyOp16
 70
     0
102
RTVSPropertyOp17
 70
     0
102
RTVSPropertyOp18
 70
     0
102
RTVSPropertyOp19
 70
     0
102
RTVSPropertyOp20
 70
     0
102
RTVSPropertyOp21
 70
     0
102
RTVSPropertyOp22
 70
     0
102
RTVSPropertyOp23
 70
     0
102
RTVSPropertyOp24
 70
     0
102
RTVSPropertyOp25
 70
     0
102
RTVSPropertyOp26
 70
     0
102
RTVSPropertyOp27
 70
     0
102
RTVSPropertyOp28
 70
     0
102
RTVSPropertyOp29
 70
     0
102
RTVSPropertyOp30
 70
     0
102
RTVSPropertyOp31
 70
     0
102
RTVSPropertyOp32
 70
     0
  0
XRECORD
  5
6B9
102
{ACAD_REACTORS
330
6B8
102
}
330
6B8
100
AcDbXrecord
280
     1
102
RTVSPropertyOp0
 70
     1
102
RTVSPropertyOp1
 70
     1
102
RTVSPropertyOp2
 70
     1
102
RTVSPropertyOp3
 70
     1
102
RTVSPropertyOp4
 70
     1
102
RTVSPropertyOp5
 70
     1
102
RTVSPropertyOp6
 70
     1
102
RTVSPropertyOp7
 70
     1
102
RTVSPropertyOp8
 70
     1
102
RTVSPropertyOp9
 70
     1
102
RTVSPropertyOp10
 70
     1
102
RTVSPropertyOp11
 70
     1
102
RTVSPropertyOp12
 70
     1
102
RTVSPropertyOp13
 70
     1
102
RTVSPropertyOp14
 70
     1
102
RTVSPropertyOp15
 70
     1
102
RTVSPropertyOp16
 70
     1
102
RTVSPropertyOp17
 70
     1
102
RTVSPropertyOp18
 70
     1
102
RTVSPropertyOp19
 70
     1
102
RTVSPropertyOp20
 70
     1
102
RTVSPropertyOp21
 70
     1
102
RTVSPropertyOp22
 70
     1
102
RTVSPropertyOp23
 70
     1
102
RTVSPropertyOp24
 70
     1
102
RTVSPropertyOp25
 70
     1
102
RTVSPropertyOp26
 70
     1
102
RTVSPropertyOp27
 70
     1
102
RTVSPropertyOp28
 70
     1
102
RTVSPropertyOp29
 70
     1
102
RTVSPropertyOp30
 70
     1
102
RTVSPropertyOp31
 70
     1
102
RTVSPropertyOp32
 70
     1
  0
XRECORD
  5
6CF
102
{ACAD_REACTORS
330
6CE
102
}
330
6CE
100
AcDbXrecord
280
     1
102
RTVSPropertyOp0
 70
     1
102
RTVSPropertyOp1
 70
     1
102
RTVSPropertyOp2
 70
     1
102
RTVSPropertyOp3
 70
     1
102
RTVSPropertyOp4
 70
     1
102
RTVSPropertyOp5
 70
     1
102
RTVSPropertyOp6
 70
     1
102
RTVSPropertyOp7
 70
     1
102
RTVSPropertyOp8
 70
     1
102
RTVSPropertyOp9
 70
     1
102
RTVSPropertyOp10
 70
     1
102
RTVSPropertyOp11
 70
     1
102
RTVSPropertyOp12
 70
     1
102
RTVSPropertyOp13
 70
     1
102
RTVSPropertyOp14
 70
     1
102
RTVSPropertyOp15
 70
     1
102
RTVSPropertyOp16
 70
     1
102
RTVSPropertyOp17
 70
     1
102
RTVSPropertyOp18
 70
     1
102
RTVSPropertyOp19
 70
     1
102
RTVSPropertyOp20
 70
     1
102
RTVSPropertyOp21
 70
     1
102
RTVSPropertyOp22
 70
     1
102
RTVSPropertyOp23
 70
     1
102
RTVSPropertyOp24
 70
     1
102
RTVSPropertyOp25
 70
     1
102
RTVSPropertyOp26
 70
     1
102
RTVSPropertyOp27
 70
     1
102
RTVSPropertyOp28
 70
     1
102
RTVSPropertyOp29
 70
     1
102
RTVSPropertyOp30
 70
     1
102
RTVSPropertyOp31
 70
     1
102
RTVSPropertyOp32
 70
     1
  0
XRECORD
  5
6CD
102
{ACAD_REACTORS
330
6CC
102
}
330
6CC
100
AcDbXrecord
280
     1
102
RTVSPropertyOp0
 70
     1
102
RTVSPropertyOp1
 70
     1
102
RTVSPropertyOp2
 70
     1
102
RTVSPropertyOp3
 70
     1
102
RTVSPropertyOp4
 70
     1
102
RTVSPropertyOp5
 70
     1
102
RTVSPropertyOp6
 70
     1
102
RTVSPropertyOp7
 70
     1
102
RTVSPropertyOp8
 70
     1
102
RTVSPropertyOp9
 70
     1
102
RTVSPropertyOp10
 70
     1
102
RTVSPropertyOp11
 70
     1
102
RTVSPropertyOp12
 70
     1
102
RTVSPropertyOp13
 70
     1
102
RTVSPropertyOp14
 70
     1
102
RTVSPropertyOp15
 70
     1
102
RTVSPropertyOp16
 70
     1
102
RTVSPropertyOp17
 70
     1
102
RTVSPropertyOp18
 70
     1
102
RTVSPropertyOp19
 70
     1
102
RTVSPropertyOp20
 70
     1
102
RTVSPropertyOp21
 70
     1
102
RTVSPropertyOp22
 70
     1
102
RTVSPropertyOp23
 70
     1
102
RTVSPropertyOp24
 70
     1
102
RTVSPropertyOp25
 70
     1
102
RTVSPropertyOp26
 70
     1
102
RTVSPropertyOp27
 70
     1
102
RTVSPropertyOp28
 70
     1
102
RTVSPropertyOp29
 70
     1
102
RTVSPropertyOp30
 70
     1
102
RTVSPropertyOp31
 70
     1
102
RTVSPropertyOp32
 70
     1
  0
XRECORD
  5
6C7
102
{ACAD_REACTORS
330
6C6
102
}
330
6C6
100
AcDbXrecord
280
     1
102
RTVSPropertyOp0
 70
     1
102
RTVSPropertyOp1
 70
     1
102
RTVSPropertyOp2
 70
     1
102
RTVSPropertyOp3
 70
     1
102
RTVSPropertyOp4
 70
     1
102
RTVSPropertyOp5
 70
     1
102
RTVSPropertyOp6
 70
     1
102
RTVSPropertyOp7
 70
     1
102
RTVSPropertyOp8
 70
     1
102
RTVSPropertyOp9
 70
     1
102
RTVSPropertyOp10
 70
     1
102
RTVSPropertyOp11
 70
     1
102
RTVSPropertyOp12
 70
     1
102
RTVSPropertyOp13
 70
     1
102
RTVSPropertyOp14
 70
     1
102
RTVSPropertyOp15
 70
     1
102
RTVSPropertyOp16
 70
     1
102
RTVSPropertyOp17
 70
     1
102
RTVSPropertyOp18
 70
     1
102
RTVSPropertyOp19
 70
     1
102
RTVSPropertyOp20
 70
     1
102
RTVSPropertyOp21
 70
     1
102
RTVSPropertyOp22
 70
     1
102
RTVSPropertyOp23
 70
     1
102
RTVSPropertyOp24
 70
     1
102
RTVSPropertyOp25
 70
     1
102
RTVSPropertyOp26
 70
     1
102
RTVSPropertyOp27
 70
     1
102
RTVSPropertyOp28
 70
     1
102
RTVSPropertyOp29
 70
     1
102
RTVSPropertyOp30
 70
     1
102
RTVSPropertyOp31
 70
     1
102
RTVSPropertyOp32
 70
     1
  0
XRECORD
  5
6C9
102
{ACAD_REACTORS
330
6C8
102
}
330
6C8
100
AcDbXrecord
280
     1
102
RTVSPropertyOp0
 70
     1
102
RTVSPropertyOp1
 70
     1
102
RTVSPropertyOp2
 70
     1
102
RTVSPropertyOp3
 70
     1
102
RTVSPropertyOp4
 70
     1
102
RTVSPropertyOp5
 70
     1
102
RTVSPropertyOp6
 70
     1
102
RTVSPropertyOp7
 70
     1
102
RTVSPropertyOp8
 70
     1
102
RTVSPropertyOp9
 70
     1
102
RTVSPropertyOp10
 70
     1
102
RTVSPropertyOp11
 70
     1
102
RTVSPropertyOp12
 70
     1
102
RTVSPropertyOp13
 70
     1
102
RTVSPropertyOp14
 70
     1
102
RTVSPropertyOp15
 70
     1
102
RTVSPropertyOp16
 70
     1
102
RTVSPropertyOp17
 70
     1
102
RTVSPropertyOp18
 70
     1
102
RTVSPropertyOp19
 70
     1
102
RTVSPropertyOp20
 70
     1
102
RTVSPropertyOp21
 70
     1
102
RTVSPropertyOp22
 70
     1
102
RTVSPropertyOp23
 70
     1
102
RTVSPropertyOp24
 70
     1
102
RTVSPropertyOp25
 70
     1
102
RTVSPropertyOp26
 70
     1
102
RTVSPropertyOp27
 70
     1
102
RTVSPropertyOp28
 70
     1
102
RTVSPropertyOp29
 70
     1
102
RTVSPropertyOp30
 70
     1
102
RTVSPropertyOp31
 70
     1
102
RTVSPropertyOp32
 70
     1
  0
XRECORD
  5
6BF
102
{ACAD_REACTORS
330
6BE
102
}
330
6BE
100
AcDbXrecord
280
     1
102
RTVSPropertyOp0
 70
     1
102
RTVSPropertyOp1
 70
     1
102
RTVSPropertyOp2
 70
     1
102
RTVSPropertyOp3
 70
     1
102
RTVSPropertyOp4
 70
     1
102
RTVSPropertyOp5
 70
     1
102
RTVSPropertyOp6
 70
     1
102
RTVSPropertyOp7
 70
     1
102
RTVSPropertyOp8
 70
     1
102
RTVSPropertyOp9
 70
     1
102
RTVSPropertyOp10
 70
     1
102
RTVSPropertyOp11
 70
     1
102
RTVSPropertyOp12
 70
     1
102
RTVSPropertyOp13
 70
     1
102
RTVSPropertyOp14
 70
     1
102
RTVSPropertyOp15
 70
     1
102
RTVSPropertyOp16
 70
     1
102
RTVSPropertyOp17
 70
     1
102
RTVSPropertyOp18
 70
     1
102
RTVSPropertyOp19
 70
     1
102
RTVSPropertyOp20
 70
     1
102
RTVSPropertyOp21
 70
     1
102
RTVSPropertyOp22
 70
     1
102
RTVSPropertyOp23
 70
     1
102
RTVSPropertyOp24
 70
     1
102
RTVSPropertyOp25
 70
     1
102
RTVSPropertyOp26
 70
     1
102
RTVSPropertyOp27
 70
     1
102
RTVSPropertyOp28
 70
     1
102
RTVSPropertyOp29
 70
     1
102
RTVSPropertyOp30
 70
     1
102
RTVSPropertyOp31
 70
     1
102
RTVSPropertyOp32
 70
     1
  0
XRECORD
  5
6B3
102
{ACAD_REACTORS
330
6B2
102
}
330
6B2
100
AcDbXrecord
280
     1
102
RTVSPropertyOp0
 70
     1
102
RTVSPropertyOp1
 70
     1
102
RTVSPropertyOp2
 70
     1
102
RTVSPropertyOp3
 70
     1
102
RTVSPropertyOp4
 70
     1
102
RTVSPropertyOp5
 70
     1
102
RTVSPropertyOp6
 70
     1
102
RTVSPropertyOp7
 70
     1
102
RTVSPropertyOp8
 70
     1
102
RTVSPropertyOp9
 70
     1
102
RTVSPropertyOp10
 70
     1
102
RTVSPropertyOp11
 70
     1
102
RTVSPropertyOp12
 70
     1
102
RTVSPropertyOp13
 70
     1
102
RTVSPropertyOp14
 70
     1
102
RTVSPropertyOp15
 70
     1
102
RTVSPropertyOp16
 70
     1
102
RTVSPropertyOp17
 70
     1
102
RTVSPropertyOp18
 70
     1
102
RTVSPropertyOp19
 70
     1
102
RTVSPropertyOp20
 70
     1
102
RTVSPropertyOp21
 70
     1
102
RTVSPropertyOp22
 70
     1
102
RTVSPropertyOp23
 70
     1
102
RTVSPropertyOp24
 70
     1
102
RTVSPropertyOp25
 70
     1
102
RTVSPropertyOp26
 70
     1
102
RTVSPropertyOp27
 70
     1
102
RTVSPropertyOp28
 70
     1
102
RTVSPropertyOp29
 70
     1
102
RTVSPropertyOp30
 70
     1
102
RTVSPropertyOp31
 70
     1
102
RTVSPropertyOp32
 70
     1
  0
XRECORD
  5
6CB
102
{ACAD_REACTORS
330
6CA
102
}
330
6CA
100
AcDbXrecord
280
     1
102
RTVSPropertyOp0
 70
     1
102
RTVSPropertyOp1
 70
     1
102
RTVSPropertyOp2
 70
     1
102
RTVSPropertyOp3
 70
     1
102
RTVSPropertyOp4
 70
     1
102
RTVSPropertyOp5
 70
     1
102
RTVSPropertyOp6
 70
     1
102
RTVSPropertyOp7
 70
     1
102
RTVSPropertyOp8
 70
     1
102
RTVSPropertyOp9
 70
     1
102
RTVSPropertyOp10
 70
     1
102
RTVSPropertyOp11
 70
     1
102
RTVSPropertyOp12
 70
     1
102
RTVSPropertyOp13
 70
     1
102
RTVSPropertyOp14
 70
     1
102
RTVSPropertyOp15
 70
     1
102
RTVSPropertyOp16
 70
     1
102
RTVSPropertyOp17
 70
     1
102
RTVSPropertyOp18
 70
     1
102
RTVSPropertyOp19
 70
     1
102
RTVSPropertyOp20
 70
     1
102
RTVSPropertyOp21
 70
     1
102
RTVSPropertyOp22
 70
     1
102
RTVSPropertyOp23
 70
     1
102
RTVSPropertyOp24
 70
     1
102
RTVSPropertyOp25
 70
     1
102
RTVSPropertyOp26
 70
     1
102
RTVSPropertyOp27
 70
     1
102
RTVSPropertyOp28
 70
     1
102
RTVSPropertyOp29
 70
     1
102
RTVSPropertyOp30
 70
     1
102
RTVSPropertyOp31
 70
     1
102
RTVSPropertyOp32
 70
     1
  0
ENDSEC
  0
EOF
