  0
SECTION
  2
HEADER
  9
$ACADVER
  1
AC1009
  9
$DWGCODEPAGE
  3
ansi_932
  9
$INSBASE
 10
0.0
 20
0.0
 30
0.0
  9
$EXTMIN
 10
-450.0
 20
-676.9346380266203
 30
0.0
  9
$EXTMAX
 10
450.0
 20
664.0351411111111
 30
0.0
  9
$LIMMIN
 10
0.0
 20
0.0
  9
$LIMMAX
 10
0.0
 20
0.0
  9
$ORTHOMODE
 70
     0
  9
$REGENMODE
 70
     1
  9
$FILLMODE
 70
     1
  9
$QTEXTMODE
 70
     0
  9
$MIRRTEXT
 70
     1
  9
$DRAGMODE
 70
     2
  9
$LTSCALE
 40
25.4
  9
$OSMODE
 70
  4327
  9
$ATTMODE
 70
     1
  9
$TEXTSIZE
 40
0.0
  9
$TRACEWID
 40
1.0
  9
$TEXTSTYLE
  7
STANDARD
  9
$CLAYER
  8
DATA
  9
$CELTYPE
  6
BYLAYER
  9
$CECOLOR
 62
   256
  9
$DIMSCALE
 40
1.0
  9
$DIMASZ
 40
0.18
  9
$DIMEXO
 40
0.0625
  9
$DIMDLI
 40
0.38
  9
$DIMRND
 40
0.0
  9
$DIMDLE
 40
0.0
  9
$DIMEXE
 40
0.18
  9
$DIMTP
 40
0.0
  9
$DIMTM
 40
0.0
  9
$DIMTXT
 40
0.18
  9
$DIMCEN
 40
0.09
  9
$DIMTSZ
 40
0.0
  9
$DIMTOL
 70
     0
  9
$DIMLIM
 70
     0
  9
$DIMTIH
 70
     1
  9
$DIMTOH
 70
     1
  9
$DIMSE1
 70
     0
  9
$DIMSE2
 70
     0
  9
$DIMTAD
 70
     0
  9
$DIMZIN
 70
     0
  9
$DIMBLK
  1

  9
$DIMASO
 70
     1
  9
$DIMSHO
 70
     1
  9
$DIMPOST
  1

  9
$DIMAPOST
  1

  9
$DIMALT
 70
     0
  9
$DIMALTD
 70
     2
  9
$DIMALTF
 40
25.4
  9
$DIMLFAC
 40
1.0
  9
$DIMTOFL
 70
     0
  9
$DIMTVP
 40
0.0
  9
$DIMTIX
 70
     0
  9
$DIMSOXD
 70
     0
  9
$DIMSAH
 70
     0
  9
$DIMBLK1
  1

  9
$DIMBLK2
  1

  9
$DIMSTYLE
  2
STANDARD
  9
$DIMCLRD
 70
     0
  9
$DIMCLRE
 70
     0
  9
$DIMCLRT
 70
     0
  9
$DIMTFAC
 40
1.0
  9
$DIMGAP
 40
0.09
  9
$LUNITS
 70
     2
  9
$LUPREC
 70
     2
  9
$SKETCHINC
 40
0.1
  9
$FILLETRAD
 40
0.0
  9
$AUNITS
 70
     0
  9
$AUPREC
 70
     0
  9
$MENU
  1
acad
  9
$ELEVATION
 40
0.0
  9
$PELEVATION
 40
0.0
  9
$THICKNESS
 40
0.0
  9
$LIMCHECK
 70
     0
  9
$CHAMFERA
 40
0.0
  9
$CHAMFERB
 40
0.0
  9
$SKPOLY
 70
     0
  9
$TDCREATE
 40
2459221.670402118
  9
$TDUPDATE
 40
2459221.670957778
  9
$TDINDWG
 40
2459221.295958553
  9
$TDUSRTIMER
 40
0.0005564352
  9
$USRTIMER
 70
     1
  9
$ANGBASE
 50
0.0
  9
$ANGDIR
 70
     0
  9
$PDMODE
 70
     1
  9
$PDSIZE
 40
-2.0
  9
$PLINEWID
 40
0.0
  9
$COORDS
 70
     1
  9
$SPLFRAME
 70
     0
  9
$SPLINETYPE
 70
     6
  9
$SPLINESEGS
 70
     8
  9
$ATTDIA
 70
     1
  9
$ATTREQ
 70
     1
  9
$HANDLING
 70
     1
  9
$HANDSEED
  5
398
  9
$SURFTAB1
 70
     6
  9
$SURFTAB2
 70
     6
  9
$SURFTYPE
 70
     6
  9
$SURFU
 70
     6
  9
$SURFV
 70
     6
  9
$UCSNAME
  2

  9
$UCSORG
 10
0.0
 20
0.0
 30
0.0
  9
$UCSXDIR
 10
1.0
 20
0.0
 30
0.0
  9
$UCSYDIR
 10
0.0
 20
1.0
 30
0.0
  9
$PUCSNAME
  2

  9
$PUCSORG
 10
0.0
 20
0.0
 30
0.0
  9
$PUCSXDIR
 10
1.0
 20
0.0
 30
0.0
  9
$PUCSYDIR
 10
0.0
 20
1.0
 30
0.0
  9
$USERI1
 70
     0
  9
$USERI2
 70
     0
  9
$USERI3
 70
     0
  9
$USERI4
 70
     0
  9
$USERI5
 70
     0
  9
$USERR1
 40
0.0
  9
$USERR2
 40
0.0
  9
$USERR3
 40
0.0
  9
$USERR4
 40
0.0
  9
$USERR5
 40
0.0
  9
$WORLDVIEW
 70
     1
  9
$SHADEDGE
 70
     3
  9
$SHADEDIF
 70
    70
  9
$TILEMODE
 70
     1
  9
$MAXACTVP
 70
    64
  9
$PLIMCHECK
 70
     0
  9
$PEXTMIN
 10
1.000000000000000E+20
 20
1.000000000000000E+20
 30
1.000000000000000E+20
  9
$PEXTMAX
 10
-1.000000000000000E+20
 20
-1.000000000000000E+20
 30
-1.000000000000000E+20
  9
$PLIMMIN
 10
0.0
 20
0.0
  9
$PLIMMAX
 10
12.0
 20
9.0
  9
$UNITMODE
 70
     0
  9
$VISRETAIN
 70
     0
  9
$PLINEGEN
 70
     1
  9
$PSLTSCALE
 70
     0
  0
ENDSEC
  0
SECTION
  2
TABLES
  0
TABLE
  2
VPORT
 70
     1
  0
VPORT
  2
*ACTIVE
 70
     0
 10
0.0
 20
0.0
 11
1.0
 21
1.0
 12
0.0
 22
-3.508785277777747
 13
0.0
 23
0.0
 14
1.0
 24
1.0
 15
0.0
 25
0.0
 16
0.0
 26
0.0
 36
1.0
 17
0.0
 27
0.0
 37
0.0
 40
1335.087852777778
 41
2.443378119001919
 42
50.0
 43
0.0
 44
0.0
 50
0.0
 51
0.0
 71
     0
 72
  2000
 73
     1
 74
     1
 75
     0
 76
     0
 77
     0
 78
     0
  0
ENDTAB
  0
TABLE
  2
LTYPE
 70
    11
  0
LTYPE
  2
CONTINUOUS
 70
     0
  3
Solid line
 72
    65
 73
     0
 40
0.0
  0
LTYPE
  2
STYLE_06
 70
     0
  3

 72
    65
 73
     4
 40
1.041641235351562
 49
0.625
 49
-0.208282470703125
 49
0.069427490234375
 49
-0.1389312744140625
  0
ENDTAB
  0
TABLE
  2
LAYER
 70
     5
  0
LAYER
  2
0
 70
     0
 62
     7
  6
CONTINUOUS
  0
LAYER
  2
HIBINO-BASE
 70
     0
 62
     7
  6
CONTINUOUS
  0
LAYER
  2
SPEC
 70
     0
 62
     7
  6
CONTINUOUS
  0
LAYER
  2
DIMNSIONS
 70
     0
 62
     7
  6
CONTINUOUS
  0
LAYER
  2
DATA
 70
     0
 62
     7
  6
CONTINUOUS
  0
ENDTAB
  0
TABLE
  2
STYLE
 70
     2
  0
STYLE
  2
STANDARD
 70
     0
 40
0.0
 41
1.0
 50
0.0
 71
     0
 42
0.0
  3
txt
  4
BIGFONT.SHX
  0
ENDTAB
  0
TABLE
  2
VIEW
 70
     0
  0
ENDTAB
  0
TABLE
  2
UCS
 70
     0
  0
ENDTAB
  0
TABLE
  2
APPID
 70
     3
  0
APPID
  2
ACAD
 70
     0
  0
APPID
  2
ACAD_MLEADERVER
 70
     0
  0
APPID
  2
ACADANNOPO
 70
     0
  0
ENDTAB
  0
TABLE
  2
DIMSTYLE
 70
     1
  0
DIMSTYLE
  2
STANDARD
 70
     0
  3

  4

  5

  6

  7

 40
1.0
 41
0.18
 42
0.0625
 43
0.38
 44
0.18
 45
0.0
 46
0.0
 47
0.0
 48
0.0
140
0.18
141
0.09
142
0.0
143
25.4
144
1.0
145
0.0
146
1.0
147
0.09
 71
     0
 72
     0
 73
     1
 74
     1
 75
     0
 76
     0
 77
     0
 78
     0
170
     0
171
     2
172
     0
173
     0
174
     0
175
     0
176
     0
177
     0
178
     0
  0
ENDTAB
  0
ENDSEC
  0
SECTION
  2
BLOCKS
  0
BLOCK
  8
DATA
  2
$MODEL_SPACE
 70
     0
 10
0.0
 20
0.0
 30
0.0
  3
$MODEL_SPACE
  1

  0
ENDBLK
  5
2F8
  8
DATA
  0
BLOCK
 67
     1
  8
DATA
  2
$PAPER_SPACE
 70
     0
 10
0.0
 20
0.0
 30
0.0
  3
$PAPER_SPACE
  1

  0
ENDBLK
  5
2F6
 67
     1
  8
DATA
  0
ENDSEC
  0
SECTION
  2
ENTITIES
  0
LINE
  5
2C
  8
HIBINO-BASE
  6
CONTINUOUS
 62
     7
 10
-450.0
 20
664.0351411111111
 30
0.0
 11
450.0
 21
664.0351411111111
 31
0.0
  0
LINE
  5
2D
  8
HIBINO-BASE
  6
CONTINUOUS
 62
     7
 10
450.0
 20
-635.9648588888889
 30
0.0
 11
-450.0
 21
-635.9648588888889
 31
0.0
  0
LINE
  5
2E
  8
HIBINO-BASE
  6
CONTINUOUS
 62
     7
 10
-450.0
 20
-635.9648588888889
 30
0.0
 11
-450.0
 21
664.0351411111111
 31
0.0
  0
LINE
  5
2F
  8
HIBINO-BASE
  6
CONTINUOUS
 62
     7
 10
450.0
 20
664.0351411111111
 30
0.0
 11
450.0
 21
-635.9648588888889
 31
0.0
  0
LINE
  5
30
  8
HIBINO-BASE
  6
CONTINUOUS
 62
     7
 10
0.0
 20
-523.4648588888889
 30
0.0
 11
450.0
 21
-523.4648588888889
 31
0.0
  0
LINE
  5
31
  8
HIBINO-BASE
  6
CONTINUOUS
 62
     7
 10
0.0
 20
-635.9648588888889
 30
0.0
 11
0.0
 21
-523.4648588888889
 31
0.0
  0
TEXT
  5
32
  8
HIBINO-BASE
 62
     7
 10
4.500000000000171
 20
-536.0083255555554
 30
0.0
 40
8.144205729166666
  1
NOTE
 41
0.7
 11
4.500000000000171
 21
-527.8641198263888
 31
0.0
 73
     3
  0
LINE
  5
33
  8
HIBINO-BASE
  6
CONTINUOUS
 62
     7
 10
175.0
 20
-635.9648588888889
 30
0.0
 11
175.0
 21
-523.4648588888889
 31
0.0
  0
TEXT
  5
34
  8
HIBINO-BASE
 62
     7
 10
179.4999999999999
 20
-536.0083255555554
 30
0.0
 40
8.144205729166666
  1
TITLE
 41
0.7
 11
179.4999999999999
 21
-527.8641198263888
 31
0.0
 73
     3
  0
LINE
  5
35
  8
HIBINO-BASE
  6
CONTINUOUS
 62
     7
 10
0.0
 20
-585.9648588888889
 30
0.0
 11
450.0
 21
-585.9648588888889
 31
0.0
  0
TEXT
  5
36
  8
HIBINO-BASE
 62
     7
 10
241.9999999999999
 20
-598.2267255555554
 30
0.0
 40
8.144205729166666
  1
DRAWN
 41
0.7
 11
241.9999999999999
 21
-590.0825198263888
 31
0.0
 73
     3
  0
TEXT
  5
37
  8
HIBINO-BASE
 62
     7
 10
116.9999999999999
 20
-598.2267255555554
 30
0.0
 40
8.144205729166666
  1
DATE
 41
0.7
 11
116.9999999999999
 21
-590.0825198263888
 31
0.0
 73
     3
  0
TEXT
  5
38
  8
HIBINO-BASE
 62
     7
 10
66.99999999999989
 20
-598.2267255555554
 30
0.0
 40
8.144205729166666
  1
SCALE
 41
0.7
 11
66.99999999999989
 21
-590.0825198263888
 31
0.0
 73
     3
  0
TEXT
  5
39
  8
HIBINO-BASE
 62
     7
 10
179.4999999999999
 20
-598.2267255555554
 30
0.0
 40
8.144205729166666
  1
DESIGN
 41
0.7
 11
179.4999999999999
 21
-590.0825198263888
 31
0.0
 73
     3
  0
TEXT
  5
3A
  8
HIBINO-BASE
 62
     7
 10
366.9999999999999
 20
-598.2267255555554
 30
0.0
 40
8.144205729166666
  1
DRAWING NO.
 41
0.7
 11
366.9999999999999
 21
-590.0825198263888
 31
0.0
 73
     3
  0
TEXT
  5
3B
  8
HIBINO-BASE
 62
     7
 10
304.4999999999999
 20
-598.2267255555554
 30
0.0
 40
8.144205729166666
  1
CHECK
 41
0.7
 11
304.4999999999999
 21
-590.0825198263888
 31
0.0
 73
     3
  0
LINE
  5
3C
  8
HIBINO-BASE
  6
CONTINUOUS
 62
     7
 10
71.875
 20
-629.7148588888889
 30
0.0
 11
90.625
 21
-610.9648588888889
 31
0.0
  0
TEXT
  5
3D
  8
HIBINO-BASE
 62
     7
 10
68.75
 20
-616.5095755555554
 30
0.0
 40
8.144205729166666
  1
1
 41
0.7
 11
68.75
 21
-608.3653698263888
 31
0.0
 73
     3
  0
LINE
  5
3E
  8
HIBINO-BASE
  6
CONTINUOUS
 62
     7
 10
62.5
 20
-635.9648588888889
 30
0.0
 11
62.5
 21
-585.9648588888889
 31
0.0
  0
LINE
  5
3F
  8
HIBINO-BASE
  6
CONTINUOUS
 62
     7
 10
112.5
 20
-635.9648588888889
 30
0.0
 11
112.5
 21
-585.9648588888889
 31
0.0
  0
LINE
  5
40
  8
HIBINO-BASE
  6
CONTINUOUS
 62
     7
 10
237.5
 20
-585.9648588888889
 30
0.0
 11
237.5
 21
-635.9648588888889
 31
0.0
  0
LINE
  5
41
  8
HIBINO-BASE
  6
CONTINUOUS
 62
     7
 10
362.5
 20
-585.9648588888889
 30
0.0
 11
362.5
 21
-635.9648588888889
 31
0.0
  0
LINE
  5
42
  8
HIBINO-BASE
  6
CONTINUOUS
 62
     7
 10
300.0
 20
-635.9648588888889
 30
0.0
 11
300.0
 21
-585.9648588888889
 31
0.0
  0
TEXT
  5
43
  8
HIBINO-BASE
 62
     7
 10
116.7827
 20
-621.6466255555554
 30
0.0
 40
8.144205729166666
  1
'21.01.
 41
0.7
 11
116.7827
 21
-613.5024198263887
 31
0.0
 73
     3
  0
TEXT
  5
44
  8
HIBINO-BASE
 62
     7
 10
87.5
 20
-625.8845755555554
 30
0.0
 40
8.144205729166666
  1
5
 41
0.7
 11
87.5
 21
-617.7403698263888
 31
0.0
 73
     3
  0
TEXT
  5
45
  8
HIBINO-BASE
 62
     7
 10
245.0290500551731
 20
-621.6466255555554
 30
0.0
 40
8.144205729166666
  1
N.Sasaki
 41
0.7
 11
245.0290500551731
 21
-613.5024198263887
 31
0.0
 73
     3
  0
TEXT
  5
46
  8
HIBINO-BASE
 62
     7
 10
19.41666666666691
 20
-626.0848588888889
 30
0.0
 40
16.28841145833333
  1
A4
 41
0.7
 11
19.41666666666691
 21
-609.7964474305555
 31
0.0
 73
     3
  0
TEXT
  5
47
  8
HIBINO-BASE
 62
     7
 10
4.791666666666572
 20
-599.0621338888886
 30
0.0
 40
8.144205729166666
  1
PAPER SIZE
 41
0.7
 11
4.791666666666572
 21
-590.917928159722
 31
0.0
 73
     3
  0
TEXT
  5
48
  8
HIBINO-BASE
 62
     7
 10
-414.0799999999999
 20
-667.8424338888888
 30
0.0
 40
17.64577907986111
  1
Hibino-Intersound Corporation
 41
0.7
 11
-414.0799999999999
 21
-650.1966548090277
 31
0.0
 73
     3
  0
TEXT
  5
49
  8
HIBINO-BASE
 62
     7
 10
70.12167083621563
 20
-667.8424338888888
 30
0.0
 40
17.64577907986111
  1
ヒビノインターサウンド株式会社
 41
0.7
 11
70.12167083621563
 21
-650.1966548090277
 31
0.0
 73
     3
  0
LINE
  5
4A
  8
SPEC
  6
CONTINUOUS
 62
     7
 10
-412.4999999999999
 20
614.0351411111111
 30
0.0
 11
325.0000000000001
 21
614.0351411111111
 31
0.0
  0
LINE
  5
4B
  8
SPEC
  6
CONTINUOUS
 62
     7
 10
-412.4999999999999
 20
595.2851411111111
 30
0.0
 11
325.0000000000001
 21
595.2851411111111
 31
0.0
  0
LINE
  5
4C
  8
SPEC
  6
CONTINUOUS
 62
     7
 10
-412.4999999999999
 20
614.0351411111111
 30
0.0
 11
-412.4999999999999
 21
501.5351411111109
 31
0.0
  0
TEXT
  5
4D
  8
SPEC
 62
     7
 10
-406.2499999999999
 20
621.001491111111
 30
0.0
 40
12.21630859375
  1
仕様
 41
0.7
 11
-406.2499999999999
 21
633.217799704861
 31
0.0
 73
     3
  0
LINE
  5
4E
  8
SPEC
  6
CONTINUOUS
 62
     7
 10
-249.9999999999999
 20
614.0351411111111
 30
0.0
 11
-249.9999999999999
 21
501.5351411111109
 31
0.0
  0
LINE
  5
4F
  8
SPEC
  6
CONTINUOUS
 62
     7
 10
325.0000000000001
 20
614.0351411111111
 30
0.0
 11
325.0000000000001
 21
501.5351411111109
 31
0.0
  0
TEXT
  5
50
  8
SPEC
 62
     7
 10
-408.0
 20
505.47473
 30
0.0
 40
9.501573350694446
  1
付属品
 41
0.7
 11
-408.0
 21
514.9763033506945
 31
0.0
 73
     3
  0
TEXT
  5
51
  8
SPEC
 62
     7
 10
-408.0
 20
542.97473
 30
0.0
 40
9.501573350694446
  1
寸法(W×H×D)
 41
0.7
 11
-408.0
 21
552.4763033506945
 31
0.0
 73
     3
  0
TEXT
  5
52
  8
SPEC
 62
     7
 10
-408.0
 20
524.22473
 30
0.0
 40
9.501573350694446
  1
質量
 41
0.7
 11
-408.0
 21
533.7263033506945
 31
0.0
 73
     3
  0
TEXT
  5
53
  8
SPEC
 62
     7
 10
-245.4999999999999
 20
542.97473
 30
0.0
 40
9.501573350694446
  1
260×178×29mm
 41
0.7
 11
-245.4999999999999
 21
552.4763033506945
 31
0.0
 73
     3
  0
TEXT
  5
54
  8
SPEC
 62
     7
 10
-245.4999999999999
 20
524.22473
 30
0.0
 40
9.501573350694446
  1
682g
 41
0.7
 11
-245.4999999999999
 21
533.7263033506945
 31
0.0
 73
     3
  0
LINE
  5
55
  8
SPEC
  6
CONTINUOUS
 62
     7
 10
-412.4999999999999
 20
576.5351411111111
 30
0.0
 11
325.0000000000001
 21
576.5351411111111
 31
0.0
  0
LINE
  5
56
  8
SPEC
  6
CONTINUOUS
 62
     7
 10
-412.4999999999999
 20
557.7851411111111
 30
0.0
 11
325.0000000000001
 21
557.7851411111111
 31
0.0
  0
LINE
  5
57
  8
SPEC
  6
CONTINUOUS
 62
     7
 10
-412.4999999999999
 20
539.0351411111111
 30
0.0
 11
325.0000000000001
 21
539.0351411111111
 31
0.0
  0
LINE
  5
58
  8
SPEC
  6
CONTINUOUS
 62
     7
 10
-412.4999999999999
 20
520.2851411111111
 30
0.0
 11
325.0000000000001
 21
520.2851411111111
 31
0.0
  0
LINE
  5
59
  8
SPEC
  6
CONTINUOUS
 62
     7
 10
-412.4999999999999
 20
501.535141111111
 30
0.0
 11
325.0000000000001
 21
501.535141111111
 31
0.0
  0
TEXT
  5
5A
  8
SPEC
 62
     7
 10
-408.0
 20
599.2247299999999
 30
0.0
 40
9.501573350694446
  1
入力ポート^I
 41
0.7
 11
-408.0
 21
608.7263033506944
 31
0.0
 73
     3
  0
TEXT
  5
5B
  8
SPEC
 62
     7
 10
-408.0
 20
561.72473
 30
0.0
 40
9.501573350694446
  1
電源
 41
0.7
 11
-408.0
 21
571.2263033506945
 31
0.0
 73
     3
  0
TEXT
  5
5C
  8
SPEC
 62
     7
 10
-245.4999999999999
 20
505.4747299999999
 30
0.0
 40
9.501573350694446
  1
テーブルトップマウント
 41
0.7
 11
-245.4999999999999
 21
514.9763033506944
 31
0.0
 73
     3
  0
TEXT
  5
5D
  8
SPEC
 62
     7
 10
-245.4999999999999
 20
599.22473
 30
0.0
 40
9.501573350694446
  1
イーサネット(RJ-45)
 41
0.7
 11
-245.4999999999999
 21
608.7263033506945
 31
0.0
 73
     3
  0
TEXT
  5
5E
  8
SPEC
 62
     7
 10
-245.4999999999999
 20
580.47473
 30
0.0
 40
9.501573350694446
  1
1280 x 800 pixels
 41
0.7
 11
-245.4999999999999
 21
589.9763033506945
 31
0.0
 73
     3
  0
TEXT
  5
5F
  8
SPEC
 62
     7
 10
-245.4999999999999
 20
561.7247299999999
 30
0.0
 40
9.501573350694446
  1
PoE
 41
0.7
 11
-245.4999999999999
 21
571.2263033506944
 31
0.0
 73
     3
  0
TEXT
  5
60
  8
SPEC
 62
     7
 10
-408.0
 20
580.47473
 30
0.0
 40
9.501573350694446
  1
ディスプレイパネル解像度
 41
0.7
 11
-408.0
 21
589.9763033506945
 31
0.0
 73
     3
  0
TEXT
  5
61
  8
SPEC
 62
     7
 10
-245.4999999999999
 20
505.4747299999999
 30
0.0
 40
9.501573350694446
  1
テーブルトップマウント
 41
0.7
 11
-245.4999999999999
 21
514.9763033506944
 31
0.0
 73
     3
  0
TEXT
  5
62
  8
DIMNSIONS
 62
     7
 10
-99.99999999999997
 20
-574.6174088888888
 30
0.0
 40
12.21630859375
  1
(単位：mm)
 41
0.7
 11
-99.99999999999997
 21
-562.4011002951388
 31
0.0
 73
     3
  0
LINE
  5
63
  8
DIMNSIONS
  6
CONTINUOUS
 62
     7
 10
-378.2
 20
-439.4
 30
0.0
 11
-405.0000000000001
 21
-439.4
 31
0.0
  0
LINE
  5
64
  8
DIMNSIONS
  6
CONTINUOUS
 62
     7
 10
-378.2
 20
-260.6
 30
0.0
 11
-405.0000000000001
 21
-260.6
 31
0.0
  0
LINE
  5
65
  8
DIMNSIONS
  6
CONTINUOUS
 62
     7
 10
-400.0000000000001
 20
-439.4
 30
0.0
 11
-400.0000000000001
 21
-260.6
 31
0.0
  0
LINE
  5
66
  8
DIMNSIONS
  6
CONTINUOUS
 62
     7
 10
-400.0000000000001
 20
-439.4
 30
0.0
 11
-402.679328381103
 21
-429.4006103515625
 31
0.0
  0
LINE
  5
67
  8
DIMNSIONS
  6
CONTINUOUS
 62
     7
 10
-400.0000000000001
 20
-439.4
 30
0.0
 11
-397.3206716188971
 21
-429.4006103515625
 31
0.0
  0
LINE
  5
68
  8
DIMNSIONS
  6
CONTINUOUS
 62
     7
 10
-400.0000000000001
 20
-260.6
 30
0.0
 11
-397.3206716188971
 21
-270.5993896484375
 31
0.0
  0
LINE
  5
69
  8
DIMNSIONS
  6
CONTINUOUS
 62
     7
 10
-400.0000000000001
 20
-260.6
 30
0.0
 11
-402.679328381103
 21
-270.5993896484375
 31
0.0
  0
TEXT
  5
6A
  8
DIMNSIONS
 62
     7
 10
-404.9694444444445
 20
-363.2291666666667
 30
0.0
 40
13.57367621527779
  1
179
 50
90.0
 41
0.7
 11
-418.5431206597223
 21
-363.2291666666667
 31
0.0
 73
     3
  0
LINE
  5
6B
  8
DIMNSIONS
  6
CONTINUOUS
 62
     7
 10
-380.2
 20
-437.3999999999999
 30
0.0
 11
-380.2
 21
-480.0
 31
0.0
  0
LINE
  5
6C
  8
DIMNSIONS
  6
CONTINUOUS
 62
     7
 10
-119.8
 20
-437.3999999999999
 30
0.0
 11
-119.8
 21
-480.0
 31
0.0
  0
LINE
  5
6D
  8
DIMNSIONS
  6
CONTINUOUS
 62
     7
 10
-380.2
 20
-475.0
 30
0.0
 11
-119.8
 21
-475.0
 31
0.0
  0
LINE
  5
6E
  8
DIMNSIONS
  6
CONTINUOUS
 62
     7
 10
-380.2
 20
-475.0
 30
0.0
 11
-370.2006103515625
 21
-472.3206716188971
 31
0.0
  0
LINE
  5
6F
  8
DIMNSIONS
  6
CONTINUOUS
 62
     7
 10
-380.2
 20
-475.0
 30
0.0
 11
-370.2006103515625
 21
-477.6793283811029
 31
0.0
  0
LINE
  5
70
  8
DIMNSIONS
  6
CONTINUOUS
 62
     7
 10
-119.8
 20
-475.0
 30
0.0
 11
-129.7993896484375
 21
-477.6793283811029
 31
0.0
  0
LINE
  5
71
  8
DIMNSIONS
  6
CONTINUOUS
 62
     7
 10
-119.8
 20
-475.0
 30
0.0
 11
-129.7993896484375
 21
-472.3206716188971
 31
0.0
  0
TEXT
  5
72
  8
DIMNSIONS
 62
     7
 10
-263.2291666666667
 20
-470.0305555555555
 30
0.0
 40
13.57367621527779
  1
260
 41
0.7
 11
-263.2291666666667
 21
-456.4568793402777
 31
0.0
 73
     3
  0
LINE
  5
73
  8
DIMNSIONS
  6
CONTINUOUS
 62
     7
 10
62.86989772143713
 20
-389.7193863286222
 30
0.0
 11
74.99999999999997
 21
-462.5
 31
0.0
  0
LINE
  5
74
  8
DIMNSIONS
  6
CONTINUOUS
 62
     7
 10
62.86989772143713
 20
-389.7193863286222
 30
0.0
 11
67.24489687424571
 21
-399.1016022890437
 31
0.0
  0
LINE
  5
75
  8
DIMNSIONS
  6
CONTINUOUS
 62
     7
 10
62.86989772143713
 20
-389.7193863286222
 30
0.0
 11
61.96765014909403
 21
-400.0321232705433
 31
0.0
  0
LINE
  5
76
  8
DIMNSIONS
  6
CONTINUOUS
 62
     7
 10
74.99999999999997
 20
-462.5
 30
0.0
 11
84.99999999999997
 21
-462.5
 31
0.0
  0
TEXT
  5
77
  8
DIMNSIONS
 62
     7
 10
84.99999999999997
 20
-468.85
 30
0.0
 40
13.57367621527779
  1
テーブルトップマウント取付穴(4ヵ所)
 41
0.7
 11
84.99999999999997
 21
-455.2763237847222
 31
0.0
 73
     3
  0
LINE
  5
78
  8
DIMNSIONS
  6
CONTINUOUS
 62
     7
 10
-386.2
 20
-237.5
 30
0.0
 11
-405.0000000000001
 21
-237.5
 31
0.0
  0
LINE
  5
79
  8
DIMNSIONS
  6
CONTINUOUS
 62
     7
 10
-339.7482306871971
 20
-208.9
 30
0.0
 11
-405.0000000000001
 21
-208.9
 31
0.0
  0
LINE
  5
7A
  8
DIMNSIONS
  6
CONTINUOUS
 62
     7
 10
-400.0000000000001
 20
-237.5
 30
0.0
 11
-400.0000000000001
 21
-208.9
 31
0.0
  0
LINE
  5
7B
  8
DIMNSIONS
  6
CONTINUOUS
 62
     7
 10
-400.0000000000001
 20
-237.5
 30
0.0
 11
-402.679328381103
 21
-227.5006103515625
 31
0.0
  0
LINE
  5
7C
  8
DIMNSIONS
  6
CONTINUOUS
 62
     7
 10
-400.0000000000001
 20
-237.5
 30
0.0
 11
-397.3206716188971
 21
-227.5006103515625
 31
0.0
  0
LINE
  5
7D
  8
DIMNSIONS
  6
CONTINUOUS
 62
     7
 10
-400.0000000000001
 20
-208.9
 30
0.0
 11
-397.3206716188971
 21
-218.8993896484375
 31
0.0
  0
LINE
  5
7E
  8
DIMNSIONS
  6
CONTINUOUS
 62
     7
 10
-400.0000000000001
 20
-208.9
 30
0.0
 11
-402.679328381103
 21
-218.8993896484375
 31
0.0
  0
TEXT
  5
7F
  8
DIMNSIONS
 62
     7
 10
-407.4694444444445
 20
-240.8388888888889
 30
0.0
 40
13.57367621527779
  1
28.6
 50
90.0
 41
0.7
 11
-421.0431206597223
 21
-240.8388888888889
 31
0.0
 73
     3
  0
LINE
  5
80
  8
DIMNSIONS
  6
CONTINUOUS
 62
     7
 10
88.53148178212862
 20
-61.61826836839742
 30
0.0
 11
125.0
 21
-137.5
 31
0.0
  0
LINE
  5
81
  8
DIMNSIONS
  6
CONTINUOUS
 62
     7
 10
88.53148178212862
 20
-61.61826836839742
 30
0.0
 11
95.32309008652072
 21
-69.43111999598995
 31
0.0
  0
LINE
  5
82
  8
DIMNSIONS
  6
CONTINUOUS
 62
     7
 10
88.53148178212862
 20
-61.61826836839742
 30
0.0
 11
90.50676129248927
 21
-71.7802005060872
 31
0.0
  0
LINE
  5
83
  8
DIMNSIONS
  6
CONTINUOUS
 62
     7
 10
125.0
 20
-137.5
 30
0.0
 11
135.0
 21
-137.5
 31
0.0
  0
TEXT
  5
84
  8
DIMNSIONS
 62
     7
 10
135.0
 20
-143.85
 30
0.0
 40
13.57367621527779
  1
取付穴(本体)
 41
0.7
 11
135.0
 21
-130.2763237847222
 31
0.0
 73
     3
  0
LINE
  5
85
  8
DIMNSIONS
  6
CONTINUOUS
 62
     7
 10
-19.50000202655798
 20
-100.0000000000001
 30
0.0
 11
-42.50000000000006
 21
-100.0000000000001
 31
0.0
  0
LINE
  5
86
  8
DIMNSIONS
  6
CONTINUOUS
 62
     7
 10
-13.15000000000009
 20
25.82118345644417
 30
0.0
 11
-42.50000000000006
 21
25.82118345644417
 31
0.0
  0
LINE
  5
87
  8
DIMNSIONS
  6
CONTINUOUS
 62
     7
 10
-37.50000000000006
 20
-100.0000000000001
 30
0.0
 11
-37.50000000000006
 21
25.82118345644417
 31
0.0
  0
LINE
  5
88
  8
DIMNSIONS
  6
CONTINUOUS
 62
     7
 10
-37.50000000000006
 20
-100.0000000000001
 30
0.0
 11
-40.17932838110301
 21
-90.00061035156256
 31
0.0
  0
LINE
  5
89
  8
DIMNSIONS
  6
CONTINUOUS
 62
     7
 10
-37.50000000000006
 20
-100.0000000000001
 30
0.0
 11
-34.8206716188971
 21
-90.00061035156256
 31
0.0
  0
LINE
  5
8A
  8
DIMNSIONS
  6
CONTINUOUS
 62
     7
 10
-37.50000000000006
 20
25.82118345644417
 30
0.0
 11
-34.8206716188971
 21
15.82179380800667
 31
0.0
  0
LINE
  5
8B
  8
DIMNSIONS
  6
CONTINUOUS
 62
     7
 10
-37.50000000000006
 20
25.82118345644417
 30
0.0
 11
-40.17932838110301
 21
15.82179380800667
 31
0.0
  0
TEXT
  5
8C
  8
DIMNSIONS
 62
     7
 10
-42.46944444444452
 20
-50.31857493844461
 30
0.0
 40
13.57367621527779
  1
126
 50
90.0
 41
0.7
 11
-56.04312065972231
 21
-50.31857493844461
 31
0.0
 73
     3
  0
LINE
  5
8D
  8
DIMNSIONS
  6
CONTINUOUS
 62
     7
 10
253.5513514655672
 20
10.1761168789748
 30
0.0
 11
274.4120115235025
 21
-1.867790820947487
 31
0.0
  0
LINE
  5
8E
  8
DIMNSIONS
  6
CONTINUOUS
 62
     7
 10
182.7361515056699
 20
-102.3194074923302
 30
0.0
 11
207.9962205747274
 21
-116.9033151690992
 31
0.0
  0
LINE
  5
8F
  8
DIMNSIONS
  6
CONTINUOUS
 62
     7
 10
270.0818845045804
 20
0.6322091790525128
 30
0.0
 11
203.6660935558052
 21
-114.4033151690992
 31
0.0
  0
LINE
  5
90
  8
DIMNSIONS
  6
CONTINUOUS
 62
     7
 10
270.0818845045804
 20
0.6322091790525128
 30
0.0
 11
267.4025561234774
 21
-9.367180469384987
 31
0.0
  0
LINE
  5
91
  8
DIMNSIONS
  6
CONTINUOUS
 62
     7
 10
270.0818845045804
 20
0.6322091790525128
 30
0.0
 11
262.7618232372458
 21
-6.687852088282031
 31
0.0
  0
LINE
  5
92
  8
DIMNSIONS
  6
CONTINUOUS
 62
     7
 10
203.6660935558052
 20
-114.4033151690992
 30
0.0
 11
206.3454219369082
 21
-104.4039255206617
 31
0.0
  0
LINE
  5
93
  8
DIMNSIONS
  6
CONTINUOUS
 62
     7
 10
203.6660935558052
 20
-114.4033151690992
 30
0.0
 11
210.9861548231398
 21
-107.0832539017646
 31
0.0
  0
TEXT
  5
94
  8
DIMNSIONS
 62
     7
 10
239.9190927614296
 20
-41.67238972931484
 30
0.0
 40
13.57367621527779
  1
133
 50
59.99999999999999
 41
0.7
 11
228.1639443362544
 21
-34.88555162167594
 31
0.0
 73
     3
  0
LINE
  5
95
  8
DIMNSIONS
  6
CONTINUOUS
 62
     7
 10
93.50000000000006
 20
15.52798345644422
 30
0.0
 11
142.4999999999999
 21
15.52798345644422
 31
0.0
  0
LINE
  5
96
  8
DIMNSIONS
  6
CONTINUOUS
 62
     7
 10
113.15
 20
25.82118345644417
 30
0.0
 11
142.4999999999999
 21
25.82118345644417
 31
0.0
  0
LINE
  5
97
  8
DIMNSIONS
  6
CONTINUOUS
 62
     7
 10
137.4999999999999
 20
25.82118345644417
 30
0.0
 11
137.4999999999999
 21
15.52798345644422
 31
0.0
  0
LINE
  5
98
  8
DIMNSIONS
  6
CONTINUOUS
 62
     7
 10
137.4999999999999
 20
15.52798345644422
 30
0.0
 11
137.4999999999999
 21
-1.972016543555782
 31
0.0
  0
LINE
  5
99
  8
DIMNSIONS
  6
CONTINUOUS
 62
     7
 10
137.4999999999999
 20
15.52798345644422
 30
0.0
 11
140.1793283811029
 21
5.528593808006718
 31
0.0
  0
LINE
  5
9A
  8
DIMNSIONS
  6
CONTINUOUS
 62
     7
 10
137.4999999999999
 20
15.52798345644422
 30
0.0
 11
134.820671618897
 21
5.528593808006718
 31
0.0
  0
LINE
  5
9B
  8
DIMNSIONS
  6
CONTINUOUS
 62
     7
 10
137.4999999999999
 20
25.82118345644417
 30
0.0
 11
137.4999999999999
 21
69.1134723453331
 31
0.0
  0
LINE
  5
9C
  8
DIMNSIONS
  6
CONTINUOUS
 62
     7
 10
137.4999999999999
 20
25.82118345644417
 30
0.0
 11
134.820671618897
 21
35.82057310488167
 31
0.0
  0
LINE
  5
9D
  8
DIMNSIONS
  6
CONTINUOUS
 62
     7
 10
137.4999999999999
 20
25.82118345644417
 30
0.0
 11
140.1793283811029
 21
35.82057310488167
 31
0.0
  0
TEXT
  5
9E
  8
DIMNSIONS
 62
     7
 10
132.5305555555555
 20
33.83569456755531
 30
0.0
 40
13.57367621527779
  1
10.3
 50
90.0
 41
0.7
 11
118.9568793402777
 21
33.83569456755531
 31
0.0
 73
     3
  0
LINE
  5
9F
  8
DIMNSIONS
  6
CONTINUOUS
 62
     7
 10
62.50000000000009
 20
-306.5
 30
0.0
 11
62.50000000000009
 21
-232.5
 31
0.0
  0
LINE
  5
A0
  8
DIMNSIONS
  6
CONTINUOUS
 62
     7
 10
137.5000000000001
 20
-306.5
 30
0.0
 11
137.5000000000001
 21
-232.5
 31
0.0
  0
LINE
  5
A1
  8
DIMNSIONS
  6
CONTINUOUS
 62
     7
 10
62.50000000000009
 20
-237.5
 30
0.0
 11
137.5000000000001
 21
-237.5
 31
0.0
  0
LINE
  5
A2
  8
DIMNSIONS
  6
CONTINUOUS
 62
     7
 10
62.50000000000009
 20
-237.5
 30
0.0
 11
72.49938964843759
 21
-234.8206716188971
 31
0.0
  0
LINE
  5
A3
  8
DIMNSIONS
  6
CONTINUOUS
 62
     7
 10
62.50000000000009
 20
-237.5
 30
0.0
 11
72.49938964843759
 21
-240.1793283811029
 31
0.0
  0
LINE
  5
A4
  8
DIMNSIONS
  6
CONTINUOUS
 62
     7
 10
137.5000000000001
 20
-237.5
 30
0.0
 11
127.5006103515626
 21
-240.1793283811029
 31
0.0
  0
LINE
  5
A5
  8
DIMNSIONS
  6
CONTINUOUS
 62
     7
 10
137.5000000000001
 20
-237.5
 30
0.0
 11
127.5006103515626
 21
-234.8206716188971
 31
0.0
  0
TEXT
  5
A6
  8
DIMNSIONS
 62
     7
 10
82.3611111111112
 20
-232.5305555555556
 30
0.0
 40
13.57367621527779
  1
75.0
 41
0.7
 11
82.3611111111112
 21
-218.9568793402778
 31
0.0
 73
     3
  0
LINE
  5
A7
  8
DIMNSIONS
  6
CONTINUOUS
 62
     7
 10
143.5000000000001
 20
-312.5
 30
0.0
 11
280.0
 21
-312.5
 31
0.0
  0
LINE
  5
A8
  8
DIMNSIONS
  6
CONTINUOUS
 62
     7
 10
143.5000000000001
 20
-387.5
 30
0.0
 11
280.0
 21
-387.5
 31
0.0
  0
LINE
  5
A9
  8
DIMNSIONS
  6
CONTINUOUS
 62
     7
 10
275.0
 20
-312.5
 30
0.0
 11
275.0
 21
-387.5
 31
0.0
  0
LINE
  5
AA
  8
DIMNSIONS
  6
CONTINUOUS
 62
     7
 10
275.0
 20
-312.5
 30
0.0
 11
277.6793283811029
 21
-322.4993896484375
 31
0.0
  0
LINE
  5
AB
  8
DIMNSIONS
  6
CONTINUOUS
 62
     7
 10
275.0
 20
-312.5
 30
0.0
 11
272.3206716188971
 21
-322.4993896484375
 31
0.0
  0
LINE
  5
AC
  8
DIMNSIONS
  6
CONTINUOUS
 62
     7
 10
275.0
 20
-387.5
 30
0.0
 11
272.3206716188971
 21
-377.5006103515625
 31
0.0
  0
LINE
  5
AD
  8
DIMNSIONS
  6
CONTINUOUS
 62
     7
 10
275.0
 20
-387.5
 30
0.0
 11
277.6793283811029
 21
-377.5006103515625
 31
0.0
  0
TEXT
  5
AE
  8
DIMNSIONS
 62
     7
 10
270.0305555555555
 20
-367.6388888888889
 30
0.0
 40
13.57367621527779
  1
75.0
 50
90.0
 41
0.7
 11
256.4568793402777
 21
-367.6388888888889
 31
0.0
 73
     3
  0
TEXT
  5
AF
  8
DIMNSIONS
 62
     7
 10
37.5
 20
-506.35
 30
0.0
 40
13.57367621527778
  1
※ センター振り分け
 41
0.7
 11
37.5
 21
-492.7763237847222
 31
0.0
 73
     3
  0
TEXT
  5
B0
  8
DIMNSIONS
 62
     7
 10
67.6388888888888
 20
65.69388888888892
 30
0.0
 40
9.501573350694446
  1
※
 41
0.7
 11
67.6388888888888
 21
75.19546223958336
 31
0.0
 73
     3
  0
TEXT
  5
B1
  8
DIMNSIONS
 62
     7
 10
117.638888888889
 20
-221.8061111111111
 30
0.0
 40
9.501573350694446
  1
※
 41
0.7
 11
117.638888888889
 21
-212.3045377604167
 31
0.0
 73
     3
  0
TEXT
  5
B2
  8
DIMNSIONS
 62
     7
 10
259.3061111111111
 20
-332.3611111111111
 30
0.0
 40
9.501573350694446
  1
※
 50
90.0
 41
0.7
 11
249.8045377604167
 21
-332.3611111111111
 31
0.0
 73
     3
  0
LINE
  5
B3
  8
DIMNSIONS
  6
CONTINUOUS
 62
     7
 10
12.5
 20
21.5279834564441
 30
0.0
 11
12.5
 21
55.00000000000003
 31
0.0
  0
LINE
  5
B4
  8
DIMNSIONS
  6
CONTINUOUS
 62
     7
 10
87.50000000000006
 20
21.52798345644422
 30
0.0
 11
87.50000000000006
 21
55.00000000000003
 31
0.0
  0
LINE
  5
B5
  8
DIMNSIONS
  6
CONTINUOUS
 62
     7
 10
12.5
 20
50.00000000000003
 30
0.0
 11
87.50000000000006
 21
50.00000000000003
 31
0.0
  0
LINE
  5
B6
  8
DIMNSIONS
  6
CONTINUOUS
 62
     7
 10
12.5
 20
50.00000000000003
 30
0.0
 11
22.4993896484375
 21
52.67932838110298
 31
0.0
  0
LINE
  5
B7
  8
DIMNSIONS
  6
CONTINUOUS
 62
     7
 10
12.5
 20
50.00000000000003
 30
0.0
 11
22.4993896484375
 21
47.32067161889707
 31
0.0
  0
LINE
  5
B8
  8
DIMNSIONS
  6
CONTINUOUS
 62
     7
 10
87.50000000000006
 20
50.00000000000003
 30
0.0
 11
77.50061035156256
 21
47.32067161889707
 31
0.0
  0
LINE
  5
B9
  8
DIMNSIONS
  6
CONTINUOUS
 62
     7
 10
87.50000000000006
 20
50.00000000000003
 30
0.0
 11
77.50061035156256
 21
52.67932838110298
 31
0.0
  0
TEXT
  5
BA
  8
DIMNSIONS
 62
     7
 10
32.36111111111114
 20
54.96944444444447
 30
0.0
 40
13.57367621527778
  1
75.0
 41
0.7
 11
32.36111111111114
 21
68.54312065972225
 31
0.0
 73
     3
  0
LINE
  5
BB
  8
DIMNSIONS
  6
CONTINUOUS
 62
     7
 10
-13.50000202655787
 20
-106.0000000000001
 30
0.0
 11
-13.50000202655787
 21
-142.5
 31
0.0
  0
LINE
  5
BC
  8
DIMNSIONS
  6
CONTINUOUS
 62
     7
 10
113.5000020265579
 20
-105.9999999999999
 30
0.0
 11
113.5000020265579
 21
-142.5
 31
0.0
  0
LINE
  5
BD
  8
DIMNSIONS
  6
CONTINUOUS
 62
     7
 10
-13.50000202655787
 20
-137.5
 30
0.0
 11
113.5000020265579
 21
-137.5
 31
0.0
  0
LINE
  5
BE
  8
DIMNSIONS
  6
CONTINUOUS
 62
     7
 10
-13.50000202655787
 20
-137.5
 30
0.0
 11
-3.500612378120366
 21
-134.820671618897
 31
0.0
  0
LINE
  5
BF
  8
DIMNSIONS
  6
CONTINUOUS
 62
     7
 10
-13.50000202655787
 20
-137.5
 30
0.0
 11
-3.500612378120366
 21
-140.1793283811029
 31
0.0
  0
LINE
  5
C0
  8
DIMNSIONS
  6
CONTINUOUS
 62
     7
 10
113.5000020265579
 20
-137.5
 30
0.0
 11
103.5006123781204
 21
-140.1793283811029
 31
0.0
  0
LINE
  5
C1
  8
DIMNSIONS
  6
CONTINUOUS
 62
     7
 10
113.5000020265579
 20
-137.5
 30
0.0
 11
103.5006123781204
 21
-134.820671618897
 31
0.0
  0
TEXT
  5
C2
  8
DIMNSIONS
 62
     7
 10
36.77083333333333
 20
-132.5305555555555
 30
0.0
 40
13.57367621527778
  1
127
 41
0.7
 11
36.77083333333333
 21
-118.9568793402778
 31
0.0
 73
     3
  0
LINE
  5
C3
  8
DIMNSIONS
  6
CONTINUOUS
 62
     7
 10
93.50000000000006
 20
15.52798345644422
 30
0.0
 11
142.5
 21
15.52798345644422
 31
0.0
  0
LINE
  5
C4
  8
DIMNSIONS
  6
CONTINUOUS
 62
     7
 10
93.49999999999994
 20
-59.47201654355587
 30
0.0
 11
142.5
 21
-59.47201654355587
 31
0.0
  0
LINE
  5
C5
  8
DIMNSIONS
  6
CONTINUOUS
 62
     7
 10
137.5
 20
15.52798345644422
 30
0.0
 11
137.5
 21
-59.47201654355587
 31
0.0
  0
LINE
  5
C6
  8
DIMNSIONS
  6
CONTINUOUS
 62
     7
 10
137.5
 20
15.52798345644422
 30
0.0
 11
140.1793283811029
 21
5.528593808006718
 31
0.0
  0
LINE
  5
C7
  8
DIMNSIONS
  6
CONTINUOUS
 62
     7
 10
137.5
 20
15.52798345644422
 30
0.0
 11
134.8206716188971
 21
5.528593808006718
 31
0.0
  0
LINE
  5
C8
  8
DIMNSIONS
  6
CONTINUOUS
 62
     7
 10
137.5
 20
-59.47201654355587
 30
0.0
 11
134.8206716188971
 21
-49.47262689511837
 31
0.0
  0
LINE
  5
C9
  8
DIMNSIONS
  6
CONTINUOUS
 62
     7
 10
137.5
 20
-59.47201654355587
 30
0.0
 11
140.1793283811029
 21
-49.47262689511837
 31
0.0
  0
TEXT
  5
CA
  8
DIMNSIONS
 62
     7
 10
132.5305555555556
 20
-30.13888888888886
 30
0.0
 40
13.57367621527778
  1
75.0
 50
90.0
 41
0.7
 11
118.9568793402778
 21
-30.13888888888886
 31
0.0
 73
     3
  0
LINE
  5
CB
  8
DIMNSIONS
  6
CONTINUOUS
 62
     7
 10
250.0
 20
195.0217257197197
 30
0.0
 11
250.0
 21
145.0000000000001
 31
0.0
  0
LINE
  5
CC
  8
DIMNSIONS
  6
CONTINUOUS
 62
     7
 10
411.895342196658
 20
272.2107675263592
 30
0.0
 11
411.895342196658
 21
145.0000000000001
 31
0.0
  0
LINE
  5
CD
  8
DIMNSIONS
  6
CONTINUOUS
 62
     7
 10
250.0
 20
150.0000000000001
 30
0.0
 11
411.895342196658
 21
150.0000000000001
 31
0.0
  0
LINE
  5
CE
  8
DIMNSIONS
  6
CONTINUOUS
 62
     7
 10
250.0
 20
150.0000000000001
 30
0.0
 11
259.9993896484375
 21
152.679328381103
 31
0.0
  0
LINE
  5
CF
  8
DIMNSIONS
  6
CONTINUOUS
 62
     7
 10
250.0
 20
150.0000000000001
 30
0.0
 11
259.9993896484375
 21
147.3206716188971
 31
0.0
  0
LINE
  5
D0
  8
DIMNSIONS
  6
CONTINUOUS
 62
     7
 10
411.895342196658
 20
150.0000000000001
 30
0.0
 11
401.8959525482205
 21
147.3206716188971
 31
0.0
  0
LINE
  5
D1
  8
DIMNSIONS
  6
CONTINUOUS
 62
     7
 10
411.895342196658
 20
150.0000000000001
 30
0.0
 11
401.8959525482205
 21
152.679328381103
 31
0.0
  0
TEXT
  5
D2
  8
DIMNSIONS
 62
     7
 10
317.7185044316623
 20
154.9694444444445
 30
0.0
 40
13.57367621527779
  1
162
 41
0.7
 11
317.7185044316623
 21
168.5431206597223
 31
0.0
 73
     3
  0
LINE
  5
D3
  8
DIMNSIONS
  6
CONTINUOUS
 62
     7
 10
398.8453421966578
 20
290.4217257197197
 30
0.0
 11
232.5
 21
290.4217257197197
 31
0.0
  0
LINE
  5
D4
  8
DIMNSIONS
  6
CONTINUOUS
 62
     7
 10
275.0878651419007
 20
174.9999999999994
 30
0.0
 11
232.5
 21
174.9999999999994
 31
0.0
  0
LINE
  5
D5
  8
DIMNSIONS
  6
CONTINUOUS
 62
     7
 10
237.5
 20
290.4217257197197
 30
0.0
 11
237.5
 21
174.9999999999994
 31
0.0
  0
LINE
  5
D6
  8
DIMNSIONS
  6
CONTINUOUS
 62
     7
 10
237.5
 20
290.4217257197197
 30
0.0
 11
240.1793283811029
 21
280.4223360712822
 31
0.0
  0
LINE
  5
D7
  8
DIMNSIONS
  6
CONTINUOUS
 62
     7
 10
237.5
 20
290.4217257197197
 30
0.0
 11
234.8206716188971
 21
280.4223360712822
 31
0.0
  0
LINE
  5
D8
  8
DIMNSIONS
  6
CONTINUOUS
 62
     7
 10
237.5
 20
174.9999999999994
 30
0.0
 11
234.8206716188971
 21
184.9993896484369
 31
0.0
  0
LINE
  5
D9
  8
DIMNSIONS
  6
CONTINUOUS
 62
     7
 10
237.5
 20
174.9999999999994
 30
0.0
 11
240.1793283811029
 21
184.9993896484369
 31
0.0
  0
TEXT
  5
DA
  8
DIMNSIONS
 62
     7
 10
232.5305555555556
 20
219.4816961931929
 30
0.0
 40
13.57367621527779
  1
115
 50
90.0
 41
0.7
 11
218.9568793402778
 21
219.4816961931929
 31
0.0
 73
     3
  0
LINE
  5
DB
  8
DIMNSIONS
  6
CONTINUOUS
 62
     7
 10
176.9049967944893
 20
31.82118352337866
 30
0.0
 11
176.9049965028741
 21
58.09526194632849
 31
0.0
  0
LINE
  5
DC
  8
DIMNSIONS
  6
CONTINUOUS
 62
     7
 10
249.7054206887528
 20
19.32476927852866
 30
0.0
 11
259.3372598331783
 21
36.00760404700472
 31
0.0
  0
ARC
  5
DD
  8
DIMNSIONS
  6
CONTINUOUS
 62
     7
 10
176.9049983327005
 20
-106.7692610546295
 30
0.0
 40
159.8645230009581
 50
60.0000000000005
 51
90.0000006359242
  0
LINE
  5
DE
  8
DIMNSIONS
  6
CONTINUOUS
 62
     7
 10
176.9049965583689
 20
53.09526194632849
 30
0.0
 11
186.9043862068064
 21
55.77459032743145
 31
0.0
  0
LINE
  5
DF
  8
DIMNSIONS
  6
CONTINUOUS
 62
     7
 10
176.9049965583689
 20
53.09526194632849
 30
0.0
 11
186.9043862068064
 21
50.41593356522554
 31
0.0
  0
LINE
  5
E0
  8
DIMNSIONS
  6
CONTINUOUS
 62
     7
 10
256.8372598331784
 20
31.67747702808254
 30
0.0
 11
246.8378701847409
 21
34.35680540918549
 31
0.0
  0
LINE
  5
E1
  8
DIMNSIONS
  6
CONTINUOUS
 62
     7
 10
256.8372598331784
 20
31.67747702808254
 30
0.0
 11
249.5171985658438
 21
38.99753829541708
 31
0.0
  0
TEXT
  5
E2
  8
DIMNSIONS
 62
     7
 10
194.0103799785703
 20
59.29604581383994
 30
0.0
 40
13.57367621527779
  1
30.0°
 50
345.0000003179624
 41
0.7
 11
197.523505822379
 21
72.40721024735846
 31
0.0
 73
     3
  0
LINE
  5
E3
  8
DIMNSIONS
  6
CONTINUOUS
 62
     7
 10
205.1999999999998
 20
182.8107675263595
 30
0.0
 11
205.1999999999998
 21
145.0
 31
0.0
  0
LINE
  5
E4
  8
DIMNSIONS
  6
CONTINUOUS
 62
     7
 10
-55.20000000000027
 20
182.8107675263595
 30
0.0
 11
-55.20000000000027
 21
145.0
 31
0.0
  0
LINE
  5
E5
  8
DIMNSIONS
  6
CONTINUOUS
 62
     7
 10
205.1999999999998
 20
150.0
 30
0.0
 11
-55.20000000000027
 21
150.0
 31
0.0
  0
LINE
  5
E6
  8
DIMNSIONS
  6
CONTINUOUS
 62
     7
 10
205.1999999999998
 20
150.0
 30
0.0
 11
195.2006103515623
 21
147.3206716188971
 31
0.0
  0
LINE
  5
E7
  8
DIMNSIONS
  6
CONTINUOUS
 62
     7
 10
205.1999999999998
 20
150.0
 30
0.0
 11
195.2006103515623
 21
152.6793283811029
 31
0.0
  0
LINE
  5
E8
  8
DIMNSIONS
  6
CONTINUOUS
 62
     7
 10
-55.20000000000027
 20
150.0
 30
0.0
 11
-45.20061035156277
 21
152.6793283811029
 31
0.0
  0
LINE
  5
E9
  8
DIMNSIONS
  6
CONTINUOUS
 62
     7
 10
-55.20000000000027
 20
150.0
 30
0.0
 11
-45.20061035156277
 21
147.3206716188971
 31
0.0
  0
TEXT
  5
EA
  8
DIMNSIONS
 62
     7
 10
61.7708333333331
 20
154.9694444444444
 30
0.0
 40
13.57367621527779
  1
260
 41
0.7
 11
61.7708333333331
 21
168.5431206597222
 31
0.0
 73
     3
  0
TEXT
  5
EB
  8
DATA
 62
     7
 10
-439.9999999999999
 20
-596.58347
 30
0.0
 40
9.501573350694446
  1
※仕様及び外観は予告なく変更されることがあります。
 41
0.7
 11
-439.9999999999999
 21
-587.0818966493056
 31
0.0
 73
     3
  0
TEXT
  5
EC
  8
DATA
 62
     7
 10
-439.9999999999999
 20
-608.9306922222222
 30
0.0
 40
9.501573350694446
  1
　また、同一商品でも若干の個体差があることがあります。ご了承ください。
 41
0.7
 11
-439.9999999999999
 21
-599.4291188715277
 31
0.0
 73
     3
  0
TEXT
  5
ED
  8
DATA
 62
     7
 10
249.9999999999999
 20
-544.0604088888888
 30
0.0
 40
12.21630859375
  1
Vaddio
 41
0.7
 11
249.9999999999999
 21
-531.8441002951388
 31
0.0
 73
     3
  0
TEXT
  5
EE
  8
DATA
 62
     7
 10
247.9586128454801
 20
-580.3104088888888
 30
0.0
 40
12.21630859375
  1
CTR-DEV-CNT
 41
0.7
 11
247.9586128454801
 21
-568.0941002951388
 31
0.0
 73
     3
  0
TEXT
  5
EF
  8
DATA
 62
     7
 10
212.5
 20
-562.080183888889
 30
0.0
 40
9.501573350694446
  1
10インチタッチパネルコントローラー
 41
0.7
 11
212.5
 21
-552.5786105381945
 31
0.0
 73
     3
  0
TEXT
  5
F0
  8
DATA
 62
     7
 10
162.4999999999999
 20
-181.35
 30
0.0
 40
13.57367621527779
  1
質量:289g
 41
0.7
 11
162.4999999999999
 21
-167.7763237847222
 31
0.0
 73
     3
  0
LINE
  5
F1
  8
DATA
  6
STYLE_06
 62
     7
 10
196.6816460728804
 20
-30.74755759926705
 30
0.0
 11
430.3835513567153
 21
-165.6754155250122
 31
0.0
  0
TEXT
  5
F2
  8
DATA
 62
     7
 10
-10.81006944444449
 20
-181.7868381076389
 30
0.0
 40
13.57367621527778
  1
テーブルトップマウント
 41
0.7
 72
     1
 11
49.99999999999994
 21
-175.0
 31
0.0
 73
     2
  0
LINE
  5
F3
  8
DATA
  6
CONTINUOUS
 62
     7
 10
-54.7569511731466
 20
-187.5
 30
0.0
 11
154.7569511731465
 21
-187.5
 31
0.0
  0
LINE
  5
F4
  8
DATA
  6
STYLE_06
 62
     7
 10
-25.00000000000006
 20
-37.08940827177796
 30
0.0
 11
187.4999999999999
 21
-37.08940827177796
 31
0.0
  0
ARC
  5
F5
  8
DATA
  6
CONTINUOUS
 62
     7
 10
-372.2000000000002
 20
-268.5999999999999
 30
0.0
 40
7.999999999999886
 50
89.99999999999919
 51
180.0000000000004
  0
LINE
  5
F6
  8
DATA
  6
CONTINUOUS
 62
     7
 10
-380.2
 20
-431.3999999999999
 30
0.0
 11
-380.2
 21
-268.5999999999999
 31
0.0
  0
ARC
  5
F7
  8
DATA
  6
CONTINUOUS
 62
     7
 10
-372.1999999999998
 20
-431.3999999999998
 30
0.0
 40
8.000000000000227
 50
180.0000000000004
 51
269.9999999999984
  0
LINE
  5
F8
  8
DATA
  6
CONTINUOUS
 62
     7
 10
-127.8
 20
-439.4
 30
0.0
 11
-372.2
 21
-439.4
 31
0.0
  0
ARC
  5
F9
  8
DATA
  6
CONTINUOUS
 62
     7
 10
-127.8000000000002
 20
-431.3999999999998
 30
0.0
 40
8.00000000000017
 50
270.0000000000013
 51
359.9999999999991
  0
LINE
  5
FA
  8
DATA
  6
CONTINUOUS
 62
     7
 10
-119.8
 20
-268.5999999999999
 30
0.0
 11
-119.8
 21
-431.3999999999999
 31
0.0
  0
ARC
  5
FB
  8
DATA
  6
CONTINUOUS
 62
     7
 10
-127.7999999999999
 20
-268.5999999999999
 30
0.0
 40
7.999999999999886
 50
359.9999999999996
 51
90.00000000000074
  0
LINE
  5
FC
  8
DATA
  6
CONTINUOUS
 62
     7
 10
-372.2
 20
-260.6
 30
0.0
 11
-127.8
 21
-260.6
 31
0.0
  0
POLYLINE
  5
FD
  8
DATA
  6
CONTINUOUS
 62
     7
 66
     1
 10
0.0
 20
0.0
 30
0.0
 70
     1
  0
VERTEX
  5
337
  8
DATA
  6
CONTINUOUS
 62
     7
 10
-358.5
 20
-282.5
 30
0.0
  0
VERTEX
  5
338
  8
DATA
  6
CONTINUOUS
 62
     7
 10
-141.5
 20
-282.5
 30
0.0
  0
VERTEX
  5
339
  8
DATA
  6
CONTINUOUS
 62
     7
 10
-141.5
 20
-417.5
 30
0.0
  0
VERTEX
  5
33A
  8
DATA
  6
CONTINUOUS
 62
     7
 10
-358.5
 20
-417.5
 30
0.0
  0
SEQEND
  5
388
  8
DATA
  6
CONTINUOUS
 62
     7
  0
LINE
  5
104
  8
DATA
  6
CONTINUOUS
 62
     7
 10
-87.49999999999997
 20
-439.4
 30
0.0
 11
-87.49999999999997
 21
-260.6
 31
0.0
  0
LINE
  5
105
  8
DATA
  6
CONTINUOUS
 62
     7
 10
-73.39999999999998
 20
-439.4
 30
0.0
 11
-87.49999999999997
 21
-439.4
 31
0.0
  0
LINE
  5
106
  8
DATA
  6
CONTINUOUS
 62
     7
 10
-58.89999999999997
 20
-297.0303551247976
 30
0.0
 11
-58.89999999999997
 21
-402.9696448752026
 31
0.0
  0
LINE
  5
107
  8
DATA
  6
CONTINUOUS
 62
     7
 10
-87.49999999999997
 20
-260.6
 30
0.0
 11
-73.39999999999998
 21
-260.6
 31
0.0
  0
LINE
  5
108
  8
DATA
  6
CONTINUOUS
 62
     7
 10
-73.39999999999998
 20
-260.6
 30
0.0
 11
-73.39999999999998
 21
-439.4
 31
0.0
  0
ARC
  5
109
  8
DATA
  6
CONTINUOUS
 62
     7
 10
-195.2119088176353
 20
-331.1643411823647
 30
0.0
 40
140.7745267308581
 50
14.89700870242642
 51
30.08325579049545
  0
ARC
  5
10A
  8
DATA
  6
CONTINUOUS
 62
     7
 10
-195.2119088176353
 20
-368.8356588176354
 30
0.0
 40
140.7745267308581
 50
329.9167442095045
 51
345.1029912975736
  0
ARC
  5
10B
  8
DATA
  6
CONTINUOUS
 62
     7
 10
-66.89999999999989
 20
-297.0303551247976
 30
0.0
 40
7.999999999999922
 50
0.0
 51
14.89700870242672
  0
ARC
  5
10C
  8
DATA
  6
CONTINUOUS
 62
     7
 10
-66.89999999999941
 20
-402.9696448752026
 30
0.0
 40
7.999999999999459
 50
345.1029912975724
 51
0.0
  0
ARC
  5
10D
  8
DATA
  6
CONTINUOUS
 62
     7
 10
-22.20000000000013
 20
-268.5999999999998
 30
0.0
 40
7.999999999999829
 50
89.99999999999875
 51
180.0000000000008
  0
LINE
  5
10E
  8
DATA
  6
CONTINUOUS
 62
     7
 10
-30.19999999999995
 20
-431.3999999999999
 30
0.0
 11
-30.19999999999996
 21
-268.5999999999999
 31
0.0
  0
ARC
  5
10F
  8
DATA
  6
CONTINUOUS
 62
     7
 10
-22.19999999999972
 20
-431.3999999999998
 30
0.0
 40
8.000000000000227
 50
180.0000000000004
 51
269.9999999999985
  0
LINE
  5
110
  8
DATA
  6
CONTINUOUS
 62
     7
 10
222.2
 20
-439.4
 30
0.0
 11
-22.19999999999993
 21
-439.4
 31
0.0
  0
ARC
  5
111
  8
DATA
  6
CONTINUOUS
 62
     7
 10
222.1999999999998
 20
-431.3999999999998
 30
0.0
 40
8.00000000000017
 50
270.0000000000013
 51
359.9999999999991
  0
LINE
  5
112
  8
DATA
  6
CONTINUOUS
 62
     7
 10
230.2
 20
-268.5999999999999
 30
0.0
 11
230.2
 21
-431.3999999999999
 31
0.0
  0
ARC
  5
113
  8
DATA
  6
CONTINUOUS
 62
     7
 10
222.2000000000001
 20
-268.5999999999999
 30
0.0
 40
7.999999999999886
 50
359.9999999999996
 51
90.00000000000085
  0
LINE
  5
114
  8
DATA
  6
CONTINUOUS
 62
     7
 10
-22.19999999999996
 20
-260.6
 30
0.0
 11
222.2
 21
-260.6
 31
0.0
  0
CIRCLE
  5
115
  8
DATA
  6
CONTINUOUS
 62
     7
 10
62.50000000000009
 20
-312.5
 30
0.0
 40
1.5
  0
CIRCLE
  5
116
  8
DATA
  6
CONTINUOUS
 62
     7
 10
137.5000000000001
 20
-312.5
 30
0.0
 40
1.5
  0
CIRCLE
  5
117
  8
DATA
  6
CONTINUOUS
 62
     7
 10
62.50000000000009
 20
-387.5
 30
0.0
 40
1.5
  0
CIRCLE
  5
118
  8
DATA
  6
CONTINUOUS
 62
     7
 10
137.5000000000001
 20
-387.5
 30
0.0
 40
1.5
  0
LINE
  5
119
  8
DATA
  6
CONTINUOUS
 62
     7
 10
17.77141437534411
 20
-311.7
 30
0.0
 11
60.39702591551881
 21
-311.7
 31
0.0
  0
LINE
  5
11A
  8
DATA
  6
CONTINUOUS
 62
     7
 10
64.60297408448136
 20
-311.7
 30
0.0
 11
135.3970259155188
 21
-311.7
 31
0.0
  0
LINE
  5
11B
  8
DATA
  6
CONTINUOUS
 62
     7
 10
139.6029740844814
 20
-311.7
 30
0.0
 11
182.2285856246559
 21
-311.7
 31
0.0
  0
LINE
  5
11C
  8
DATA
  6
CONTINUOUS
 62
     7
 10
17.77141437534408
 20
-313.3
 30
0.0
 11
60.39702591551878
 21
-313.3
 31
0.0
  0
LINE
  5
11D
  8
DATA
  6
CONTINUOUS
 62
     7
 10
64.60297408448133
 20
-313.3
 30
0.0
 11
135.3970259155188
 21
-313.3
 31
0.0
  0
LINE
  5
11E
  8
DATA
  6
CONTINUOUS
 62
     7
 10
139.6029740844814
 20
-313.3
 30
0.0
 11
182.2285856246559
 21
-313.3
 31
0.0
  0
LINE
  5
11F
  8
DATA
  6
CONTINUOUS
 62
     7
 10
16.76447582164637
 20
-321.7
 30
0.0
 11
183.2355241783535
 21
-321.7
 31
0.0
  0
LINE
  5
120
  8
DATA
  6
CONTINUOUS
 62
     7
 10
16.7644758216465
 20
-323.3
 30
0.0
 11
183.2355241783535
 21
-323.3
 31
0.0
  0
LINE
  5
121
  8
DATA
  6
CONTINUOUS
 62
     7
 10
15.90702641372096
 20
-331.7
 30
0.0
 11
184.0929735862796
 21
-331.7
 31
0.0
  0
LINE
  5
122
  8
DATA
  6
CONTINUOUS
 62
     7
 10
15.90702641372094
 20
-333.3
 30
0.0
 11
184.0929735862788
 21
-333.3
 31
0.0
  0
LINE
  5
123
  8
DATA
  6
CONTINUOUS
 62
     7
 10
15.5073023538007
 20
-341.7
 30
0.0
 11
184.4926976461998
 21
-341.7
 31
0.0
  0
LINE
  5
124
  8
DATA
  6
CONTINUOUS
 62
     7
 10
15.50730235380122
 20
-343.3
 30
0.0
 11
184.4926976461988
 21
-343.3
 31
0.0
  0
LINE
  5
125
  8
DATA
  6
CONTINUOUS
 62
     7
 10
-30.19999999999996
 20
-361.7
 30
0.0
 11
230.2
 21
-361.7
 31
0.0
  0
LINE
  5
126
  8
DATA
  6
CONTINUOUS
 62
     7
 10
-30.19999999999996
 20
-363.3
 30
0.0
 11
230.2
 21
-363.3
 31
0.0
  0
LINE
  5
127
  8
DATA
  6
CONTINUOUS
 62
     7
 10
15.4062857440087
 20
-371.7
 30
0.0
 11
184.5937142559922
 21
-371.7
 31
0.0
  0
LINE
  5
128
  8
DATA
  6
CONTINUOUS
 62
     7
 10
15.4062857440087
 20
-373.3
 30
0.0
 11
184.5937142559924
 21
-373.3
 31
0.0
  0
LINE
  5
129
  8
DATA
  6
CONTINUOUS
 62
     7
 10
16.29672535540669
 20
-381.7
 30
0.0
 11
183.7032746445934
 21
-381.7
 31
0.0
  0
LINE
  5
12A
  8
DATA
  6
CONTINUOUS
 62
     7
 10
16.29672535540649
 20
-383.3
 30
0.0
 11
183.7032746445934
 21
-383.3
 31
0.0
  0
LINE
  5
12B
  8
DATA
  6
CONTINUOUS
 62
     7
 10
17.3705734415598
 20
-391.7
 30
0.0
 11
182.6294265584403
 21
-391.7
 31
0.0
  0
LINE
  5
12C
  8
DATA
  6
CONTINUOUS
 62
     7
 10
17.37057344155988
 20
-393.3
 30
0.0
 11
182.6294265584403
 21
-393.3
 31
0.0
  0
LINE
  5
12D
  8
DATA
  6
CONTINUOUS
 62
     7
 10
15.00000000000009
 20
-391.7
 30
0.0
 11
15.00000000000009
 21
-301.0
 31
0.0
  0
LINE
  5
12E
  8
DATA
  6
CONTINUOUS
 62
     7
 10
20.00000000000009
 20
-296.0
 30
0.0
 11
180.0
 21
-296.0
 31
0.0
  0
LINE
  5
12F
  8
DATA
  6
CONTINUOUS
 62
     7
 10
18.46661687937795
 20
-398.9
 30
0.0
 11
181.5333831206221
 21
-398.9
 31
0.0
  0
LINE
  5
130
  8
DATA
  6
CONTINUOUS
 62
     7
 10
15.25423049386742
 20
-351.7
 30
0.0
 11
184.7457695061328
 21
-351.7
 31
0.0
  0
LINE
  5
131
  8
DATA
  6
CONTINUOUS
 62
     7
 10
15.25423049386848
 20
-353.3
 30
0.0
 11
184.7457695061305
 21
-353.3
 31
0.0
  0
LINE
  5
132
  8
DATA
  6
CONTINUOUS
 62
     7
 10
-30.19999999999996
 20
-349.1987772677286
 30
0.0
 11
14.79033774474944
 21
-351.6871809040533
 31
0.0
  0
LINE
  5
133
  8
DATA
  6
CONTINUOUS
 62
     7
 10
-30.19999999999996
 20
-350.8012227322714
 30
0.0
 11
14.70197722110896
 21
-353.284739171492
 31
0.0
  0
LINE
  5
134
  8
DATA
  6
CONTINUOUS
 62
     7
 10
-30.19999999999996
 20
-336.6951202159119
 30
0.0
 11
14.58373234178879
 21
-341.6490729085876
 31
0.0
  0
LINE
  5
135
  8
DATA
  6
CONTINUOUS
 62
     7
 10
-30.19999999999996
 20
-338.3048797840881
 30
0.0
 11
14.40781424426324
 21
-343.2393725102234
 31
0.0
  0
LINE
  5
136
  8
DATA
  6
CONTINUOUS
 62
     7
 10
-30.19999999999996
 20
-375.6968735225548
 30
0.0
 11
14.52477502103768
 21
-371.7389288304275
 31
0.0
  0
LINE
  5
137
  8
DATA
  6
CONTINUOUS
 62
     7
 10
-30.19999999999996
 20
-377.3031264774452
 30
0.0
 11
14.66581673671305
 21
-373.3327002175591
 31
0.0
  0
LINE
  5
138
  8
DATA
  6
CONTINUOUS
 62
     7
 10
-30.19999999999996
 20
-394.6675693928044
 30
0.0
 11
13.53266918560334
 21
-382.089589317299
 31
0.0
  0
LINE
  5
139
  8
DATA
  6
CONTINUOUS
 62
     7
 10
-30.19999999999996
 20
-396.3324306071956
 30
0.0
 11
13.97491817277167
 21
-383.6272550265312
 31
0.0
  0
LINE
  5
13A
  8
DATA
  6
CONTINUOUS
 62
     7
 10
-30.19999999999996
 20
-416.5362142990248
 30
0.0
 11
12.53800799560562
 21
-392.9452120979107
 31
0.0
  0
LINE
  5
13B
  8
DATA
  6
CONTINUOUS
 62
     7
 10
-30.19999999999996
 20
-418.3637857009752
 30
0.0
 11
13.31121846695838
 21
-394.3459781622449
 31
0.0
  0
LINE
  5
13C
  8
DATA
  6
CONTINUOUS
 62
     7
 10
-30.19999999999996
 20
-322.6842954256955
 30
0.0
 11
14.2666615812864
 21
-331.5382767140047
 31
0.0
  0
LINE
  5
13D
  8
DATA
  6
CONTINUOUS
 62
     7
 10
-30.19999999999996
 20
-324.3157045743045
 30
0.0
 11
13.95421113701313
 21
-333.107472278577
 31
0.0
  0
LINE
  5
13E
  8
DATA
  6
CONTINUOUS
 62
     7
 10
13.06474858654283
 20
-322.5904261681492
 30
0.0
 11
-30.19999999999996
 21
-305.3611015097915
 31
0.0
  0
LINE
  5
13F
  8
DATA
  6
CONTINUOUS
 62
     7
 10
13.65670494415929
 20
-321.1039579812453
 30
0.0
 11
-30.19999999999996
 21
-303.6388984902085
 31
0.0
  0
LINE
  5
140
  8
DATA
  6
CONTINUOUS
 62
     7
 10
18.60824200051978
 20
-301.7
 30
0.0
 11
181.3917579994802
 21
-301.7
 31
0.0
  0
LINE
  5
141
  8
DATA
  6
CONTINUOUS
 62
     7
 10
18.60824200051979
 20
-303.3
 30
0.0
 11
181.3917579994802
 21
-303.3
 31
0.0
  0
LINE
  5
142
  8
DATA
  6
CONTINUOUS
 62
     7
 10
-27.16233750412401
 20
-262.3250333470874
 30
0.0
 11
12.89768239657376
 21
-299.4603172815838
 31
0.0
  0
LINE
  5
143
  8
DATA
  6
CONTINUOUS
 62
     7
 10
-28.31329873489863
 20
-263.4398082808981
 30
0.0
 11
11.80995675772691
 21
-300.6337110495045
 31
0.0
  0
LINE
  5
144
  8
DATA
  6
CONTINUOUS
 62
     7
 10
-30.19999999999996
 20
-281.5903157742563
 30
0.0
 11
13.13161386243952
 21
-310.3023032782399
 31
0.0
  0
LINE
  5
145
  8
DATA
  6
CONTINUOUS
 62
     7
 10
-30.19999999999996
 20
-283.5096842257436
 30
0.0
 11
12.24784233617196
 21
-311.6360753312381
 31
0.0
  0
ARC
  5
146
  8
DATA
  6
CONTINUOUS
 62
     7
 10
17.3705734415598
 20
-401.7
 30
0.0
 40
10.0
 50
90.0
 51
118.89830897308
  0
ARC
  5
147
  8
DATA
  6
CONTINUOUS
 62
     7
 10
16.29672535540662
 20
-391.7
 30
0.0
 40
10.0
 50
89.99999999999959
 51
106.0457972809471
  0
ARC
  5
148
  8
DATA
  6
CONTINUOUS
 62
     7
 10
15.40628574400787
 20
-381.7
 30
0.0
 40
10.00000000000006
 50
89.99999999999528
 51
95.05724853255441
  0
ARC
  5
149
  8
DATA
  6
CONTINUOUS
 62
     7
 10
15.25423049386954
 20
-343.3
 30
0.0
 40
10.00000000000006
 50
266.8342112423074
 51
269.9999999999939
  0
ARC
  5
14A
  8
DATA
  6
CONTINUOUS
 62
     7
 10
15.50730235380128
 20
-333.3
 30
0.0
 40
10.0
 50
263.6876352453516
 51
269.9999999999997
  0
ARC
  5
14B
  8
DATA
  6
CONTINUOUS
 62
     7
 10
15.90702641372133
 20
-323.3
 30
0.0
 40
10.00000000000006
 50
258.7388298797476
 51
269.9999999999978
  0
ARC
  5
14C
  8
DATA
  6
CONTINUOUS
 62
     7
 10
16.76447582164654
 20
-313.3
 30
0.0
 40
10.0
 50
248.2860649182234
 51
269.9999999999998
  0
ARC
  5
14D
  8
DATA
  6
CONTINUOUS
 62
     7
 10
17.77141437534416
 20
-303.3
 30
0.0
 40
10.00000000000005
 50
236.4711222213103
 51
269.9999999999995
  0
ARC
  5
14E
  8
DATA
  6
CONTINUOUS
 62
     7
 10
18.60824200051984
 20
-293.3
 30
0.0
 40
10.00000000000005
 50
227.1697552210677
 51
269.9999999999998
  0
ARC
  5
14F
  8
DATA
  6
CONTINUOUS
 62
     7
 10
17.37057344155971
 20
-401.7
 30
0.0
 40
8.400000000000034
 50
89.99999999999885
 51
118.8983089730788
  0
ARC
  5
150
  8
DATA
  6
CONTINUOUS
 62
     7
 10
16.29672535540656
 20
-391.6999999999999
 30
0.0
 40
8.39999999999992
 50
90.00000000000048
 51
106.0457972809482
  0
ARC
  5
151
  8
DATA
  6
CONTINUOUS
 62
     7
 10
15.4062857440077
 20
-381.7
 30
0.0
 40
8.400000000000034
 50
89.99999999999322
 51
95.05724853255231
  0
ARC
  5
152
  8
DATA
  6
CONTINUOUS
 62
     7
 10
15.25423049386727
 20
-343.3
 30
0.0
 40
8.399999999999979
 50
266.8342112423146
 51
270.0000000000011
  0
ARC
  5
153
  8
DATA
  6
CONTINUOUS
 62
     7
 10
15.5073023538002
 20
-333.3
 30
0.0
 40
8.39999999999992
 50
263.6876352453553
 51
270.0000000000034
  0
ARC
  5
154
  8
DATA
  6
CONTINUOUS
 62
     7
 10
15.90702641372046
 20
-323.3
 30
0.0
 40
8.399999999999922
 50
258.7388298797532
 51
270.0000000000034
  0
ARC
  5
155
  8
DATA
  6
CONTINUOUS
 62
     7
 10
16.76447582164654
 20
-313.3
 30
0.0
 40
8.400000000000038
 50
248.2860649182225
 51
269.9999999999989
  0
ARC
  5
156
  8
DATA
  6
CONTINUOUS
 62
     7
 10
17.77141437534424
 20
-303.3
 30
0.0
 40
8.400000000000084
 50
236.4711222213101
 51
269.9999999999991
  0
ARC
  5
157
  8
DATA
  6
CONTINUOUS
 62
     7
 10
18.60824200051981
 20
-293.3
 30
0.0
 40
8.400000000000063
 50
227.1697552210679
 51
269.9999999999998
  0
LINE
  5
158
  8
DATA
  6
CONTINUOUS
 62
     7
 10
185.0
 20
-391.7
 30
0.0
 11
185.0
 21
-301.0
 31
0.0
  0
LINE
  5
159
  8
DATA
  6
CONTINUOUS
 62
     7
 10
230.2
 20
-349.1987772677286
 30
0.0
 11
185.2096622552506
 21
-351.6871809040533
 31
0.0
  0
LINE
  5
15A
  8
DATA
  6
CONTINUOUS
 62
     7
 10
230.2
 20
-350.8012227322714
 30
0.0
 11
185.2980227788911
 21
-353.284739171492
 31
0.0
  0
LINE
  5
15B
  8
DATA
  6
CONTINUOUS
 62
     7
 10
230.2
 20
-336.6951202159119
 30
0.0
 11
185.4162676582113
 21
-341.6490729085876
 31
0.0
  0
LINE
  5
15C
  8
DATA
  6
CONTINUOUS
 62
     7
 10
230.2
 20
-338.3048797840881
 30
0.0
 11
185.5921857557368
 21
-343.2393725102234
 31
0.0
  0
LINE
  5
15D
  8
DATA
  6
CONTINUOUS
 62
     7
 10
230.2
 20
-375.6968735225548
 30
0.0
 11
185.4752249789624
 21
-371.7389288304275
 31
0.0
  0
LINE
  5
15E
  8
DATA
  6
CONTINUOUS
 62
     7
 10
230.2
 20
-377.3031264774452
 30
0.0
 11
185.334183263287
 21
-373.3327002175591
 31
0.0
  0
LINE
  5
15F
  8
DATA
  6
CONTINUOUS
 62
     7
 10
230.2
 20
-394.6675693928044
 30
0.0
 11
186.4673308143967
 21
-382.089589317299
 31
0.0
  0
LINE
  5
160
  8
DATA
  6
CONTINUOUS
 62
     7
 10
230.2
 20
-396.3324306071956
 30
0.0
 11
186.0250818272284
 21
-383.6272550265312
 31
0.0
  0
LINE
  5
161
  8
DATA
  6
CONTINUOUS
 62
     7
 10
230.2
 20
-416.5362142990248
 30
0.0
 11
187.4619920043944
 21
-392.9452120979107
 31
0.0
  0
LINE
  5
162
  8
DATA
  6
CONTINUOUS
 62
     7
 10
230.2
 20
-418.3637857009752
 30
0.0
 11
186.6887815330417
 21
-394.3459781622449
 31
0.0
  0
LINE
  5
163
  8
DATA
  6
CONTINUOUS
 62
     7
 10
230.2
 20
-322.6842954256955
 30
0.0
 11
185.7333384187137
 21
-331.5382767140047
 31
0.0
  0
LINE
  5
164
  8
DATA
  6
CONTINUOUS
 62
     7
 10
230.2
 20
-324.3157045743045
 30
0.0
 11
186.0457888629869
 21
-333.107472278577
 31
0.0
  0
LINE
  5
165
  8
DATA
  6
CONTINUOUS
 62
     7
 10
186.9352514134572
 20
-322.5904261681492
 30
0.0
 11
230.2
 21
-305.3611015097915
 31
0.0
  0
LINE
  5
166
  8
DATA
  6
CONTINUOUS
 62
     7
 10
186.3432950558407
 20
-321.1039579812453
 30
0.0
 11
230.2
 21
-303.6388984902085
 31
0.0
  0
LINE
  5
167
  8
DATA
  6
CONTINUOUS
 62
     7
 10
227.1623375041241
 20
-262.3250333470874
 30
0.0
 11
187.1023176034263
 21
-299.4603172815838
 31
0.0
  0
LINE
  5
168
  8
DATA
  6
CONTINUOUS
 62
     7
 10
228.3132987348987
 20
-263.4398082808981
 30
0.0
 11
188.1900432422732
 21
-300.6337110495045
 31
0.0
  0
LINE
  5
169
  8
DATA
  6
CONTINUOUS
 62
     7
 10
230.2
 20
-281.5903157742563
 30
0.0
 11
186.8683861375605
 21
-310.3023032782399
 31
0.0
  0
LINE
  5
16A
  8
DATA
  6
CONTINUOUS
 62
     7
 10
230.2
 20
-283.5096842257436
 30
0.0
 11
187.7521576638281
 21
-311.6360753312381
 31
0.0
  0
ARC
  5
16B
  8
DATA
  6
CONTINUOUS
 62
     7
 10
182.6294265584403
 20
-401.7
 30
0.0
 40
10.0
 50
61.10169102692
 51
90.0
  0
ARC
  5
16C
  8
DATA
  6
CONTINUOUS
 62
     7
 10
183.7032746445934
 20
-391.7
 30
0.0
 40
9.999999999999998
 50
73.95420271905294
 51
90.00000000000065
  0
ARC
  5
16D
  8
DATA
  6
CONTINUOUS
 62
     7
 10
184.5937142559922
 20
-381.7
 30
0.0
 40
9.999999999999998
 50
84.94275146744567
 51
90.00000000000458
  0
ARC
  5
16E
  8
DATA
  6
CONTINUOUS
 62
     7
 10
184.7457695061305
 20
-343.3
 30
0.0
 40
10.0
 50
270.0000000000059
 51
273.1657887576927
  0
ARC
  5
16F
  8
DATA
  6
CONTINUOUS
 62
     7
 10
184.4926976461988
 20
-333.3
 30
0.0
 40
10.0
 50
270.0000000000003
 51
276.3123647546485
  0
ARC
  5
170
  8
DATA
  6
CONTINUOUS
 62
     7
 10
184.0929735862788
 20
-323.3
 30
0.0
 40
10.0
 50
270.0000000000019
 51
281.2611701202522
  0
ARC
  5
171
  8
DATA
  6
CONTINUOUS
 62
     7
 10
183.2355241783535
 20
-313.3
 30
0.0
 40
10.0
 50
270.0000000000003
 51
291.7139350817765
  0
ARC
  5
172
  8
DATA
  6
CONTINUOUS
 62
     7
 10
182.2285856246559
 20
-303.3
 30
0.0
 40
10.0
 50
270.0000000000003
 51
303.5288777786897
  0
ARC
  5
173
  8
DATA
  6
CONTINUOUS
 62
     7
 10
181.3917579994802
 20
-293.3
 30
0.0
 40
10.0
 50
270.0
 51
312.8302447789324
  0
ARC
  5
174
  8
DATA
  6
CONTINUOUS
 62
     7
 10
182.6294265584403
 20
-401.7
 30
0.0
 40
8.400000000000002
 50
61.101691026921
 51
90.00000000000078
  0
ARC
  5
175
  8
DATA
  6
CONTINUOUS
 62
     7
 10
183.7032746445935
 20
-391.6999999999999
 30
0.0
 40
8.399999999999972
 50
73.954202719052
 51
89.99999999999962
  0
ARC
  5
176
  8
DATA
  6
CONTINUOUS
 62
     7
 10
184.5937142559924
 20
-381.7
 30
0.0
 40
8.399999999999975
 50
84.94275146744792
 51
90.0000000000066
  0
ARC
  5
177
  8
DATA
  6
CONTINUOUS
 62
     7
 10
184.7457695061328
 20
-343.3
 30
0.0
 40
8.399999999999977
 50
269.9999999999989
 51
273.1657887576852
  0
ARC
  5
178
  8
DATA
  6
CONTINUOUS
 62
     7
 10
184.4926976461998
 20
-333.3
 30
0.0
 40
8.399999999999977
 50
269.9999999999965
 51
276.312364754645
  0
ARC
  5
179
  8
DATA
  6
CONTINUOUS
 62
     7
 10
184.0929735862796
 20
-323.3
 30
0.0
 40
8.399999999999977
 50
269.9999999999965
 51
281.2611701202467
  0
ARC
  5
17A
  8
DATA
  6
CONTINUOUS
 62
     7
 10
183.2355241783535
 20
-313.3
 30
0.0
 40
8.399999999999977
 50
270.0000000000013
 51
291.7139350817773
  0
ARC
  5
17B
  8
DATA
  6
CONTINUOUS
 62
     7
 10
182.2285856246558
 20
-303.3
 30
0.0
 40
8.400000000000034
 50
270.0000000000007
 51
303.5288777786898
  0
ARC
  5
17C
  8
DATA
  6
CONTINUOUS
 62
     7
 10
181.3917579994802
 20
-293.3
 30
0.0
 40
8.400000000000034
 50
270.0000000000004
 51
312.8302447789322
  0
CIRCLE
  5
17D
  8
DATA
  6
CONTINUOUS
 62
     7
 10
137.5000000000001
 20
-312.5
 30
0.0
 40
2.25
  0
CIRCLE
  5
17E
  8
DATA
  6
CONTINUOUS
 62
     7
 10
62.50000000000009
 20
-312.5
 30
0.0
 40
2.25
  0
CIRCLE
  5
17F
  8
DATA
  6
CONTINUOUS
 62
     7
 10
62.50000000000009
 20
-387.5
 30
0.0
 40
2.25
  0
CIRCLE
  5
180
  8
DATA
  6
CONTINUOUS
 62
     7
 10
137.5000000000001
 20
-387.5
 30
0.0
 40
2.25
  0
CIRCLE
  5
181
  8
DATA
  6
CONTINUOUS
 62
     7
 10
178.2
 20
-411.4
 30
0.0
 40
3.0
  0
CIRCLE
  5
182
  8
DATA
  6
CONTINUOUS
 62
     7
 10
10.00000000000003
 20
-425.4
 30
0.0
 40
1.5
  0
CIRCLE
  5
183
  8
DATA
  6
CONTINUOUS
 62
     7
 10
10.00000000000003
 20
-425.4
 30
0.0
 40
2.25
  0
CIRCLE
  5
184
  8
DATA
  6
CONTINUOUS
 62
     7
 10
190.0
 20
-425.4
 30
0.0
 40
1.5
  0
CIRCLE
  5
185
  8
DATA
  6
CONTINUOUS
 62
     7
 10
190.0
 20
-425.4
 30
0.0
 40
2.25
  0
LINE
  5
186
  8
DATA
  6
CONTINUOUS
 62
     7
 10
-17.49999999999997
 20
-439.4
 30
0.0
 11
-17.49999999999997
 21
-429.3101186804758
 31
0.0
  0
LINE
  5
187
  8
DATA
  6
CONTINUOUS
 62
     7
 10
19.37744811363496
 20
-399.7
 30
0.0
 11
180.6225518863651
 21
-399.7
 31
0.0
  0
LINE
  5
188
  8
DATA
  6
CONTINUOUS
 62
     7
 10
13.83415681643763
 20
-401.7887464324101
 30
0.0
 11
-27.08897408590512
 21
-437.7322928222995
 31
0.0
  0
LINE
  5
189
  8
DATA
  6
CONTINUOUS
 62
     7
 10
11.86746057319066
 20
-401.3866028957263
 30
0.0
 11
-28.25577171625947
 21
-436.6275834685397
 31
0.0
  0
ARC
  5
18A
  8
DATA
  6
CONTINUOUS
 62
     7
 10
18.46661687937804
 20
-408.8999999999999
 30
0.0
 40
9.999999999999943
 50
90.0000000000005
 51
131.2934386210936
  0
ARC
  5
18B
  8
DATA
  6
CONTINUOUS
 62
     7
 10
19.37744811363493
 20
-408.1
 30
0.0
 40
8.399999999999977
 50
89.99999999999982
 51
131.2934386210928
  0
LINE
  5
18C
  8
DATA
  6
CONTINUOUS
 62
     7
 10
217.5
 20
-439.4
 30
0.0
 11
217.5
 21
-429.3101186804758
 31
0.0
  0
LINE
  5
18D
  8
DATA
  6
CONTINUOUS
 62
     7
 10
186.1658431835624
 20
-401.7887464324101
 30
0.0
 11
227.0889740859052
 21
-437.7322928222995
 31
0.0
  0
LINE
  5
18E
  8
DATA
  6
CONTINUOUS
 62
     7
 10
188.1325394268094
 20
-401.3866028957263
 30
0.0
 11
228.2557717162596
 21
-436.6275834685397
 31
0.0
  0
ARC
  5
18F
  8
DATA
  6
CONTINUOUS
 62
     7
 10
181.5333831206221
 20
-408.8999999999999
 30
0.0
 40
9.999999999999979
 50
48.7065613789065
 51
89.99999999999969
  0
ARC
  5
190
  8
DATA
  6
CONTINUOUS
 62
     7
 10
180.6225518863652
 20
-408.1
 30
0.0
 40
8.399999999999947
 50
48.70656137890752
 51
90.0000000000004
  0
CIRCLE
  5
191
  8
DATA
  6
CONTINUOUS
 62
     7
 10
10.00000000000003
 20
-425.4
 30
0.0
 40
3.5
  0
CIRCLE
  5
192
  8
DATA
  6
CONTINUOUS
 62
     7
 10
190.0
 20
-425.4
 30
0.0
 40
3.5
  0
ARC
  5
193
  8
DATA
  6
CONTINUOUS
 62
     7
 10
20.00000000000009
 20
-301.0
 30
0.0
 40
5.0
 50
90.0
 51
180.0
  0
ARC
  5
194
  8
DATA
  6
CONTINUOUS
 62
     7
 10
180.0
 20
-301.0
 30
0.0
 40
5.0
 50
0.0
 51
90.0
  0
ARC
  5
195
  8
DATA
  6
CONTINUOUS
 62
     7
 10
23.00000000000009
 20
-391.7
 30
0.0
 40
8.0
 50
180.0
 51
270.0
  0
ARC
  5
196
  8
DATA
  6
CONTINUOUS
 62
     7
 10
177.0
 20
-391.7
 30
0.0
 40
8.0
 50
270.0
 51
0.0
  0
CIRCLE
  5
197
  8
DATA
  6
CONTINUOUS
 62
     7
 10
178.2
 20
-411.4
 30
0.0
 40
4.0
  0
CIRCLE
  5
198
  8
DATA
  6
CONTINUOUS
 62
     7
 10
178.2
 20
-411.4
 30
0.0
 40
5.5
  0
POLYLINE
  5
199
  8
DATA
  6
CONTINUOUS
 62
     7
 66
     1
 10
0.0
 20
0.0
 30
0.0
 70
     1
  0
VERTEX
  5
33B
  8
DATA
  6
CONTINUOUS
 62
     7
 10
-380.2
 20
-223.4
 30
0.0
  0
VERTEX
  5
33C
  8
DATA
  6
CONTINUOUS
 62
     7
 10
-119.8000000000001
 20
-223.4
 30
0.0
  0
VERTEX
  5
33D
  8
DATA
  6
CONTINUOUS
 62
     7
 10
-119.8000000000001
 20
-237.5
 30
0.0
  0
VERTEX
  5
33E
  8
DATA
  6
CONTINUOUS
 62
     7
 10
-380.2
 20
-237.5
 30
0.0
  0
SEQEND
  5
389
  8
DATA
  6
CONTINUOUS
 62
     7
  0
LINE
  5
1A0
  8
DATA
  6
CONTINUOUS
 62
     7
 10
-166.2517693128029
 20
-208.9
 30
0.0
 11
-333.7482306871971
 21
-208.9
 31
0.0
  0
LINE
  5
1A1
  8
DATA
  6
CONTINUOUS
 62
     7
 10
-380.2
 20
-223.4
 30
0.0
 11
-336.1919394410711
 21
-209.2823699534409
 31
0.0
  0
LINE
  5
1A2
  8
DATA
  6
CONTINUOUS
 62
     7
 10
-163.8080605589289
 20
-209.2823699534409
 30
0.0
 11
-119.8000000000001
 21
-223.4
 31
0.0
  0
ARC
  5
1A3
  8
DATA
  6
CONTINUOUS
 62
     7
 10
-166.251769312803
 20
-216.9
 30
0.0
 40
7.999999999999999
 50
72.21394298762817
 51
89.99999999999962
  0
ARC
  5
1A4
  8
DATA
  6
CONTINUOUS
 62
     7
 10
-333.748230687197
 20
-216.9
 30
0.0
 40
8.0
 50
90.00000000000082
 51
107.7860570123722
  0
POLYLINE
  5
1A5
  8
DATA
  6
CONTINUOUS
 62
     7
 66
     1
 10
0.0
 20
0.0
 30
0.0
 70
     1
  0
VERTEX
  5
33F
  8
DATA
  6
CONTINUOUS
 62
     7
 10
-380.2
 20
-500.0
 30
0.0
  0
VERTEX
  5
340
  8
DATA
  6
CONTINUOUS
 62
     7
 10
-119.8000000000001
 20
-500.0
 30
0.0
  0
VERTEX
  5
341
  8
DATA
  6
CONTINUOUS
 62
     7
 10
-119.8000000000001
 20
-514.1
 30
0.0
  0
VERTEX
  5
342
  8
DATA
  6
CONTINUOUS
 62
     7
 10
-380.2
 20
-514.1
 30
0.0
  0
SEQEND
  5
38A
  8
DATA
  6
CONTINUOUS
 62
     7
  0
LINE
  5
1AC
  8
DATA
  6
CONTINUOUS
 62
     7
 10
-166.2517693128029
 20
-528.6
 30
0.0
 11
-333.7482306871971
 21
-528.6
 31
0.0
  0
LINE
  5
1AD
  8
DATA
  6
CONTINUOUS
 62
     7
 10
-380.2
 20
-514.1
 30
0.0
 11
-336.1919394410711
 21
-528.2176300465591
 31
0.0
  0
LINE
  5
1AE
  8
DATA
  6
CONTINUOUS
 62
     7
 10
-163.8080605589289
 20
-528.2176300465591
 30
0.0
 11
-119.8000000000001
 21
-514.1
 31
0.0
  0
ARC
  5
1AF
  8
DATA
  6
CONTINUOUS
 62
     7
 10
-166.251769312803
 20
-520.6
 30
0.0
 40
8.0
 50
270.0000000000004
 51
287.7860570123718
  0
ARC
  5
1B0
  8
DATA
  6
CONTINUOUS
 62
     7
 10
-333.748230687197
 20
-520.6
 30
0.0
 40
8.000000000000016
 50
252.2139429876278
 51
269.9999999999992
  0
LINE
  5
1B1
  8
DATA
  6
CONTINUOUS
 62
     7
 10
-322.5
 20
-526.6
 30
0.0
 11
-322.5
 21
-514.1
 31
0.0
  0
LINE
  5
1B2
  8
DATA
  6
CONTINUOUS
 62
     7
 10
-177.5
 20
-514.1
 30
0.0
 11
-177.5
 21
-526.6
 31
0.0
  0
LINE
  5
1B3
  8
DATA
  6
CONTINUOUS
 62
     7
 10
-322.5
 20
-526.6
 30
0.0
 11
-177.5
 21
-526.6
 31
0.0
  0
POLYLINE
  5
1B4
  8
DATA
  6
CONTINUOUS
 62
     7
 66
     1
 10
0.0
 20
0.0
 30
0.0
 70
     1
  0
VERTEX
  5
343
  8
DATA
  6
CONTINUOUS
 62
     7
 10
-215.5
 20
-517.6
 30
0.0
  0
VERTEX
  5
344
  8
DATA
  6
CONTINUOUS
 62
     7
 10
-190.5
 20
-517.6
 30
0.0
  0
VERTEX
  5
345
  8
DATA
  6
CONTINUOUS
 62
     7
 10
-190.5
 20
-520.6
 30
0.0
  0
VERTEX
  5
346
  8
DATA
  6
CONTINUOUS
 62
     7
 10
-215.5
 20
-520.6
 30
0.0
  0
SEQEND
  5
38B
  8
DATA
  6
CONTINUOUS
 62
     7
  0
CIRCLE
  5
1BB
  8
DATA
  6
CONTINUOUS
 62
     7
 10
-222.5
 20
-519.6
 30
0.0
 40
1.5
  0
POLYLINE
  5
1BC
  8
DATA
  6
CONTINUOUS
 62
     7
 66
     1
 10
0.0
 20
0.0
 30
0.0
 70
     1
  0
VERTEX
  5
347
  8
DATA
  6
CONTINUOUS
 62
     7
 10
-243.0
 20
-521.6
 30
0.0
  0
VERTEX
  5
348
  8
DATA
  6
CONTINUOUS
 62
     7
 10
-232.0
 20
-521.6
 30
0.0
  0
VERTEX
  5
349
  8
DATA
  6
CONTINUOUS
 62
     7
 10
-232.0
 20
-523.6
 30
0.0
  0
VERTEX
  5
34A
  8
DATA
  6
CONTINUOUS
 62
     7
 10
-243.0
 20
-523.6
 30
0.0
  0
SEQEND
  5
38C
  8
DATA
  6
CONTINUOUS
 62
     7
  0
POLYLINE
  5
1C3
  8
DATA
  6
CONTINUOUS
 62
     7
 66
     1
 10
0.0
 20
0.0
 30
0.0
 70
     1
  0
VERTEX
  5
34B
  8
DATA
  6
CONTINUOUS
 62
     7
 10
-244.25
 20
-518.6
 30
0.0
  0
VERTEX
  5
34C
  8
DATA
  6
CONTINUOUS
 62
     7
 10
-230.75
 20
-518.6
 30
0.0
  0
VERTEX
  5
34D
  8
DATA
  6
CONTINUOUS
 62
     7
 10
-230.75
 20
-524.6
 30
0.0
  0
VERTEX
  5
34E
  8
DATA
  6
CONTINUOUS
 62
     7
 10
-244.25
 20
-524.6
 30
0.0
  0
SEQEND
  5
38D
  8
DATA
  6
CONTINUOUS
 62
     7
  0
LINE
  5
1CA
  8
DATA
  6
CONTINUOUS
 62
     7
 10
-254.235
 20
-517.6
 30
0.0
 11
-248.765
 21
-517.6
 31
0.0
  0
LINE
  5
1CB
  8
DATA
  6
CONTINUOUS
 62
     7
 10
-255.35
 20
-521.0
 30
0.0
 11
-255.35
 21
-519.8000000000001
 31
0.0
  0
LINE
  5
1CC
  8
DATA
  6
CONTINUOUS
 62
     7
 10
-248.25
 20
-521.6
 30
0.0
 11
-254.75
 21
-521.6
 31
0.0
  0
LINE
  5
1CD
  8
DATA
  6
CONTINUOUS
 62
     7
 10
-247.65
 20
-519.8000000000001
 30
0.0
 11
-247.65
 21
-521.0
 31
0.0
  0
LINE
  5
1CE
  8
DATA
  6
CONTINUOUS
 62
     7
 10
-248.05
 20
-519.8575000000001
 30
0.0
 11
-248.05
 21
-521.0
 31
0.0
  0
LINE
  5
1CF
  8
DATA
  6
CONTINUOUS
 62
     7
 10
-248.565
 20
-518.2
 30
0.0
 11
-248.565
 21
-519.3425
 31
0.0
  0
LINE
  5
1D0
  8
DATA
  6
CONTINUOUS
 62
     7
 10
-248.165
 20
-519.2850000000001
 30
0.0
 11
-248.165
 21
-518.2
 31
0.0
  0
LINE
  5
1D1
  8
DATA
  6
CONTINUOUS
 62
     7
 10
-248.05
 20
-519.8575000000001
 30
0.0
 11
-248.565
 21
-519.3425
 31
0.0
  0
LINE
  5
1D2
  8
DATA
  6
CONTINUOUS
 62
     7
 10
-247.65
 20
-519.8000000000001
 30
0.0
 11
-248.165
 21
-519.2850000000001
 31
0.0
  0
LINE
  5
1D3
  8
DATA
  6
CONTINUOUS
 62
     7
 10
-254.235
 20
-518.0
 30
0.0
 11
-248.765
 21
-518.0
 31
0.0
  0
LINE
  5
1D4
  8
DATA
  6
CONTINUOUS
 62
     7
 10
-254.75
 20
-521.2
 30
0.0
 11
-248.25
 21
-521.2
 31
0.0
  0
LINE
  5
1D5
  8
DATA
  6
CONTINUOUS
 62
     7
 10
-254.95
 20
-519.8575000000001
 30
0.0
 11
-254.95
 21
-521.0
 31
0.0
  0
LINE
  5
1D6
  8
DATA
  6
CONTINUOUS
 62
     7
 10
-254.435
 20
-518.2
 30
0.0
 11
-254.435
 21
-519.3425
 31
0.0
  0
LINE
  5
1D7
  8
DATA
  6
CONTINUOUS
 62
     7
 10
-254.835
 20
-519.2850000000001
 30
0.0
 11
-254.835
 21
-518.2
 31
0.0
  0
LINE
  5
1D8
  8
DATA
  6
CONTINUOUS
 62
     7
 10
-254.95
 20
-519.8575000000001
 30
0.0
 11
-254.435
 21
-519.3425
 31
0.0
  0
LINE
  5
1D9
  8
DATA
  6
CONTINUOUS
 62
     7
 10
-255.35
 20
-519.8000000000001
 30
0.0
 11
-254.835
 21
-519.2850000000001
 31
0.0
  0
POLYLINE
  5
1DA
  8
DATA
  6
CONTINUOUS
 62
     7
 66
     1
 10
0.0
 20
0.0
 30
0.0
 70
     1
  0
VERTEX
  5
34F
  8
DATA
  6
CONTINUOUS
 62
     7
 10
-254.0
 20
-519.1
 30
0.0
  0
VERTEX
  5
350
  8
DATA
  6
CONTINUOUS
 62
     7
 10
-249.0
 20
-519.1
 30
0.0
  0
VERTEX
  5
351
  8
DATA
  6
CONTINUOUS
 62
     7
 10
-249.0
 20
-520.1
 30
0.0
  0
VERTEX
  5
352
  8
DATA
  6
CONTINUOUS
 62
     7
 10
-254.0
 20
-520.1
 30
0.0
  0
SEQEND
  5
38E
  8
DATA
  6
CONTINUOUS
 62
     7
  0
ARC
  5
1E1
  8
DATA
  6
CONTINUOUS
 62
     7
 10
-254.7500000000001
 20
-521.0
 30
0.0
 40
0.5999999999999659
 50
180.0
 51
270.0000000000028
  0
ARC
  5
1E2
  8
DATA
  6
CONTINUOUS
 62
     7
 10
-254.235
 20
-518.2
 30
0.0
 40
0.6000000000000227
 50
90.0
 51
180.0
  0
ARC
  5
1E3
  8
DATA
  6
CONTINUOUS
 62
     7
 10
-248.765
 20
-518.2
 30
0.0
 40
0.5999999999999659
 50
0.0
 51
90.00000000000274
  0
ARC
  5
1E4
  8
DATA
  6
CONTINUOUS
 62
     7
 10
-248.25
 20
-521.0
 30
0.0
 40
0.6000000000000227
 50
270.0
 51
0.0
  0
ARC
  5
1E5
  8
DATA
  6
CONTINUOUS
 62
     7
 10
-254.75
 20
-521.0
 30
0.0
 40
0.1999999999999886
 50
180.0
 51
270.0
  0
ARC
  5
1E6
  8
DATA
  6
CONTINUOUS
 62
     7
 10
-254.235
 20
-518.2
 30
0.0
 40
0.2000000000000455
 50
90.0
 51
180.0
  0
ARC
  5
1E7
  8
DATA
  6
CONTINUOUS
 62
     7
 10
-248.765
 20
-518.2
 30
0.0
 40
0.1999999999999886
 50
0.0
 51
90.0
  0
ARC
  5
1E8
  8
DATA
  6
CONTINUOUS
 62
     7
 10
-248.25
 20
-521.0
 30
0.0
 40
0.2000000000000455
 50
270.0
 51
0.0
  0
POLYLINE
  5
1E9
  8
DATA
  6
CONTINUOUS
 62
     7
 66
     1
 10
0.0
 20
0.0
 30
0.0
 70
     1
  0
VERTEX
  5
353
  8
DATA
  6
CONTINUOUS
 62
     7
 10
-297.0
 20
-519.6
 30
0.0
  0
VERTEX
  5
354
  8
DATA
  6
CONTINUOUS
 62
     7
 10
-286.0
 20
-519.6
 30
0.0
  0
VERTEX
  5
355
  8
DATA
  6
CONTINUOUS
 62
     7
 10
-286.0
 20
-521.6
 30
0.0
  0
VERTEX
  5
356
  8
DATA
  6
CONTINUOUS
 62
     7
 10
-297.0
 20
-521.6
 30
0.0
  0
SEQEND
  5
38F
  8
DATA
  6
CONTINUOUS
 62
     7
  0
POLYLINE
  5
1F0
  8
DATA
  6
CONTINUOUS
 62
     7
 66
     1
 10
0.0
 20
0.0
 30
0.0
 70
     1
  0
VERTEX
  5
357
  8
DATA
  6
CONTINUOUS
 62
     7
 10
-298.25
 20
-518.6
 30
0.0
  0
VERTEX
  5
358
  8
DATA
  6
CONTINUOUS
 62
     7
 10
-284.75
 20
-518.6
 30
0.0
  0
VERTEX
  5
359
  8
DATA
  6
CONTINUOUS
 62
     7
 10
-284.75
 20
-524.6
 30
0.0
  0
VERTEX
  5
35A
  8
DATA
  6
CONTINUOUS
 62
     7
 10
-298.25
 20
-524.6
 30
0.0
  0
SEQEND
  5
390
  8
DATA
  6
CONTINUOUS
 62
     7
  0
POLYLINE
  5
1F7
  8
DATA
  6
CONTINUOUS
 62
     7
 66
     1
 10
0.0
 20
0.0
 30
0.0
 70
     1
  0
VERTEX
  5
35B
  8
DATA
  6
CONTINUOUS
 62
     7
 10
-266.75
 20
-517.6
 30
0.0
  0
VERTEX
  5
35C
  8
DATA
  6
CONTINUOUS
 62
     7
 10
-258.25
 20
-517.6
 30
0.0
  0
VERTEX
  5
35D
  8
DATA
  6
CONTINUOUS
 62
     7
 10
-258.25
 20
-523.6
 30
0.0
  0
VERTEX
  5
35E
  8
DATA
  6
CONTINUOUS
 62
     7
 10
-266.75
 20
-523.6
 30
0.0
  0
SEQEND
  5
391
  8
DATA
  6
CONTINUOUS
 62
     7
  0
CIRCLE
  5
1FE
  8
DATA
  6
CONTINUOUS
 62
     7
 10
-263.75
 20
-520.6
 30
0.0
 40
2.0
  0
CIRCLE
  5
1FF
  8
DATA
  6
CONTINUOUS
 62
     7
 10
-263.75
 20
-520.6
 30
0.0
 40
0.5
  0
CIRCLE
  5
200
  8
DATA
  6
CONTINUOUS
 62
     7
 10
-270.5
 20
-518.6
 30
0.0
 40
0.750000000000041
  0
POLYLINE
  5
201
  8
DATA
  6
CONTINUOUS
 62
     7
 66
     1
 10
0.0
 20
0.0
 30
0.0
 70
     1
  0
VERTEX
  5
35F
  8
DATA
  6
CONTINUOUS
 62
     7
 10
-316.25
 20
-514.6
 30
0.0
  0
VERTEX
  5
360
  8
DATA
  6
CONTINUOUS
 62
     7
 10
-300.75
 20
-514.6
 30
0.0
  0
VERTEX
  5
361
  8
DATA
  6
CONTINUOUS
 62
     7
 10
-300.75
 20
-526.1
 30
0.0
  0
VERTEX
  5
362
  8
DATA
  6
CONTINUOUS
 62
     7
 10
-316.25
 20
-526.1
 30
0.0
  0
SEQEND
  5
392
  8
DATA
  6
CONTINUOUS
 62
     7
  0
LINE
  5
208
  8
DATA
  6
CONTINUOUS
 62
     7
 10
-305.25
 20
-524.6
 30
0.0
 11
-305.25
 21
-523.6
 31
0.0
  0
LINE
  5
209
  8
DATA
  6
CONTINUOUS
 62
     7
 10
-305.25
 20
-523.6
 30
0.0
 11
-302.25
 21
-523.6
 31
0.0
  0
LINE
  5
20A
  8
DATA
  6
CONTINUOUS
 62
     7
 10
-302.25
 20
-523.6
 30
0.0
 11
-302.25
 21
-516.1
 31
0.0
  0
LINE
  5
20B
  8
DATA
  6
CONTINUOUS
 62
     7
 10
-311.75
 20
-524.6
 30
0.0
 11
-311.75
 21
-523.6
 31
0.0
  0
LINE
  5
20C
  8
DATA
  6
CONTINUOUS
 62
     7
 10
-311.75
 20
-523.6
 30
0.0
 11
-314.75
 21
-523.6
 31
0.0
  0
LINE
  5
20D
  8
DATA
  6
CONTINUOUS
 62
     7
 10
-314.75
 20
-523.6
 30
0.0
 11
-314.75
 21
-516.1
 31
0.0
  0
LINE
  5
20E
  8
DATA
  6
CONTINUOUS
 62
     7
 10
-302.25
 20
-516.1
 30
0.0
 11
-314.75
 21
-516.1
 31
0.0
  0
LINE
  5
20F
  8
DATA
  6
CONTINUOUS
 62
     7
 10
-311.75
 20
-524.6
 30
0.0
 11
-310.75
 21
-524.6
 31
0.0
  0
LINE
  5
210
  8
DATA
  6
CONTINUOUS
 62
     7
 10
-305.25
 20
-524.6
 30
0.0
 11
-306.25
 21
-524.6
 31
0.0
  0
LINE
  5
211
  8
DATA
  6
CONTINUOUS
 62
     7
 10
-306.25
 20
-524.6
 30
0.0
 11
-306.25
 21
-525.6
 31
0.0
  0
LINE
  5
212
  8
DATA
  6
CONTINUOUS
 62
     7
 10
-310.75
 20
-524.6
 30
0.0
 11
-310.75
 21
-525.6
 31
0.0
  0
LINE
  5
213
  8
DATA
  6
CONTINUOUS
 62
     7
 10
-310.75
 20
-525.6
 30
0.0
 11
-306.25
 21
-525.6
 31
0.0
  0
LINE
  5
214
  8
DATA
  6
CONTINUOUS
 62
     7
 10
-333.7
 20
-514.1
 30
0.0
 11
-333.7
 21
-519.9000000000001
 31
0.0
  0
LINE
  5
215
  8
DATA
  6
CONTINUOUS
 62
     7
 10
-322.7
 20
-519.9000000000001
 30
0.0
 11
-333.7
 21
-519.9000000000001
 31
0.0
  0
LINE
  5
216
  8
DATA
  6
CONTINUOUS
 62
     7
 10
-322.7
 20
-514.1
 30
0.0
 11
-322.7
 21
-519.9000000000001
 31
0.0
  0
LINE
  5
217
  8
DATA
  6
CONTINUOUS
 62
     7
 10
-156.5000000000001
 20
-515.3000000000001
 30
0.0
 11
-156.5000000000001
 21
-514.1
 31
0.0
  0
LINE
  5
218
  8
DATA
  6
CONTINUOUS
 62
     7
 10
-163.5000000000001
 20
-515.3
 30
0.0
 11
-163.5000000000001
 21
-514.1
 31
0.0
  0
LINE
  5
219
  8
DATA
  6
CONTINUOUS
 62
     7
 10
-163.5000000000001
 20
-515.3
 30
0.0
 11
-156.5000000000001
 21
-515.3
 31
0.0
  0
LINE
  5
21A
  8
DATA
  6
CONTINUOUS
 62
     7
 10
-336.5
 20
-515.3000000000001
 30
0.0
 11
-336.5
 21
-514.1
 31
0.0
  0
LINE
  5
21B
  8
DATA
  6
CONTINUOUS
 62
     7
 10
-343.5
 20
-515.3
 30
0.0
 11
-343.5
 21
-514.1
 31
0.0
  0
LINE
  5
21C
  8
DATA
  6
CONTINUOUS
 62
     7
 10
-343.5
 20
-515.3
 30
0.0
 11
-336.5
 21
-515.3
 31
0.0
  0
LINE
  5
21D
  8
DATA
  6
CONTINUOUS
 62
     7
 10
-13.50000202655787
 20
-100.0000000000001
 30
0.0
 11
113.5000020265579
 21
-99.99999999999994
 31
0.0
  0
CIRCLE
  5
21E
  8
DATA
  6
CONTINUOUS
 62
     7
 10
87.50000000000006
 20
15.52798345644422
 30
0.0
 40
2.381249999999945
  0
CIRCLE
  5
21F
  8
DATA
  6
CONTINUOUS
 62
     7
 10
12.5
 20
15.5279834564441
 30
0.0
 40
2.381250000000128
  0
ARC
  5
220
  8
DATA
  6
CONTINUOUS
 62
     7
 10
-7.150000000000091
 20
19.47118345644415
 30
0.0
 40
6.350000000000023
 50
90.0
 51
180.0
  0
LINE
  5
221
  8
DATA
  6
CONTINUOUS
 62
     7
 10
18.24999898672093
 20
25.82118462097154
 30
0.0
 11
-7.149998843669891
 21
25.82118462097154
 31
0.0
  0
ARC
  5
222
  8
DATA
  6
CONTINUOUS
 62
     7
 10
18.24999999999994
 20
19.47118345644415
 30
0.0
 40
6.349999999999966
 50
0.0000000000010232
 51
90.0
  0
LINE
  5
223
  8
DATA
  6
CONTINUOUS
 62
     7
 10
24.60000030696386
 20
19.47118266751252
 30
0.0
 11
24.60000030696386
 21
-83.3988138239605
 31
0.0
  0
ARC
  5
224
  8
DATA
  6
CONTINUOUS
 62
     7
 10
30.94999999999999
 20
-83.39881654355588
 30
0.0
 40
6.350000000000023
 50
180.0
 51
270.000000000001
  0
LINE
  5
225
  8
DATA
  6
CONTINUOUS
 62
     7
 10
30.9499997645616
 20
-89.74881137035379
 30
0.0
 11
69.05000023543829
 21
-89.74881137035368
 31
0.0
  0
ARC
  5
226
  8
DATA
  6
CONTINUOUS
 62
     7
 10
69.05000000000001
 20
-83.39881654355582
 30
0.0
 40
6.350000000000023
 50
270.0
 51
0.0000000000005116
  0
LINE
  5
227
  8
DATA
  6
CONTINUOUS
 62
     7
 10
75.39999969303614
 20
-83.39881382396032
 30
0.0
 11
75.39999969303602
 21
19.47118266751252
 31
0.0
  0
ARC
  5
228
  8
DATA
  6
CONTINUOUS
 62
     7
 10
81.75
 20
19.47118345644427
 30
0.0
 40
6.350000000000023
 50
90.00000000000053
 51
180.0
  0
LINE
  5
229
  8
DATA
  6
CONTINUOUS
 62
     7
 10
107.1499988436698
 20
25.82118462097154
 30
0.0
 11
81.7500010132789
 21
25.82118462097154
 31
0.0
  0
ARC
  5
22A
  8
DATA
  6
CONTINUOUS
 62
     7
 10
107.1500000000001
 20
19.47118345644427
 30
0.0
 40
6.35000000000008
 50
0.0000000000010232
 51
90.00000000000104
  0
LINE
  5
22B
  8
DATA
  6
CONTINUOUS
 62
     7
 10
113.5000020265579
 20
19.47118266751252
 30
0.0
 11
113.5000020265579
 21
-99.99999999999994
 31
0.0
  0
LINE
  5
22C
  8
DATA
  6
CONTINUOUS
 62
     7
 10
-13.50000202655787
 20
-94.91999769944988
 30
0.0
 11
113.5000020265579
 21
-94.91999769945
 31
0.0
  0
LINE
  5
22D
  8
DATA
  6
CONTINUOUS
 62
     7
 10
-13.50000202655804
 20
19.47118266751241
 30
0.0
 11
-13.50000202655787
 21
-100.0000000000001
 31
0.0
  0
CIRCLE
  5
22E
  8
DATA
  6
CONTINUOUS
 62
     7
 10
12.49999999999994
 20
-59.47201654355581
 30
0.0
 40
2.381249999999924
  0
CIRCLE
  5
22F
  8
DATA
  6
CONTINUOUS
 62
     7
 10
87.49999999999994
 20
-59.47201654355587
 30
0.0
 40
2.381249999999924
  0
LINE
  5
230
  8
DATA
  6
CONTINUOUS
 62
     7
 10
11.89999952912319
 20
14.12861685582098
 30
0.0
 11
10.57331189513195
 21
14.12861685582098
 31
0.0
  0
POLYLINE
  5
231
  8
DATA
  6
CONTINUOUS
 62
     7
 66
     1
 10
0.0
 20
0.0
 30
0.0
  0
VERTEX
  5
363
  8
DATA
  6
CONTINUOUS
 62
     7
 10
14.11910280585283
 20
13.78188531848301
 30
0.0
  0
VERTEX
  5
364
  8
DATA
  6
CONTINUOUS
 62
     7
 10
13.13882246613497
 20
14.02295008884235
 30
0.0
  0
VERTEX
  5
365
  8
DATA
  6
CONTINUOUS
 62
     7
 10
11.89999952912319
 20
14.12861685582098
 30
0.0
  0
SEQEND
  5
393
  8
DATA
  6
CONTINUOUS
 62
     7
  0
ARC
  5
237
  8
DATA
  6
CONTINUOUS
 62
     7
 10
15.34304821041042
 20
-59.00351255129232
 30
0.0
 40
3.999212884721576
 50
153.2760014887998
 51
225.4392192280521
  0
POLYLINE
  5
238
  8
DATA
  6
CONTINUOUS
 62
     7
 66
     1
 10
0.0
 20
0.0
 30
0.0
  0
VERTEX
  5
366
  8
DATA
  6
CONTINUOUS
 62
     7
 10
24.60000030696392
 20
-77.18111904266442
 30
0.0
  0
VERTEX
  5
367
  8
DATA
  6
CONTINUOUS
 62
     7
 10
25.48446804285055
 20
-78.15583674591659
 30
0.0
  0
VERTEX
  5
368
  8
DATA
  6
CONTINUOUS
 62
     7
 10
27.57665067911154
 20
-80.14976139574281
 30
0.0
  0
VERTEX
  5
369
  8
DATA
  6
CONTINUOUS
 62
     7
 10
29.88411411643034
 20
-81.95679896165706
 30
0.0
  0
VERTEX
  5
36A
  8
DATA
  6
CONTINUOUS
 62
     7
 10
32.3847059160471
 20
-83.55958605659947
 30
0.0
  0
VERTEX
  5
36B
  8
DATA
  6
CONTINUOUS
 62
     7
 10
35.05441844463343
 20
-84.94274663026704
 30
0.0
  0
VERTEX
  5
36C
  8
DATA
  6
CONTINUOUS
 62
     7
 10
37.86762077361351
 20
-86.09299520738824
 30
0.0
  0
VERTEX
  5
36D
  8
DATA
  6
CONTINUOUS
 62
     7
 10
40.79730361700058
 20
-86.99929174513136
 30
0.0
  0
VERTEX
  5
36E
  8
DATA
  6
CONTINUOUS
 62
     7
 10
43.81534010171896
 20
-87.65293196659428
 30
0.0
  0
VERTEX
  5
36F
  8
DATA
  6
CONTINUOUS
 62
     7
 10
46.89275398850441
 20
-88.04764414668495
 30
0.0
  0
VERTEX
  5
370
  8
DATA
  6
CONTINUOUS
 62
     7
 10
50.00000000000011
 20
-88.17964073125853
 30
0.0
  0
VERTEX
  5
371
  8
DATA
  6
CONTINUOUS
 62
     7
 10
53.10724601149553
 20
-88.04764414668517
 30
0.0
  0
VERTEX
  5
372
  8
DATA
  6
CONTINUOUS
 62
     7
 10
56.18465989828104
 20
-87.6529319665944
 30
0.0
  0
VERTEX
  5
373
  8
DATA
  6
CONTINUOUS
 62
     7
 10
59.20269638299936
 20
-86.99929174513142
 30
0.0
  0
VERTEX
  5
374
  8
DATA
  6
CONTINUOUS
 62
     7
 10
62.13237922638655
 20
-86.09299520738824
 30
0.0
  0
VERTEX
  5
375
  8
DATA
  6
CONTINUOUS
 62
     7
 10
64.94558155536646
 20
-84.94274663026698
 30
0.0
  0
VERTEX
  5
376
  8
DATA
  6
CONTINUOUS
 62
     7
 10
67.61529408395285
 20
-83.55958605659936
 30
0.0
  0
VERTEX
  5
377
  8
DATA
  6
CONTINUOUS
 62
     7
 10
70.11588588356966
 20
-81.95679896165711
 30
0.0
  0
VERTEX
  5
378
  8
DATA
  6
CONTINUOUS
 62
     7
 10
72.42334932088852
 20
-80.14976139574287
 30
0.0
  0
VERTEX
  5
379
  8
DATA
  6
CONTINUOUS
 62
     7
 10
74.51553195714945
 20
-78.15583674591664
 30
0.0
  0
VERTEX
  5
37A
  8
DATA
  6
CONTINUOUS
 62
     7
 10
75.39999969303608
 20
-77.18111904266448
 30
0.0
  0
SEQEND
  5
394
  8
DATA
  6
CONTINUOUS
 62
     7
  0
ARC
  5
250
  8
DATA
  6
CONTINUOUS
 62
     7
 10
84.64206758216409
 20
-59.00105979905993
 30
0.0
 40
4.01141405934707
 50
314.6876738997452
 51
26.59710538340312
  0
POLYLINE
  5
251
  8
DATA
  6
CONTINUOUS
 62
     7
 66
     1
 10
0.0
 20
0.0
 30
0.0
  0
VERTEX
  5
37B
  8
DATA
  6
CONTINUOUS
 62
     7
 10
88.1000004708767
 20
14.12861685582121
 30
0.0
  0
VERTEX
  5
37C
  8
DATA
  6
CONTINUOUS
 62
     7
 10
86.86117753386492
 20
14.02295008884246
 30
0.0
  0
VERTEX
  5
37D
  8
DATA
  6
CONTINUOUS
 62
     7
 10
85.88089719414711
 20
13.78188531848312
 30
0.0
  0
SEQEND
  5
395
  8
DATA
  6
CONTINUOUS
 62
     7
  0
LINE
  5
257
  8
DATA
  6
CONTINUOUS
 62
     7
 10
89.42668810486788
 20
14.12861685582121
 30
0.0
 11
88.1000004708767
 21
14.12861685582121
 31
0.0
  0
ARC
  5
258
  8
DATA
  6
CONTINUOUS
 62
     7
 10
84.50554187825406
 20
-60.02455131237252
 30
0.0
 40
4.165613937032314
 50
7.622273832945918
 51
44.76637888610978
  0
ARC
  5
259
  8
DATA
  6
CONTINUOUS
 62
     7
 10
15.49445812174673
 20
-60.02455131237303
 30
0.0
 40
4.165613937033362
 50
135.2336211138946
 51
172.3777261670505
  0
LINE
  5
25A
  8
DATA
  6
CONTINUOUS
 62
     7
 10
246.7054206887529
 20
14.128616855822
 30
0.0
 11
248.3551990428605
 21
13.1761168789748
 31
0.0
  0
LINE
  5
25B
  8
DATA
  6
CONTINUOUS
 62
     7
 10
184.4794046321559
 20
-97.46000441419199
 30
0.0
 11
248.3551990428605
 21
13.1761168789748
 31
0.0
  0
LINE
  5
25C
  8
DATA
  6
CONTINUOUS
 62
     7
 10
246.7054206887529
 20
14.128616855822
 30
0.0
 11
182.8296262780482
 21
-96.50750443734472
 31
0.0
  0
LINE
  5
25D
  8
DATA
  6
CONTINUOUS
 62
     7
 10
176.9049968610831
 20
25.82118352337866
 30
0.0
 11
175.0000007935609
 21
25.82118462096938
 31
0.0
  0
LINE
  5
25E
  8
DATA
  6
CONTINUOUS
 62
     7
 10
176.9049968610831
 20
25.82118352337866
 30
0.0
 11
176.9049982011859
 21
-94.92000039342554
 31
0.0
  0
LINE
  5
25F
  8
DATA
  6
CONTINUOUS
 62
     7
 10
175.0000007935609
 20
25.82118462096938
 30
0.0
 11
174.9999992857382
 21
-94.91999769944914
 31
0.0
  0
ARC
  5
260
  8
DATA
  6
CONTINUOUS
 62
     7
 10
180.0799990829632
 20
-94.91999844110518
 30
0.0
 40
5.080000000000041
 50
180.0
 51
330.000000000003
  0
ARC
  5
261
  8
DATA
  6
CONTINUOUS
 62
     7
 10
180.0799990829632
 20
-94.91999844110518
 30
0.0
 40
3.174999999999841
 50
179.999999999998
 51
330.000000000004
  0
LINE
  5
262
  8
DATA
  6
CONTINUOUS
 62
     7
 10
265.5221030116072
 20
-150.1159063733395
 30
0.0
 11
375.5073328023329
 21
-213.6159083998964
 31
0.0
  0
LINE
  5
263
  8
DATA
  6
CONTINUOUS
 62
     7
 10
265.5221030116072
 20
-150.1159063733395
 30
0.0
 11
328.7628972437215
 21
-40.5796376523067
 31
0.0
  0
ARC
  5
264
  8
DATA
  6
CONTINUOUS
 62
     7
 10
334.2621602744327
 20
-43.75463873204535
 30
0.0
 40
6.350000000000164
 50
60.00000000000134
 51
150.0000000000003
  0
LINE
  5
265
  8
DATA
  6
CONTINUOUS
 62
     7
 10
337.4371612758441
 20
-38.25537799617905
 30
0.0
 11
353.9349438087352
 21
-47.78037718257548
 31
0.0
  0
ARC
  5
266
  8
DATA
  6
CONTINUOUS
 62
     7
 10
350.7599442165265
 20
-53.27963873204516
 30
0.0
 40
6.349999999999882
 50
330.0000000000016
 51
60.00000000000107
  0
LINE
  5
267
  8
DATA
  6
CONTINUOUS
 62
     7
 10
319.7821439356885
 20
-119.6347606986212
 30
0.0
 11
356.2592046914028
 21
-56.45463815894595
 31
0.0
  0
LINE
  5
268
  8
DATA
  6
CONTINUOUS
 62
     7
 10
319.7821439356885
 20
-119.6347606986212
 30
0.0
 11
318.2395383015821
 21
-118.7441369205165
 31
0.0
  0
ARC
  5
269
  8
DATA
  6
CONTINUOUS
 62
     7
 10
315.6732153401117
 20
-123.1891358173909
 30
0.0
 40
5.132643893095704
 50
60.00000000000119
 51
239.999999999999
  0
LINE
  5
26A
  8
DATA
  6
CONTINUOUS
 62
     7
 10
313.1068929330061
 20
-127.6341394761233
 30
0.0
 11
314.7881120797538
 21
-128.6047918030648
 31
0.0
  0
ARC
  5
26B
  8
DATA
  6
CONTINUOUS
 62
     7
 10
343.7378121007143
 20
-141.6423283340943
 30
0.0
 40
31.75000000000011
 50
155.7555097672034
 51
324.2444902327986
  0
LINE
  5
26C
  8
DATA
  6
CONTINUOUS
 62
     7
 10
369.5034999498341
 20
-160.1947357186698
 30
0.0
 11
371.1847190965818
 21
-161.1653880456113
 31
0.0
  0
ARC
  5
26D
  8
DATA
  6
CONTINUOUS
 62
     7
 10
373.7510439814059
 20
-156.7203858173904
 30
0.0
 40
5.132643893095818
 50
239.999999999999
 51
60.00000000000119
  0
LINE
  5
26E
  8
DATA
  6
CONTINUOUS
 62
     7
 10
376.3173644651577
 20
-152.2753854900044
 30
0.0
 11
374.7747588310513
 21
-151.3847617118996
 31
0.0
  0
LINE
  5
26F
  8
DATA
  6
CONTINUOUS
 62
     7
 10
411.2518195867656
 20
-88.20463917222435
 30
0.0
 11
374.7747588310513
 21
-151.3847617118996
 31
0.0
  0
ARC
  5
270
  8
DATA
  6
CONTINUOUS
 62
     7
 10
416.751079984901
 20
-91.37963873204455
 30
0.0
 40
6.350000000000114
 50
60.00000000000107
 51
150.0000000000003
  0
LINE
  5
271
  8
DATA
  6
CONTINUOUS
 62
     7
 10
419.9260803926923
 20
-85.88037765345155
 30
0.0
 11
436.4238629255833
 21
-95.40537683984797
 31
0.0
  0
ARC
  5
272
  8
DATA
  6
CONTINUOUS
 62
     7
 10
433.2488639269945
 20
-100.9046387320444
 30
0.0
 40
6.350000000000078
 50
330.0000000000027
 51
60.00000000000102
  0
LINE
  5
273
  8
DATA
  6
CONTINUOUS
 62
     7
 10
375.5073328023329
 20
-213.6159083998964
 30
0.0
 11
438.748127034447
 21
-104.0796396788635
 31
0.0
  0
CIRCLE
  5
274
  8
DATA
  6
CONTINUOUS
 62
     7
 10
423.5515822016014
 20
-103.4008231717348
 30
0.0
 40
2.381249999999924
  0
CIRCLE
  5
275
  8
DATA
  6
CONTINUOUS
 62
     7
 10
286.9490419624924
 20
-140.0033635128453
 30
0.0
 40
2.381249999999924
  0
CIRCLE
  5
276
  8
DATA
  6
CONTINUOUS
 62
     7
 10
373.5515822526022
 20
-190.0033634618445
 30
0.0
 40
2.381249999999924
  0
CIRCLE
  5
277
  8
DATA
  6
CONTINUOUS
 62
     7
 10
336.9490419114916
 20
-53.40082322273565
 30
0.0
 40
2.381249999999973
  0
ARC
  5
278
  8
DATA
  6
CONTINUOUS
 62
     7
 10
344.4120656809328
 20
-77.76823467375118
 30
0.0
 40
5.970739268545215
 50
334.4019523901064
 51
63.81125928793114
  0
LINE
  5
279
  8
DATA
  6
CONTINUOUS
 62
     7
 10
312.2157665098041
 20
-145.4401134699815
 30
0.0
 11
349.7967604676212
 21
-80.34792253610215
 31
0.0
  0
LINE
  5
27A
  8
DATA
  6
CONTINUOUS
 62
     7
 10
393.7908504481936
 20
-105.7479222291378
 30
0.0
 11
356.2098564903768
 21
-170.8401131630171
 31
0.0
  0
ARC
  5
27B
  8
DATA
  6
CONTINUOUS
 62
     7
 10
398.7172730641682
 20
-109.1213607748599
 30
0.0
 40
5.970739268545265
 50
56.18874071207128
 51
145.5980476098952
  0
LINE
  5
27C
  8
DATA
  6
CONTINUOUS
 62
     7
 10
11.49999797344208
 20
175.0
 30
0.0
 11
138.5000020265579
 21
175.0000000000001
 31
0.0
  0
ARC
  5
27D
  8
DATA
  6
CONTINUOUS
 62
     7
 10
55.95000000000005
 20
191.6011834564442
 30
0.0
 40
6.35000000000012
 50
206.0678744398292
 51
270.0
  0
LINE
  5
27E
  8
DATA
  6
CONTINUOUS
 62
     7
 10
55.94999976456166
 20
185.2511886296463
 30
0.0
 11
94.05000023543832
 21
185.2511886296464
 31
0.0
  0
ARC
  5
27F
  8
DATA
  6
CONTINUOUS
 62
     7
 10
94.04999999999993
 20
191.6011834564442
 30
0.0
 40
6.350000000000023
 50
270.0
 51
333.9321255601712
  0
LINE
  5
280
  8
DATA
  6
CONTINUOUS
 62
     7
 10
138.5000020265579
 20
188.8107675263595
 30
0.0
 11
138.5000020265579
 21
175.0000000000001
 31
0.0
  0
LINE
  5
281
  8
DATA
  6
CONTINUOUS
 62
     7
 10
11.49999797344208
 20
180.0800023005502
 30
0.0
 11
138.5000020265579
 21
180.0800023005501
 31
0.0
  0
LINE
  5
282
  8
DATA
  6
CONTINUOUS
 62
     7
 10
11.49999797344208
 20
188.8107675263595
 30
0.0
 11
11.49999797344208
 21
175.0
 31
0.0
  0
LINE
  5
283
  8
DATA
  6
CONTINUOUS
 62
     7
 10
250.0
 20
201.0217257197197
 30
0.0
 11
404.8453421966578
 21
290.4217257197197
 31
0.0
  0
LINE
  5
284
  8
DATA
  6
CONTINUOUS
 62
     7
 10
257.0500000000002
 20
188.8107675263594
 30
0.0
 11
250.0
 21
201.0217257197197
 31
0.0
  0
LINE
  5
285
  8
DATA
  6
CONTINUOUS
 62
     7
 10
404.8453421966578
 20
290.4217257197197
 30
0.0
 11
411.895342196658
 21
278.2107675263592
 31
0.0
  0
LINE
  5
286
  8
DATA
  6
CONTINUOUS
 62
     7
 10
411.895342196658
 20
278.2107675263592
 30
0.0
 11
257.0500000000002
 21
188.8107675263594
 31
0.0
  0
ARC
  5
287
  8
DATA
  6
CONTINUOUS
 62
     7
 10
289.8788757225993
 20
348.4208044547227
 30
0.0
 40
140.7745267308591
 50
314.8970087024266
 51
330.0832557904956
  0
ARC
  5
288
  8
DATA
  6
CONTINUOUS
 62
     7
 10
257.2545576564226
 20
329.5851456370875
 30
0.0
 40
140.7745267308584
 50
269.9167442095047
 51
285.1029912975736
  0
ARC
  5
289
  8
DATA
  6
CONTINUOUS
 62
     7
 10
383.5957291896948
 20
254.3664248393616
 30
0.0
 40
8.000000000000066
 50
299.9999999999997
 51
314.8970087024262
  0
ARC
  5
28A
  8
DATA
  6
CONTINUOUS
 62
     7
 10
291.8496130069634
 20
201.3967799641585
 30
0.0
 40
7.99999999999948
 50
285.1029912975753
 51
300.0000000000022
  0
LINE
  5
28B
  8
DATA
  6
CONTINUOUS
 62
     7
 10
408.8394470394514
 20
176.9050000000005
 30
0.0
 11
408.8394470394505
 21
175.0000000463068
 31
0.0
  0
LINE
  5
28C
  8
DATA
  6
CONTINUOUS
 62
     7
 10
281.0878582180394
 20
175.0000000463054
 30
0.0
 11
408.8394470394505
 21
175.0000000463068
 31
0.0
  0
LINE
  5
28D
  8
DATA
  6
CONTINUOUS
 62
     7
 10
408.8394470394514
 20
176.9050000000005
 30
0.0
 11
281.0878582180394
 21
176.9049999999996
 31
0.0
  0
LINE
  5
28E
  8
DATA
  6
CONTINUOUS
 62
     7
 10
384.0652948951638
 20
243.2002235634616
 30
0.0
 11
383.1127978119439
 21
244.8499991008405
 31
0.0
  0
LINE
  5
28F
  8
DATA
  6
CONTINUOUS
 62
     7
 10
384.0652948951638
 20
243.2002235634616
 30
0.0
 11
279.5003630102529
 21
182.8296304444964
 31
0.0
  0
LINE
  5
290
  8
DATA
  6
CONTINUOUS
 62
     7
 10
383.1127978119439
 20
244.8499991008405
 30
0.0
 11
278.547865885581
 21
184.4794092464443
 31
0.0
  0
ARC
  5
291
  8
DATA
  6
CONTINUOUS
 62
     7
 10
281.0878651419007
 20
180.0799999999993
 30
0.0
 40
5.080000000000497
 50
119.9999999999956
 51
270.0
  0
ARC
  5
292
  8
DATA
  6
CONTINUOUS
 62
     7
 10
281.0878651419007
 20
180.0799999999993
 30
0.0
 40
3.175000000000178
 50
119.9999999999894
 51
270.0
  0
LINE
  5
293
  8
DATA
  6
CONTINUOUS
 62
     7
 10
-47.20000000000004
 20
290.4217257197202
 30
0.0
 11
-47.89399190932226
 21
290.4217257197202
 31
0.0
  0
LINE
  5
294
  8
DATA
  6
CONTINUOUS
 62
     7
 10
-55.20000000000004
 20
205.0217257197204
 30
0.0
 11
-55.20000000000004
 21
286.4217257197204
 31
0.0
  0
LINE
  5
295
  8
DATA
  6
CONTINUOUS
 62
     7
 10
197.2
 20
201.0217257197204
 30
0.0
 11
-47.20000000000004
 21
201.0217257197204
 31
0.0
  0
LINE
  5
296
  8
DATA
  6
CONTINUOUS
 62
     7
 10
205.2
 20
286.4217257197204
 30
0.0
 11
205.2
 21
205.0217257197204
 31
0.0
  0
LINE
  5
297
  8
DATA
  6
CONTINUOUS
 62
     7
 10
-47.20000000000004
 20
290.4217257197203
 30
0.0
 11
197.2
 21
290.4217257197203
 31
0.0
  0
POLYLINE
  5
298
  8
DATA
  6
CONTINUOUS
 62
     7
 66
     1
 10
0.0
 20
0.0
 30
0.0
 70
     1
  0
VERTEX
  5
37E
  8
DATA
  6
CONTINUOUS
 62
     7
 10
-33.49999999999999
 20
279.4717257197203
 30
0.0
  0
VERTEX
  5
37F
  8
DATA
  6
CONTINUOUS
 62
     7
 10
183.5
 20
279.4717257197203
 30
0.0
  0
VERTEX
  5
380
  8
DATA
  6
CONTINUOUS
 62
     7
 10
183.5
 20
211.9717257197203
 30
0.0
  0
VERTEX
  5
381
  8
DATA
  6
CONTINUOUS
 62
     7
 10
-33.49999999999999
 20
211.9717257197203
 30
0.0
  0
SEQEND
  5
396
  8
DATA
  6
CONTINUOUS
 62
     7
  0
LINE
  5
29F
  8
DATA
  6
CONTINUOUS
 62
     7
 10
205.1999999999998
 20
188.8107675263595
 30
0.0
 11
-55.20000000000027
 21
188.8107675263595
 31
0.0
  0
LINE
  5
2A0
  8
DATA
  6
CONTINUOUS
 62
     7
 10
-55.20000000000004
 20
205.0217257197204
 30
0.0
 11
-55.20000000000004
 21
188.8107675263595
 31
0.0
  0
LINE
  5
2A1
  8
DATA
  6
CONTINUOUS
 62
     7
 10
205.2
 20
205.0217257197204
 30
0.0
 11
205.2
 21
188.8107675263595
 31
0.0
  0
ARC
  5
2A2
  8
DATA
  6
CONTINUOUS
 62
     7
 10
-52.51915350991657
 20
286.4217257197202
 30
0.0
 40
2.680846490083454
 50
116.5650511770802
 51
179.9999999999951
  0
ARC
  5
2A3
  8
DATA
  6
CONTINUOUS
 62
     7
 10
-47.835583165265
 20
278.8227805902379
 30
0.0
 40
11.59909219284528
 50
90.28852160230863
 51
120.4741883980376
  0
LINE
  5
2A4
  8
DATA
  6
CONTINUOUS
 62
     7
 10
-47.20000000000004
 20
201.0217257197204
 30
0.0
 11
-47.89399190932226
 21
201.0217257197204
 31
0.0
  0
ARC
  5
2A5
  8
DATA
  6
CONTINUOUS
 62
     7
 10
-52.51915350991657
 20
205.0217257197205
 30
0.0
 40
2.680846490083468
 50
180.0000000000036
 51
243.4349488229198
  0
ARC
  5
2A6
  8
DATA
  6
CONTINUOUS
 62
     7
 10
-47.835583165265
 20
212.6206708492028
 30
0.0
 40
11.59909219284531
 50
239.5258116019624
 51
269.7114783976914
  0
LINE
  5
2A7
  8
DATA
  6
CONTINUOUS
 62
     7
 10
197.2
 20
290.4217257197202
 30
0.0
 11
197.8939919093223
 21
290.4217257197202
 31
0.0
  0
ARC
  5
2A8
  8
DATA
  6
CONTINUOUS
 62
     7
 10
202.5191535099166
 20
286.4217257197202
 30
0.0
 40
2.680846490083468
 50
0.0000000000048317
 51
63.43494882291987
  0
ARC
  5
2A9
  8
DATA
  6
CONTINUOUS
 62
     7
 10
197.835583165265
 20
278.8227805902379
 30
0.0
 40
11.59909219284531
 50
59.52581160196246
 51
89.71147839769138
  0
LINE
  5
2AA
  8
DATA
  6
CONTINUOUS
 62
     7
 10
197.2
 20
201.0217257197204
 30
0.0
 11
197.8939919093223
 21
201.0217257197204
 31
0.0
  0
ARC
  5
2AB
  8
DATA
  6
CONTINUOUS
 62
     7
 10
202.5191535099166
 20
205.0217257197205
 30
0.0
 40
2.680846490083454
 50
296.5650511770802
 51
359.9999999999964
  0
ARC
  5
2AC
  8
DATA
  6
CONTINUOUS
 62
     7
 10
197.835583165265
 20
212.6206708492028
 30
0.0
 40
11.59909219284533
 50
270.2885216023086
 51
300.4741883980376
  0
LINE
  5
2AD
  8
DATA
  6
CONTINUOUS
 62
     7
 10
205.1999999999998
 20
467.3453421966578
 30
0.0
 11
-55.20000000000004
 21
467.3453421966578
 31
0.0
  0
LINE
  5
2AE
  8
DATA
  6
CONTINUOUS
 62
     7
 10
-55.20000000000004
 20
312.5
 30
0.0
 11
-55.20000000000004
 21
474.395342196658
 31
0.0
  0
LINE
  5
2AF
  8
DATA
  6
CONTINUOUS
 62
     7
 10
205.1999999999998
 20
312.5
 30
0.0
 11
205.1999999999998
 21
474.395342196658
 31
0.0
  0
LINE
  5
2B0
  8
DATA
  6
CONTINUOUS
 62
     7
 10
-55.20000000000004
 20
312.5
 30
0.0
 11
205.1999999999998
 21
312.5
 31
0.0
  0
POLYLINE
  5
2B1
  8
DATA
  6
CONTINUOUS
 62
     7
 66
     1
 10
0.0
 20
0.0
 30
0.0
 70
     1
  0
VERTEX
  5
382
  8
DATA
  6
CONTINUOUS
 62
     7
 10
-33.49999999999999
 20
448.3793858537788
 30
0.0
  0
VERTEX
  5
383
  8
DATA
  6
CONTINUOUS
 62
     7
 10
183.5
 20
448.3793858537788
 30
0.0
  0
VERTEX
  5
384
  8
DATA
  6
CONTINUOUS
 62
     7
 10
183.5
 20
331.4659563428795
 30
0.0
  0
VERTEX
  5
385
  8
DATA
  6
CONTINUOUS
 62
     7
 10
-33.49999999999999
 20
331.4659563428795
 30
0.0
  0
SEQEND
  5
397
  8
DATA
  6
CONTINUOUS
 62
     7
  0
LINE
  5
2B8
  8
DATA
  6
CONTINUOUS
 62
     7
 10
387.5957291896948
 20
247.438221609086
 30
0.0
 11
383.1127978119439
 21
244.8499991008405
 31
0.0
  0
LINE
  5
2B9
  8
DATA
  6
CONTINUOUS
 62
     7
 10
372.8636535992238
 20
236.2710726357831
 30
0.0
 11
377.838590784757
 21
239.1433539590522
 31
0.0
  0
ARC
  5
2BA
  8
DATA
  6
CONTINUOUS
 62
     7
 10
375.1511221919903
 20
238.0536234589315
 30
0.0
 40
2.900000000000071
 50
217.9281417662033
 51
22.07185823379652
  0
LINE
  5
2BB
  8
DATA
  6
CONTINUOUS
 62
     7
 10
377.838590784757
 20
239.1433539590522
 30
0.0
 11
377.6385907849108
 21
239.4897641202996
 31
0.0
  0
LINE
  5
2BC
  8
DATA
  6
CONTINUOUS
 62
     7
 10
372.8636535992238
 20
236.2710726357831
 30
0.0
 11
372.6636536312569
 21
236.6174827418138
 31
0.0
  0
LINE
  5
2BD
  8
DATA
  6
CONTINUOUS
 62
     7
 10
307.9117483153908
 20
198.7710726357831
 30
0.0
 11
312.8866855009242
 21
201.6433539590522
 31
0.0
  0
ARC
  5
2BE
  8
DATA
  6
CONTINUOUS
 62
     7
 10
310.1992169081574
 20
200.5536234589315
 30
0.0
 40
2.900000000000106
 50
217.9281417662042
 51
22.07185823379569
  0
LINE
  5
2BF
  8
DATA
  6
CONTINUOUS
 62
     7
 10
312.8866855009242
 20
201.6433539590522
 30
0.0
 11
312.6866855010779
 21
201.9897641202996
 31
0.0
  0
LINE
  5
2C0
  8
DATA
  6
CONTINUOUS
 62
     7
 10
307.9117483153908
 20
198.7710726357831
 30
0.0
 11
307.711748347424
 21
199.1174827418138
 31
0.0
  0
LINE
  5
2C1
  8
DATA
  6
CONTINUOUS
 62
     7
 10
0.0
 20
112.5
 30
0.0
 11
250.0
 21
112.5
 31
0.0
  0
TEXT
  5
2C2
  8
DATA
 62
     7
 10
46.13694118923613
 20
118.2131618923611
 30
0.0
 40
13.57367621527778
  1
テーブルトップマウント取付時
 41
0.7
 72
     1
 11
125.0
 21
125.0
 31
0.0
 73
     2
  0
LINE
  5
2C3
  8
DATA
  6
CONTINUOUS
 62
     7
 10
205.1999999999998
 20
474.395342196658
 30
0.0
 11
-55.20000000000004
 21
474.395342196658
 31
0.0
  0
ENDSEC
  0
EOF
