  0
SECTION
  2
HEADER
  9
$ACADVER
  1
AC1009
  9
$INSBASE
 10
0.0
 20
0.0
 30
0.0
  9
$EXTMIN
 10
49.981691723202402
 20
11.90643626254314
 30
-0.0015258207003583
  9
$EXTMAX
 10
950.02899391114363
 20
1350.04120187373
 30
0.0000000349246037
  9
$LIMMIN
 10
0.0
 20
0.0
  9
$LIMMAX
 10
0.0
 20
0.0
  9
$ORTHOMODE
 70
     0
  9
$REGENMODE
 70
     1
  9
$FILLMODE
 70
     1
  9
$QTEXTMODE
 70
     0
  9
$MIRRTEXT
 70
     1
  9
$DRAGMODE
 70
     2
  9
$LTSCALE
 40
25.399999999999999
  9
$OSMODE
 70
   231
  9
$ATTMODE
 70
     1
  9
$TEXTSIZE
 40
0.0
  9
$TRACEWID
 40
1.0
  9
$TEXTSTYLE
  7
STANDARD
  9
$CLAYER
  8
DATA
  9
$CELTYPE
  6
BYLAYER
  9
$CECOLOR
 62
   256
  9
$DIMSCALE
 40
1.0
  9
$DIMASZ
 40
0.18
  9
$DIMEXO
 40
0.0625
  9
$DIMDLI
 40
0.38
  9
$DIMRND
 40
0.0
  9
$DIMDLE
 40
0.0
  9
$DIMEXE
 40
0.18
  9
$DIMTP
 40
0.0
  9
$DIMTM
 40
0.0
  9
$DIMTXT
 40
0.18
  9
$DIMCEN
 40
0.09
  9
$DIMTSZ
 40
0.0
  9
$DIMTOL
 70
     0
  9
$DIMLIM
 70
     0
  9
$DIMTIH
 70
     1
  9
$DIMTOH
 70
     1
  9
$DIMSE1
 70
     0
  9
$DIMSE2
 70
     0
  9
$DIMTAD
 70
     0
  9
$DIMZIN
 70
     0
  9
$DIMBLK
  1

  9
$DIMASO
 70
     1
  9
$DIMSHO
 70
     1
  9
$DIMPOST
  1

  9
$DIMAPOST
  1

  9
$DIMALT
 70
     0
  9
$DIMALTD
 70
     2
  9
$DIMALTF
 40
25.399999999999999
  9
$DIMLFAC
 40
1.0
  9
$DIMTOFL
 70
     0
  9
$DIMTVP
 40
0.0
  9
$DIMTIX
 70
     0
  9
$DIMSOXD
 70
     0
  9
$DIMSAH
 70
     0
  9
$DIMBLK1
  1

  9
$DIMBLK2
  1

  9
$DIMSTYLE
  2
STANDARD
  9
$DIMCLRD
 70
     0
  9
$DIMCLRE
 70
     0
  9
$DIMCLRT
 70
     0
  9
$DIMTFAC
 40
1.0
  9
$DIMGAP
 40
0.09
  9
$LUNITS
 70
     2
  9
$LUPREC
 70
     4
  9
$SKETCHINC
 40
0.1
  9
$FILLETRAD
 40
0.0
  9
$AUNITS
 70
     0
  9
$AUPREC
 70
     0
  9
$MENU
  1
acad
  9
$ELEVATION
 40
0.0
  9
$PELEVATION
 40
0.0
  9
$THICKNESS
 40
0.0
  9
$LIMCHECK
 70
     0
  9
$BLIPMODE
 70
     0
  9
$CHAMFERA
 40
0.0
  9
$CHAMFERB
 40
0.0
  9
$SKPOLY
 70
     0
  9
$TDCREATE
 40
2454706.584189815
  9
$TDUPDATE
 40
2454706.660355926
  9
$TDINDWG
 40
0.0002667824
  9
$TDUSRTIMER
 40
0.0002665972
  9
$USRTIMER
 70
     1
  9
$ANGBASE
 50
0.0
  9
$ANGDIR
 70
     0
  9
$PDMODE
 70
     1
  9
$PDSIZE
 40
-2.0
  9
$PLINEWID
 40
0.0
  9
$COORDS
 70
     1
  9
$SPLFRAME
 70
     0
  9
$SPLINETYPE
 70
     6
  9
$SPLINESEGS
 70
     8
  9
$ATTDIA
 70
     0
  9
$ATTREQ
 70
     1
  9
$HANDLING
 70
     1
  9
$HANDSEED
  5
787
  9
$SURFTAB1
 70
     6
  9
$SURFTAB2
 70
     6
  9
$SURFTYPE
 70
     6
  9
$SURFU
 70
     6
  9
$SURFV
 70
     6
  9
$UCSNAME
  2

  9
$UCSORG
 10
0.0
 20
0.0
 30
0.0
  9
$UCSXDIR
 10
1.0
 20
0.0
 30
0.0
  9
$UCSYDIR
 10
0.0
 20
1.0
 30
0.0
  9
$PUCSNAME
  2

  9
$PUCSORG
 10
0.0
 20
0.0
 30
0.0
  9
$PUCSXDIR
 10
1.0
 20
0.0
 30
0.0
  9
$PUCSYDIR
 10
0.0
 20
1.0
 30
0.0
  9
$USERI1
 70
     0
  9
$USERI2
 70
     0
  9
$USERI3
 70
     0
  9
$USERI4
 70
     0
  9
$USERI5
 70
     0
  9
$USERR1
 40
0.0
  9
$USERR2
 40
0.0
  9
$USERR3
 40
0.0
  9
$USERR4
 40
0.0
  9
$USERR5
 40
0.0
  9
$WORLDVIEW
 70
     1
  9
$SHADEDGE
 70
     3
  9
$SHADEDIF
 70
    70
  9
$TILEMODE
 70
     1
  9
$MAXACTVP
 70
    64
  9
$PLIMCHECK
 70
     0
  9
$PEXTMIN
 10
1.0000000000000000E+020
 20
1.0000000000000000E+020
 30
1.0000000000000000E+020
  9
$PEXTMAX
 10
-1.0000000000000000E+020
 20
-1.0000000000000000E+020
 30
-1.0000000000000000E+020
  9
$PLIMMIN
 10
0.0
 20
0.0
  9
$PLIMMAX
 10
12.0
 20
9.0
  9
$UNITMODE
 70
     0
  9
$VISRETAIN
 70
     0
  9
$PLINEGEN
 70
     1
  9
$PSLTSCALE
 70
     0
  0
ENDSEC
  0
SECTION
  2
TABLES
  0
TABLE
  2
VPORT
 70
     1
  0
VPORT
  2
*ACTIVE
 70
     0
 10
0.0
 20
0.0
 11
1.0
 21
1.0
 12
500.00534281717279
 22
680.97381906813666
 13
0.0
 23
0.0
 14
1.0
 24
1.0
 15
0.0
 25
0.0
 16
0.0
 26
0.0
 36
1.0
 17
0.0
 27
0.0
 37
0.0
 40
1349.2089843610729
 41
1.665745856353591
 42
50.0
 43
0.0
 44
0.0
 50
0.0
 51
0.0
 71
     0
 72
  2000
 73
     1
 74
     1
 75
     0
 76
     0
 77
     0
 78
     0
  0
ENDTAB
  0
TABLE
  2
LTYPE
 70
    11
  0
LTYPE
  2
CONTINUOUS
 70
     0
  3
Solid line
 72
    65
 73
     0
 40
0.0
  0
ENDTAB
  0
TABLE
  2
LAYER
 70
     5
  0
LAYER
  2
0
 70
     0
 62
     7
  6
CONTINUOUS
  0
LAYER
  2
DATA
 70
     0
 62
     7
  6
CONTINUOUS
  0
LAYER
  2
HIBINO-BASE
 70
     0
 62
     7
  6
CONTINUOUS
  0
LAYER
  2
SPEC
 70
     0
 62
     7
  6
CONTINUOUS
  0
LAYER
  2
DIMNSIONS
 70
     0
 62
     7
  6
CONTINUOUS
  0
ENDTAB
  0
TABLE
  2
STYLE
 70
     2
  0
STYLE
  2
STANDARD
 70
     0
 40
0.0
 41
1.0
 50
0.0
 71
     0
 42
0.0
  3
txt
  4
BIGFONT.SHX
  0
ENDTAB
  0
TABLE
  2
VIEW
 70
     0
  0
ENDTAB
  0
TABLE
  2
UCS
 70
     0
  0
ENDTAB
  0
TABLE
  2
APPID
 70
     1
  0
APPID
  2
ACAD
 70
     0
  0
ENDTAB
  0
TABLE
  2
DIMSTYLE
 70
     1
  0
DIMSTYLE
  2
STANDARD
 70
     0
  3

  4

  5

  6

  7

 40
1.0
 41
0.18
 42
0.0625
 43
0.38
 44
0.18
 45
0.0
 46
0.0
 47
0.0
 48
0.0
140
0.18
141
0.09
142
0.0
143
25.399999999999999
144
1.0
145
0.0
146
1.0
147
0.09
 71
     0
 72
     0
 73
     1
 74
     1
 75
     0
 76
     0
 77
     0
 78
     0
170
     0
171
     2
172
     0
173
     0
174
     0
175
     0
176
     0
177
     0
178
     0
  0
ENDTAB
  0
ENDSEC
  0
SECTION
  2
BLOCKS
  0
BLOCK
  8
0
  2
$MODEL_SPACE
 70
     0
 10
0.0
 20
0.0
 30
0.0
  3
$MODEL_SPACE
  1

  0
ENDBLK
  5
5C1
  8
0
  0
BLOCK
 67
     1
  8
0
  2
$PAPER_SPACE
 70
     0
 10
0.0
 20
0.0
 30
0.0
  3
$PAPER_SPACE
  1

  0
ENDBLK
  5
5BD
 67
     1
  8
0
  0
ENDSEC
  0
SECTION
  2
ENTITIES
  0
LINE
  5
2C
  8
HIBINO-BASE
  6
CONTINUOUS
 62
     7
 10
50.0
 20
1350.0
 30
0.0
 11
950.0
 21
1350.0
 31
0.0
  0
LINE
  5
2D
  8
HIBINO-BASE
  6
CONTINUOUS
 62
     7
 10
950.0
 20
50.0
 30
0.0
 11
50.0
 21
50.0
 31
0.0
  0
LINE
  5
2E
  8
HIBINO-BASE
  6
CONTINUOUS
 62
     7
 10
50.0
 20
50.0
 30
0.0
 11
50.0
 21
1350.0
 31
0.0
  0
TEXT
  5
2F
  8
HIBINO-BASE
 62
     7
 10
85.920000000000016
 20
17.956611000000098
 30
0.0
 40
18.00022089843749
  1
Hibino Corporation
 41
0.7
 11
85.920000000000016
 21
35.956831898437599
 31
0.0
 73
     3
  0
LINE
  5
30
  8
HIBINO-BASE
  6
CONTINUOUS
 62
     7
 10
500.0
 20
162.50000000000011
 30
0.0
 11
950.0
 21
162.50000000000011
 31
0.0
  0
LINE
  5
31
  8
HIBINO-BASE
  6
CONTINUOUS
 62
     7
 10
500.0
 20
50.0
 30
0.0
 11
500.0
 21
162.50000000000011
 31
0.0
  0
TEXT
  5
32
  8
HIBINO-BASE
 62
     7
 10
504.49999999999989
 20
149.9565333333334
 30
0.0
 40
8.1442057291666661
  1
NOTE
 41
0.7
 11
504.49999999999989
 21
158.10073906250011
 31
0.0
 73
     3
  0
LINE
  5
33
  8
HIBINO-BASE
  6
CONTINUOUS
 62
     7
 10
675.0
 20
50.0
 30
0.0
 11
675.0
 21
162.50000000000011
 31
0.0
  0
TEXT
  5
34
  8
HIBINO-BASE
 62
     7
 10
679.49999999999989
 20
149.9565333333334
 30
0.0
 40
8.1442057291666661
  1
TITLE
 41
0.7
 11
679.49999999999989
 21
158.10073906250011
 31
0.0
 73
     3
  0
TEXT
  5
35
  8
HIBINO-BASE
 62
     7
 10
750.34194999999988
 20
17.956611000000098
 30
0.0
 40
18.00022089843749
  1
ヒビノ株式会社
 41
0.7
 11
750.34194999999988
 21
35.956831898437599
 31
0.0
 73
     3
  0
LINE
  5
36
  8
HIBINO-BASE
  6
CONTINUOUS
 62
     7
 10
500.0
 20
100.0000000000001
 30
0.0
 11
950.0
 21
100.0000000000001
 31
0.0
  0
TEXT
  5
37
  8
HIBINO-BASE
 62
     7
 10
742.0
 20
87.738133333333465
 30
0.0
 40
8.1442057291666661
  1
DRAWN
 41
0.7
 11
742.0
 21
95.882339062500137
 31
0.0
 73
     3
  0
TEXT
  5
38
  8
HIBINO-BASE
 62
     7
 10
617.0
 20
87.738133333333465
 30
0.0
 40
8.1442057291666661
  1
DATE
 41
0.7
 11
617.0
 21
95.882339062500137
 31
0.0
 73
     3
  0
TEXT
  5
39
  8
HIBINO-BASE
 62
     7
 10
567.0
 20
87.738133333333465
 30
0.0
 40
8.1442057291666661
  1
SCALE
 41
0.7
 11
567.0
 21
95.882339062500137
 31
0.0
 73
     3
  0
TEXT
  5
3A
  8
HIBINO-BASE
 62
     7
 10
679.49999999999989
 20
87.738133333333465
 30
0.0
 40
8.1442057291666661
  1
DESIGN
 41
0.7
 11
679.49999999999989
 21
95.882339062500137
 31
0.0
 73
     3
  0
TEXT
  5
3B
  8
HIBINO-BASE
 62
     7
 10
867.0
 20
87.738133333333465
 30
0.0
 40
8.1442057291666661
  1
DRAWING NO.
 41
0.7
 11
867.0
 21
95.882339062500137
 31
0.0
 73
     3
  0
TEXT
  5
3C
  8
HIBINO-BASE
 62
     7
 10
804.49999999999989
 20
87.738133333333465
 30
0.0
 40
8.1442057291666661
  1
CHECK
 41
0.7
 11
804.49999999999989
 21
95.882339062500137
 31
0.0
 73
     3
  0
LINE
  5
3D
  8
HIBINO-BASE
  6
CONTINUOUS
 62
     7
 10
571.87499999999989
 20
56.25
 30
0.0
 11
590.625
 21
75.000000000000099
 31
0.0
  0
TEXT
  5
3E
  8
HIBINO-BASE
 62
     7
 10
568.74999999999989
 20
69.455283333333384
 30
0.0
 40
8.1442057291666661
  1
1
 41
0.7
 11
568.74999999999989
 21
77.599489062500069
 31
0.0
 73
     3
  0
LINE
  5
3F
  8
HIBINO-BASE
  6
CONTINUOUS
 62
     7
 10
562.49999999999989
 20
50.0
 30
0.0
 11
562.49999999999989
 21
100.0000000000001
 31
0.0
  0
LINE
  5
40
  8
HIBINO-BASE
  6
CONTINUOUS
 62
     7
 10
612.49999999999989
 20
50.0
 30
0.0
 11
612.49999999999989
 21
100.0000000000001
 31
0.0
  0
LINE
  5
41
  8
HIBINO-BASE
  6
CONTINUOUS
 62
     7
 10
737.5
 20
100.0000000000001
 30
0.0
 11
737.5
 21
50.0
 31
0.0
  0
LINE
  5
42
  8
HIBINO-BASE
  6
CONTINUOUS
 62
     7
 10
862.5
 20
100.0000000000001
 30
0.0
 11
862.5
 21
50.0
 31
0.0
  0
LINE
  5
43
  8
HIBINO-BASE
  6
CONTINUOUS
 62
     7
 10
800.0
 20
50.0
 30
0.0
 11
800.0
 21
100.0000000000001
 31
0.0
  0
TEXT
  5
44
  8
HIBINO-BASE
 62
     7
 10
616.78269999999986
 20
64.318233333333382
 30
0.0
 40
8.1442057291666661
  1
'08.08.
 41
0.7
 11
616.78269999999986
 21
72.462439062500053
 31
0.0
 73
     3
  0
TEXT
  5
45
  8
HIBINO-BASE
 62
     7
 10
587.5
 20
60.080283333333398
 30
0.0
 40
8.1442057291666661
  1
5
 41
0.7
 11
587.5
 21
68.224489062500069
 31
0.0
 73
     3
  0
TEXT
  5
46
  8
HIBINO-BASE
 62
     7
 10
745.029050055173
 20
64.318233333333382
 30
0.0
 40
8.1442057291666661
  1
N.Sasaki
 41
0.7
 11
745.029050055173
 21
72.462439062500053
 31
0.0
 73
     3
  0
TEXT
  5
47
  8
HIBINO-BASE
 62
     7
 10
519.41666666666674
 20
59.880000000000031
 30
0.0
 40
16.288411458333329
  1
A4
 41
0.7
 11
519.41666666666674
 21
76.168411458333352
 31
0.0
 73
     3
  0
TEXT
  5
48
  8
HIBINO-BASE
 62
     7
 10
504.79166666666652
 20
86.902725000000103
 30
0.0
 40
8.1442057291666661
  1
PAPER SIZE
 41
0.7
 11
504.79166666666652
 21
95.046930729166775
 31
0.0
 73
     3
  0
LINE
  5
49
  8
HIBINO-BASE
  6
CONTINUOUS
 62
     7
 10
950.0
 20
50.0
 30
0.0
 11
950.0
 21
1350.0
 31
0.0
  0
LINE
  5
4A
  8
SPEC
  6
CONTINUOUS
 62
     7
 10
87.5
 20
1300.0
 30
0.0
 11
825.0
 21
1300.0
 31
0.0
  0
LINE
  5
4B
  8
SPEC
  6
CONTINUOUS
 62
     7
 10
87.5
 20
1281.25
 30
0.0
 11
825.0
 21
1281.25
 31
0.0
  0
LINE
  5
4C
  8
SPEC
  6
CONTINUOUS
 62
     7
 10
87.5
 20
1206.25
 30
0.0
 11
825.0
 21
1206.25
 31
0.0
  0
LINE
  5
4D
  8
SPEC
  6
CONTINUOUS
 62
     7
 10
450.0
 20
1225.0
 30
0.0
 11
825.0
 21
1225.0
 31
0.0
  0
LINE
  5
4E
  8
SPEC
  6
CONTINUOUS
 62
     7
 10
250.0
 20
1243.75
 30
0.0
 11
825.0
 21
1243.75
 31
0.0
  0
LINE
  5
4F
  8
SPEC
  6
CONTINUOUS
 62
     7
 10
450.0
 20
1187.5
 30
0.0
 11
825.0
 21
1187.5
 31
0.0
  0
LINE
  5
50
  8
SPEC
  6
CONTINUOUS
 62
     7
 10
450.0
 20
1168.75
 30
0.0
 11
825.0
 21
1168.75
 31
0.0
  0
LINE
  5
51
  8
SPEC
  6
CONTINUOUS
 62
     7
 10
450.0
 20
1131.25
 30
0.0
 11
825.0
 21
1131.25
 31
0.0
  0
LINE
  5
52
  8
SPEC
  6
CONTINUOUS
 62
     7
 10
250.0
 20
1112.5
 30
0.0
 11
825.0
 21
1112.5
 31
0.0
  0
LINE
  5
53
  8
SPEC
  6
CONTINUOUS
 62
     7
 10
450.0
 20
1262.5
 30
0.0
 11
825.0
 21
1262.5
 31
0.0
  0
LINE
  5
54
  8
SPEC
  6
CONTINUOUS
 62
     7
 10
250.0
 20
1037.5
 30
0.0
 11
825.0
 21
1037.5
 31
0.0
  0
LINE
  5
55
  8
SPEC
  6
CONTINUOUS
 62
     7
 10
87.5
 20
981.25
 30
0.0
 11
825.0
 21
981.25
 31
0.0
  0
LINE
  5
56
  8
SPEC
  6
CONTINUOUS
 62
     7
 10
87.5
 20
962.5
 30
0.0
 11
825.0
 21
962.5
 31
0.0
  0
LINE
  5
57
  8
SPEC
  6
CONTINUOUS
 62
     7
 10
87.5
 20
1300.0
 30
0.0
 11
87.5
 21
962.5
 31
0.0
  0
TEXT
  5
58
  8
SPEC
 62
     7
 10
93.75
 20
1306.9663499999999
 30
0.0
 40
12.21630859375
  1
仕様
 41
0.7
 11
93.75
 21
1319.1826585937499
 31
0.0
 73
     3
  0
LINE
  5
59
  8
SPEC
  6
CONTINUOUS
 62
     7
 10
250.0
 20
1300.0
 30
0.0
 11
250.0
 21
962.5
 31
0.0
  0
TEXT
  5
5A
  8
SPEC
 62
     7
 10
92.625989246279673
 20
1042.876970000917
 30
0.0
 40
9.5015562499999984
  1
オシレータ 
 41
0.7
 11
92.625989246279673
 21
1052.378526250917
 31
0.0
 73
     3
  0
TEXT
  5
5B
  8
SPEC
 62
     7
 10
92.9386811102152
 20
1286.1226878529019
 30
0.0
 40
9.5015562499999984
  1
形式
 41
0.7
 11
92.9386811102152
 21
1295.6242441029019
 31
0.0
 73
     3
  0
TEXT
  5
5C
  8
SPEC
 62
     7
 10
92.118389066028371
 20
1143.635466082116
 30
0.0
 40
9.5015562499999984
  1
ワードクロック/
 41
0.7
 11
92.118389066028371
 21
1153.137022332116
 31
0.0
 73
     3
  0
TEXT
  5
5D
  8
SPEC
 62
     7
 10
92.599912735674366
 20
1239.129239383095
 30
0.0
 40
9.5015562499999984
  1
外部リファレンス
 41
0.7
 11
92.599912735674366
 21
1248.630795633095
 31
0.0
 73
     3
  0
TEXT
  5
5E
  8
SPEC
 62
     7
 10
455.68855878873308
 20
1266.527998643563
 30
0.0
 40
9.5015562499999984
  1
端子：BNC(メス)×2
 41
0.7
 11
455.68855878873308
 21
1276.029554893563
 31
0.0
 73
     3
  0
TEXT
  5
5F
  8
SPEC
 62
     7
 10
255.42227890247571
 20
1259.441290619425
 30
0.0
 40
9.5015733506944464
  1
オーディオワードクロック
 41
0.7
 11
255.42227890247571
 21
1268.9428639701191
 31
0.0
 73
     3
  0
TEXT
  5
60
  8
SPEC
 62
     7
 10
92.859696962256393
 20
968.21807904994739
 30
0.0
 40
9.5015562500000001
  1
重量
 41
0.7
 11
92.859696962256393
 21
977.71963529994741
 31
0.0
 73
     3
  0
TEXT
  5
61
  8
SPEC
 62
     7
 10
255.5176872078988
 20
967.82116296455263
 30
0.0
 40
9.5015562500000001
  1
約3.0kg
 41
0.7
 11
255.5176872078988
 21
977.32271921455265
 31
0.0
 73
     3
  0
TEXT
  5
62
  8
SPEC
 62
     7
 10
92.990853479285434
 20
986.25178936187558
 30
0.0
 40
9.5015562500000001
  1
寸法
 41
0.7
 11
92.990853479285434
 21
995.7533456118756
 31
0.0
 73
     3
  0
TEXT
  5
63
  8
SPEC
 62
     7
 10
255.68332694478261
 20
986.05239287999996
 30
0.0
 40
9.5015562500000001
  1
483(W)×45(H)×203(D)mm(突起部含まず)
 41
0.7
 11
255.68332694478261
 21
995.55394912999986
 31
0.0
 73
     3
  0
TEXT
  5
64
  8
SPEC
 62
     7
 10
255.6779797819971
 20
1004.425700049252
 30
0.0
 40
9.5015562500000001
  1
AC100V 50/60Hz 10W
 41
0.7
 11
255.6779797819971
 21
1013.927256299252
 31
0.0
 73
     3
  0
TEXT
  5
65
  8
SPEC
 62
     7
 10
93.011595751242524
 20
1004.917380229905
 30
0.0
 40
9.5015562500000001
  1
電源/消費電力
 41
0.7
 11
93.011595751242524
 21
1014.418936479905
 31
0.0
 73
     3
  0
LINE
  5
66
  8
SPEC
  6
CONTINUOUS
 62
     7
 10
450.0
 20
1093.75
 30
0.0
 11
825.0
 21
1093.75
 31
0.0
  0
TEXT
  5
67
  8
SPEC
 62
     7
 10
256.00899605514923
 20
1220.606225166295
 30
0.0
 40
9.5015562499999984
  1
AES/EBU3,11
 41
0.7
 11
256.00899605514923
 21
1230.107781416295
 31
0.0
 73
     3
  0
TEXT
  5
68
  8
SPEC
 62
     7
 10
454.93828756807193
 20
1248.416641993123
 30
0.0
 40
9.5015562499999984
  1
インピーダンス：75Ω
 41
0.7
 11
454.93828756807193
 21
1257.918198243123
 31
0.0
 73
     3
  0
TEXT
  5
69
  8
SPEC
 62
     7
 10
455.66533202762361
 20
1229.428899097207
 30
0.0
 40
9.5015562499999984
  1
端子：XLR(メス)×1
 41
0.7
 11
455.66533202762361
 21
1238.930455347207
 31
0.0
 73
     3
  0
TEXT
  5
6A
  8
SPEC
 62
     7
 10
455.0605454153951
 20
1211.019927751832
 30
0.0
 40
9.5015562499999984
  1
インピーダンス：110Ω
 41
0.7
 11
455.0605454153951
 21
1220.5214840018321
 31
0.0
 73
     3
  0
LINE
  5
6B
  8
SPEC
  6
CONTINUOUS
 62
     7
 10
825.0
 20
962.5
 30
0.0
 11
825.0
 21
1300.0
 31
0.0
  0
TEXT
  5
6C
  8
SPEC
 62
     7
 10
455.56835663335141
 20
1191.9006992723839
 30
0.0
 40
9.5015562499999984
  1
端子：BNC(メス)×16
 41
0.7
 11
455.56835663335141
 21
1201.4022555223839
 31
0.0
 73
     3
  0
TEXT
  5
6D
  8
SPEC
 62
     7
 10
454.48678947281098
 20
1173.3956992761659
 30
0.0
 40
9.5015562499999984
  1
インピーダンス：75Ω
 41
0.7
 11
454.48678947281098
 21
1182.897255526166
 31
0.0
 73
     3
  0
TEXT
  5
6E
  8
SPEC
 62
     7
 10
454.93904560394839
 20
1154.504235868312
 30
0.0
 40
9.5015562499999984
  1
出力レベル：2.5V＠75Ω
 41
0.7
 11
454.93904560394839
 21
1164.005792118312
 31
0.0
 73
     3
  0
TEXT
  5
6F
  8
SPEC
 62
     7
 10
255.97399697026259
 20
1126.198338504764
 30
0.0
 40
9.5015562499999984
  1
AES/EBU11
 41
0.7
 11
255.97399697026259
 21
1135.699894754764
 31
0.0
 73
     3
  0
TEXT
  5
70
  8
SPEC
 62
     7
 10
256.05199007017791
 20
1088.430040655124
 30
0.0
 40
9.5015562499999984
  1
S/PDIF
 41
0.7
 11
256.05199007017791
 21
1097.931596905124
 31
0.0
 73
     3
  0
TEXT
  5
71
  8
SPEC
 62
     7
 10
455.42502903582653
 20
1135.6816599879951
 30
0.0
 40
9.5015562499999984
  1
端子：XLR(オス)×2
 41
0.7
 11
455.42502903582653
 21
1145.1832162379951
 31
0.0
 73
     3
  0
TEXT
  5
72
  8
SPEC
 62
     7
 10
454.31269136432559
 20
1117.640958496391
 30
0.0
 40
9.5015562499999984
  1
インピーダンス：110Ω
 41
0.7
 11
454.31269136432559
 21
1127.142514746391
 31
0.0
 73
     3
  0
TEXT
  5
73
  8
SPEC
 62
     7
 10
455.34217429939559
 20
1098.088126807083
 30
0.0
 40
9.5015562499999984
  1
端子：コアキシアル×2
 41
0.7
 11
455.34217429939559
 21
1107.589683057083
 31
0.0
 73
     3
  0
TEXT
  5
74
  8
SPEC
 62
     7
 10
454.8613826047864
 20
1079.705615126582
 30
0.0
 40
9.5015562499999984
  1
インピーダンス：75Ω
 41
0.7
 11
454.8613826047864
 21
1089.207171376582
 31
0.0
 73
     3
  0
TEXT
  5
75
  8
SPEC
 62
     7
 10
255.5359703435594
 20
1061.163608121776
 30
0.0
 40
9.5015562499999984
  1
形式
 41
0.7
 11
255.5359703435594
 21
1070.665164371776
 31
0.0
 73
     3
  0
TEXT
  5
76
  8
SPEC
 62
     7
 10
455.87379031752931
 20
1060.758381390815
 30
0.0
 40
9.5015562499999984
  1
TCXO
 41
0.7
 11
455.87379031752931
 21
1070.259937640815
 31
0.0
 73
     3
  0
TEXT
  5
77
  8
SPEC
 62
     7
 10
254.8091698138324
 20
1042.566069925974
 30
0.0
 40
9.5015562499999984
  1
クロックジッタ－
 41
0.7
 11
254.8091698138324
 21
1052.0676261759741
 31
0.0
 73
     3
  0
TEXT
  5
78
  8
SPEC
 62
     7
 10
455.13533056298058
 20
1042.135908525175
 30
0.0
 40
9.5015562499999984
  1
10ps以下(RMS)
 41
0.7
 11
455.13533056298058
 21
1051.637464775175
 31
0.0
 73
     3
  0
TEXT
  5
79
  8
SPEC
 62
     7
 10
254.58566410794401
 20
1023.669960432471
 30
0.0
 40
9.5015562499999984
  1
クロック精度
 41
0.7
 11
254.58566410794401
 21
1033.1715166824711
 31
0.0
 73
     3
  0
TEXT
  5
7A
  8
SPEC
 62
     7
 10
454.6135472381838
 20
1023.359033863439
 30
0.0
 40
9.5015562499999984
  1
±1ppm以下
 41
0.7
 11
454.6135472381838
 21
1032.860590113439
 31
0.0
 73
     3
  0
TEXT
  5
7B
  8
SPEC
 62
     7
 10
254.21395450189979
 20
1172.9787052181559
 30
0.0
 40
9.5015733506944464
  1
ワードクロック
 41
0.7
 11
254.21395450189979
 21
1182.4802785688501
 31
0.0
 73
     3
  0
LINE
  5
7C
  8
SPEC
  6
CONTINUOUS
 62
     7
 10
450.0
 20
1281.25
 30
0.0
 11
450.0
 21
1018.75
 31
0.0
  0
TEXT
  5
7D
  8
SPEC
 62
     7
 10
92.615077413443998
 20
1128.2009835082511
 30
0.0
 40
9.5015562499999984
  1
オーディオ出力
 41
0.7
 11
92.615077413443998
 21
1137.7025397582511
 31
0.0
 73
     3
  0
TEXT
  5
7E
  8
SPEC
 62
     7
 10
254.83761302760641
 20
1286.3055051195679
 30
0.0
 40
9.5015733506944464
  1
マスタクロック・ジェネレータ 
 41
0.7
 11
254.83761302760641
 21
1295.8070784702629
 31
0.0
 73
     3
  0
LINE
  5
7F
  8
SPEC
  6
CONTINUOUS
 62
     7
 10
825.0
 20
1150.0
 30
0.0
 11
250.0
 21
1150.0
 31
0.0
  0
LINE
  5
80
  8
SPEC
  6
CONTINUOUS
 62
     7
 10
825.0
 20
1075.0
 30
0.0
 11
87.499999999999943
 21
1075.0
 31
0.0
  0
LINE
  5
81
  8
SPEC
  6
CONTINUOUS
 62
     7
 10
825.0
 20
1018.75
 30
0.0
 11
87.499999999999943
 21
1018.75
 31
0.0
  0
LINE
  5
82
  8
SPEC
  6
CONTINUOUS
 62
     7
 10
825.0
 20
1056.25
 30
0.0
 11
250.0
 21
1056.25
 31
0.0
  0
LINE
  5
83
  8
SPEC
  6
CONTINUOUS
 62
     7
 10
825.0
 20
1000.0
 30
0.0
 11
87.499999999999943
 21
1000.0
 31
0.0
  0
TEXT
  5
84
  8
DIMNSIONS
 62
     7
 10
400.0
 20
111.34744999999999
 30
0.0
 40
12.21630859375
  1
(単位：mm)
 41
0.7
 11
400.0
 21
123.5637585937499
 31
0.0
 73
     3
  0
LINE
  5
85
  8
DIMNSIONS
  6
CONTINUOUS
 62
     7
 10
150.0
 20
290.0
 30
0.0
 11
150.0
 21
240.0
 31
0.0
  0
LINE
  5
86
  8
DIMNSIONS
  6
CONTINUOUS
 62
     7
 10
633.0
 20
290.0
 30
0.0
 11
633.0
 21
240.0
 31
0.0
  0
LINE
  5
87
  8
DIMNSIONS
  6
CONTINUOUS
 62
     7
 10
150.0
 20
250.0
 30
0.0
 11
633.0
 21
250.0
 31
0.0
  0
LINE
  5
88
  8
DIMNSIONS
  6
CONTINUOUS
 62
     7
 10
150.0
 20
250.0
 30
0.0
 11
162.50311279296869
 21
253.3501989757512
 31
0.0
  0
LINE
  5
89
  8
DIMNSIONS
  6
CONTINUOUS
 62
     7
 10
150.0
 20
250.0
 30
0.0
 11
162.50311279296869
 21
246.6498010242488
 31
0.0
  0
LINE
  5
8A
  8
DIMNSIONS
  6
CONTINUOUS
 62
     7
 10
633.0
 20
250.0
 30
0.0
 11
620.49688720703125
 21
246.6498010242488
 31
0.0
  0
LINE
  5
8B
  8
DIMNSIONS
  6
CONTINUOUS
 62
     7
 10
633.0
 20
250.0
 30
0.0
 11
620.49688720703125
 21
253.3501989757512
 31
0.0
  0
TEXT
  5
8C
  8
DIMNSIONS
 62
     7
 10
378.2708333333332
 20
254.96944444444449
 30
0.0
 40
13.57367621527778
  1
483
 41
0.7
 11
378.2708333333332
 21
268.54312065972232
 31
0.0
 73
     3
  0
LINE
  5
8D
  8
DIMNSIONS
  6
CONTINUOUS
 62
     7
 10
139.99999999999989
 20
450.0
 30
0.0
 11
90.0
 21
450.0
 31
0.0
  0
LINE
  5
8E
  8
DIMNSIONS
  6
CONTINUOUS
 62
     7
 10
159.99999999999989
 20
653.0
 30
0.0
 11
90.0
 21
653.0
 31
0.0
  0
LINE
  5
8F
  8
DIMNSIONS
  6
CONTINUOUS
 62
     7
 10
100.0
 20
450.0
 30
0.0
 11
100.0
 21
653.0
 31
0.0
  0
LINE
  5
90
  8
DIMNSIONS
  6
CONTINUOUS
 62
     7
 10
100.0
 20
450.0
 30
0.0
 11
96.649801024248788
 21
462.50311279296881
 31
0.0
  0
LINE
  5
91
  8
DIMNSIONS
  6
CONTINUOUS
 62
     7
 10
100.0
 20
450.0
 30
0.0
 11
103.3501989757512
 21
462.50311279296881
 31
0.0
  0
LINE
  5
92
  8
DIMNSIONS
  6
CONTINUOUS
 62
     7
 10
100.0
 20
653.0
 30
0.0
 11
103.3501989757512
 21
640.49688720703125
 31
0.0
  0
LINE
  5
93
  8
DIMNSIONS
  6
CONTINUOUS
 62
     7
 10
100.0
 20
653.0
 30
0.0
 11
96.649801024248788
 21
640.49688720703125
 31
0.0
  0
TEXT
  5
94
  8
DIMNSIONS
 62
     7
 10
95.030555555555509
 20
538.27083333333314
 30
0.0
 40
13.57367621527778
  1
203
 50
90.0
 41
0.7
 11
81.456879340277737
 21
538.27083333333314
 31
0.0
 73
     3
  0
LINE
  5
95
  8
DIMNSIONS
  6
CONTINUOUS
 62
     7
 10
139.99999999999989
 20
450.0
 30
0.0
 11
115.0
 21
450.0
 31
0.0
  0
LINE
  5
96
  8
DIMNSIONS
  6
CONTINUOUS
 62
     7
 10
139.99999999999989
 20
453.0
 30
0.0
 11
115.0
 21
453.0
 31
0.0
  0
LINE
  5
97
  8
DIMNSIONS
  6
CONTINUOUS
 62
     7
 10
125.0
 20
453.0
 30
0.0
 11
125.0
 21
450.0
 31
0.0
  0
LINE
  5
98
  8
DIMNSIONS
  6
CONTINUOUS
 62
     7
 10
125.0
 20
450.0
 30
0.0
 11
125.0
 21
425.0
 31
0.0
  0
LINE
  5
99
  8
DIMNSIONS
  6
CONTINUOUS
 62
     7
 10
125.0
 20
450.0
 30
0.0
 11
128.3501989757512
 21
437.49688720703119
 31
0.0
  0
LINE
  5
9A
  8
DIMNSIONS
  6
CONTINUOUS
 62
     7
 10
125.0
 20
450.0
 30
0.0
 11
121.6498010242488
 21
437.49688720703119
 31
0.0
  0
LINE
  5
9B
  8
DIMNSIONS
  6
CONTINUOUS
 62
     7
 10
125.0
 20
453.0
 30
0.0
 11
125.0
 21
474.31944444444451
 31
0.0
  0
LINE
  5
9C
  8
DIMNSIONS
  6
CONTINUOUS
 62
     7
 10
125.0
 20
453.0
 30
0.0
 11
121.6498010242488
 21
465.50311279296881
 31
0.0
  0
LINE
  5
9D
  8
DIMNSIONS
  6
CONTINUOUS
 62
     7
 10
125.0
 20
453.0
 30
0.0
 11
128.3501989757512
 21
465.50311279296881
 31
0.0
  0
TEXT
  5
9E
  8
DIMNSIONS
 62
     7
 10
120.03055555555549
 20
465.5
 30
0.0
 40
13.57367621527778
  1
3
 50
90.0
 41
0.7
 11
106.45687934027769
 21
465.5
 31
0.0
 73
     3
  0
LINE
  5
9F
  8
DIMNSIONS
  6
CONTINUOUS
 62
     7
 10
529.49999999999989
 20
447.0
 30
0.0
 11
90.0
 21
447.0
 31
0.0
  0
LINE
  5
A0
  8
DIMNSIONS
  6
CONTINUOUS
 62
     7
 10
139.99999999999989
 20
450.0
 30
0.0
 11
90.0
 21
450.0
 31
0.0
  0
LINE
  5
A1
  8
DIMNSIONS
  6
CONTINUOUS
 62
     7
 10
100.0
 20
450.0
 30
0.0
 11
100.0
 21
447.0
 31
0.0
  0
LINE
  5
A2
  8
DIMNSIONS
  6
CONTINUOUS
 62
     7
 10
100.0
 20
447.0
 30
0.0
 11
100.0
 21
428.68055555555537
 31
0.0
  0
LINE
  5
A3
  8
DIMNSIONS
  6
CONTINUOUS
 62
     7
 10
100.0
 20
447.0
 30
0.0
 11
103.3501989757512
 21
434.49688720703119
 31
0.0
  0
LINE
  5
A4
  8
DIMNSIONS
  6
CONTINUOUS
 62
     7
 10
100.0
 20
447.0
 30
0.0
 11
96.649801024248788
 21
434.49688720703119
 31
0.0
  0
LINE
  5
A5
  8
DIMNSIONS
  6
CONTINUOUS
 62
     7
 10
100.0
 20
450.0
 30
0.0
 11
100.0
 21
475.0
 31
0.0
  0
LINE
  5
A6
  8
DIMNSIONS
  6
CONTINUOUS
 62
     7
 10
100.0
 20
450.0
 30
0.0
 11
96.649801024248788
 21
462.50311279296881
 31
0.0
  0
LINE
  5
A7
  8
DIMNSIONS
  6
CONTINUOUS
 62
     7
 10
100.0
 20
450.0
 30
0.0
 11
103.3501989757512
 21
462.50311279296881
 31
0.0
  0
TEXT
  5
A8
  8
DIMNSIONS
 62
     7
 10
95.030555555555509
 20
428.68055555555537
 30
0.0
 40
13.57367621527778
  1
3
 50
90.0
 41
0.7
 11
81.456879340277737
 21
428.68055555555537
 31
0.0
 73
     3
  0
LINE
  5
A9
  8
DIMNSIONS
  6
CONTINUOUS
 62
     7
 10
169.99999999999989
 20
663.0
 30
0.0
 11
169.99999999999989
 21
710.0
 31
0.0
  0
LINE
  5
AA
  8
DIMNSIONS
  6
CONTINUOUS
 62
     7
 10
613.0
 20
663.0
 30
0.0
 11
613.0
 21
710.0
 31
0.0
  0
LINE
  5
AB
  8
DIMNSIONS
  6
CONTINUOUS
 62
     7
 10
169.99999999999989
 20
700.0
 30
0.0
 11
613.0
 21
700.0
 31
0.0
  0
LINE
  5
AC
  8
DIMNSIONS
  6
CONTINUOUS
 62
     7
 10
169.99999999999989
 20
700.0
 30
0.0
 11
182.50311279296869
 21
703.35019897575114
 31
0.0
  0
LINE
  5
AD
  8
DIMNSIONS
  6
CONTINUOUS
 62
     7
 10
169.99999999999989
 20
700.0
 30
0.0
 11
182.50311279296869
 21
696.64980102424886
 31
0.0
  0
LINE
  5
AE
  8
DIMNSIONS
  6
CONTINUOUS
 62
     7
 10
613.0
 20
700.0
 30
0.0
 11
600.49688720703125
 21
696.64980102424886
 31
0.0
  0
LINE
  5
AF
  8
DIMNSIONS
  6
CONTINUOUS
 62
     7
 10
613.0
 20
700.0
 30
0.0
 11
600.49688720703125
 21
703.35019897575114
 31
0.0
  0
TEXT
  5
B0
  8
DIMNSIONS
 62
     7
 10
374.27083333333331
 20
704.96944444444466
 30
0.0
 40
13.57367621527778
  1
443
 41
0.7
 11
374.27083333333331
 21
718.54312065972249
 31
0.0
 73
     3
  0
LINE
  5
B1
  8
DIMNSIONS
  6
CONTINUOUS
 62
     7
 10
142.5
 20
300.0
 30
0.0
 11
90.0
 21
300.0
 31
0.0
  0
LINE
  5
B2
  8
DIMNSIONS
  6
CONTINUOUS
 62
     7
 10
142.5
 20
344.99999999999989
 30
0.0
 11
90.0
 21
344.99999999999989
 31
0.0
  0
LINE
  5
B3
  8
DIMNSIONS
  6
CONTINUOUS
 62
     7
 10
100.0
 20
300.0
 30
0.0
 11
100.0
 21
344.99999999999989
 31
0.0
  0
LINE
  5
B4
  8
DIMNSIONS
  6
CONTINUOUS
 62
     7
 10
100.0
 20
300.0
 30
0.0
 11
96.649801024248788
 21
312.50311279296881
 31
0.0
  0
LINE
  5
B5
  8
DIMNSIONS
  6
CONTINUOUS
 62
     7
 10
100.0
 20
300.0
 30
0.0
 11
103.3501989757512
 21
312.50311279296881
 31
0.0
  0
LINE
  5
B6
  8
DIMNSIONS
  6
CONTINUOUS
 62
     7
 10
100.0
 20
344.99999999999989
 30
0.0
 11
103.3501989757512
 21
332.49688720703119
 31
0.0
  0
LINE
  5
B7
  8
DIMNSIONS
  6
CONTINUOUS
 62
     7
 10
100.0
 20
344.99999999999989
 30
0.0
 11
96.649801024248788
 21
332.49688720703119
 31
0.0
  0
TEXT
  5
B8
  8
DIMNSIONS
 62
     7
 10
95.030555555555509
 20
313.6805555555556
 30
0.0
 40
13.57367621527778
  1
45
 50
90.0
 41
0.7
 11
81.456879340277737
 21
313.6805555555556
 31
0.0
 73
     3
  0
LINE
  5
B9
  8
DIMNSIONS
  6
CONTINUOUS
 62
     7
 10
159.99999999999989
 20
653.0
 30
0.0
 11
90.0
 21
653.0
 31
0.0
  0
LINE
  5
BA
  8
DIMNSIONS
  6
CONTINUOUS
 62
     7
 10
378.9915959048883
 20
673.0
 30
0.0
 11
90.0
 21
673.0
 31
0.0
  0
LINE
  5
BB
  8
DIMNSIONS
  6
CONTINUOUS
 62
     7
 10
100.0
 20
673.0
 30
0.0
 11
100.0
 21
653.0
 31
0.0
  0
LINE
  5
BC
  8
DIMNSIONS
  6
CONTINUOUS
 62
     7
 10
100.0
 20
653.0
 30
0.0
 11
100.0
 21
628.0
 31
0.0
  0
LINE
  5
BD
  8
DIMNSIONS
  6
CONTINUOUS
 62
     7
 10
100.0
 20
653.0
 30
0.0
 11
103.3501989757512
 21
640.49688720703125
 31
0.0
  0
LINE
  5
BE
  8
DIMNSIONS
  6
CONTINUOUS
 62
     7
 10
100.0
 20
653.0
 30
0.0
 11
96.649801024248788
 21
640.49688720703125
 31
0.0
  0
LINE
  5
BF
  8
DIMNSIONS
  6
CONTINUOUS
 62
     7
 10
100.0
 20
673.0
 30
0.0
 11
100.0
 21
705.1388888888888
 31
0.0
  0
LINE
  5
C0
  8
DIMNSIONS
  6
CONTINUOUS
 62
     7
 10
100.0
 20
673.0
 30
0.0
 11
96.649801024248788
 21
685.50311279296875
 31
0.0
  0
LINE
  5
C1
  8
DIMNSIONS
  6
CONTINUOUS
 62
     7
 10
100.0
 20
673.0
 30
0.0
 11
103.3501989757512
 21
685.50311279296875
 31
0.0
  0
TEXT
  5
C2
  8
DIMNSIONS
 62
     7
 10
95.030555555555509
 20
687.5
 30
0.0
 40
13.57367621527778
  1
20
 50
90.0
 41
0.7
 11
81.456879340277737
 21
687.5
 31
0.0
 73
     3
  0
TEXT
  5
C3
  8
DATA
 62
     7
 10
747.24608828161604
 20
105.65445
 30
0.0
 40
12.21630859375
  1
iD
 41
0.7
 11
747.24608828161604
 21
117.87075859375
 31
0.0
 73
     3
  0
TEXT
  5
C4
  8
DATA
 62
     7
 10
750.0
 20
141.90445
 30
0.0
 40
12.21630859375
  1
MUTEC
 41
0.7
 11
750.0
 21
154.12075859375
 31
0.0
 73
     3
  0
TEXT
  5
C5
  8
DATA
 62
     7
 10
100.0
 20
71.190000000000111
 30
0.0
 40
8.1442057291666661
  1
仕様および外観は予告なく変更されることがありますので、ご了承ください。
 41
0.7
 11
100.0
 21
79.334205729166783
 31
0.0
 73
     3
  0
ARC
  5
C6
  8
DATA
  6
CONTINUOUS
 62
     7
 10
152.5
 20
302.5
 30
0.0
 40
2.5
 50
180.0
 51
270.0
  0
LINE
  5
C7
  8
DATA
  6
CONTINUOUS
 62
     7
 10
630.49999999999989
 20
300.0
 30
0.0
 11
152.5
 21
300.0
 31
0.0
  0
ARC
  5
C8
  8
DATA
  6
CONTINUOUS
 62
     7
 10
630.49999999999989
 20
302.5
 30
0.0
 40
2.5
 50
270.0
 51
0.0
  0
ARC
  5
C9
  8
DATA
  6
CONTINUOUS
 62
     7
 10
630.49999999999989
 20
342.5
 30
0.0
 40
2.5
 50
0.0
 51
90.0
  0
LINE
  5
CA
  8
DATA
  6
CONTINUOUS
 62
     7
 10
152.5
 20
345.0
 30
0.0
 11
630.49999999999989
 21
345.0
 31
0.0
  0
ARC
  5
CB
  8
DATA
  6
CONTINUOUS
 62
     7
 10
152.5
 20
342.49999999999989
 30
0.0
 40
2.500000000000056
 50
90.0
 51
179.99999999999869
  0
LINE
  5
CC
  8
DATA
  6
CONTINUOUS
 62
     7
 10
633.0
 20
450.0
 30
0.0
 11
149.99999999999989
 21
450.0
 31
0.0
  0
ARC
  5
CD
  8
DATA
  6
CONTINUOUS
 62
     7
 10
156.99999999999989
 20
338.14999999999998
 30
0.0
 40
3.0
 50
90.0
 51
270.0
  0
ARC
  5
CE
  8
DATA
  6
CONTINUOUS
 62
     7
 10
160.99999999999989
 20
338.14999999999998
 30
0.0
 40
3.0
 50
270.0
 51
90.0
  0
LINE
  5
CF
  8
DATA
  6
CONTINUOUS
 62
     7
 10
156.99999999999989
 20
341.14999999999998
 30
0.0
 11
161.0499999999999
 21
341.14999999999998
 31
0.0
  0
LINE
  5
D0
  8
DATA
  6
CONTINUOUS
 62
     7
 10
160.99999999999989
 20
335.14999999999998
 30
0.0
 11
156.89999999999989
 21
335.14999999999998
 31
0.0
  0
ARC
  5
D1
  8
DATA
  6
CONTINUOUS
 62
     7
 10
156.99999999999989
 20
306.35000000000002
 30
0.0
 40
3.0
 50
90.0
 51
270.0
  0
ARC
  5
D2
  8
DATA
  6
CONTINUOUS
 62
     7
 10
160.99999999999989
 20
306.35000000000002
 30
0.0
 40
3.0
 50
270.0
 51
90.0
  0
LINE
  5
D3
  8
DATA
  6
CONTINUOUS
 62
     7
 10
156.99999999999989
 20
309.35000000000002
 30
0.0
 11
161.0499999999999
 21
309.35000000000002
 31
0.0
  0
LINE
  5
D4
  8
DATA
  6
CONTINUOUS
 62
     7
 10
160.99999999999989
 20
303.35000000000002
 30
0.0
 11
156.89999999999989
 21
303.35000000000002
 31
0.0
  0
ARC
  5
D5
  8
DATA
  6
CONTINUOUS
 62
     7
 10
622.0
 20
338.14999999999998
 30
0.0
 40
3.0
 50
90.0
 51
270.0
  0
ARC
  5
D6
  8
DATA
  6
CONTINUOUS
 62
     7
 10
626.0
 20
338.14999999999998
 30
0.0
 40
3.0
 50
270.0
 51
90.0
  0
LINE
  5
D7
  8
DATA
  6
CONTINUOUS
 62
     7
 10
622.0
 20
341.14999999999998
 30
0.0
 11
626.04999999999995
 21
341.14999999999998
 31
0.0
  0
LINE
  5
D8
  8
DATA
  6
CONTINUOUS
 62
     7
 10
626.0
 20
335.14999999999998
 30
0.0
 11
621.89999999999998
 21
335.14999999999998
 31
0.0
  0
ARC
  5
D9
  8
DATA
  6
CONTINUOUS
 62
     7
 10
622.0
 20
306.35000000000002
 30
0.0
 40
3.0
 50
90.0
 51
270.0
  0
ARC
  5
DA
  8
DATA
  6
CONTINUOUS
 62
     7
 10
626.0
 20
306.35000000000002
 30
0.0
 40
3.0
 50
270.0
 51
90.0
  0
LINE
  5
DB
  8
DATA
  6
CONTINUOUS
 62
     7
 10
622.0
 20
309.35000000000002
 30
0.0
 11
626.04999999999995
 21
309.35000000000002
 31
0.0
  0
LINE
  5
DC
  8
DATA
  6
CONTINUOUS
 62
     7
 10
626.0
 20
303.35000000000002
 30
0.0
 11
621.89999999999998
 21
303.35000000000002
 31
0.0
  0
CIRCLE
  5
DD
  8
DATA
  6
CONTINUOUS
 62
     7
 10
186.1675107452113
 20
333.75
 30
0.0
 40
4.0
  0
CIRCLE
  5
DE
  8
DATA
  6
CONTINUOUS
 62
     7
 10
186.1675107452113
 20
310.75
 30
0.0
 40
4.0
  0
CIRCLE
  5
DF
  8
DATA
  6
CONTINUOUS
 62
     7
 10
597.00913184519436
 20
333.75
 30
0.0
 40
4.0
  0
CIRCLE
  5
E0
  8
DATA
  6
CONTINUOUS
 62
     7
 10
597.00913184519436
 20
310.75
 30
0.0
 40
4.0
  0
POLYLINE
  5
E1
  8
DATA
  6
CONTINUOUS
 62
     7
 66
     1
 10
0.0
 20
0.0
 30
0.0
 70
     1
  0
VERTEX
  5
5DE
  8
DATA
  6
CONTINUOUS
 62
     7
 10
597.90402476243833
 20
335.30000000000001
 30
0.0
  0
VERTEX
  5
5DF
  8
DATA
  6
CONTINUOUS
 62
     7
 10
596.11423892795051
 20
335.2999999999999
 30
0.0
  0
VERTEX
  5
5E0
  8
DATA
  6
CONTINUOUS
 62
     7
 10
595.21934601070666
 20
333.75
 30
0.0
  0
VERTEX
  5
5E1
  8
DATA
  6
CONTINUOUS
 62
     7
 10
596.11423892795074
 20
332.19999999999999
 30
0.0
  0
VERTEX
  5
5E2
  8
DATA
  6
CONTINUOUS
 62
     7
 10
597.90402476243855
 20
332.19999999999999
 30
0.0
  0
VERTEX
  5
5E3
  8
DATA
  6
CONTINUOUS
 62
     7
 10
598.7989176796824
 20
333.75
 30
0.0
  0
SEQEND
  5
5E4
  8
DATA
  6
CONTINUOUS
 62
     7
  0
POLYLINE
  5
EA
  8
DATA
  6
CONTINUOUS
 62
     7
 66
     1
 10
0.0
 20
0.0
 30
0.0
 70
     1
  0
VERTEX
  5
5E5
  8
DATA
  6
CONTINUOUS
 62
     7
 10
597.90402476243833
 20
312.30000000000001
 30
0.0
  0
VERTEX
  5
5E6
  8
DATA
  6
CONTINUOUS
 62
     7
 10
596.11423892795051
 20
312.2999999999999
 30
0.0
  0
VERTEX
  5
5E7
  8
DATA
  6
CONTINUOUS
 62
     7
 10
595.21934601070666
 20
310.75
 30
0.0
  0
VERTEX
  5
5E8
  8
DATA
  6
CONTINUOUS
 62
     7
 10
596.11423892795074
 20
309.19999999999999
 30
0.0
  0
VERTEX
  5
5E9
  8
DATA
  6
CONTINUOUS
 62
     7
 10
597.90402476243855
 20
309.19999999999999
 30
0.0
  0
VERTEX
  5
5EA
  8
DATA
  6
CONTINUOUS
 62
     7
 10
598.7989176796824
 20
310.75
 30
0.0
  0
SEQEND
  5
5EB
  8
DATA
  6
CONTINUOUS
 62
     7
  0
POLYLINE
  5
F3
  8
DATA
  6
CONTINUOUS
 62
     7
 66
     1
 10
0.0
 20
0.0
 30
0.0
 70
     1
  0
VERTEX
  5
5EC
  8
DATA
  6
CONTINUOUS
 62
     7
 10
187.0624036624553
 20
335.30000000000001
 30
0.0
  0
VERTEX
  5
5ED
  8
DATA
  6
CONTINUOUS
 62
     7
 10
185.27261782796739
 20
335.2999999999999
 30
0.0
  0
VERTEX
  5
5EE
  8
DATA
  6
CONTINUOUS
 62
     7
 10
184.37772491072349
 20
333.75
 30
0.0
  0
VERTEX
  5
5EF
  8
DATA
  6
CONTINUOUS
 62
     7
 10
185.27261782796739
 20
332.19999999999999
 30
0.0
  0
VERTEX
  5
5F0
  8
DATA
  6
CONTINUOUS
 62
     7
 10
187.0624036624553
 20
332.19999999999999
 30
0.0
  0
VERTEX
  5
5F1
  8
DATA
  6
CONTINUOUS
 62
     7
 10
187.9572965796992
 20
333.75
 30
0.0
  0
SEQEND
  5
5F2
  8
DATA
  6
CONTINUOUS
 62
     7
  0
POLYLINE
  5
FC
  8
DATA
  6
CONTINUOUS
 62
     7
 66
     1
 10
0.0
 20
0.0
 30
0.0
 70
     1
  0
VERTEX
  5
5F3
  8
DATA
  6
CONTINUOUS
 62
     7
 10
187.0624036624553
 20
312.30000000000001
 30
0.0
  0
VERTEX
  5
5F4
  8
DATA
  6
CONTINUOUS
 62
     7
 10
185.27261782796739
 20
312.2999999999999
 30
0.0
  0
VERTEX
  5
5F5
  8
DATA
  6
CONTINUOUS
 62
     7
 10
184.37772491072349
 20
310.75
 30
0.0
  0
VERTEX
  5
5F6
  8
DATA
  6
CONTINUOUS
 62
     7
 10
185.27261782796739
 20
309.19999999999999
 30
0.0
  0
VERTEX
  5
5F7
  8
DATA
  6
CONTINUOUS
 62
     7
 10
187.0624036624553
 20
309.19999999999999
 30
0.0
  0
VERTEX
  5
5F8
  8
DATA
  6
CONTINUOUS
 62
     7
 10
187.9572965796992
 20
310.75
 30
0.0
  0
SEQEND
  5
5F9
  8
DATA
  6
CONTINUOUS
 62
     7
  0
LINE
  5
105
  8
DATA
  6
CONTINUOUS
 62
     7
 10
312.0
 20
313.5
 30
0.0
 11
312.0
 21
331.0
 31
0.0
  0
LINE
  5
106
  8
DATA
  6
CONTINUOUS
 62
     7
 10
471.0
 20
313.5
 30
0.0
 11
471.0
 21
331.0
 31
0.0
  0
LINE
  5
107
  8
DATA
  6
CONTINUOUS
 62
     7
 10
313.5
 20
332.5
 30
0.0
 11
469.5
 21
332.5
 31
0.0
  0
LINE
  5
108
  8
DATA
  6
CONTINUOUS
 62
     7
 10
313.5
 20
312.0
 30
0.0
 11
469.5
 21
312.0
 31
0.0
  0
LINE
  5
109
  8
DATA
  6
CONTINUOUS
 62
     7
 10
556.0
 20
324.5
 30
0.0
 11
566.0
 21
324.5
 31
0.0
  0
ARC
  5
10A
  8
DATA
  6
CONTINUOUS
 62
     7
 10
573.06106557377075
 20
325.99127634660408
 30
0.0
 40
17.126116420673029
 50
142.63069748307069
 51
184.99542248349579
  0
ARC
  5
10B
  8
DATA
  6
CONTINUOUS
 62
     7
 10
548.93893442622925
 20
325.99127634660408
 30
0.0
 40
17.126116420673029
 50
355.00457751650418
 51
37.369302516929316
  0
ARC
  5
10C
  8
DATA
  6
CONTINUOUS
 62
     7
 10
561.0
 20
335.20242214064223
 30
0.0
 40
1.949999999999976
 50
37.369302516928549
 51
142.63069748307149
  0
LINE
  5
10D
  8
DATA
  6
CONTINUOUS
 62
     7
 10
556.0
 20
320.0
 30
0.0
 11
566.0
 21
320.0
 31
0.0
  0
ARC
  5
10E
  8
DATA
  6
CONTINUOUS
 62
     7
 10
573.06106557377075
 20
318.5087236533958
 30
0.0
 40
17.126116420673029
 50
175.00457751650421
 51
217.36930251692931
  0
ARC
  5
10F
  8
DATA
  6
CONTINUOUS
 62
     7
 10
548.93893442622925
 20
318.5087236533958
 30
0.0
 40
17.126116420673029
 50
322.63069748307061
 51
4.9954224834958163
  0
ARC
  5
110
  8
DATA
  6
CONTINUOUS
 62
     7
 10
561.0
 20
309.29757785935777
 30
0.0
 40
1.949999999999982
 50
217.3693025169284
 51
322.6306974830714
  0
LINE
  5
111
  8
DATA
  6
CONTINUOUS
 62
     7
 10
569.47965452699759
 20
327.23367206769802
 30
0.0
 11
569.47965452699759
 21
317.23367206769802
 31
0.0
  0
ARC
  5
112
  8
DATA
  6
CONTINUOUS
 62
     7
 10
570.97093087360145
 20
310.17260649392728
 30
0.0
 40
17.126116420673029
 50
52.630697483070662
 51
94.995422483495815
  0
ARC
  5
113
  8
DATA
  6
CONTINUOUS
 62
     7
 10
570.97093087360145
 20
334.29473764146883
 30
0.0
 40
17.126116420673029
 50
265.00457751650413
 51
307.36930251692928
  0
ARC
  5
114
  8
DATA
  6
CONTINUOUS
 62
     7
 10
580.18207666763976
 20
322.23367206769802
 30
0.0
 40
1.9499999999999711
 50
307.36930251692883
 51
52.630697483071351
  0
LINE
  5
115
  8
DATA
  6
CONTINUOUS
 62
     7
 10
552.52034547300241
 20
327.23367206769802
 30
0.0
 11
552.52034547300241
 21
317.23367206769802
 31
0.0
  0
ARC
  5
116
  8
DATA
  6
CONTINUOUS
 62
     7
 10
551.02906912639833
 20
310.17260649392728
 30
0.0
 40
17.126116420673029
 50
85.004577516504128
 51
127.3693025169293
  0
ARC
  5
117
  8
DATA
  6
CONTINUOUS
 62
     7
 10
551.02906912639833
 20
334.29473764146883
 30
0.0
 40
17.126116420673029
 50
232.63069748307069
 51
274.99542248349582
  0
ARC
  5
118
  8
DATA
  6
CONTINUOUS
 62
     7
 10
541.81792333236012
 20
322.23367206769802
 30
0.0
 40
1.9499999999999711
 50
127.3693025169287
 51
232.63069748307129
  0
TEXT
  5
119
  8
DATA
 62
     7
 10
568.87515554701156
 20
312.51517782904131
 30
0.0
 40
3.0868055555555549
  1
ENTER
 41
0.7
 11
568.87515554701156
 21
315.60198338459679
 31
0.0
 73
     3
  0
ARC
  5
11A
  8
DATA
  6
CONTINUOUS
 62
     7
 10
139.98183453236831
 20
-19.330503597128882
 30
0.0
 40
500.03409602598089
 50
46.303546564406503
 51
46.686520426836992
  0
ARC
  5
11B
  8
DATA
  6
CONTINUOUS
 62
     7
 10
438.23040745313722
 20
349.31070827253342
 30
0.0
 40
52.762141301449653
 50
290.83879060286688
 51
340.40415731986332
  0
ARC
  5
11C
  8
DATA
  6
CONTINUOUS
 62
     7
 10
478.51584208793503
 20
334.96900387693989
 30
0.0
 40
10.000000000000041
 50
340.40415731986371
 51
46.303546564406481
  0
LINE
  5
11D
  8
DATA
  6
CONTINUOUS
 62
     7
 10
510.22221328990952
 20
344.5
 30
0.0
 11
515.95148514225514
 21
338.77072814765449
 31
0.0
  0
ARC
  5
11E
  8
DATA
  6
CONTINUOUS
 62
     7
 10
436.813383321532
 20
388.14422281683289
 30
0.0
 40
101.5404065126997
 50
299.76482233358848
 51
321.93113410621839
  0
ARC
  5
11F
  8
DATA
  6
CONTINUOUS
 62
     7
 10
508.88041733038949
 20
331.69966033578908
 30
0.0
 40
10.00000000000006
 50
321.93113410621879
 51
45.000000000000057
  0
CIRCLE
  5
120
  8
DATA
  6
CONTINUOUS
 62
     7
 10
491.0
 20
333.5
 30
0.0
 40
1.75
  0
CIRCLE
  5
121
  8
DATA
  6
CONTINUOUS
 62
     7
 10
489.14294646925038
 20
327.0
 30
0.0
 40
1.75
  0
CIRCLE
  5
122
  8
DATA
  6
CONTINUOUS
 62
     7
 10
485.95942613082252
 20
320.5
 30
0.0
 40
1.75
  0
CIRCLE
  5
123
  8
DATA
  6
CONTINUOUS
 62
     7
 10
522.36898072175825
 20
333.50527761977747
 30
0.0
 40
1.75
  0
CIRCLE
  5
124
  8
DATA
  6
CONTINUOUS
 62
     7
 10
521.26053375816855
 20
326.98953889196719
 30
0.0
 40
1.75
  0
CIRCLE
  5
125
  8
DATA
  6
CONTINUOUS
 62
     7
 10
513.2882524808723
 20
316.0
 30
0.0
 40
1.75
  0
CIRCLE
  5
126
  8
DATA
  6
CONTINUOUS
 62
     7
 10
506.9169571741262
 20
310.0
 30
0.0
 40
1.7500000000000111
  0
CIRCLE
  5
127
  8
DATA
  6
CONTINUOUS
 62
     7
 10
499.3281639730763
 20
304.0
 30
0.0
 40
1.75
  0
TEXT
  5
128
  8
DATA
 62
     7
 10
494.20278118502222
 20
332.16958759238878
 30
0.0
 40
3.0868055555555549
  1
LOCK REF.1
 41
0.7
 11
494.20278118502222
 21
335.25639314794432
 31
0.0
 73
     3
  0
TEXT
  5
129
  8
DATA
 62
     7
 10
493.00695296255532
 20
325.37236877741088
 30
0.0
 40
2.7147352430555549
  1
LOCK REF.2
 41
0.7
 11
493.00695296255532
 21
328.08710402046643
 31
0.0
 73
     3
  0
TEXT
  5
12A
  8
DATA
 62
     7
 10
489.41946829515513
 20
318.97375936992199
 30
0.0
 40
2.7147352430555549
  1
LOCK REF.3
 41
0.7
 11
489.41946829515513
 21
321.68849461297748
 31
0.0
 73
     3
  0
TEXT
  5
12B
  8
DATA
 62
     7
 10
502.44218036518231
 20
302.31004101080572
 30
0.0
 40
2.7147352430555549
  1
FREEZE set
 41
0.7
 11
502.44218036518231
 21
305.02477625386132
 31
0.0
 73
     3
  0
TEXT
  5
12C
  8
DATA
 62
     7
 10
509.86726764518602
 20
308.2318450547246
 30
0.0
 40
2.7147352430555549
  1
ALARM set
 41
0.7
 11
509.86726764518602
 21
310.94658029778009
 31
0.0
 73
     3
  0
TEXT
  5
12D
  8
DATA
 62
     7
 10
516.13426605638654
 20
314.3833588103829
 30
0.0
 40
2.7147352430555549
  1
VARISPEED set
 41
0.7
 11
516.13426605638654
 21
317.09809405343839
 31
0.0
 73
     3
  0
TEXT
  5
12E
  8
DATA
 62
     7
 10
524.387279578125
 20
325.55146548737429
 30
0.0
 40
2.7147352430555549
  1
GENERATOR
 41
0.7
 11
524.387279578125
 21
328.26620073042989
 31
0.0
 73
     3
  0
TEXT
  5
12F
  8
DATA
 62
     7
 10
525.3800884776191
 20
331.93852034374459
 30
0.0
 40
2.7147352430555549
  1
DISTRIBUTOR 
 41
0.7
 11
525.3800884776191
 21
334.65325558680013
 31
0.0
 73
     3
  0
TEXT
  5
130
  8
DATA
 62
     7
 10
493.87739280238662
 20
337.63220031469098
 30
0.0
 40
2.7147352430555549
  1
STATUS
 41
0.7
 11
493.87739280238662
 21
340.34693555774652
 31
0.0
 73
     3
  0
ARC
  5
131
  8
DATA
  6
CONTINUOUS
 62
     7
 10
313.5
 20
331.0
 30
0.0
 40
1.5
 50
90.0
 51
180.0
  0
ARC
  5
132
  8
DATA
  6
CONTINUOUS
 62
     7
 10
313.5
 20
313.5
 30
0.0
 40
1.5
 50
180.0
 51
270.0
  0
ARC
  5
133
  8
DATA
  6
CONTINUOUS
 62
     7
 10
469.5
 20
331.0
 30
0.0
 40
1.5
 50
0.0
 51
90.0
  0
ARC
  5
134
  8
DATA
  6
CONTINUOUS
 62
     7
 10
469.5
 20
313.5
 30
0.0
 40
1.5
 50
270.0
 51
0.0
  0
LINE
  5
135
  8
DATA
  6
CONTINUOUS
 62
     7
 10
314.5
 20
330.0
 30
0.0
 11
468.5
 21
330.0
 31
0.0
  0
LINE
  5
136
  8
DATA
  6
CONTINUOUS
 62
     7
 10
314.5
 20
314.5
 30
0.0
 11
468.5
 21
314.5
 31
0.0
  0
LINE
  5
137
  8
DATA
  6
CONTINUOUS
 62
     7
 10
314.5
 20
314.5
 30
0.0
 11
314.5
 21
330.0
 31
0.0
  0
LINE
  5
138
  8
DATA
  6
CONTINUOUS
 62
     7
 10
468.5
 20
314.5
 30
0.0
 11
468.5
 21
330.0
 31
0.0
  0
LINE
  5
139
  8
DATA
  6
CONTINUOUS
 62
     7
 10
633.0
 20
453.0
 30
0.0
 11
149.99999999999989
 21
453.0
 31
0.0
  0
LINE
  5
13A
  8
DATA
  6
CONTINUOUS
 62
     7
 10
613.0
 20
653.0
 30
0.0
 11
169.99999999999989
 21
653.0
 31
0.0
  0
LINE
  5
13B
  8
DATA
  6
CONTINUOUS
 62
     7
 10
633.0
 20
453.0
 30
0.0
 11
633.0
 21
450.0
 31
0.0
  0
LINE
  5
13C
  8
DATA
  6
CONTINUOUS
 62
     7
 10
149.99999999999989
 20
453.0
 30
0.0
 11
149.99999999999989
 21
450.0
 31
0.0
  0
CIRCLE
  5
13D
  8
DATA
  6
CONTINUOUS
 62
     7
 10
175.99999999999989
 20
458.0
 30
0.0
 40
2.5
  0
LINE
  5
13E
  8
DATA
  6
CONTINUOUS
 62
     7
 10
174.51507575950811
 20
458.0
 30
0.0
 11
177.48492424049161
 21
458.0
 31
0.0
  0
LINE
  5
13F
  8
DATA
  6
CONTINUOUS
 62
     7
 10
175.99999999999989
 20
456.51507575950831
 30
0.0
 11
175.99999999999989
 21
459.48492424049169
 31
0.0
  0
CIRCLE
  5
140
  8
DATA
  6
CONTINUOUS
 62
     7
 10
314.5
 20
458.0
 30
0.0
 40
2.5
  0
LINE
  5
141
  8
DATA
  6
CONTINUOUS
 62
     7
 10
313.01507575950819
 20
458.0
 30
0.0
 11
315.98492424049169
 21
458.0
 31
0.0
  0
LINE
  5
142
  8
DATA
  6
CONTINUOUS
 62
     7
 10
314.5
 20
456.51507575950831
 30
0.0
 11
314.5
 21
459.48492424049169
 31
0.0
  0
CIRCLE
  5
143
  8
DATA
  6
CONTINUOUS
 62
     7
 10
468.5
 20
458.0
 30
0.0
 40
2.5
  0
LINE
  5
144
  8
DATA
  6
CONTINUOUS
 62
     7
 10
467.01507575950819
 20
458.0
 30
0.0
 11
469.98492424049158
 21
458.0
 31
0.0
  0
LINE
  5
145
  8
DATA
  6
CONTINUOUS
 62
     7
 10
468.5
 20
456.51507575950831
 30
0.0
 11
468.5
 21
459.48492424049169
 31
0.0
  0
CIRCLE
  5
146
  8
DATA
  6
CONTINUOUS
 62
     7
 10
607.0
 20
458.0
 30
0.0
 40
2.5
  0
LINE
  5
147
  8
DATA
  6
CONTINUOUS
 62
     7
 10
605.51507575950814
 20
458.0
 30
0.0
 11
608.48492424049164
 21
458.0
 31
0.0
  0
LINE
  5
148
  8
DATA
  6
CONTINUOUS
 62
     7
 10
607.0
 20
456.51507575950831
 30
0.0
 11
607.0
 21
459.48492424049169
 31
0.0
  0
CIRCLE
  5
149
  8
DATA
  6
CONTINUOUS
 62
     7
 10
175.99999999999989
 20
648.0
 30
0.0
 40
2.5
  0
LINE
  5
14A
  8
DATA
  6
CONTINUOUS
 62
     7
 10
174.51507575950811
 20
648.0
 30
0.0
 11
177.48492424049161
 21
648.0
 31
0.0
  0
LINE
  5
14B
  8
DATA
  6
CONTINUOUS
 62
     7
 10
175.99999999999989
 20
646.51507575950825
 30
0.0
 11
175.99999999999989
 21
649.48492424049175
 31
0.0
  0
CIRCLE
  5
14C
  8
DATA
  6
CONTINUOUS
 62
     7
 10
607.0
 20
648.0
 30
0.0
 40
2.5
  0
LINE
  5
14D
  8
DATA
  6
CONTINUOUS
 62
     7
 10
605.51507575950814
 20
648.0
 30
0.0
 11
608.48492424049164
 21
648.0
 31
0.0
  0
LINE
  5
14E
  8
DATA
  6
CONTINUOUS
 62
     7
 10
607.0
 20
646.51507575950825
 30
0.0
 11
607.0
 21
649.48492424049175
 31
0.0
  0
CIRCLE
  5
14F
  8
DATA
  6
CONTINUOUS
 62
     7
 10
314.5
 20
648.0
 30
0.0
 40
2.5
  0
LINE
  5
150
  8
DATA
  6
CONTINUOUS
 62
     7
 10
313.01507575950819
 20
648.0
 30
0.0
 11
315.98492424049169
 21
648.0
 31
0.0
  0
LINE
  5
151
  8
DATA
  6
CONTINUOUS
 62
     7
 10
314.5
 20
646.51507575950825
 30
0.0
 11
314.5
 21
649.48492424049175
 31
0.0
  0
CIRCLE
  5
152
  8
DATA
  6
CONTINUOUS
 62
     7
 10
468.5
 20
648.0
 30
0.0
 40
2.5
  0
LINE
  5
153
  8
DATA
  6
CONTINUOUS
 62
     7
 10
467.01507575950819
 20
648.0
 30
0.0
 11
469.98492424049158
 21
648.0
 31
0.0
  0
LINE
  5
154
  8
DATA
  6
CONTINUOUS
 62
     7
 10
468.5
 20
646.51507575950825
 30
0.0
 11
468.5
 21
649.48492424049175
 31
0.0
  0
ARC
  5
155
  8
DATA
  6
CONTINUOUS
 62
     7
 10
630.49999999978616
 20
842.49999999978604
 30
0.0
 40
2.5
 50
0.0
 51
90.0
  0
LINE
  5
156
  8
DATA
  6
CONTINUOUS
 62
     7
 10
152.49999999978601
 20
844.99999999978581
 30
0.0
 11
178.99999999978601
 21
844.99999999978581
 31
0.0
  0
LINE
  5
157
  8
DATA
  6
CONTINUOUS
 62
     7
 10
603.99999999978616
 20
844.99999999978581
 30
0.0
 11
630.49999999978616
 21
844.99999999978581
 31
0.0
  0
ARC
  5
158
  8
DATA
  6
CONTINUOUS
 62
     7
 10
152.49999999978601
 20
842.49999999978604
 30
0.0
 40
2.5
 50
90.0
 51
180.0
  0
ARC
  5
159
  8
DATA
  6
CONTINUOUS
 62
     7
 10
152.49999999978601
 20
802.49999999978593
 30
0.0
 40
2.5
 50
180.0
 51
270.0
  0
ARC
  5
15A
  8
DATA
  6
CONTINUOUS
 62
     7
 10
630.49999999978616
 20
802.49999999978593
 30
0.0
 40
2.500000000000056
 50
270.0
 51
359.99999999999869
  0
LINE
  5
15B
  8
DATA
  6
CONTINUOUS
 62
     7
 10
312.0
 20
449.0
 30
0.0
 11
471.0
 21
449.0
 31
0.0
  0
LINE
  5
15C
  8
DATA
  6
CONTINUOUS
 62
     7
 10
471.0
 20
449.0
 30
0.0
 11
471.0
 21
450.0
 31
0.0
  0
LINE
  5
15D
  8
DATA
  6
CONTINUOUS
 62
     7
 10
312.0
 20
449.0
 30
0.0
 11
312.0
 21
450.0
 31
0.0
  0
LINE
  5
15E
  8
DATA
  6
CONTINUOUS
 62
     7
 10
556.0
 20
447.0
 30
0.0
 11
566.0
 21
447.0
 31
0.0
  0
LINE
  5
15F
  8
DATA
  6
CONTINUOUS
 62
     7
 10
556.0
 20
447.0
 30
0.0
 11
556.0
 21
450.0
 31
0.0
  0
LINE
  5
160
  8
DATA
  6
CONTINUOUS
 62
     7
 10
566.0
 20
447.0
 30
0.0
 11
566.0
 21
450.0
 31
0.0
  0
LINE
  5
161
  8
DATA
  6
CONTINUOUS
 62
     7
 10
552.52034547300241
 20
447.0
 30
0.0
 11
552.52034547300241
 21
450.0
 31
0.0
  0
LINE
  5
162
  8
DATA
  6
CONTINUOUS
 62
     7
 10
539.5
 20
447.0
 30
0.0
 11
539.5
 21
450.0
 31
0.0
  0
LINE
  5
163
  8
DATA
  6
CONTINUOUS
 62
     7
 10
569.47965452699759
 20
447.0
 30
0.0
 11
569.47965452699759
 21
450.0
 31
0.0
  0
LINE
  5
164
  8
DATA
  6
CONTINUOUS
 62
     7
 10
582.35506686806457
 20
447.0
 30
0.0
 11
582.35506686806457
 21
450.0
 31
0.0
  0
LINE
  5
165
  8
DATA
  6
CONTINUOUS
 62
     7
 10
552.52034547300241
 20
447.0
 30
0.0
 11
539.5
 21
447.0
 31
0.0
  0
LINE
  5
166
  8
DATA
  6
CONTINUOUS
 62
     7
 10
569.47965452699759
 20
447.0
 30
0.0
 11
582.35506686806457
 21
447.0
 31
0.0
  0
LINE
  5
167
  8
DATA
  6
CONTINUOUS
 62
     7
 10
611.89999999978602
 20
801.59999999978595
 30
0.0
 11
171.09999999978601
 21
801.59999999978595
 31
0.0
  0
LINE
  5
168
  8
DATA
  6
CONTINUOUS
 62
     7
 10
171.09999999978601
 20
843.8999999997859
 30
0.0
 11
171.09999999978601
 21
801.59999999978595
 31
0.0
  0
LINE
  5
169
  8
DATA
  6
CONTINUOUS
 62
     7
 10
611.89999999978602
 20
843.8999999997859
 30
0.0
 11
611.89999999978602
 21
801.59999999978595
 31
0.0
  0
LINE
  5
16A
  8
DATA
  6
CONTINUOUS
 62
     7
 10
178.99999999978601
 20
843.8999999997859
 30
0.0
 11
178.99999999978601
 21
844.99999999978581
 31
0.0
  0
LINE
  5
16B
  8
DATA
  6
CONTINUOUS
 62
     7
 10
178.99999999978601
 20
843.8999999997859
 30
0.0
 11
171.09999999978601
 21
843.8999999997859
 31
0.0
  0
LINE
  5
16C
  8
DATA
  6
CONTINUOUS
 62
     7
 10
603.99999999978616
 20
843.8999999997859
 30
0.0
 11
603.99999999978616
 21
844.99999999978581
 31
0.0
  0
LINE
  5
16D
  8
DATA
  6
CONTINUOUS
 62
     7
 10
614.1999999997862
 20
844.99999999978581
 30
0.0
 11
603.99999999978616
 21
844.99999999978581
 31
0.0
  0
LINE
  5
16E
  8
DATA
  6
CONTINUOUS
 62
     7
 10
611.89999999978602
 20
843.8999999997859
 30
0.0
 11
603.99999999978616
 21
843.8999999997859
 31
0.0
  0
LINE
  5
16F
  8
DATA
  6
CONTINUOUS
 62
     7
 10
178.99999999978601
 20
843.8999999997859
 30
0.0
 11
603.99999999978616
 21
843.8999999997859
 31
0.0
  0
LINE
  5
170
  8
DATA
  6
CONTINUOUS
 62
     7
 10
184.99999999978601
 20
838.49999999978593
 30
0.0
 11
184.99999999978601
 21
805.49999999978593
 31
0.0
  0
LINE
  5
171
  8
DATA
  6
CONTINUOUS
 62
     7
 10
224.99999999978601
 20
838.49999999978593
 30
0.0
 11
224.99999999978601
 21
805.49999999978593
 31
0.0
  0
LINE
  5
172
  8
DATA
  6
CONTINUOUS
 62
     7
 10
184.99999999978601
 20
805.49999999978593
 30
0.0
 11
224.99999999978601
 21
805.49999999978593
 31
0.0
  0
LINE
  5
173
  8
DATA
  6
CONTINUOUS
 62
     7
 10
184.99999999978601
 20
838.49999999978593
 30
0.0
 11
224.99999999978601
 21
838.49999999978593
 31
0.0
  0
LINE
  5
174
  8
DATA
  6
CONTINUOUS
 62
     7
 10
222.299999999786
 20
836.299999999786
 30
0.0
 11
222.299999999786
 21
807.69999999978586
 31
0.0
  0
LINE
  5
175
  8
DATA
  6
CONTINUOUS
 62
     7
 10
188.299999999786
 20
833.8999999997859
 30
0.0
 11
188.299999999786
 21
810.09999999978595
 31
0.0
  0
LINE
  5
176
  8
DATA
  6
CONTINUOUS
 62
     7
 10
198.299999999786
 20
810.09999999978595
 30
0.0
 11
188.299999999786
 21
810.09999999978595
 31
0.0
  0
LINE
  5
177
  8
DATA
  6
CONTINUOUS
 62
     7
 10
198.299999999786
 20
833.8999999997859
 30
0.0
 11
188.299999999786
 21
833.8999999997859
 31
0.0
  0
LINE
  5
178
  8
DATA
  6
CONTINUOUS
 62
     7
 10
204.299999999786
 20
828.99999999978581
 30
0.0
 11
204.299999999786
 21
814.99999999978593
 31
0.0
  0
LINE
  5
179
  8
DATA
  6
CONTINUOUS
 62
     7
 10
208.699999999786
 20
836.299999999786
 30
0.0
 11
208.699999999786
 21
807.69999999978586
 31
0.0
  0
LINE
  5
17A
  8
DATA
  6
CONTINUOUS
 62
     7
 10
223.09999999978589
 20
805.49999999978593
 30
0.0
 11
206.99999999978601
 21
805.49999999978593
 31
0.0
  0
LINE
  5
17B
  8
DATA
  6
CONTINUOUS
 62
     7
 10
222.299999999786
 20
807.69999999978586
 30
0.0
 11
208.699999999786
 21
807.69999999978586
 31
0.0
  0
LINE
  5
17C
  8
DATA
  6
CONTINUOUS
 62
     7
 10
223.199999999786
 20
838.49999999978593
 30
0.0
 11
206.39999999978599
 21
838.49999999978593
 31
0.0
  0
LINE
  5
17D
  8
DATA
  6
CONTINUOUS
 62
     7
 10
222.299999999786
 20
836.299999999786
 30
0.0
 11
208.699999999786
 21
836.299999999786
 31
0.0
  0
LINE
  5
17E
  8
DATA
  6
CONTINUOUS
 62
     7
 10
204.299999999786
 20
814.99999999978593
 30
0.0
 11
198.299999999786
 21
810.09999999978595
 31
0.0
  0
LINE
  5
17F
  8
DATA
  6
CONTINUOUS
 62
     7
 10
198.299999999786
 20
833.8999999997859
 30
0.0
 11
204.299999999786
 21
828.99999999978581
 31
0.0
  0
LINE
  5
180
  8
DATA
  6
CONTINUOUS
 62
     7
 10
221.299999999786
 20
808.69999999978586
 30
0.0
 11
209.699999999786
 21
808.69999999978586
 31
0.0
  0
LINE
  5
181
  8
DATA
  6
CONTINUOUS
 62
     7
 10
221.299999999786
 20
835.29999999978611
 30
0.0
 11
209.699999999786
 21
835.29999999978611
 31
0.0
  0
LINE
  5
182
  8
DATA
  6
CONTINUOUS
 62
     7
 10
221.299999999786
 20
835.29999999978611
 30
0.0
 11
221.299999999786
 21
808.69999999978586
 31
0.0
  0
LINE
  5
183
  8
DATA
  6
CONTINUOUS
 62
     7
 10
209.699999999786
 20
835.29999999978611
 30
0.0
 11
209.699999999786
 21
808.69999999978586
 31
0.0
  0
TEXT
  5
184
  8
DATA
 62
     7
 10
213.7321180355745
 20
834.4012760859282
 30
0.0
 40
6.1736111111111107
  1
o
 50
270.0
 41
0.7
 11
219.90572914668559
 21
834.4012760859282
 31
0.0
 73
     3
  0
TEXT
  5
185
  8
DATA
 62
     7
 10
212.82084422927761
 20
812.61369535984113
 30
0.0
 40
5.4294704861111107
  1
I
 50
270.0
 41
0.7
 11
218.2503147153887
 21
812.61369535984113
 31
0.0
 73
     3
  0
POLYLINE
  5
186
  8
DATA
  6
CONTINUOUS
 62
     7
 66
     1
 10
0.0
 20
0.0
 30
0.0
 70
     1
  0
VERTEX
  5
5FA
  8
DATA
  6
CONTINUOUS
 62
     7
 10
196.42548102810539
 20
822.74999999978581
 30
0.0
  0
VERTEX
  5
5FB
  8
DATA
  6
CONTINUOUS
 62
     7
 10
200.42548102810539
 20
822.74999999978581
 30
0.0
  0
VERTEX
  5
5FC
  8
DATA
  6
CONTINUOUS
 62
     7
 10
200.42548102810539
 20
821.24999999978593
 30
0.0
  0
VERTEX
  5
5FD
  8
DATA
  6
CONTINUOUS
 62
     7
 10
196.42548102810539
 20
821.24999999978593
 30
0.0
  0
SEQEND
  5
5FE
  8
DATA
  6
CONTINUOUS
 62
     7
  0
POLYLINE
  5
18D
  8
DATA
  6
CONTINUOUS
 62
     7
 66
     1
 10
0.0
 20
0.0
 30
0.0
 70
     1
  0
VERTEX
  5
5FF
  8
DATA
  6
CONTINUOUS
 62
     7
 10
191.22889673364691
 20
815.55846790297824
 30
0.0
  0
VERTEX
  5
600
  8
DATA
  6
CONTINUOUS
 62
     7
 10
195.22889673364691
 20
815.55846790297824
 30
0.0
  0
VERTEX
  5
601
  8
DATA
  6
CONTINUOUS
 62
     7
 10
195.22889673364691
 20
814.05846790297824
 30
0.0
  0
VERTEX
  5
602
  8
DATA
  6
CONTINUOUS
 62
     7
 10
191.22889673364691
 20
814.05846790297824
 30
0.0
  0
SEQEND
  5
603
  8
DATA
  6
CONTINUOUS
 62
     7
  0
POLYLINE
  5
194
  8
DATA
  6
CONTINUOUS
 62
     7
 66
     1
 10
0.0
 20
0.0
 30
0.0
 70
     1
  0
VERTEX
  5
604
  8
DATA
  6
CONTINUOUS
 62
     7
 10
191.22889673364691
 20
829.94153209659385
 30
0.0
  0
VERTEX
  5
605
  8
DATA
  6
CONTINUOUS
 62
     7
 10
195.22889673364691
 20
829.94153209659385
 30
0.0
  0
VERTEX
  5
606
  8
DATA
  6
CONTINUOUS
 62
     7
 10
195.22889673364691
 20
828.44153209659373
 30
0.0
  0
VERTEX
  5
607
  8
DATA
  6
CONTINUOUS
 62
     7
 10
191.22889673364691
 20
828.44153209659373
 30
0.0
  0
SEQEND
  5
608
  8
DATA
  6
CONTINUOUS
 62
     7
  0
TEXT
  5
19B
  8
DATA
 62
     7
 10
219.26960048607279
 20
842.86375860398527
 30
0.0
 40
3.0868055555555549
  1
MAINS IN 90-260V
 50
180.0
 41
0.7
 11
219.26960048607279
 21
839.77695304842962
 31
0.0
 73
     3
  0
CIRCLE
  5
19C
  8
DATA
  6
CONTINUOUS
 62
     7
 10
598.64832015144725
 20
828.49999999978593
 30
0.0
 40
10.0
  0
CIRCLE
  5
19D
  8
DATA
  6
CONTINUOUS
 62
     7
 10
577.99999999978616
 20
828.49999999978593
 30
0.0
 40
10.0
  0
CIRCLE
  5
19E
  8
DATA
  6
CONTINUOUS
 62
     7
 10
598.64832015144725
 20
828.49999999978593
 30
0.0
 40
5.0
  0
CIRCLE
  5
19F
  8
DATA
  6
CONTINUOUS
 62
     7
 10
577.99999999978616
 20
828.49999999978593
 30
0.0
 40
5.0
  0
CIRCLE
  5
1A0
  8
DATA
  6
CONTINUOUS
 62
     7
 10
598.64832015144725
 20
828.49999999978593
 30
0.0
 40
8.0
  0
CIRCLE
  5
1A1
  8
DATA
  6
CONTINUOUS
 62
     7
 10
577.99999999978616
 20
828.49999999978593
 30
0.0
 40
8.0
  0
POLYLINE
  5
1A2
  8
DATA
  6
CONTINUOUS
 62
     7
 66
     1
 10
0.0
 20
0.0
 30
0.0
 70
     1
  0
VERTEX
  5
609
  8
DATA
  6
CONTINUOUS
 62
     7
 10
597.19999999978609
 20
820.63219415963636
 30
0.0
  0
VERTEX
  5
60A
  8
DATA
  6
CONTINUOUS
 62
     7
 10
604.73787980522968
 20
823.31181503555968
 30
0.0
  0
VERTEX
  5
60B
  8
DATA
  6
CONTINUOUS
 62
     7
 10
606.18619995689096
 20
831.17962087570902
 30
0.0
  0
VERTEX
  5
60C
  8
DATA
  6
CONTINUOUS
 62
     7
 10
600.09664030310853
 20
836.36780583993561
 30
0.0
  0
VERTEX
  5
60D
  8
DATA
  6
CONTINUOUS
 62
     7
 10
592.55876049766471
 20
833.68818496401229
 30
0.0
  0
VERTEX
  5
60E
  8
DATA
  6
CONTINUOUS
 62
     7
 10
591.11044034600354
 20
825.82037912386261
 30
0.0
  0
SEQEND
  5
60F
  8
DATA
  6
CONTINUOUS
 62
     7
  0
POLYLINE
  5
1AB
  8
DATA
  6
CONTINUOUS
 62
     7
 66
     1
 10
0.0
 20
0.0
 30
0.0
 70
     1
  0
VERTEX
  5
610
  8
DATA
  6
CONTINUOUS
 62
     7
 10
576.55167984812476
 20
820.63219415963636
 30
0.0
  0
VERTEX
  5
611
  8
DATA
  6
CONTINUOUS
 62
     7
 10
584.08955965356836
 20
823.31181503555968
 30
0.0
  0
VERTEX
  5
612
  8
DATA
  6
CONTINUOUS
 62
     7
 10
585.53787980522975
 20
831.17962087570902
 30
0.0
  0
VERTEX
  5
613
  8
DATA
  6
CONTINUOUS
 62
     7
 10
579.44832015144721
 20
836.36780583993561
 30
0.0
  0
VERTEX
  5
614
  8
DATA
  6
CONTINUOUS
 62
     7
 10
571.91044034600338
 20
833.68818496401229
 30
0.0
  0
VERTEX
  5
615
  8
DATA
  6
CONTINUOUS
 62
     7
 10
570.46212019434233
 20
825.82037912386261
 30
0.0
  0
SEQEND
  5
616
  8
DATA
  6
CONTINUOUS
 62
     7
  0
CIRCLE
  5
1B4
  8
DATA
  6
CONTINUOUS
 62
     7
 10
598.64832015144736
 20
828.49999999978593
 30
0.0
 40
1.0
  0
CIRCLE
  5
1B5
  8
DATA
  6
CONTINUOUS
 62
     7
 10
577.99999999978616
 20
828.49999999978593
 30
0.0
 40
1.0
  0
LINE
  5
1B6
  8
DATA
  6
CONTINUOUS
 62
     7
 10
597.64832015144725
 20
833.99999999978593
 30
0.0
 11
599.64832015144725
 21
833.99999999978593
 31
0.0
  0
LINE
  5
1B7
  8
DATA
  6
CONTINUOUS
 62
     7
 10
599.64832015144725
 20
822.99999999978593
 30
0.0
 11
597.64832015144725
 21
822.99999999978593
 31
0.0
  0
LINE
  5
1B8
  8
DATA
  6
CONTINUOUS
 62
     7
 10
597.64832015144725
 20
822.99999999978593
 30
0.0
 11
597.64832015144725
 21
823.6010205142195
 31
0.0
  0
LINE
  5
1B9
  8
DATA
  6
CONTINUOUS
 62
     7
 10
597.64832015144725
 20
833.39897948535236
 30
0.0
 11
597.64832015144725
 21
833.99999999978593
 31
0.0
  0
LINE
  5
1BA
  8
DATA
  6
CONTINUOUS
 62
     7
 10
599.64832015144725
 20
833.99999999978593
 30
0.0
 11
599.64832015144725
 21
833.39897948535236
 31
0.0
  0
LINE
  5
1BB
  8
DATA
  6
CONTINUOUS
 62
     7
 10
599.64832015144725
 20
823.6010205142195
 30
0.0
 11
599.64832015144725
 21
822.99999999978593
 31
0.0
  0
LINE
  5
1BC
  8
DATA
  6
CONTINUOUS
 62
     7
 10
576.99999999978616
 20
822.99999999978593
 30
0.0
 11
576.99999999978616
 21
823.6010205142195
 31
0.0
  0
LINE
  5
1BD
  8
DATA
  6
CONTINUOUS
 62
     7
 10
576.99999999978616
 20
833.39897948535236
 30
0.0
 11
576.99999999978616
 21
833.99999999978593
 31
0.0
  0
LINE
  5
1BE
  8
DATA
  6
CONTINUOUS
 62
     7
 10
578.99999999978616
 20
833.99999999978593
 30
0.0
 11
578.99999999978616
 21
833.39897948535236
 31
0.0
  0
LINE
  5
1BF
  8
DATA
  6
CONTINUOUS
 62
     7
 10
578.99999999978616
 20
823.6010205142195
 30
0.0
 11
578.99999999978616
 21
822.99999999978593
 31
0.0
  0
LINE
  5
1C0
  8
DATA
  6
CONTINUOUS
 62
     7
 10
578.99999999978616
 20
822.99999999978593
 30
0.0
 11
576.99999999978616
 21
822.99999999978593
 31
0.0
  0
LINE
  5
1C1
  8
DATA
  6
CONTINUOUS
 62
     7
 10
578.99999999978616
 20
833.99999999978593
 30
0.0
 11
576.99999999978616
 21
833.99999999978593
 31
0.0
  0
CIRCLE
  5
1C2
  8
DATA
  6
CONTINUOUS
 62
     7
 10
556.99999999978604
 20
823.49999999978581
 30
0.0
 40
11.0
  0
CIRCLE
  5
1C3
  8
DATA
  6
CONTINUOUS
 62
     7
 10
556.99999999978604
 20
823.49999999978581
 30
0.0
 40
9.6499999999999755
  0
CIRCLE
  5
1C4
  8
DATA
  6
CONTINUOUS
 62
     7
 10
556.99999999978604
 20
823.49999999978581
 30
0.0
 40
7.8000000000000114
  0
CIRCLE
  5
1C5
  8
DATA
  6
CONTINUOUS
 62
     7
 10
556.99999999978604
 20
827.99999999978581
 30
0.0
 40
1.25
  0
CIRCLE
  5
1C6
  8
DATA
  6
CONTINUOUS
 62
     7
 10
561.49999999978604
 20
823.49999999978581
 30
0.0
 40
1.25
  0
CIRCLE
  5
1C7
  8
DATA
  6
CONTINUOUS
 62
     7
 10
552.49999999978604
 20
823.49999999978581
 30
0.0
 40
1.25
  0
CIRCLE
  5
1C8
  8
DATA
  6
CONTINUOUS
 62
     7
 10
533.99159590467434
 20
812.49216021405095
 30
0.0
 40
5.0
  0
CIRCLE
  5
1C9
  8
DATA
  6
CONTINUOUS
 62
     7
 10
533.99159590467434
 20
812.49216021405095
 30
0.0
 40
8.0
  0
POLYLINE
  5
1CA
  8
DATA
  6
CONTINUOUS
 62
     7
 66
     1
 10
0.0
 20
0.0
 30
0.0
 70
     1
  0
VERTEX
  5
617
  8
DATA
  6
CONTINUOUS
 62
     7
 10
532.54327575301318
 20
804.6243543739015
 30
0.0
  0
VERTEX
  5
618
  8
DATA
  6
CONTINUOUS
 62
     7
 10
540.08115555845677
 20
807.30397524982459
 30
0.0
  0
VERTEX
  5
619
  8
DATA
  6
CONTINUOUS
 62
     7
 10
541.52947571011816
 20
815.17178108997427
 30
0.0
  0
VERTEX
  5
61A
  8
DATA
  6
CONTINUOUS
 62
     7
 10
535.43991605633562
 20
820.35996605420075
 30
0.0
  0
VERTEX
  5
61B
  8
DATA
  6
CONTINUOUS
 62
     7
 10
527.9020362508918
 20
817.68034517827743
 30
0.0
  0
VERTEX
  5
61C
  8
DATA
  6
CONTINUOUS
 62
     7
 10
526.45371609923052
 20
809.81253933812786
 30
0.0
  0
SEQEND
  5
61D
  8
DATA
  6
CONTINUOUS
 62
     7
  0
CIRCLE
  5
1D3
  8
DATA
  6
CONTINUOUS
 62
     7
 10
533.99159590467445
 20
812.49216021405095
 30
0.0
 40
1.0
  0
CIRCLE
  5
1D4
  8
DATA
  6
CONTINUOUS
 62
     7
 10
533.99159590467434
 20
828.64550644765995
 30
0.0
 40
5.0
  0
CIRCLE
  5
1D5
  8
DATA
  6
CONTINUOUS
 62
     7
 10
533.99159590467434
 20
828.64550644765995
 30
0.0
 40
8.0
  0
POLYLINE
  5
1D6
  8
DATA
  6
CONTINUOUS
 62
     7
 66
     1
 10
0.0
 20
0.0
 30
0.0
 70
     1
  0
VERTEX
  5
61E
  8
DATA
  6
CONTINUOUS
 62
     7
 10
532.54327575301318
 20
820.77770060751027
 30
0.0
  0
VERTEX
  5
61F
  8
DATA
  6
CONTINUOUS
 62
     7
 10
540.08115555845677
 20
823.45732148343382
 30
0.0
  0
VERTEX
  5
620
  8
DATA
  6
CONTINUOUS
 62
     7
 10
541.52947571011816
 20
831.32512732358305
 30
0.0
  0
VERTEX
  5
621
  8
DATA
  6
CONTINUOUS
 62
     7
 10
535.43991605633562
 20
836.5133122878093
 30
0.0
  0
VERTEX
  5
622
  8
DATA
  6
CONTINUOUS
 62
     7
 10
527.9020362508918
 20
833.83369141188643
 30
0.0
  0
VERTEX
  5
623
  8
DATA
  6
CONTINUOUS
 62
     7
 10
526.45371609923052
 20
825.96588557173675
 30
0.0
  0
SEQEND
  5
624
  8
DATA
  6
CONTINUOUS
 62
     7
  0
CIRCLE
  5
1DF
  8
DATA
  6
CONTINUOUS
 62
     7
 10
533.99159590467445
 20
828.64550644765995
 30
0.0
 40
1.0
  0
CIRCLE
  5
1E0
  8
DATA
  6
CONTINUOUS
 62
     7
 10
513.99159590467434
 20
812.49216021405095
 30
0.0
 40
5.0
  0
CIRCLE
  5
1E1
  8
DATA
  6
CONTINUOUS
 62
     7
 10
513.99159590467434
 20
812.49216021405095
 30
0.0
 40
8.0
  0
POLYLINE
  5
1E2
  8
DATA
  6
CONTINUOUS
 62
     7
 66
     1
 10
0.0
 20
0.0
 30
0.0
 70
     1
  0
VERTEX
  5
625
  8
DATA
  6
CONTINUOUS
 62
     7
 10
512.54327575301306
 20
804.6243543739015
 30
0.0
  0
VERTEX
  5
626
  8
DATA
  6
CONTINUOUS
 62
     7
 10
520.08115555845689
 20
807.30397524982459
 30
0.0
  0
VERTEX
  5
627
  8
DATA
  6
CONTINUOUS
 62
     7
 10
521.52947571011805
 20
815.17178108997427
 30
0.0
  0
VERTEX
  5
628
  8
DATA
  6
CONTINUOUS
 62
     7
 10
515.43991605633562
 20
820.35996605420075
 30
0.0
  0
VERTEX
  5
629
  8
DATA
  6
CONTINUOUS
 62
     7
 10
507.90203625089168
 20
817.68034517827743
 30
0.0
  0
VERTEX
  5
62A
  8
DATA
  6
CONTINUOUS
 62
     7
 10
506.45371609923058
 20
809.81253933812786
 30
0.0
  0
SEQEND
  5
62B
  8
DATA
  6
CONTINUOUS
 62
     7
  0
CIRCLE
  5
1EB
  8
DATA
  6
CONTINUOUS
 62
     7
 10
513.99159590467445
 20
812.49216021405095
 30
0.0
 40
1.0
  0
CIRCLE
  5
1EC
  8
DATA
  6
CONTINUOUS
 62
     7
 10
513.99159590467434
 20
828.64550644765995
 30
0.0
 40
5.0
  0
CIRCLE
  5
1ED
  8
DATA
  6
CONTINUOUS
 62
     7
 10
513.99159590467434
 20
828.64550644765995
 30
0.0
 40
8.0
  0
POLYLINE
  5
1EE
  8
DATA
  6
CONTINUOUS
 62
     7
 66
     1
 10
0.0
 20
0.0
 30
0.0
 70
     1
  0
VERTEX
  5
62C
  8
DATA
  6
CONTINUOUS
 62
     7
 10
512.54327575301306
 20
820.77770060751027
 30
0.0
  0
VERTEX
  5
62D
  8
DATA
  6
CONTINUOUS
 62
     7
 10
520.08115555845689
 20
823.45732148343382
 30
0.0
  0
VERTEX
  5
62E
  8
DATA
  6
CONTINUOUS
 62
     7
 10
521.52947571011805
 20
831.32512732358305
 30
0.0
  0
VERTEX
  5
62F
  8
DATA
  6
CONTINUOUS
 62
     7
 10
515.43991605633562
 20
836.5133122878093
 30
0.0
  0
VERTEX
  5
630
  8
DATA
  6
CONTINUOUS
 62
     7
 10
507.90203625089168
 20
833.83369141188643
 30
0.0
  0
VERTEX
  5
631
  8
DATA
  6
CONTINUOUS
 62
     7
 10
506.45371609923058
 20
825.96588557173675
 30
0.0
  0
SEQEND
  5
632
  8
DATA
  6
CONTINUOUS
 62
     7
  0
CIRCLE
  5
1F7
  8
DATA
  6
CONTINUOUS
 62
     7
 10
513.99159590467445
 20
828.64550644765995
 30
0.0
 40
1.0
  0
CIRCLE
  5
1F8
  8
DATA
  6
CONTINUOUS
 62
     7
 10
493.9915959046744
 20
812.49216021405095
 30
0.0
 40
5.0
  0
CIRCLE
  5
1F9
  8
DATA
  6
CONTINUOUS
 62
     7
 10
493.9915959046744
 20
812.49216021405095
 30
0.0
 40
8.0
  0
POLYLINE
  5
1FA
  8
DATA
  6
CONTINUOUS
 62
     7
 66
     1
 10
0.0
 20
0.0
 30
0.0
 70
     1
  0
VERTEX
  5
633
  8
DATA
  6
CONTINUOUS
 62
     7
 10
492.54327575301312
 20
804.6243543739015
 30
0.0
  0
VERTEX
  5
634
  8
DATA
  6
CONTINUOUS
 62
     7
 10
500.08115555845689
 20
807.30397524982459
 30
0.0
  0
VERTEX
  5
635
  8
DATA
  6
CONTINUOUS
 62
     7
 10
501.52947571011811
 20
815.17178108997427
 30
0.0
  0
VERTEX
  5
636
  8
DATA
  6
CONTINUOUS
 62
     7
 10
495.43991605633551
 20
820.35996605420075
 30
0.0
  0
VERTEX
  5
637
  8
DATA
  6
CONTINUOUS
 62
     7
 10
487.90203625089168
 20
817.68034517827743
 30
0.0
  0
VERTEX
  5
638
  8
DATA
  6
CONTINUOUS
 62
     7
 10
486.45371609923058
 20
809.81253933812786
 30
0.0
  0
SEQEND
  5
639
  8
DATA
  6
CONTINUOUS
 62
     7
  0
CIRCLE
  5
203
  8
DATA
  6
CONTINUOUS
 62
     7
 10
493.99159590467451
 20
812.49216021405095
 30
0.0
 40
1.0
  0
CIRCLE
  5
204
  8
DATA
  6
CONTINUOUS
 62
     7
 10
493.9915959046744
 20
828.64550644765995
 30
0.0
 40
5.0
  0
CIRCLE
  5
205
  8
DATA
  6
CONTINUOUS
 62
     7
 10
493.9915959046744
 20
828.64550644765995
 30
0.0
 40
8.0
  0
POLYLINE
  5
206
  8
DATA
  6
CONTINUOUS
 62
     7
 66
     1
 10
0.0
 20
0.0
 30
0.0
 70
     1
  0
VERTEX
  5
63A
  8
DATA
  6
CONTINUOUS
 62
     7
 10
492.54327575301312
 20
820.77770060751027
 30
0.0
  0
VERTEX
  5
63B
  8
DATA
  6
CONTINUOUS
 62
     7
 10
500.08115555845689
 20
823.45732148343382
 30
0.0
  0
VERTEX
  5
63C
  8
DATA
  6
CONTINUOUS
 62
     7
 10
501.52947571011811
 20
831.32512732358305
 30
0.0
  0
VERTEX
  5
63D
  8
DATA
  6
CONTINUOUS
 62
     7
 10
495.43991605633551
 20
836.5133122878093
 30
0.0
  0
VERTEX
  5
63E
  8
DATA
  6
CONTINUOUS
 62
     7
 10
487.90203625089168
 20
833.83369141188643
 30
0.0
  0
VERTEX
  5
63F
  8
DATA
  6
CONTINUOUS
 62
     7
 10
486.45371609923058
 20
825.96588557173675
 30
0.0
  0
SEQEND
  5
640
  8
DATA
  6
CONTINUOUS
 62
     7
  0
CIRCLE
  5
20F
  8
DATA
  6
CONTINUOUS
 62
     7
 10
493.99159590467451
 20
828.64550644765995
 30
0.0
 40
1.0
  0
CIRCLE
  5
210
  8
DATA
  6
CONTINUOUS
 62
     7
 10
473.9915959046744
 20
812.49216021405095
 30
0.0
 40
5.0
  0
CIRCLE
  5
211
  8
DATA
  6
CONTINUOUS
 62
     7
 10
473.9915959046744
 20
812.49216021405095
 30
0.0
 40
8.0
  0
POLYLINE
  5
212
  8
DATA
  6
CONTINUOUS
 62
     7
 66
     1
 10
0.0
 20
0.0
 30
0.0
 70
     1
  0
VERTEX
  5
641
  8
DATA
  6
CONTINUOUS
 62
     7
 10
472.54327575301312
 20
804.6243543739015
 30
0.0
  0
VERTEX
  5
642
  8
DATA
  6
CONTINUOUS
 62
     7
 10
480.08115555845683
 20
807.30397524982459
 30
0.0
  0
VERTEX
  5
643
  8
DATA
  6
CONTINUOUS
 62
     7
 10
481.52947571011811
 20
815.17178108997427
 30
0.0
  0
VERTEX
  5
644
  8
DATA
  6
CONTINUOUS
 62
     7
 10
475.43991605633562
 20
820.35996605420075
 30
0.0
  0
VERTEX
  5
645
  8
DATA
  6
CONTINUOUS
 62
     7
 10
467.9020362508918
 20
817.68034517827743
 30
0.0
  0
VERTEX
  5
646
  8
DATA
  6
CONTINUOUS
 62
     7
 10
466.45371609923052
 20
809.81253933812786
 30
0.0
  0
SEQEND
  5
647
  8
DATA
  6
CONTINUOUS
 62
     7
  0
CIRCLE
  5
21B
  8
DATA
  6
CONTINUOUS
 62
     7
 10
473.99159590467451
 20
812.49216021405095
 30
0.0
 40
1.0
  0
CIRCLE
  5
21C
  8
DATA
  6
CONTINUOUS
 62
     7
 10
473.9915959046744
 20
828.64550644765995
 30
0.0
 40
5.0
  0
CIRCLE
  5
21D
  8
DATA
  6
CONTINUOUS
 62
     7
 10
473.9915959046744
 20
828.64550644765995
 30
0.0
 40
8.0
  0
POLYLINE
  5
21E
  8
DATA
  6
CONTINUOUS
 62
     7
 66
     1
 10
0.0
 20
0.0
 30
0.0
 70
     1
  0
VERTEX
  5
648
  8
DATA
  6
CONTINUOUS
 62
     7
 10
472.54327575301312
 20
820.77770060751027
 30
0.0
  0
VERTEX
  5
649
  8
DATA
  6
CONTINUOUS
 62
     7
 10
480.08115555845683
 20
823.45732148343382
 30
0.0
  0
VERTEX
  5
64A
  8
DATA
  6
CONTINUOUS
 62
     7
 10
481.52947571011811
 20
831.32512732358305
 30
0.0
  0
VERTEX
  5
64B
  8
DATA
  6
CONTINUOUS
 62
     7
 10
475.43991605633562
 20
836.5133122878093
 30
0.0
  0
VERTEX
  5
64C
  8
DATA
  6
CONTINUOUS
 62
     7
 10
467.9020362508918
 20
833.83369141188643
 30
0.0
  0
VERTEX
  5
64D
  8
DATA
  6
CONTINUOUS
 62
     7
 10
466.45371609923052
 20
825.96588557173675
 30
0.0
  0
SEQEND
  5
64E
  8
DATA
  6
CONTINUOUS
 62
     7
  0
CIRCLE
  5
227
  8
DATA
  6
CONTINUOUS
 62
     7
 10
473.99159590467451
 20
828.64550644765995
 30
0.0
 40
1.0
  0
CIRCLE
  5
228
  8
DATA
  6
CONTINUOUS
 62
     7
 10
453.99159590467428
 20
812.49216021405095
 30
0.0
 40
5.0
  0
CIRCLE
  5
229
  8
DATA
  6
CONTINUOUS
 62
     7
 10
453.99159590467428
 20
812.49216021405095
 30
0.0
 40
8.0
  0
POLYLINE
  5
22A
  8
DATA
  6
CONTINUOUS
 62
     7
 66
     1
 10
0.0
 20
0.0
 30
0.0
 70
     1
  0
VERTEX
  5
64F
  8
DATA
  6
CONTINUOUS
 62
     7
 10
452.54327575301318
 20
804.6243543739015
 30
0.0
  0
VERTEX
  5
650
  8
DATA
  6
CONTINUOUS
 62
     7
 10
460.08115555845683
 20
807.30397524982459
 30
0.0
  0
VERTEX
  5
651
  8
DATA
  6
CONTINUOUS
 62
     7
 10
461.52947571011811
 20
815.17178108997427
 30
0.0
  0
VERTEX
  5
652
  8
DATA
  6
CONTINUOUS
 62
     7
 10
455.43991605633562
 20
820.35996605420075
 30
0.0
  0
VERTEX
  5
653
  8
DATA
  6
CONTINUOUS
 62
     7
 10
447.9020362508918
 20
817.68034517827743
 30
0.0
  0
VERTEX
  5
654
  8
DATA
  6
CONTINUOUS
 62
     7
 10
446.45371609923052
 20
809.81253933812786
 30
0.0
  0
SEQEND
  5
655
  8
DATA
  6
CONTINUOUS
 62
     7
  0
CIRCLE
  5
233
  8
DATA
  6
CONTINUOUS
 62
     7
 10
453.9915959046744
 20
812.49216021405095
 30
0.0
 40
1.0
  0
CIRCLE
  5
234
  8
DATA
  6
CONTINUOUS
 62
     7
 10
453.99159590467428
 20
828.64550644765995
 30
0.0
 40
5.0
  0
CIRCLE
  5
235
  8
DATA
  6
CONTINUOUS
 62
     7
 10
453.99159590467428
 20
828.64550644765995
 30
0.0
 40
8.0
  0
POLYLINE
  5
236
  8
DATA
  6
CONTINUOUS
 62
     7
 66
     1
 10
0.0
 20
0.0
 30
0.0
 70
     1
  0
VERTEX
  5
656
  8
DATA
  6
CONTINUOUS
 62
     7
 10
452.54327575301318
 20
820.77770060751027
 30
0.0
  0
VERTEX
  5
657
  8
DATA
  6
CONTINUOUS
 62
     7
 10
460.08115555845683
 20
823.45732148343382
 30
0.0
  0
VERTEX
  5
658
  8
DATA
  6
CONTINUOUS
 62
     7
 10
461.52947571011811
 20
831.32512732358305
 30
0.0
  0
VERTEX
  5
659
  8
DATA
  6
CONTINUOUS
 62
     7
 10
455.43991605633562
 20
836.5133122878093
 30
0.0
  0
VERTEX
  5
65A
  8
DATA
  6
CONTINUOUS
 62
     7
 10
447.9020362508918
 20
833.83369141188643
 30
0.0
  0
VERTEX
  5
65B
  8
DATA
  6
CONTINUOUS
 62
     7
 10
446.45371609923052
 20
825.96588557173675
 30
0.0
  0
SEQEND
  5
65C
  8
DATA
  6
CONTINUOUS
 62
     7
  0
CIRCLE
  5
23F
  8
DATA
  6
CONTINUOUS
 62
     7
 10
453.9915959046744
 20
828.64550644765995
 30
0.0
 40
1.0
  0
CIRCLE
  5
240
  8
DATA
  6
CONTINUOUS
 62
     7
 10
433.99159590467428
 20
812.49216021405095
 30
0.0
 40
5.0
  0
CIRCLE
  5
241
  8
DATA
  6
CONTINUOUS
 62
     7
 10
433.99159590467428
 20
812.49216021405095
 30
0.0
 40
8.0
  0
POLYLINE
  5
242
  8
DATA
  6
CONTINUOUS
 62
     7
 66
     1
 10
0.0
 20
0.0
 30
0.0
 70
     1
  0
VERTEX
  5
65D
  8
DATA
  6
CONTINUOUS
 62
     7
 10
432.54327575301318
 20
804.6243543739015
 30
0.0
  0
VERTEX
  5
65E
  8
DATA
  6
CONTINUOUS
 62
     7
 10
440.08115555845683
 20
807.30397524982459
 30
0.0
  0
VERTEX
  5
65F
  8
DATA
  6
CONTINUOUS
 62
     7
 10
441.52947571011822
 20
815.17178108997427
 30
0.0
  0
VERTEX
  5
660
  8
DATA
  6
CONTINUOUS
 62
     7
 10
435.43991605633562
 20
820.35996605420075
 30
0.0
  0
VERTEX
  5
661
  8
DATA
  6
CONTINUOUS
 62
     7
 10
427.9020362508918
 20
817.68034517827743
 30
0.0
  0
VERTEX
  5
662
  8
DATA
  6
CONTINUOUS
 62
     7
 10
426.45371609923052
 20
809.81253933812786
 30
0.0
  0
SEQEND
  5
663
  8
DATA
  6
CONTINUOUS
 62
     7
  0
CIRCLE
  5
24B
  8
DATA
  6
CONTINUOUS
 62
     7
 10
433.99159590467451
 20
812.49216021405095
 30
0.0
 40
1.0
  0
CIRCLE
  5
24C
  8
DATA
  6
CONTINUOUS
 62
     7
 10
433.99159590467428
 20
828.64550644765995
 30
0.0
 40
5.0
  0
CIRCLE
  5
24D
  8
DATA
  6
CONTINUOUS
 62
     7
 10
433.99159590467428
 20
828.64550644765995
 30
0.0
 40
8.0
  0
POLYLINE
  5
24E
  8
DATA
  6
CONTINUOUS
 62
     7
 66
     1
 10
0.0
 20
0.0
 30
0.0
 70
     1
  0
VERTEX
  5
664
  8
DATA
  6
CONTINUOUS
 62
     7
 10
432.54327575301318
 20
820.77770060751027
 30
0.0
  0
VERTEX
  5
665
  8
DATA
  6
CONTINUOUS
 62
     7
 10
440.08115555845683
 20
823.45732148343382
 30
0.0
  0
VERTEX
  5
666
  8
DATA
  6
CONTINUOUS
 62
     7
 10
441.52947571011822
 20
831.32512732358305
 30
0.0
  0
VERTEX
  5
667
  8
DATA
  6
CONTINUOUS
 62
     7
 10
435.43991605633562
 20
836.5133122878093
 30
0.0
  0
VERTEX
  5
668
  8
DATA
  6
CONTINUOUS
 62
     7
 10
427.9020362508918
 20
833.83369141188643
 30
0.0
  0
VERTEX
  5
669
  8
DATA
  6
CONTINUOUS
 62
     7
 10
426.45371609923052
 20
825.96588557173675
 30
0.0
  0
SEQEND
  5
66A
  8
DATA
  6
CONTINUOUS
 62
     7
  0
CIRCLE
  5
257
  8
DATA
  6
CONTINUOUS
 62
     7
 10
433.99159590467451
 20
828.64550644765995
 30
0.0
 40
1.0
  0
CIRCLE
  5
258
  8
DATA
  6
CONTINUOUS
 62
     7
 10
566.56213334430345
 20
813.18786665526852
 30
0.0
 40
2.75
  0
LINE
  5
259
  8
DATA
  6
CONTINUOUS
 62
     7
 10
565.07503302385658
 20
813.18786665526852
 30
0.0
 11
568.04923366474725
 21
813.18786665526852
 31
0.0
  0
LINE
  5
25A
  8
DATA
  6
CONTINUOUS
 62
     7
 10
566.56213334430345
 20
811.70076633482211
 30
0.0
 11
566.56213334430345
 21
814.67496697571517
 31
0.0
  0
CIRCLE
  5
25B
  8
DATA
  6
CONTINUOUS
 62
     7
 10
546.7016210877581
 20
832.99867365508135
 30
0.0
 40
2.75
  0
LINE
  5
25C
  8
DATA
  6
CONTINUOUS
 62
     7
 10
545.21452076731146
 20
832.99867365508135
 30
0.0
 11
548.1887214082019
 21
832.99867365508135
 31
0.0
  0
LINE
  5
25D
  8
DATA
  6
CONTINUOUS
 62
     7
 10
546.7016210877581
 20
831.51157333463505
 30
0.0
 11
546.7016210877581
 21
834.48577397552799
 31
0.0
  0
CIRCLE
  5
25E
  8
DATA
  6
CONTINUOUS
 62
     7
 10
364.91964631779638
 20
824.48355616839842
 30
0.0
 40
11.0
  0
CIRCLE
  5
25F
  8
DATA
  6
CONTINUOUS
 62
     7
 10
364.91964631779638
 20
824.48355616839842
 30
0.0
 40
9.6499999999999755
  0
CIRCLE
  5
260
  8
DATA
  6
CONTINUOUS
 62
     7
 10
364.91964631779638
 20
824.48355616839842
 30
0.0
 40
7.8000000000000114
  0
CIRCLE
  5
261
  8
DATA
  6
CONTINUOUS
 62
     7
 10
364.91964631779638
 20
828.98355616839842
 30
0.0
 40
1.25
  0
CIRCLE
  5
262
  8
DATA
  6
CONTINUOUS
 62
     7
 10
369.41964631779638
 20
824.48355616839842
 30
0.0
 40
1.25
  0
CIRCLE
  5
263
  8
DATA
  6
CONTINUOUS
 62
     7
 10
360.41964631779638
 20
824.48355616839842
 30
0.0
 40
1.25
  0
CIRCLE
  5
264
  8
DATA
  6
CONTINUOUS
 62
     7
 10
374.48177966231373
 20
814.17142282388124
 30
0.0
 40
2.7499999999999849
  0
LINE
  5
265
  8
DATA
  6
CONTINUOUS
 62
     7
 10
372.9946793418672
 20
814.17142282388124
 30
0.0
 11
375.96887998275753
 21
814.17142282388124
 31
0.0
  0
LINE
  5
266
  8
DATA
  6
CONTINUOUS
 62
     7
 10
374.48177966231373
 20
812.68432250343471
 30
0.0
 11
374.48177966231373
 21
815.65852314432755
 31
0.0
  0
CIRCLE
  5
267
  8
DATA
  6
CONTINUOUS
 62
     7
 10
354.62126740576832
 20
833.98222982369418
 30
0.0
 40
2.75
  0
LINE
  5
268
  8
DATA
  6
CONTINUOUS
 62
     7
 10
353.13416708532168
 20
833.98222982369418
 30
0.0
 11
356.10836772621212
 21
833.98222982369418
 31
0.0
  0
LINE
  5
269
  8
DATA
  6
CONTINUOUS
 62
     7
 10
354.62126740576832
 20
832.49512950324765
 30
0.0
 11
354.62126740576832
 21
835.46933014414094
 31
0.0
  0
CIRCLE
  5
26A
  8
DATA
  6
CONTINUOUS
 62
     7
 10
340.91964631779632
 20
824.48355616839842
 30
0.0
 40
11.0
  0
CIRCLE
  5
26B
  8
DATA
  6
CONTINUOUS
 62
     7
 10
340.91964631779632
 20
824.48355616839842
 30
0.0
 40
9.6499999999999755
  0
CIRCLE
  5
26C
  8
DATA
  6
CONTINUOUS
 62
     7
 10
340.91964631779632
 20
824.48355616839842
 30
0.0
 40
7.8000000000000114
  0
CIRCLE
  5
26D
  8
DATA
  6
CONTINUOUS
 62
     7
 10
340.91964631779632
 20
828.98355616839842
 30
0.0
 40
1.25
  0
CIRCLE
  5
26E
  8
DATA
  6
CONTINUOUS
 62
     7
 10
345.41964631779632
 20
824.48355616839842
 30
0.0
 40
1.25
  0
CIRCLE
  5
26F
  8
DATA
  6
CONTINUOUS
 62
     7
 10
336.41964631779632
 20
824.48355616839842
 30
0.0
 40
1.25
  0
CIRCLE
  5
270
  8
DATA
  6
CONTINUOUS
 62
     7
 10
350.48177966231373
 20
814.17142282388124
 30
0.0
 40
2.75
  0
LINE
  5
271
  8
DATA
  6
CONTINUOUS
 62
     7
 10
348.9946793418672
 20
814.17142282388124
 30
0.0
 11
351.96887998275753
 21
814.17142282388124
 31
0.0
  0
LINE
  5
272
  8
DATA
  6
CONTINUOUS
 62
     7
 10
350.48177966231373
 20
812.68432250343471
 30
0.0
 11
350.48177966231373
 21
815.65852314432755
 31
0.0
  0
CIRCLE
  5
273
  8
DATA
  6
CONTINUOUS
 62
     7
 10
330.62126740576832
 20
833.98222982369418
 30
0.0
 40
2.75
  0
LINE
  5
274
  8
DATA
  6
CONTINUOUS
 62
     7
 10
329.13416708532168
 20
833.98222982369418
 30
0.0
 11
332.10836772621212
 21
833.98222982369418
 31
0.0
  0
LINE
  5
275
  8
DATA
  6
CONTINUOUS
 62
     7
 10
330.62126740576832
 20
832.49512950324765
 30
0.0
 11
330.62126740576832
 21
835.46933014414094
 31
0.0
  0
CIRCLE
  5
276
  8
DATA
  6
CONTINUOUS
 62
     7
 10
319.9999999997861
 20
815.49999999978581
 30
0.0
 40
4.1500000000000048
  0
CIRCLE
  5
277
  8
DATA
  6
CONTINUOUS
 62
     7
 10
319.9999999997861
 20
815.49999999978581
 30
0.0
 40
1.650000000000005
  0
CIRCLE
  5
278
  8
DATA
  6
CONTINUOUS
 62
     7
 10
319.9999999997861
 20
830.49999999978593
 30
0.0
 40
4.1500000000000048
  0
CIRCLE
  5
279
  8
DATA
  6
CONTINUOUS
 62
     7
 10
319.9999999997861
 20
830.49999999978593
 30
0.0
 40
1.650000000000005
  0
LINE
  5
27A
  8
DATA
  6
CONTINUOUS
 62
     7
 10
233.9999999997861
 20
802.69999999978597
 30
0.0
 11
233.9999999997861
 21
836.49999999978593
 31
0.0
  0
LINE
  5
27B
  8
DATA
  6
CONTINUOUS
 62
     7
 10
283.9999999997861
 20
802.69999999978597
 30
0.0
 11
283.9999999997861
 21
836.49999999978593
 31
0.0
  0
LINE
  5
27C
  8
DATA
  6
CONTINUOUS
 62
     7
 10
283.9999999997861
 20
801.59999999978595
 30
0.0
 11
233.9999999997861
 21
801.59999999978595
 31
0.0
  0
LINE
  5
27D
  8
DATA
  6
CONTINUOUS
 62
     7
 10
283.9999999997861
 20
802.69999999978597
 30
0.0
 11
233.9999999997861
 21
802.69999999978597
 31
0.0
  0
LINE
  5
27E
  8
DATA
  6
CONTINUOUS
 62
     7
 10
283.9999999997861
 20
836.49999999978593
 30
0.0
 11
233.9999999997861
 21
836.49999999978593
 31
0.0
  0
CIRCLE
  5
27F
  8
DATA
  6
CONTINUOUS
 62
     7
 10
287.4397733523233
 20
806.78514570172615
 30
0.0
 40
2.75
  0
LINE
  5
280
  8
DATA
  6
CONTINUOUS
 62
     7
 10
285.95267303187671
 20
806.78514570172615
 30
0.0
 11
288.92687367276721
 21
806.78514570172615
 31
0.0
  0
LINE
  5
281
  8
DATA
  6
CONTINUOUS
 62
     7
 10
287.4397733523233
 20
805.29804538127962
 30
0.0
 11
287.4397733523233
 21
808.27224602217268
 31
0.0
  0
CIRCLE
  5
282
  8
DATA
  6
CONTINUOUS
 62
     7
 10
230.6864372194957
 20
832.48323357357265
 30
0.0
 40
2.75
  0
LINE
  5
283
  8
DATA
  6
CONTINUOUS
 62
     7
 10
229.19933689904909
 20
832.48323357357265
 30
0.0
 11
232.1735375399395
 21
832.48323357357265
 31
0.0
  0
LINE
  5
284
  8
DATA
  6
CONTINUOUS
 62
     7
 10
230.6864372194957
 20
830.99613325312623
 30
0.0
 11
230.6864372194957
 21
833.97033389401929
 31
0.0
  0
LINE
  5
285
  8
DATA
  6
CONTINUOUS
 62
     7
 10
307.4999999997861
 20
838.99558136453595
 30
0.0
 11
307.4999999997861
 21
826.99558136453629
 31
0.0
  0
LINE
  5
286
  8
DATA
  6
CONTINUOUS
 62
     7
 10
292.4999999997861
 20
838.99558136453595
 30
0.0
 11
307.4999999997861
 21
838.99558136453595
 31
0.0
  0
LINE
  5
287
  8
DATA
  6
CONTINUOUS
 62
     7
 10
292.4999999997861
 20
826.99558136453629
 30
0.0
 11
292.4999999997861
 21
838.99558136453595
 31
0.0
  0
LINE
  5
288
  8
DATA
  6
CONTINUOUS
 62
     7
 10
307.4999999997861
 20
826.99558136453629
 30
0.0
 11
292.4999999997861
 21
826.99558136453629
 31
0.0
  0
LINE
  5
289
  8
DATA
  6
CONTINUOUS
 62
     7
 10
306.299999999786
 20
828.79558136453613
 30
0.0
 11
293.69999999978609
 21
828.79558136453613
 31
0.0
  0
LINE
  5
28A
  8
DATA
  6
CONTINUOUS
 62
     7
 10
293.69999999978609
 20
836.195581364536
 30
0.0
 11
296.9999999997861
 21
836.195581364536
 31
0.0
  0
LINE
  5
28B
  8
DATA
  6
CONTINUOUS
 62
     7
 10
302.9999999997861
 20
836.195581364536
 30
0.0
 11
306.299999999786
 21
836.195581364536
 31
0.0
  0
LINE
  5
28C
  8
DATA
  6
CONTINUOUS
 62
     7
 10
306.299999999786
 20
836.195581364536
 30
0.0
 11
306.299999999786
 21
828.79558136453613
 31
0.0
  0
LINE
  5
28D
  8
DATA
  6
CONTINUOUS
 62
     7
 10
293.69999999978609
 20
828.79558136453613
 30
0.0
 11
293.69999999978609
 21
836.195581364536
 31
0.0
  0
LINE
  5
28E
  8
DATA
  6
CONTINUOUS
 62
     7
 10
302.9999999997861
 20
836.195581364536
 30
0.0
 11
302.9999999997861
 21
838.99558136453595
 31
0.0
  0
LINE
  5
28F
  8
DATA
  6
CONTINUOUS
 62
     7
 10
296.9999999997861
 20
836.195581364536
 30
0.0
 11
296.9999999997861
 21
838.99558136453595
 31
0.0
  0
CIRCLE
  5
290
  8
DATA
  6
CONTINUOUS
 62
     7
 10
312.66840198024602
 20
822.99999999978593
 30
0.0
 40
2.75
  0
LINE
  5
291
  8
DATA
  6
CONTINUOUS
 62
     7
 10
311.18130165979937
 20
822.99999999978593
 30
0.0
 11
314.15550230068988
 21
822.99999999978593
 31
0.0
  0
LINE
  5
292
  8
DATA
  6
CONTINUOUS
 62
     7
 10
312.66840198024602
 20
821.5128996793394
 30
0.0
 11
312.66840198024602
 21
824.48710032023234
 31
0.0
  0
TEXT
  5
293
  8
DATA
 62
     7
 10
264.07921440601359
 20
842.86375860398527
 30
0.0
 40
2.7147352430555549
  1
OPTION
 50
180.0
 41
0.7
 11
264.07921440601359
 21
840.14902336092985
 31
0.0
 73
     3
  0
TEXT
  5
294
  8
DATA
 62
     7
 10
305.09762447732248
 20
842.86375860398527
 30
0.0
 40
2.7147352430555549
  1
RS 485
 50
180.0
 41
0.7
 11
305.09762447732248
 21
840.14902336092985
 31
0.0
 73
     3
  0
TEXT
  5
295
  8
DATA
 62
     7
 10
325.09762447732248
 20
839.1461761542206
 30
0.0
 40
2.7147352430555549
  1
S/PDIF
 50
180.0
 41
0.7
 11
325.09762447732248
 21
836.43144091116505
 31
0.0
 73
     3
  0
TEXT
  5
296
  8
DATA
 62
     7
 10
325.09762447732248
 20
842.67395393199831
 30
0.0
 40
2.7147352430555549
  1
 OUT
 50
180.0
 41
0.7
 11
325.09762447732248
 21
839.95921868894277
 31
0.0
 73
     3
  0
TEXT
  5
297
  8
DATA
 62
     7
 10
363.85771057507981
 20
842.86375860398527
 30
0.0
 40
2.7147352430555549
  1
AES/EBU OUT
 50
180.0
 41
0.7
 11
363.85771057507981
 21
840.14902336092985
 31
0.0
 73
     3
  0
TEXT
  5
298
  8
DATA
 62
     7
 10
365.77774267803318
 20
839.31421459062278
 30
0.0
 40
2.7147352430555549
  1
A
 50
180.0
 41
0.7
 11
365.77774267803318
 21
836.59947934756735
 31
0.0
 73
     3
  0
TEXT
  5
299
  8
DATA
 62
     7
 10
341.50808730874792
 20
839.31421459062278
 30
0.0
 40
2.7147352430555549
  1
B
 50
180.0
 41
0.7
 11
341.50808730874792
 21
836.59947934756735
 31
0.0
 73
     3
  0
TEXT
  5
29A
  8
DATA
 62
     7
 10
476.46372448265708
 20
842.86375860398527
 30
0.0
 40
2.7147352430555549
  1
WORD CLOCK OUT
 50
180.0
 41
0.7
 11
476.46372448265708
 21
840.14902336092985
 31
0.0
 73
     3
  0
TEXT
  5
29B
  8
DATA
 62
     7
 10
604.64734768696235
 20
842.86375860398527
 30
0.0
 40
2.7147352430555549
  1
INPUT 1
 50
180.0
 41
0.7
 11
604.64734768696235
 21
840.14902336092985
 31
0.0
 73
     3
  0
TEXT
  5
29C
  8
DATA
 62
     7
 10
583.94959876546352
 20
842.86375860398527
 30
0.0
 40
2.7147352430555549
  1
INPUT 2
 50
180.0
 41
0.7
 11
583.94959876546352
 21
840.14902336092985
 31
0.0
 73
     3
  0
TEXT
  5
29D
  8
DATA
 62
     7
 10
565.4831762276682
 20
842.86375860398527
 30
0.0
 40
2.7147352430555549
  1
(AES/EBU)
 50
180.0
 41
0.7
 11
565.4831762276682
 21
840.14902336092985
 31
0.0
 73
     3
  0
TEXT
  5
29E
  8
DATA
 62
     7
 10
563.53723113073875
 20
839.0913691359608
 30
0.0
 40
2.7147352430555549
  1
INPUT 3
 50
180.0
 41
0.7
 11
563.53723113073875
 21
836.37663389290515
 31
0.0
 73
     3
  0
TEXT
  5
29F
  8
DATA
 62
     7
 10
596.41488857924321
 20
818.51268101708138
 30
0.0
 40
2.7147352430555549
  1
ALARM OUT
 50
180.0
 41
0.7
 11
596.41488857924321
 21
815.79794577402595
 31
0.0
 73
     3
  0
CIRCLE
  5
2A0
  8
DATA
  6
CONTINUOUS
 62
     7
 10
600.74713241618497
 20
808.99999999978593
 30
0.0
 40
2.75
  0
LINE
  5
2A1
  8
DATA
  6
CONTINUOUS
 62
     7
 10
599.26003209573832
 20
808.99999999978593
 30
0.0
 11
602.23423273662866
 21
808.99999999978593
 31
0.0
  0
LINE
  5
2A2
  8
DATA
  6
CONTINUOUS
 62
     7
 10
600.74713241618497
 20
807.51289967933928
 30
0.0
 11
600.74713241618497
 21
810.48710032023234
 31
0.0
  0
CIRCLE
  5
2A3
  8
DATA
  6
CONTINUOUS
 62
     7
 10
575.74713241618497
 20
808.99999999978593
 30
0.0
 40
2.75
  0
LINE
  5
2A4
  8
DATA
  6
CONTINUOUS
 62
     7
 10
574.26003209573832
 20
808.99999999978593
 30
0.0
 11
577.23423273662866
 21
808.99999999978593
 31
0.0
  0
LINE
  5
2A5
  8
DATA
  6
CONTINUOUS
 62
     7
 10
575.74713241618497
 20
807.51289967933928
 30
0.0
 11
575.74713241618497
 21
810.48710032023234
 31
0.0
  0
LINE
  5
2A6
  8
DATA
  6
CONTINUOUS
 62
     7
 10
596.2136791784817
 20
813.9108337282388
 30
0.0
 11
598.5952994852247
 21
805.54777830439014
 31
0.0
  0
LINE
  5
2A7
  8
DATA
  6
CONTINUOUS
 62
     7
 10
580.3329120795654
 20
813.9108337282388
 30
0.0
 11
577.95129177282217
 21
805.54777830439014
 31
0.0
  0
ARC
  5
2A8
  8
DATA
  6
CONTINUOUS
 62
     7
 10
594.77103727989231
 20
813.49999999978593
 30
0.0
 40
1.500000000000056
 50
15.89582583511093
 51
89.999999999997812
  0
ARC
  5
2A9
  8
DATA
  6
CONTINUOUS
 62
     7
 10
581.77555397815479
 20
813.49999999978593
 30
0.0
 40
1.4999999999999709
 50
90.0
 51
164.10417416488951
  0
ARC
  5
2AA
  8
DATA
  6
CONTINUOUS
 62
     7
 10
596.67177695377245
 20
804.99999999978604
 30
0.0
 40
2.000000000000028
 50
270.0
 51
15.895825835110911
  0
ARC
  5
2AB
  8
DATA
  6
CONTINUOUS
 62
     7
 10
579.87481430427476
 20
804.99999999978604
 30
0.0
 40
1.9999999999999289
 50
164.10417416488789
 51
270.00000000000171
  0
LINE
  5
2AC
  8
DATA
  6
CONTINUOUS
 62
     7
 10
596.67177695377245
 20
802.99999999978581
 30
0.0
 11
579.87481430427476
 21
802.99999999978581
 31
0.0
  0
LINE
  5
2AD
  8
DATA
  6
CONTINUOUS
 62
     7
 10
581.77555397815479
 20
814.99999999978593
 30
0.0
 11
594.79999999978588
 21
814.99999999978593
 31
0.0
  0
TEXT
  5
2AE
  8
DATA
 62
     7
 10
524.73944489819769
 20
813.61436469003593
 30
0.0
 40
2.7147352430555549
  1
A
 50
180.0
 41
0.7
 11
524.73944489819769
 21
810.89962944698038
 31
0.0
 73
     3
  0
TEXT
  5
2AF
  8
DATA
 62
     7
 10
524.73984139933225
 20
829.9896878868251
 30
0.0
 40
2.7147352430555549
  1
B
 50
180.0
 41
0.7
 11
524.73984139933225
 21
827.27495264376955
 31
0.0
 73
     3
  0
TEXT
  5
2B0
  8
DATA
 62
     7
 10
504.7394448981978
 20
813.61436469003593
 30
0.0
 40
2.7147352430555549
  1
A
 50
180.0
 41
0.7
 11
504.7394448981978
 21
810.89962944698038
 31
0.0
 73
     3
  0
TEXT
  5
2B1
  8
DATA
 62
     7
 10
504.73984139933219
 20
829.9896878868251
 30
0.0
 40
2.7147352430555549
  1
B
 50
180.0
 41
0.7
 11
504.73984139933219
 21
827.27495264376955
 31
0.0
 73
     3
  0
TEXT
  5
2B2
  8
DATA
 62
     7
 10
484.7394448981978
 20
813.61436469003593
 30
0.0
 40
2.7147352430555549
  1
A
 50
180.0
 41
0.7
 11
484.7394448981978
 21
810.89962944698038
 31
0.0
 73
     3
  0
TEXT
  5
2B3
  8
DATA
 62
     7
 10
484.73984139933219
 20
829.9896878868251
 30
0.0
 40
2.7147352430555549
  1
B
 50
180.0
 41
0.7
 11
484.73984139933219
 21
827.27495264376955
 31
0.0
 73
     3
  0
TEXT
  5
2B4
  8
DATA
 62
     7
 10
464.7394448981978
 20
813.61436469003593
 30
0.0
 40
2.7147352430555549
  1
A
 50
180.0
 41
0.7
 11
464.7394448981978
 21
810.89962944698038
 31
0.0
 73
     3
  0
TEXT
  5
2B5
  8
DATA
 62
     7
 10
464.73984139933219
 20
829.9896878868251
 30
0.0
 40
2.7147352430555549
  1
B
 50
180.0
 41
0.7
 11
464.73984139933219
 21
827.27495264376955
 31
0.0
 73
     3
  0
TEXT
  5
2B6
  8
DATA
 62
     7
 10
444.73944489819769
 20
813.61436469003593
 30
0.0
 40
2.7147352430555549
  1
A
 50
180.0
 41
0.7
 11
444.73944489819769
 21
810.89962944698038
 31
0.0
 73
     3
  0
TEXT
  5
2B7
  8
DATA
 62
     7
 10
444.73984139933219
 20
829.9896878868251
 30
0.0
 40
2.7147352430555549
  1
B
 50
180.0
 41
0.7
 11
444.73984139933219
 21
827.27495264376955
 31
0.0
 73
     3
  0
TEXT
  5
2B8
  8
DATA
 62
     7
 10
535.00772420096246
 20
839.85484181498475
 30
0.0
 40
2.7147352430555549
  1
1
 50
180.0
 41
0.7
 11
535.00772420096246
 21
837.14010657192932
 31
0.0
 73
     3
  0
TEXT
  5
2B9
  8
DATA
 62
     7
 10
514.93635366856427
 20
839.85484181498475
 30
0.0
 40
2.7147352430555549
  1
2
 50
180.0
 41
0.7
 11
514.93635366856427
 21
837.14010657192932
 31
0.0
 73
     3
  0
TEXT
  5
2BA
  8
DATA
 62
     7
 10
494.93635366856449
 20
839.85484181498475
 30
0.0
 40
2.7147352430555549
  1
3
 50
180.0
 41
0.7
 11
494.93635366856449
 21
837.14010657192932
 31
0.0
 73
     3
  0
TEXT
  5
2BB
  8
DATA
 62
     7
 10
474.93635366856449
 20
839.85484181498475
 30
0.0
 40
2.7147352430555549
  1
4
 50
180.0
 41
0.7
 11
474.93635366856449
 21
837.14010657192932
 31
0.0
 73
     3
  0
TEXT
  5
2BC
  8
DATA
 62
     7
 10
454.93635366856449
 20
839.85484181498475
 30
0.0
 40
2.7147352430555549
  1
5
 50
180.0
 41
0.7
 11
454.93635366856449
 21
837.14010657192932
 31
0.0
 73
     3
  0
TEXT
  5
2BD
  8
DATA
 62
     7
 10
434.93635366856449
 20
839.85484181498475
 30
0.0
 40
2.7147352430555549
  1
6
 50
180.0
 41
0.7
 11
434.93635366856449
 21
837.14010657192932
 31
0.0
 73
     3
  0
LINE
  5
2BE
  8
DATA
  6
CONTINUOUS
 62
     7
 10
365.37878669795367
 20
841.59999999978595
 30
0.0
 11
375.37878669795367
 21
841.59999999978595
 31
0.0
  0
LINE
  5
2BF
  8
DATA
  6
CONTINUOUS
 62
     7
 10
342.51245193463973
 20
841.69999999978586
 30
0.0
 11
332.51245193463961
 21
841.69999999978586
 31
0.0
  0
LINE
  5
2C0
  8
DATA
  6
CONTINUOUS
 62
     7
 10
552.04999999978588
 20
807.56707626902005
 30
0.0
 11
552.04999999978588
 21
809.56089605633895
 31
0.0
  0
LINE
  5
2C1
  8
DATA
  6
CONTINUOUS
 62
     7
 10
555.48589838464841
 20
812.389912375368
 30
0.0
 11
558.51410161492367
 21
812.389912375368
 31
0.0
  0
LINE
  5
2C2
  8
DATA
  6
CONTINUOUS
 62
     7
 10
561.94999999978597
 20
809.56089605633895
 30
0.0
 11
561.94999999978597
 21
807.56707626902005
 31
0.0
  0
ARC
  5
2C3
  8
DATA
  6
CONTINUOUS
 62
     7
 10
556.99999999978604
 20
817.93181852544319
 30
0.0
 40
12.091906150075371
 50
249.13817207608599
 51
290.86182792391372
  0
LINE
  5
2C4
  8
DATA
  6
CONTINUOUS
 62
     7
 10
559.51410161492379
 20
812.1219631829365
 30
0.0
 11
560.94999999978597
 21
811.29294686390745
 31
0.0
  0
LINE
  5
2C5
  8
DATA
  6
CONTINUOUS
 62
     7
 10
554.48589838464829
 20
812.1219631829365
 30
0.0
 11
553.049999999786
 21
811.29294686390745
 31
0.0
  0
ARC
  5
2C6
  8
DATA
  6
CONTINUOUS
 62
     7
 10
560.94999999978597
 20
807.56707626902005
 30
0.0
 40
1.000000000000036
 50
290.8618279239156
 51
0.0
  0
ARC
  5
2C7
  8
DATA
  6
CONTINUOUS
 62
     7
 10
553.049999999786
 20
807.56707626902005
 30
0.0
 40
1.0
 50
180.0
 51
249.13817207608619
  0
ARC
  5
2C8
  8
DATA
  6
CONTINUOUS
 62
     7
 10
559.94999999978609
 20
809.56089605633895
 30
0.0
 40
2.0
 50
0.0
 51
60.000000000000291
  0
ARC
  5
2C9
  8
DATA
  6
CONTINUOUS
 62
     7
 10
554.049999999786
 20
809.56089605633895
 30
0.0
 40
1.999999999999992
 50
120.0000000000001
 51
180.0
  0
ARC
  5
2CA
  8
DATA
  6
CONTINUOUS
 62
     7
 10
558.51410161492367
 20
810.38991237536789
 30
0.0
 40
1.9999999999999869
 50
60.00000000000167
 51
90.000000000001606
  0
ARC
  5
2CB
  8
DATA
  6
CONTINUOUS
 62
     7
 10
555.48589838464818
 20
810.38991237536789
 30
0.0
 40
2.0
 50
89.99999999999838
 51
119.99999999999829
  0
LINE
  5
2CC
  8
DATA
  6
CONTINUOUS
 62
     7
 10
559.49999999978604
 20
812.78785735697159
 30
0.0
 11
559.49999999978604
 21
812.13002857112212
 31
0.0
  0
LINE
  5
2CD
  8
DATA
  6
CONTINUOUS
 62
     7
 10
554.49999999978604
 20
812.78785735697159
 30
0.0
 11
554.49999999978604
 21
812.13002857112212
 31
0.0
  0
TEXT
  5
2CE
  8
DATA
 62
     7
 10
314.58220475037598
 20
816.66948931378863
 30
0.0
 40
2.7147352430555549
  1
A
 50
180.0
 41
0.7
 11
314.58220475037598
 21
813.95475407073309
 31
0.0
 73
     3
  0
TEXT
  5
2CF
  8
DATA
 62
     7
 10
314.58260125151048
 20
832.05121232163845
 30
0.0
 40
2.7147352430555549
  1
B
 50
180.0
 41
0.7
 11
314.58260125151048
 21
829.33647707858279
 31
0.0
 73
     3
  0
LINE
  5
2D0
  8
DATA
  6
CONTINUOUS
 62
     7
 10
719.0
 20
309.0
 30
0.0
 11
719.0
 21
335.69999999999999
 31
0.0
  0
LINE
  5
2D1
  8
DATA
  6
CONTINUOUS
 62
     7
 10
721.49999999999989
 20
309.0
 30
0.0
 11
721.49999999999989
 21
335.69999999999999
 31
0.0
  0
LINE
  5
2D2
  8
DATA
  6
CONTINUOUS
 62
     7
 10
719.0
 20
335.69999999999999
 30
0.0
 11
721.49999999999989
 21
335.69999999999999
 31
0.0
  0
LINE
  5
2D3
  8
DATA
  6
CONTINUOUS
 62
     7
 10
719.0
 20
309.0
 30
0.0
 11
721.49999999999989
 21
309.0
 31
0.0
  0
LINE
  5
2D4
  8
DATA
  6
CONTINUOUS
 62
     7
 10
726.0999999999998
 20
309.0
 30
0.0
 11
726.0999999999998
 21
335.69999999999999
 31
0.0
  0
LINE
  5
2D5
  8
DATA
  6
CONTINUOUS
 62
     7
 10
728.59999999999968
 20
309.0
 30
0.0
 11
728.59999999999968
 21
335.69999999999999
 31
0.0
  0
LINE
  5
2D6
  8
DATA
  6
CONTINUOUS
 62
     7
 10
726.0999999999998
 20
335.69999999999999
 30
0.0
 11
728.59999999999968
 21
335.69999999999999
 31
0.0
  0
LINE
  5
2D7
  8
DATA
  6
CONTINUOUS
 62
     7
 10
726.0999999999998
 20
309.0
 30
0.0
 11
728.59999999999968
 21
309.0
 31
0.0
  0
LINE
  5
2D8
  8
DATA
  6
CONTINUOUS
 62
     7
 10
733.20000000000005
 20
309.0
 30
0.0
 11
733.20000000000005
 21
335.69999999999999
 31
0.0
  0
LINE
  5
2D9
  8
DATA
  6
CONTINUOUS
 62
     7
 10
735.70000000000005
 20
309.0
 30
0.0
 11
735.70000000000005
 21
335.69999999999999
 31
0.0
  0
LINE
  5
2DA
  8
DATA
  6
CONTINUOUS
 62
     7
 10
733.20000000000005
 20
335.69999999999999
 30
0.0
 11
735.70000000000005
 21
335.69999999999999
 31
0.0
  0
LINE
  5
2DB
  8
DATA
  6
CONTINUOUS
 62
     7
 10
733.20000000000005
 20
309.0
 30
0.0
 11
735.70000000000005
 21
309.0
 31
0.0
  0
LINE
  5
2DC
  8
DATA
  6
CONTINUOUS
 62
     7
 10
740.29999999999984
 20
309.0
 30
0.0
 11
740.29999999999984
 21
335.69999999999999
 31
0.0
  0
LINE
  5
2DD
  8
DATA
  6
CONTINUOUS
 62
     7
 10
742.79999999999984
 20
309.0
 30
0.0
 11
742.79999999999984
 21
335.69999999999999
 31
0.0
  0
LINE
  5
2DE
  8
DATA
  6
CONTINUOUS
 62
     7
 10
740.29999999999984
 20
335.69999999999999
 30
0.0
 11
742.79999999999984
 21
335.69999999999999
 31
0.0
  0
LINE
  5
2DF
  8
DATA
  6
CONTINUOUS
 62
     7
 10
740.29999999999984
 20
309.0
 30
0.0
 11
742.79999999999984
 21
309.0
 31
0.0
  0
LINE
  5
2E0
  8
DATA
  6
CONTINUOUS
 62
     7
 10
747.39999999999998
 20
309.0
 30
0.0
 11
747.39999999999998
 21
335.69999999999999
 31
0.0
  0
LINE
  5
2E1
  8
DATA
  6
CONTINUOUS
 62
     7
 10
749.89999999999986
 20
309.0
 30
0.0
 11
749.89999999999986
 21
335.69999999999999
 31
0.0
  0
LINE
  5
2E2
  8
DATA
  6
CONTINUOUS
 62
     7
 10
747.39999999999998
 20
335.69999999999999
 30
0.0
 11
749.89999999999986
 21
335.69999999999999
 31
0.0
  0
LINE
  5
2E3
  8
DATA
  6
CONTINUOUS
 62
     7
 10
747.39999999999998
 20
309.0
 30
0.0
 11
749.89999999999986
 21
309.0
 31
0.0
  0
LINE
  5
2E4
  8
DATA
  6
CONTINUOUS
 62
     7
 10
754.49999999999989
 20
309.0
 30
0.0
 11
754.49999999999989
 21
335.69999999999999
 31
0.0
  0
LINE
  5
2E5
  8
DATA
  6
CONTINUOUS
 62
     7
 10
757.0
 20
309.0
 30
0.0
 11
757.0
 21
335.69999999999999
 31
0.0
  0
LINE
  5
2E6
  8
DATA
  6
CONTINUOUS
 62
     7
 10
754.49999999999989
 20
335.69999999999999
 30
0.0
 11
757.0
 21
335.69999999999999
 31
0.0
  0
LINE
  5
2E7
  8
DATA
  6
CONTINUOUS
 62
     7
 10
754.49999999999989
 20
309.0
 30
0.0
 11
757.0
 21
309.0
 31
0.0
  0
LINE
  5
2E8
  8
DATA
  6
CONTINUOUS
 62
     7
 10
761.60000000000002
 20
309.0
 30
0.0
 11
761.60000000000002
 21
335.69999999999999
 31
0.0
  0
LINE
  5
2E9
  8
DATA
  6
CONTINUOUS
 62
     7
 10
764.10000000000002
 20
309.0
 30
0.0
 11
764.10000000000002
 21
335.69999999999999
 31
0.0
  0
LINE
  5
2EA
  8
DATA
  6
CONTINUOUS
 62
     7
 10
761.60000000000002
 20
335.69999999999999
 30
0.0
 11
764.10000000000002
 21
335.69999999999999
 31
0.0
  0
LINE
  5
2EB
  8
DATA
  6
CONTINUOUS
 62
     7
 10
761.60000000000002
 20
309.0
 30
0.0
 11
764.10000000000002
 21
309.0
 31
0.0
  0
LINE
  5
2EC
  8
DATA
  6
CONTINUOUS
 62
     7
 10
768.70000000000005
 20
309.0
 30
0.0
 11
768.70000000000005
 21
335.69999999999999
 31
0.0
  0
LINE
  5
2ED
  8
DATA
  6
CONTINUOUS
 62
     7
 10
771.20000000000005
 20
309.0
 30
0.0
 11
771.20000000000005
 21
335.69999999999999
 31
0.0
  0
LINE
  5
2EE
  8
DATA
  6
CONTINUOUS
 62
     7
 10
768.70000000000005
 20
335.69999999999999
 30
0.0
 11
771.20000000000005
 21
335.69999999999999
 31
0.0
  0
LINE
  5
2EF
  8
DATA
  6
CONTINUOUS
 62
     7
 10
768.70000000000005
 20
309.0
 30
0.0
 11
771.20000000000005
 21
309.0
 31
0.0
  0
LINE
  5
2F0
  8
DATA
  6
CONTINUOUS
 62
     7
 10
775.79999999999984
 20
309.0
 30
0.0
 11
775.79999999999984
 21
335.69999999999999
 31
0.0
  0
LINE
  5
2F1
  8
DATA
  6
CONTINUOUS
 62
     7
 10
778.29999999999984
 20
309.0
 30
0.0
 11
778.29999999999984
 21
335.69999999999999
 31
0.0
  0
LINE
  5
2F2
  8
DATA
  6
CONTINUOUS
 62
     7
 10
775.79999999999984
 20
335.69999999999999
 30
0.0
 11
778.29999999999984
 21
335.69999999999999
 31
0.0
  0
LINE
  5
2F3
  8
DATA
  6
CONTINUOUS
 62
     7
 10
775.79999999999984
 20
309.0
 30
0.0
 11
778.29999999999984
 21
309.0
 31
0.0
  0
LINE
  5
2F4
  8
DATA
  6
CONTINUOUS
 62
     7
 10
782.9000000000002
 20
309.0
 30
0.0
 11
782.9000000000002
 21
335.69999999999999
 31
0.0
  0
LINE
  5
2F5
  8
DATA
  6
CONTINUOUS
 62
     7
 10
785.40000000000009
 20
309.0
 30
0.0
 11
785.40000000000009
 21
335.69999999999999
 31
0.0
  0
LINE
  5
2F6
  8
DATA
  6
CONTINUOUS
 62
     7
 10
782.9000000000002
 20
335.69999999999999
 30
0.0
 11
785.40000000000009
 21
335.69999999999999
 31
0.0
  0
LINE
  5
2F7
  8
DATA
  6
CONTINUOUS
 62
     7
 10
782.9000000000002
 20
309.0
 30
0.0
 11
785.40000000000009
 21
309.0
 31
0.0
  0
LINE
  5
2F8
  8
DATA
  6
CONTINUOUS
 62
     7
 10
790.0
 20
309.0
 30
0.0
 11
790.0
 21
335.69999999999999
 31
0.0
  0
LINE
  5
2F9
  8
DATA
  6
CONTINUOUS
 62
     7
 10
792.49999999999989
 20
309.0
 30
0.0
 11
792.49999999999989
 21
335.69999999999999
 31
0.0
  0
LINE
  5
2FA
  8
DATA
  6
CONTINUOUS
 62
     7
 10
790.0
 20
335.69999999999999
 30
0.0
 11
792.49999999999989
 21
335.69999999999999
 31
0.0
  0
LINE
  5
2FB
  8
DATA
  6
CONTINUOUS
 62
     7
 10
790.0
 20
309.0
 30
0.0
 11
792.49999999999989
 21
309.0
 31
0.0
  0
LINE
  5
2FC
  8
DATA
  6
CONTINUOUS
 62
     7
 10
797.0999999999998
 20
309.0
 30
0.0
 11
797.0999999999998
 21
335.69999999999999
 31
0.0
  0
LINE
  5
2FD
  8
DATA
  6
CONTINUOUS
 62
     7
 10
799.59999999999968
 20
309.0
 30
0.0
 11
799.59999999999968
 21
335.69999999999999
 31
0.0
  0
LINE
  5
2FE
  8
DATA
  6
CONTINUOUS
 62
     7
 10
797.0999999999998
 20
335.69999999999999
 30
0.0
 11
799.59999999999968
 21
335.69999999999999
 31
0.0
  0
LINE
  5
2FF
  8
DATA
  6
CONTINUOUS
 62
     7
 10
797.0999999999998
 20
309.0
 30
0.0
 11
799.59999999999968
 21
309.0
 31
0.0
  0
LINE
  5
300
  8
DATA
  6
CONTINUOUS
 62
     7
 10
804.19999999999993
 20
309.0
 30
0.0
 11
804.19999999999993
 21
335.69999999999999
 31
0.0
  0
LINE
  5
301
  8
DATA
  6
CONTINUOUS
 62
     7
 10
806.70000000000005
 20
309.0
 30
0.0
 11
806.70000000000005
 21
335.69999999999999
 31
0.0
  0
LINE
  5
302
  8
DATA
  6
CONTINUOUS
 62
     7
 10
804.19999999999993
 20
335.69999999999999
 30
0.0
 11
806.70000000000005
 21
335.69999999999999
 31
0.0
  0
LINE
  5
303
  8
DATA
  6
CONTINUOUS
 62
     7
 10
804.19999999999993
 20
309.0
 30
0.0
 11
806.70000000000005
 21
309.0
 31
0.0
  0
LINE
  5
304
  8
DATA
  6
CONTINUOUS
 62
     7
 10
811.29999999999973
 20
309.0
 30
0.0
 11
811.29999999999973
 21
335.69999999999999
 31
0.0
  0
LINE
  5
305
  8
DATA
  6
CONTINUOUS
 62
     7
 10
813.79999999999984
 20
309.0
 30
0.0
 11
813.79999999999984
 21
335.69999999999999
 31
0.0
  0
LINE
  5
306
  8
DATA
  6
CONTINUOUS
 62
     7
 10
811.29999999999973
 20
335.69999999999999
 30
0.0
 11
813.79999999999984
 21
335.69999999999999
 31
0.0
  0
LINE
  5
307
  8
DATA
  6
CONTINUOUS
 62
     7
 10
811.29999999999973
 20
309.0
 30
0.0
 11
813.79999999999984
 21
309.0
 31
0.0
  0
LINE
  5
308
  8
DATA
  6
CONTINUOUS
 62
     7
 10
818.39999999999986
 20
309.0
 30
0.0
 11
818.39999999999986
 21
335.69999999999999
 31
0.0
  0
LINE
  5
309
  8
DATA
  6
CONTINUOUS
 62
     7
 10
820.89999999999986
 20
309.0
 30
0.0
 11
820.89999999999986
 21
335.69999999999999
 31
0.0
  0
LINE
  5
30A
  8
DATA
  6
CONTINUOUS
 62
     7
 10
818.39999999999986
 20
335.69999999999999
 30
0.0
 11
820.89999999999986
 21
335.69999999999999
 31
0.0
  0
LINE
  5
30B
  8
DATA
  6
CONTINUOUS
 62
     7
 10
818.39999999999986
 20
309.0
 30
0.0
 11
820.89999999999986
 21
309.0
 31
0.0
  0
LINE
  5
30C
  8
DATA
  6
CONTINUOUS
 62
     7
 10
825.5
 20
309.0
 30
0.0
 11
825.5
 21
335.69999999999999
 31
0.0
  0
LINE
  5
30D
  8
DATA
  6
CONTINUOUS
 62
     7
 10
828.0
 20
309.0
 30
0.0
 11
828.0
 21
335.69999999999999
 31
0.0
  0
LINE
  5
30E
  8
DATA
  6
CONTINUOUS
 62
     7
 10
825.5
 20
335.69999999999999
 30
0.0
 11
828.0
 21
335.69999999999999
 31
0.0
  0
LINE
  5
30F
  8
DATA
  6
CONTINUOUS
 62
     7
 10
825.5
 20
309.0
 30
0.0
 11
828.0
 21
309.0
 31
0.0
  0
LINE
  5
310
  8
DATA
  6
CONTINUOUS
 62
     7
 10
832.5999999999998
 20
309.0
 30
0.0
 11
832.5999999999998
 21
335.69999999999999
 31
0.0
  0
LINE
  5
311
  8
DATA
  6
CONTINUOUS
 62
     7
 10
835.09999999999968
 20
309.0
 30
0.0
 11
835.09999999999968
 21
335.69999999999999
 31
0.0
  0
LINE
  5
312
  8
DATA
  6
CONTINUOUS
 62
     7
 10
832.5999999999998
 20
335.69999999999999
 30
0.0
 11
835.09999999999968
 21
335.69999999999999
 31
0.0
  0
LINE
  5
313
  8
DATA
  6
CONTINUOUS
 62
     7
 10
832.5999999999998
 20
309.0
 30
0.0
 11
835.09999999999968
 21
309.0
 31
0.0
  0
LINE
  5
314
  8
DATA
  6
CONTINUOUS
 62
     7
 10
839.70000000000005
 20
309.0
 30
0.0
 11
839.70000000000005
 21
335.69999999999999
 31
0.0
  0
LINE
  5
315
  8
DATA
  6
CONTINUOUS
 62
     7
 10
842.20000000000005
 20
309.0
 30
0.0
 11
842.20000000000005
 21
335.69999999999999
 31
0.0
  0
LINE
  5
316
  8
DATA
  6
CONTINUOUS
 62
     7
 10
839.70000000000005
 20
335.69999999999999
 30
0.0
 11
842.20000000000005
 21
335.69999999999999
 31
0.0
  0
LINE
  5
317
  8
DATA
  6
CONTINUOUS
 62
     7
 10
839.70000000000005
 20
309.0
 30
0.0
 11
842.20000000000005
 21
309.0
 31
0.0
  0
LINE
  5
318
  8
DATA
  6
CONTINUOUS
 62
     7
 10
846.79999999999984
 20
309.0
 30
0.0
 11
846.79999999999984
 21
335.69999999999999
 31
0.0
  0
LINE
  5
319
  8
DATA
  6
CONTINUOUS
 62
     7
 10
849.29999999999984
 20
309.0
 30
0.0
 11
849.29999999999984
 21
335.69999999999999
 31
0.0
  0
LINE
  5
31A
  8
DATA
  6
CONTINUOUS
 62
     7
 10
846.79999999999984
 20
335.69999999999999
 30
0.0
 11
849.29999999999984
 21
335.69999999999999
 31
0.0
  0
LINE
  5
31B
  8
DATA
  6
CONTINUOUS
 62
     7
 10
846.79999999999984
 20
309.0
 30
0.0
 11
849.29999999999984
 21
309.0
 31
0.0
  0
LINE
  5
31C
  8
DATA
  6
CONTINUOUS
 62
     7
 10
853.89999999999986
 20
309.0
 30
0.0
 11
853.89999999999986
 21
335.69999999999999
 31
0.0
  0
LINE
  5
31D
  8
DATA
  6
CONTINUOUS
 62
     7
 10
856.39999999999975
 20
309.0
 30
0.0
 11
856.39999999999975
 21
335.69999999999999
 31
0.0
  0
LINE
  5
31E
  8
DATA
  6
CONTINUOUS
 62
     7
 10
853.89999999999986
 20
335.69999999999999
 30
0.0
 11
856.39999999999975
 21
335.69999999999999
 31
0.0
  0
LINE
  5
31F
  8
DATA
  6
CONTINUOUS
 62
     7
 10
853.89999999999986
 20
309.0
 30
0.0
 11
856.39999999999975
 21
309.0
 31
0.0
  0
LINE
  5
320
  8
DATA
  6
CONTINUOUS
 62
     7
 10
861.0
 20
309.0
 30
0.0
 11
861.0
 21
335.69999999999999
 31
0.0
  0
LINE
  5
321
  8
DATA
  6
CONTINUOUS
 62
     7
 10
863.49999999999989
 20
309.0
 30
0.0
 11
863.49999999999989
 21
335.69999999999999
 31
0.0
  0
LINE
  5
322
  8
DATA
  6
CONTINUOUS
 62
     7
 10
861.0
 20
335.69999999999999
 30
0.0
 11
863.49999999999989
 21
335.69999999999999
 31
0.0
  0
LINE
  5
323
  8
DATA
  6
CONTINUOUS
 62
     7
 10
861.0
 20
309.0
 30
0.0
 11
863.49999999999989
 21
309.0
 31
0.0
  0
LINE
  5
324
  8
DATA
  6
CONTINUOUS
 62
     7
 10
868.09999999999968
 20
309.0
 30
0.0
 11
868.09999999999968
 21
335.69999999999999
 31
0.0
  0
LINE
  5
325
  8
DATA
  6
CONTINUOUS
 62
     7
 10
870.59999999999968
 20
309.0
 30
0.0
 11
870.59999999999968
 21
335.69999999999999
 31
0.0
  0
LINE
  5
326
  8
DATA
  6
CONTINUOUS
 62
     7
 10
868.09999999999968
 20
335.69999999999999
 30
0.0
 11
870.59999999999968
 21
335.69999999999999
 31
0.0
  0
LINE
  5
327
  8
DATA
  6
CONTINUOUS
 62
     7
 10
868.09999999999968
 20
309.0
 30
0.0
 11
870.59999999999968
 21
309.0
 31
0.0
  0
LINE
  5
328
  8
DATA
  6
CONTINUOUS
 62
     7
 10
875.19999999999982
 20
309.0
 30
0.0
 11
875.19999999999982
 21
335.69999999999999
 31
0.0
  0
LINE
  5
329
  8
DATA
  6
CONTINUOUS
 62
     7
 10
877.69999999999993
 20
309.0
 30
0.0
 11
877.69999999999993
 21
335.69999999999999
 31
0.0
  0
LINE
  5
32A
  8
DATA
  6
CONTINUOUS
 62
     7
 10
875.19999999999982
 20
335.69999999999999
 30
0.0
 11
877.69999999999993
 21
335.69999999999999
 31
0.0
  0
LINE
  5
32B
  8
DATA
  6
CONTINUOUS
 62
     7
 10
875.19999999999982
 20
309.0
 30
0.0
 11
877.69999999999993
 21
309.0
 31
0.0
  0
LINE
  5
32C
  8
DATA
  6
CONTINUOUS
 62
     7
 10
697.0
 20
307.35423142002401
 30
0.0
 11
697.0
 21
337.15203108301068
 31
0.0
  0
LINE
  5
32D
  8
DATA
  6
CONTINUOUS
 62
     7
 10
697.0
 20
327.2982151349006
 30
0.0
 11
700.0
 21
327.2982151349006
 31
0.0
  0
LINE
  5
32E
  8
DATA
  6
CONTINUOUS
 62
     7
 10
697.0
 20
317.16912900049539
 30
0.0
 11
700.0
 21
317.16912900049539
 31
0.0
  0
LINE
  5
32F
  8
DATA
  6
CONTINUOUS
 62
     7
 10
697.0
 20
337.15203108301068
 30
0.0
 11
700.0
 21
337.15203108301068
 31
0.0
  0
LINE
  5
330
  8
DATA
  6
CONTINUOUS
 62
     7
 10
697.0
 20
307.35423142002401
 30
0.0
 11
700.0
 21
307.35423142002401
 31
0.0
  0
LINE
  5
331
  8
DATA
  6
CONTINUOUS
 62
     7
 10
921.0
 20
321.58137983277129
 30
0.0
 11
921.0
 21
311.58186566515809
 31
0.0
  0
LINE
  5
332
  8
DATA
  6
CONTINUOUS
 62
     7
 10
921.0
 20
321.58137983277129
 30
0.0
 11
909.0
 21
321.58137983277129
 31
0.0
  0
LINE
  5
333
  8
DATA
  6
CONTINUOUS
 62
     7
 10
921.0
 20
311.58186566515809
 30
0.0
 11
909.0
 21
311.58186566515809
 31
0.0
  0
LINE
  5
334
  8
DATA
  6
CONTINUOUS
 62
     7
 10
904.0
 20
326.58137983277129
 30
0.0
 11
903.0
 21
326.58137983277129
 31
0.0
  0
LINE
  5
335
  8
DATA
  6
CONTINUOUS
 62
     7
 10
904.0
 20
306.58137983277129
 30
0.0
 11
903.0
 21
306.58137983277129
 31
0.0
  0
LINE
  5
336
  8
DATA
  6
CONTINUOUS
 62
     7
 10
904.0
 20
326.58137983277129
 30
0.0
 11
904.0
 21
306.58137983277129
 31
0.0
  0
LINE
  5
337
  8
DATA
  6
CONTINUOUS
 62
     7
 10
909.0
 20
324.58137983277129
 30
0.0
 11
904.0
 21
324.58137983277129
 31
0.0
  0
LINE
  5
338
  8
DATA
  6
CONTINUOUS
 62
     7
 10
909.0
 20
308.58137983277129
 30
0.0
 11
904.0
 21
308.58137983277129
 31
0.0
  0
LINE
  5
339
  8
DATA
  6
CONTINUOUS
 62
     7
 10
909.0
 20
324.58137983277129
 30
0.0
 11
909.0
 21
308.58137983277129
 31
0.0
  0
LINE
  5
33A
  8
DATA
  6
CONTINUOUS
 62
     7
 10
909.0
 20
321.76956479699771
 30
0.0
 11
904.0
 21
321.76956479699771
 31
0.0
  0
LINE
  5
33B
  8
DATA
  6
CONTINUOUS
 62
     7
 10
909.0
 20
313.90175895684808
 30
0.0
 11
904.0
 21
313.90175895684808
 31
0.0
  0
LINE
  5
33C
  8
DATA
  6
CONTINUOUS
 62
     7
 10
909.0
 20
308.71357399262172
 30
0.0
 11
904.0
 21
308.71357399262172
 31
0.0
  0
LINE
  5
33D
  8
DATA
  6
CONTINUOUS
 62
     7
 10
918.0
 20
322.08137983277129
 30
0.0
 11
916.0
 21
322.08137983277129
 31
0.0
  0
LINE
  5
33E
  8
DATA
  6
CONTINUOUS
 62
     7
 10
918.0
 20
311.08137983277129
 30
0.0
 11
916.0
 21
311.08137983277129
 31
0.0
  0
LINE
  5
33F
  8
DATA
  6
CONTINUOUS
 62
     7
 10
918.0
 20
322.08137983277129
 30
0.0
 11
918.0
 21
321.58137983277129
 31
0.0
  0
LINE
  5
340
  8
DATA
  6
CONTINUOUS
 62
     7
 10
918.0
 20
311.58186566515809
 30
0.0
 11
918.0
 21
311.08137983277129
 31
0.0
  0
LINE
  5
341
  8
DATA
  6
CONTINUOUS
 62
     7
 10
916.0
 20
322.08137983277129
 30
0.0
 11
916.0
 21
321.58137983277129
 31
0.0
  0
LINE
  5
342
  8
DATA
  6
CONTINUOUS
 62
     7
 10
916.0
 20
311.58186566515809
 30
0.0
 11
916.0
 21
311.08137983277129
 31
0.0
  0
LINE
  5
343
  8
DATA
  6
CONTINUOUS
 62
     7
 10
921.0
 20
337.62108598530421
 30
0.0
 11
921.0
 21
327.62157181769101
 31
0.0
  0
LINE
  5
344
  8
DATA
  6
CONTINUOUS
 62
     7
 10
921.0
 20
337.62108598530421
 30
0.0
 11
909.0
 21
337.62108598530421
 31
0.0
  0
LINE
  5
345
  8
DATA
  6
CONTINUOUS
 62
     7
 10
921.0
 20
327.62157181769101
 30
0.0
 11
909.0
 21
327.62157181769101
 31
0.0
  0
LINE
  5
346
  8
DATA
  6
CONTINUOUS
 62
     7
 10
904.0
 20
342.62108598530421
 30
0.0
 11
903.0
 21
342.62108598530421
 31
0.0
  0
LINE
  5
347
  8
DATA
  6
CONTINUOUS
 62
     7
 10
909.0
 20
340.62108598530421
 30
0.0
 11
904.0
 21
340.62108598530421
 31
0.0
  0
LINE
  5
348
  8
DATA
  6
CONTINUOUS
 62
     7
 10
909.0
 20
337.80927094953063
 30
0.0
 11
904.0
 21
337.80927094953063
 31
0.0
  0
LINE
  5
349
  8
DATA
  6
CONTINUOUS
 62
     7
 10
909.0
 20
329.941465109381
 30
0.0
 11
904.0
 21
329.941465109381
 31
0.0
  0
LINE
  5
34A
  8
DATA
  6
CONTINUOUS
 62
     7
 10
904.0
 20
342.62108598530421
 30
0.0
 11
904.0
 21
326.58137983277129
 31
0.0
  0
LINE
  5
34B
  8
DATA
  6
CONTINUOUS
 62
     7
 10
909.0
 20
340.62108598530421
 30
0.0
 11
909.0
 21
324.58137983277129
 31
0.0
  0
CIRCLE
  5
34C
  8
DATA
  6
CONTINUOUS
 62
     7
 10
917.0
 20
332.62132890149758
 30
0.0
 40
1.0
  0
LINE
  5
34D
  8
DATA
  6
CONTINUOUS
 62
     7
 10
185.0
 20
656.0
 30
0.0
 11
185.0
 21
653.0
 31
0.0
  0
LINE
  5
34E
  8
DATA
  6
CONTINUOUS
 62
     7
 10
225.0
 20
656.0
 30
0.0
 11
225.0
 21
653.0
 31
0.0
  0
LINE
  5
34F
  8
DATA
  6
CONTINUOUS
 62
     7
 10
185.0
 20
656.0
 30
0.0
 11
225.0
 21
656.0
 31
0.0
  0
LINE
  5
350
  8
DATA
  6
CONTINUOUS
 62
     7
 10
324.13067791046461
 20
659.0
 30
0.0
 11
324.13067791046461
 21
653.0
 31
0.0
  0
LINE
  5
351
  8
DATA
  6
CONTINUOUS
 62
     7
 10
315.85694557119939
 20
659.0
 30
0.0
 11
315.85694557119939
 21
653.0
 31
0.0
  0
LINE
  5
352
  8
DATA
  6
CONTINUOUS
 62
     7
 10
315.85694557119939
 20
659.0
 30
0.0
 11
324.13067791046461
 21
659.0
 31
0.0
  0
LINE
  5
353
  8
DATA
  6
CONTINUOUS
 62
     7
 10
593.64832015166121
 20
671.49999999999989
 30
0.0
 11
593.64832015166121
 21
658.0
 31
0.0
  0
LINE
  5
354
  8
DATA
  6
CONTINUOUS
 62
     7
 10
603.6483201516611
 20
671.49999999999989
 30
0.0
 11
603.6483201516611
 21
658.0
 31
0.0
  0
LINE
  5
355
  8
DATA
  6
CONTINUOUS
 62
     7
 10
538.9915959048883
 20
673.0
 30
0.0
 11
538.9915959048883
 21
659.49999999999989
 31
0.0
  0
LINE
  5
356
  8
DATA
  6
CONTINUOUS
 62
     7
 10
528.99159590488819
 20
673.0
 30
0.0
 11
528.99159590488819
 21
659.49999999999989
 31
0.0
  0
LINE
  5
357
  8
DATA
  6
CONTINUOUS
 62
     7
 10
573.0
 20
671.49999999999989
 30
0.0
 11
573.0
 21
658.0
 31
0.0
  0
LINE
  5
358
  8
DATA
  6
CONTINUOUS
 62
     7
 10
583.0
 20
671.49999999999989
 30
0.0
 11
583.0
 21
658.0
 31
0.0
  0
LINE
  5
359
  8
DATA
  6
CONTINUOUS
 62
     7
 10
573.0
 20
671.49999999999989
 30
0.0
 11
583.0
 21
671.49999999999989
 31
0.0
  0
LINE
  5
35A
  8
DATA
  6
CONTINUOUS
 62
     7
 10
593.64832015166121
 20
671.49999999999989
 30
0.0
 11
603.6483201516611
 21
671.49999999999989
 31
0.0
  0
LINE
  5
35B
  8
DATA
  6
CONTINUOUS
 62
     7
 10
573.0
 20
659.49999999999989
 30
0.0
 11
583.0
 21
659.49999999999989
 31
0.0
  0
LINE
  5
35C
  8
DATA
  6
CONTINUOUS
 62
     7
 10
593.64832015166121
 20
659.49999999999989
 30
0.0
 11
603.6483201516611
 21
659.49999999999989
 31
0.0
  0
LINE
  5
35D
  8
DATA
  6
CONTINUOUS
 62
     7
 10
588.0
 20
654.0
 30
0.0
 11
588.0
 21
653.0
 31
0.0
  0
LINE
  5
35E
  8
DATA
  6
CONTINUOUS
 62
     7
 10
588.64832015166121
 20
654.0
 30
0.0
 11
588.64832015166121
 21
653.0
 31
0.0
  0
LINE
  5
35F
  8
DATA
  6
CONTINUOUS
 62
     7
 10
608.64832015166121
 20
654.0
 30
0.0
 11
608.64832015166121
 21
653.0
 31
0.0
  0
LINE
  5
360
  8
DATA
  6
CONTINUOUS
 62
     7
 10
569.31213334451752
 20
654.0
 30
0.0
 11
572.99713241639881
 21
654.0
 31
0.0
  0
LINE
  5
361
  8
DATA
  6
CONTINUOUS
 62
     7
 10
578.49713241639881
 20
654.0
 30
0.0
 11
588.0
 21
654.0
 31
0.0
  0
LINE
  5
362
  8
DATA
  6
CONTINUOUS
 62
     7
 10
588.64832015166121
 20
654.0
 30
0.0
 11
597.99713241639881
 21
654.0
 31
0.0
  0
LINE
  5
363
  8
DATA
  6
CONTINUOUS
 62
     7
 10
603.49713241639881
 20
654.0
 30
0.0
 11
608.64832015166121
 21
654.0
 31
0.0
  0
LINE
  5
364
  8
DATA
  6
CONTINUOUS
 62
     7
 10
570.0
 20
658.0
 30
0.0
 11
586.0
 21
658.0
 31
0.0
  0
LINE
  5
365
  8
DATA
  6
CONTINUOUS
 62
     7
 10
590.66704182805108
 20
658.0
 30
0.0
 11
606.64832015166121
 21
658.0
 31
0.0
  0
LINE
  5
366
  8
DATA
  6
CONTINUOUS
 62
     7
 10
570.0
 20
658.0
 30
0.0
 11
570.0
 21
654.0
 31
0.0
  0
LINE
  5
367
  8
DATA
  6
CONTINUOUS
 62
     7
 10
586.0
 20
658.0
 30
0.0
 11
586.0
 21
654.0
 31
0.0
  0
LINE
  5
368
  8
DATA
  6
CONTINUOUS
 62
     7
 10
590.66704182805108
 20
658.0
 30
0.0
 11
590.66704182805108
 21
654.0
 31
0.0
  0
LINE
  5
369
  8
DATA
  6
CONTINUOUS
 62
     7
 10
606.64832015166121
 20
658.0
 30
0.0
 11
606.64832015166121
 21
654.0
 31
0.0
  0
LINE
  5
36A
  8
DATA
  6
CONTINUOUS
 62
     7
 10
538.9915959048883
 20
673.0
 30
0.0
 11
528.99159590488819
 21
673.0
 31
0.0
  0
LINE
  5
36B
  8
DATA
  6
CONTINUOUS
 62
     7
 10
538.9915959048883
 20
661.0
 30
0.0
 11
528.99159590488819
 21
661.0
 31
0.0
  0
LINE
  5
36C
  8
DATA
  6
CONTINUOUS
 62
     7
 10
541.94579408919003
 20
655.49999999999989
 30
0.0
 11
525.9915959048883
 21
655.49999999999989
 31
0.0
  0
LINE
  5
36D
  8
DATA
  6
CONTINUOUS
 62
     7
 10
525.9915959048883
 20
659.49999999999989
 30
0.0
 11
525.9915959048883
 21
653.0
 31
0.0
  0
LINE
  5
36E
  8
DATA
  6
CONTINUOUS
 62
     7
 10
541.94579408919003
 20
659.49999999999989
 30
0.0
 11
541.94579408919003
 21
653.0
 31
0.0
  0
LINE
  5
36F
  8
DATA
  6
CONTINUOUS
 62
     7
 10
525.9915959048883
 20
659.49999999999989
 30
0.0
 11
541.94579408919003
 21
659.49999999999989
 31
0.0
  0
CIRCLE
  5
370
  8
DATA
  6
CONTINUOUS
 62
     7
 10
578.0
 20
667.49999999999989
 30
0.0
 40
1.0
  0
CIRCLE
  5
371
  8
DATA
  6
CONTINUOUS
 62
     7
 10
598.64832015166121
 20
667.45000000000005
 30
0.0
 40
1.0
  0
POLYLINE
  5
372
  8
DATA
  6
CONTINUOUS
 62
     7
 66
     1
 10
0.0
 20
0.0
 30
0.0
  0
VERTEX
  5
66B
  8
DATA
  6
CONTINUOUS
 62
     7
 10
538.9915959048883
 20
670.0
 30
0.0
  0
VERTEX
  5
66C
  8
DATA
  6
CONTINUOUS
 62
     7
 10
539.54159590488825
 20
670.0
 30
0.0
  0
VERTEX
  5
66D
  8
DATA
  6
CONTINUOUS
 62
     7
 10
539.54159590488825
 20
668.0
 30
0.0
  0
VERTEX
  5
66E
  8
DATA
  6
CONTINUOUS
 62
     7
 10
538.9915959048883
 20
668.0
 30
0.0
  0
SEQEND
  5
66F
  8
DATA
  6
CONTINUOUS
 62
     7
  0
POLYLINE
  5
379
  8
DATA
  6
CONTINUOUS
 62
     7
 66
     1
 10
0.0
 20
0.0
 30
0.0
  0
VERTEX
  5
670
  8
DATA
  6
CONTINUOUS
 62
     7
 10
528.99159590488819
 20
668.0
 30
0.0
  0
VERTEX
  5
671
  8
DATA
  6
CONTINUOUS
 62
     7
 10
528.44159590488835
 20
668.0
 30
0.0
  0
VERTEX
  5
672
  8
DATA
  6
CONTINUOUS
 62
     7
 10
528.44159590488835
 20
670.0
 30
0.0
  0
VERTEX
  5
673
  8
DATA
  6
CONTINUOUS
 62
     7
 10
528.99159590488819
 20
670.0
 30
0.0
  0
SEQEND
  5
674
  8
DATA
  6
CONTINUOUS
 62
     7
  0
LINE
  5
380
  8
DATA
  6
CONTINUOUS
 62
     7
 10
518.9915959048883
 20
673.0
 30
0.0
 11
518.9915959048883
 21
659.49999999999989
 31
0.0
  0
LINE
  5
381
  8
DATA
  6
CONTINUOUS
 62
     7
 10
508.9915959048883
 20
673.0
 30
0.0
 11
508.9915959048883
 21
659.49999999999989
 31
0.0
  0
LINE
  5
382
  8
DATA
  6
CONTINUOUS
 62
     7
 10
518.9915959048883
 20
673.0
 30
0.0
 11
508.9915959048883
 21
673.0
 31
0.0
  0
LINE
  5
383
  8
DATA
  6
CONTINUOUS
 62
     7
 10
518.9915959048883
 20
661.0
 30
0.0
 11
508.9915959048883
 21
661.0
 31
0.0
  0
LINE
  5
384
  8
DATA
  6
CONTINUOUS
 62
     7
 10
521.94579408919003
 20
655.49999999999989
 30
0.0
 11
505.9915959048883
 21
655.49999999999989
 31
0.0
  0
LINE
  5
385
  8
DATA
  6
CONTINUOUS
 62
     7
 10
505.9915959048883
 20
659.49999999999989
 30
0.0
 11
505.9915959048883
 21
653.0
 31
0.0
  0
LINE
  5
386
  8
DATA
  6
CONTINUOUS
 62
     7
 10
521.94579408919003
 20
659.49999999999989
 30
0.0
 11
521.94579408919003
 21
653.0
 31
0.0
  0
LINE
  5
387
  8
DATA
  6
CONTINUOUS
 62
     7
 10
505.9915959048883
 20
659.49999999999989
 30
0.0
 11
521.94579408919003
 21
659.49999999999989
 31
0.0
  0
POLYLINE
  5
388
  8
DATA
  6
CONTINUOUS
 62
     7
 66
     1
 10
0.0
 20
0.0
 30
0.0
  0
VERTEX
  5
675
  8
DATA
  6
CONTINUOUS
 62
     7
 10
518.9915959048883
 20
670.0
 30
0.0
  0
VERTEX
  5
676
  8
DATA
  6
CONTINUOUS
 62
     7
 10
519.54159590488825
 20
670.0
 30
0.0
  0
VERTEX
  5
677
  8
DATA
  6
CONTINUOUS
 62
     7
 10
519.54159590488825
 20
668.0
 30
0.0
  0
VERTEX
  5
678
  8
DATA
  6
CONTINUOUS
 62
     7
 10
518.9915959048883
 20
668.0
 30
0.0
  0
SEQEND
  5
679
  8
DATA
  6
CONTINUOUS
 62
     7
  0
POLYLINE
  5
38F
  8
DATA
  6
CONTINUOUS
 62
     7
 66
     1
 10
0.0
 20
0.0
 30
0.0
  0
VERTEX
  5
67A
  8
DATA
  6
CONTINUOUS
 62
     7
 10
508.9915959048883
 20
668.0
 30
0.0
  0
VERTEX
  5
67B
  8
DATA
  6
CONTINUOUS
 62
     7
 10
508.44159590488812
 20
668.0
 30
0.0
  0
VERTEX
  5
67C
  8
DATA
  6
CONTINUOUS
 62
     7
 10
508.44159590488812
 20
670.0
 30
0.0
  0
VERTEX
  5
67D
  8
DATA
  6
CONTINUOUS
 62
     7
 10
508.9915959048883
 20
670.0
 30
0.0
  0
SEQEND
  5
67E
  8
DATA
  6
CONTINUOUS
 62
     7
  0
LINE
  5
396
  8
DATA
  6
CONTINUOUS
 62
     7
 10
498.99159590488819
 20
673.0
 30
0.0
 11
498.99159590488819
 21
659.49999999999989
 31
0.0
  0
LINE
  5
397
  8
DATA
  6
CONTINUOUS
 62
     7
 10
488.9915959048883
 20
673.0
 30
0.0
 11
488.9915959048883
 21
659.49999999999989
 31
0.0
  0
LINE
  5
398
  8
DATA
  6
CONTINUOUS
 62
     7
 10
498.99159590488819
 20
673.0
 30
0.0
 11
488.9915959048883
 21
673.0
 31
0.0
  0
LINE
  5
399
  8
DATA
  6
CONTINUOUS
 62
     7
 10
498.99159590488819
 20
661.0
 30
0.0
 11
488.9915959048883
 21
661.0
 31
0.0
  0
LINE
  5
39A
  8
DATA
  6
CONTINUOUS
 62
     7
 10
501.94579408919009
 20
655.49999999999989
 30
0.0
 11
485.99159590488819
 21
655.49999999999989
 31
0.0
  0
LINE
  5
39B
  8
DATA
  6
CONTINUOUS
 62
     7
 10
485.99159590488819
 20
659.49999999999989
 30
0.0
 11
485.99159590488819
 21
653.0
 31
0.0
  0
LINE
  5
39C
  8
DATA
  6
CONTINUOUS
 62
     7
 10
501.94579408919009
 20
659.49999999999989
 30
0.0
 11
501.94579408919009
 21
653.0
 31
0.0
  0
LINE
  5
39D
  8
DATA
  6
CONTINUOUS
 62
     7
 10
485.99159590488819
 20
659.49999999999989
 30
0.0
 11
501.94579408919009
 21
659.49999999999989
 31
0.0
  0
POLYLINE
  5
39E
  8
DATA
  6
CONTINUOUS
 62
     7
 66
     1
 10
0.0
 20
0.0
 30
0.0
  0
VERTEX
  5
67F
  8
DATA
  6
CONTINUOUS
 62
     7
 10
498.99159590488819
 20
670.0
 30
0.0
  0
VERTEX
  5
680
  8
DATA
  6
CONTINUOUS
 62
     7
 10
499.5415959048882
 20
670.0
 30
0.0
  0
VERTEX
  5
681
  8
DATA
  6
CONTINUOUS
 62
     7
 10
499.5415959048882
 20
668.0
 30
0.0
  0
VERTEX
  5
682
  8
DATA
  6
CONTINUOUS
 62
     7
 10
498.99159590488819
 20
668.0
 30
0.0
  0
SEQEND
  5
683
  8
DATA
  6
CONTINUOUS
 62
     7
  0
POLYLINE
  5
3A5
  8
DATA
  6
CONTINUOUS
 62
     7
 66
     1
 10
0.0
 20
0.0
 30
0.0
  0
VERTEX
  5
684
  8
DATA
  6
CONTINUOUS
 62
     7
 10
488.9915959048883
 20
668.0
 30
0.0
  0
VERTEX
  5
685
  8
DATA
  6
CONTINUOUS
 62
     7
 10
488.44159590488817
 20
668.0
 30
0.0
  0
VERTEX
  5
686
  8
DATA
  6
CONTINUOUS
 62
     7
 10
488.44159590488817
 20
670.0
 30
0.0
  0
VERTEX
  5
687
  8
DATA
  6
CONTINUOUS
 62
     7
 10
488.9915959048883
 20
670.0
 30
0.0
  0
SEQEND
  5
688
  8
DATA
  6
CONTINUOUS
 62
     7
  0
LINE
  5
3AC
  8
DATA
  6
CONTINUOUS
 62
     7
 10
478.99159590488819
 20
673.0
 30
0.0
 11
478.99159590488819
 21
659.49999999999989
 31
0.0
  0
LINE
  5
3AD
  8
DATA
  6
CONTINUOUS
 62
     7
 10
468.9915959048883
 20
673.0
 30
0.0
 11
468.9915959048883
 21
659.49999999999989
 31
0.0
  0
LINE
  5
3AE
  8
DATA
  6
CONTINUOUS
 62
     7
 10
478.99159590488819
 20
673.0
 30
0.0
 11
468.9915959048883
 21
673.0
 31
0.0
  0
LINE
  5
3AF
  8
DATA
  6
CONTINUOUS
 62
     7
 10
478.99159590488819
 20
661.0
 30
0.0
 11
468.9915959048883
 21
661.0
 31
0.0
  0
LINE
  5
3B0
  8
DATA
  6
CONTINUOUS
 62
     7
 10
481.94579408919009
 20
655.49999999999989
 30
0.0
 11
465.99159590488819
 21
655.49999999999989
 31
0.0
  0
LINE
  5
3B1
  8
DATA
  6
CONTINUOUS
 62
     7
 10
465.99159590488819
 20
659.49999999999989
 30
0.0
 11
465.99159590488819
 21
653.0
 31
0.0
  0
LINE
  5
3B2
  8
DATA
  6
CONTINUOUS
 62
     7
 10
481.94579408919009
 20
659.49999999999989
 30
0.0
 11
481.94579408919009
 21
653.0
 31
0.0
  0
LINE
  5
3B3
  8
DATA
  6
CONTINUOUS
 62
     7
 10
465.99159590488819
 20
659.49999999999989
 30
0.0
 11
481.94579408919009
 21
659.49999999999989
 31
0.0
  0
POLYLINE
  5
3B4
  8
DATA
  6
CONTINUOUS
 62
     7
 66
     1
 10
0.0
 20
0.0
 30
0.0
  0
VERTEX
  5
689
  8
DATA
  6
CONTINUOUS
 62
     7
 10
478.99159590488819
 20
670.0
 30
0.0
  0
VERTEX
  5
68A
  8
DATA
  6
CONTINUOUS
 62
     7
 10
479.5415959048882
 20
670.0
 30
0.0
  0
VERTEX
  5
68B
  8
DATA
  6
CONTINUOUS
 62
     7
 10
479.5415959048882
 20
668.0
 30
0.0
  0
VERTEX
  5
68C
  8
DATA
  6
CONTINUOUS
 62
     7
 10
478.99159590488819
 20
668.0
 30
0.0
  0
SEQEND
  5
68D
  8
DATA
  6
CONTINUOUS
 62
     7
  0
POLYLINE
  5
3BB
  8
DATA
  6
CONTINUOUS
 62
     7
 66
     1
 10
0.0
 20
0.0
 30
0.0
  0
VERTEX
  5
68E
  8
DATA
  6
CONTINUOUS
 62
     7
 10
468.9915959048883
 20
668.0
 30
0.0
  0
VERTEX
  5
68F
  8
DATA
  6
CONTINUOUS
 62
     7
 10
468.44159590488817
 20
668.0
 30
0.0
  0
VERTEX
  5
690
  8
DATA
  6
CONTINUOUS
 62
     7
 10
468.44159590488817
 20
670.0
 30
0.0
  0
VERTEX
  5
691
  8
DATA
  6
CONTINUOUS
 62
     7
 10
468.9915959048883
 20
670.0
 30
0.0
  0
SEQEND
  5
692
  8
DATA
  6
CONTINUOUS
 62
     7
  0
LINE
  5
3C2
  8
DATA
  6
CONTINUOUS
 62
     7
 10
458.9915959048883
 20
673.0
 30
0.0
 11
458.9915959048883
 21
659.49999999999989
 31
0.0
  0
LINE
  5
3C3
  8
DATA
  6
CONTINUOUS
 62
     7
 10
448.99159590488819
 20
673.0
 30
0.0
 11
448.99159590488819
 21
659.49999999999989
 31
0.0
  0
LINE
  5
3C4
  8
DATA
  6
CONTINUOUS
 62
     7
 10
458.9915959048883
 20
673.0
 30
0.0
 11
448.99159590488819
 21
673.0
 31
0.0
  0
LINE
  5
3C5
  8
DATA
  6
CONTINUOUS
 62
     7
 10
458.9915959048883
 20
661.0
 30
0.0
 11
448.99159590488819
 21
661.0
 31
0.0
  0
LINE
  5
3C6
  8
DATA
  6
CONTINUOUS
 62
     7
 10
461.94579408918997
 20
655.49999999999989
 30
0.0
 11
445.9915959048883
 21
655.49999999999989
 31
0.0
  0
LINE
  5
3C7
  8
DATA
  6
CONTINUOUS
 62
     7
 10
445.9915959048883
 20
659.49999999999989
 30
0.0
 11
445.9915959048883
 21
653.0
 31
0.0
  0
LINE
  5
3C8
  8
DATA
  6
CONTINUOUS
 62
     7
 10
461.94579408918997
 20
659.49999999999989
 30
0.0
 11
461.94579408918997
 21
653.0
 31
0.0
  0
LINE
  5
3C9
  8
DATA
  6
CONTINUOUS
 62
     7
 10
445.9915959048883
 20
659.49999999999989
 30
0.0
 11
461.94579408918997
 21
659.49999999999989
 31
0.0
  0
POLYLINE
  5
3CA
  8
DATA
  6
CONTINUOUS
 62
     7
 66
     1
 10
0.0
 20
0.0
 30
0.0
  0
VERTEX
  5
693
  8
DATA
  6
CONTINUOUS
 62
     7
 10
458.9915959048883
 20
670.0
 30
0.0
  0
VERTEX
  5
694
  8
DATA
  6
CONTINUOUS
 62
     7
 10
459.54159590488831
 20
670.0
 30
0.0
  0
VERTEX
  5
695
  8
DATA
  6
CONTINUOUS
 62
     7
 10
459.54159590488831
 20
668.0
 30
0.0
  0
VERTEX
  5
696
  8
DATA
  6
CONTINUOUS
 62
     7
 10
458.9915959048883
 20
668.0
 30
0.0
  0
SEQEND
  5
697
  8
DATA
  6
CONTINUOUS
 62
     7
  0
POLYLINE
  5
3D1
  8
DATA
  6
CONTINUOUS
 62
     7
 66
     1
 10
0.0
 20
0.0
 30
0.0
  0
VERTEX
  5
698
  8
DATA
  6
CONTINUOUS
 62
     7
 10
448.99159590488819
 20
668.0
 30
0.0
  0
VERTEX
  5
699
  8
DATA
  6
CONTINUOUS
 62
     7
 10
448.44159590488817
 20
668.0
 30
0.0
  0
VERTEX
  5
69A
  8
DATA
  6
CONTINUOUS
 62
     7
 10
448.44159590488817
 20
670.0
 30
0.0
  0
VERTEX
  5
69B
  8
DATA
  6
CONTINUOUS
 62
     7
 10
448.99159590488819
 20
670.0
 30
0.0
  0
SEQEND
  5
69C
  8
DATA
  6
CONTINUOUS
 62
     7
  0
LINE
  5
3D8
  8
DATA
  6
CONTINUOUS
 62
     7
 10
438.9915959048883
 20
673.0
 30
0.0
 11
438.9915959048883
 21
659.49999999999989
 31
0.0
  0
LINE
  5
3D9
  8
DATA
  6
CONTINUOUS
 62
     7
 10
428.99159590488819
 20
673.0
 30
0.0
 11
428.99159590488819
 21
659.49999999999989
 31
0.0
  0
LINE
  5
3DA
  8
DATA
  6
CONTINUOUS
 62
     7
 10
438.9915959048883
 20
673.0
 30
0.0
 11
428.99159590488819
 21
673.0
 31
0.0
  0
LINE
  5
3DB
  8
DATA
  6
CONTINUOUS
 62
     7
 10
438.9915959048883
 20
661.0
 30
0.0
 11
428.99159590488819
 21
661.0
 31
0.0
  0
LINE
  5
3DC
  8
DATA
  6
CONTINUOUS
 62
     7
 10
441.94579408918997
 20
655.49999999999989
 30
0.0
 11
425.9915959048883
 21
655.49999999999989
 31
0.0
  0
LINE
  5
3DD
  8
DATA
  6
CONTINUOUS
 62
     7
 10
425.9915959048883
 20
659.49999999999989
 30
0.0
 11
425.9915959048883
 21
653.0
 31
0.0
  0
LINE
  5
3DE
  8
DATA
  6
CONTINUOUS
 62
     7
 10
441.94579408918997
 20
659.49999999999989
 30
0.0
 11
441.94579408918997
 21
653.0
 31
0.0
  0
LINE
  5
3DF
  8
DATA
  6
CONTINUOUS
 62
     7
 10
425.9915959048883
 20
659.49999999999989
 30
0.0
 11
441.94579408918997
 21
659.49999999999989
 31
0.0
  0
POLYLINE
  5
3E0
  8
DATA
  6
CONTINUOUS
 62
     7
 66
     1
 10
0.0
 20
0.0
 30
0.0
  0
VERTEX
  5
69D
  8
DATA
  6
CONTINUOUS
 62
     7
 10
438.9915959048883
 20
670.0
 30
0.0
  0
VERTEX
  5
69E
  8
DATA
  6
CONTINUOUS
 62
     7
 10
439.5415959048882
 20
670.0
 30
0.0
  0
VERTEX
  5
69F
  8
DATA
  6
CONTINUOUS
 62
     7
 10
439.5415959048882
 20
668.0
 30
0.0
  0
VERTEX
  5
6A0
  8
DATA
  6
CONTINUOUS
 62
     7
 10
438.9915959048883
 20
668.0
 30
0.0
  0
SEQEND
  5
6A1
  8
DATA
  6
CONTINUOUS
 62
     7
  0
POLYLINE
  5
3E7
  8
DATA
  6
CONTINUOUS
 62
     7
 66
     1
 10
0.0
 20
0.0
 30
0.0
  0
VERTEX
  5
6A2
  8
DATA
  6
CONTINUOUS
 62
     7
 10
428.99159590488819
 20
668.0
 30
0.0
  0
VERTEX
  5
6A3
  8
DATA
  6
CONTINUOUS
 62
     7
 10
428.44159590488817
 20
668.0
 30
0.0
  0
VERTEX
  5
6A4
  8
DATA
  6
CONTINUOUS
 62
     7
 10
428.44159590488817
 20
670.0
 30
0.0
  0
VERTEX
  5
6A5
  8
DATA
  6
CONTINUOUS
 62
     7
 10
428.99159590488819
 20
670.0
 30
0.0
  0
SEQEND
  5
6A6
  8
DATA
  6
CONTINUOUS
 62
     7
  0
LINE
  5
3EE
  8
DATA
  6
CONTINUOUS
 62
     7
 10
546.0
 20
654.0
 30
0.0
 11
546.0
 21
653.0
 31
0.0
  0
LINE
  5
3EF
  8
DATA
  6
CONTINUOUS
 62
     7
 10
563.81213334451752
 20
654.0
 30
0.0
 11
546.0
 21
654.0
 31
0.0
  0
LINE
  5
3F0
  8
DATA
  6
CONTINUOUS
 62
     7
 10
561.95000000000005
 20
659.0
 30
0.0
 11
552.04999999999995
 21
659.0
 31
0.0
  0
LINE
  5
3F1
  8
DATA
  6
CONTINUOUS
 62
     7
 10
552.04999999999995
 20
659.0
 30
0.0
 11
552.04999999999995
 21
658.20000000000005
 31
0.0
  0
LINE
  5
3F2
  8
DATA
  6
CONTINUOUS
 62
     7
 10
561.95000000000005
 20
659.0
 30
0.0
 11
561.95000000000005
 21
658.20000000000005
 31
0.0
  0
LINE
  5
3F3
  8
DATA
  6
CONTINUOUS
 62
     7
 10
561.95000000000005
 20
658.20000000000005
 30
0.0
 11
552.04999999999995
 21
658.20000000000005
 31
0.0
  0
LINE
  5
3F4
  8
DATA
  6
CONTINUOUS
 62
     7
 10
554.49999999999989
 20
658.20000000000005
 30
0.0
 11
554.49999999999989
 21
654.0
 31
0.0
  0
LINE
  5
3F5
  8
DATA
  6
CONTINUOUS
 62
     7
 10
559.49999999999989
 20
658.20000000000005
 30
0.0
 11
559.49999999999989
 21
654.0
 31
0.0
  0
POLYLINE
  5
3F6
  8
DATA
  6
CONTINUOUS
 62
     7
 66
     1
 10
0.0
 20
0.0
 30
0.0
  0
VERTEX
  5
6A7
  8
DATA
  6
CONTINUOUS
 62
     7
 10
538.89057539024066
 20
829.64550644765995
 30
0.0
  0
VERTEX
  5
6A8
  8
DATA
  6
CONTINUOUS
 62
     7
 10
539.54159590467441
 20
829.64550644765995
 30
0.0
  0
VERTEX
  5
6A9
  8
DATA
  6
CONTINUOUS
 62
     7
 10
539.54159590467441
 20
827.64550644765995
 30
0.0
  0
VERTEX
  5
6AA
  8
DATA
  6
CONTINUOUS
 62
     7
 10
538.89057539024066
 20
827.64550644765995
 30
0.0
  0
SEQEND
  5
6AB
  8
DATA
  6
CONTINUOUS
 62
     7
  0
POLYLINE
  5
3FD
  8
DATA
  6
CONTINUOUS
 62
     7
 66
     1
 10
0.0
 20
0.0
 30
0.0
  0
VERTEX
  5
6AC
  8
DATA
  6
CONTINUOUS
 62
     7
 10
529.09261641910803
 20
827.64550644765995
 30
0.0
  0
VERTEX
  5
6AD
  8
DATA
  6
CONTINUOUS
 62
     7
 10
528.44159590467439
 20
827.64550644765995
 30
0.0
  0
VERTEX
  5
6AE
  8
DATA
  6
CONTINUOUS
 62
     7
 10
528.44159590467439
 20
829.64550644765995
 30
0.0
  0
VERTEX
  5
6AF
  8
DATA
  6
CONTINUOUS
 62
     7
 10
529.09261641910803
 20
829.64550644765995
 30
0.0
  0
SEQEND
  5
6B0
  8
DATA
  6
CONTINUOUS
 62
     7
  0
POLYLINE
  5
404
  8
DATA
  6
CONTINUOUS
 62
     7
 66
     1
 10
0.0
 20
0.0
 30
0.0
  0
VERTEX
  5
6B1
  8
DATA
  6
CONTINUOUS
 62
     7
 10
529.09261641910803
 20
811.49216021405118
 30
0.0
  0
VERTEX
  5
6B2
  8
DATA
  6
CONTINUOUS
 62
     7
 10
528.44159590467439
 20
811.49216021405118
 30
0.0
  0
VERTEX
  5
6B3
  8
DATA
  6
CONTINUOUS
 62
     7
 10
528.44159590467439
 20
813.49216021405107
 30
0.0
  0
VERTEX
  5
6B4
  8
DATA
  6
CONTINUOUS
 62
     7
 10
529.09261641910803
 20
813.49216021405107
 30
0.0
  0
SEQEND
  5
6B5
  8
DATA
  6
CONTINUOUS
 62
     7
  0
POLYLINE
  5
40B
  8
DATA
  6
CONTINUOUS
 62
     7
 66
     1
 10
0.0
 20
0.0
 30
0.0
  0
VERTEX
  5
6B6
  8
DATA
  6
CONTINUOUS
 62
     7
 10
538.89057539024066
 20
813.49216021405107
 30
0.0
  0
VERTEX
  5
6B7
  8
DATA
  6
CONTINUOUS
 62
     7
 10
539.54159590467441
 20
813.49216021405107
 30
0.0
  0
VERTEX
  5
6B8
  8
DATA
  6
CONTINUOUS
 62
     7
 10
539.54159590467441
 20
811.49216021405118
 30
0.0
  0
VERTEX
  5
6B9
  8
DATA
  6
CONTINUOUS
 62
     7
 10
538.89057539024066
 20
811.49216021405118
 30
0.0
  0
SEQEND
  5
6BA
  8
DATA
  6
CONTINUOUS
 62
     7
  0
POLYLINE
  5
412
  8
DATA
  6
CONTINUOUS
 62
     7
 66
     1
 10
0.0
 20
0.0
 30
0.0
  0
VERTEX
  5
6BB
  8
DATA
  6
CONTINUOUS
 62
     7
 10
518.89057539024077
 20
829.64550644765995
 30
0.0
  0
VERTEX
  5
6BC
  8
DATA
  6
CONTINUOUS
 62
     7
 10
519.5415959046743
 20
829.64550644765995
 30
0.0
  0
VERTEX
  5
6BD
  8
DATA
  6
CONTINUOUS
 62
     7
 10
519.5415959046743
 20
827.64550644765995
 30
0.0
  0
VERTEX
  5
6BE
  8
DATA
  6
CONTINUOUS
 62
     7
 10
518.89057539024077
 20
827.64550644765995
 30
0.0
  0
SEQEND
  5
6BF
  8
DATA
  6
CONTINUOUS
 62
     7
  0
POLYLINE
  5
419
  8
DATA
  6
CONTINUOUS
 62
     7
 66
     1
 10
0.0
 20
0.0
 30
0.0
  0
VERTEX
  5
6C0
  8
DATA
  6
CONTINUOUS
 62
     7
 10
509.09261641910791
 20
827.64550644765995
 30
0.0
  0
VERTEX
  5
6C1
  8
DATA
  6
CONTINUOUS
 62
     7
 10
508.44159590467439
 20
827.64550644765995
 30
0.0
  0
VERTEX
  5
6C2
  8
DATA
  6
CONTINUOUS
 62
     7
 10
508.44159590467439
 20
829.64550644765995
 30
0.0
  0
VERTEX
  5
6C3
  8
DATA
  6
CONTINUOUS
 62
     7
 10
509.09261641910791
 20
829.64550644765995
 30
0.0
  0
SEQEND
  5
6C4
  8
DATA
  6
CONTINUOUS
 62
     7
  0
POLYLINE
  5
420
  8
DATA
  6
CONTINUOUS
 62
     7
 66
     1
 10
0.0
 20
0.0
 30
0.0
  0
VERTEX
  5
6C5
  8
DATA
  6
CONTINUOUS
 62
     7
 10
509.09261641910791
 20
811.49216021405118
 30
0.0
  0
VERTEX
  5
6C6
  8
DATA
  6
CONTINUOUS
 62
     7
 10
508.44159590467439
 20
811.49216021405118
 30
0.0
  0
VERTEX
  5
6C7
  8
DATA
  6
CONTINUOUS
 62
     7
 10
508.44159590467439
 20
813.49216021405107
 30
0.0
  0
VERTEX
  5
6C8
  8
DATA
  6
CONTINUOUS
 62
     7
 10
509.09261641910791
 20
813.49216021405107
 30
0.0
  0
SEQEND
  5
6C9
  8
DATA
  6
CONTINUOUS
 62
     7
  0
POLYLINE
  5
427
  8
DATA
  6
CONTINUOUS
 62
     7
 66
     1
 10
0.0
 20
0.0
 30
0.0
  0
VERTEX
  5
6CA
  8
DATA
  6
CONTINUOUS
 62
     7
 10
518.89057539024077
 20
813.49216021405107
 30
0.0
  0
VERTEX
  5
6CB
  8
DATA
  6
CONTINUOUS
 62
     7
 10
519.5415959046743
 20
813.49216021405107
 30
0.0
  0
VERTEX
  5
6CC
  8
DATA
  6
CONTINUOUS
 62
     7
 10
519.5415959046743
 20
811.49216021405118
 30
0.0
  0
VERTEX
  5
6CD
  8
DATA
  6
CONTINUOUS
 62
     7
 10
518.89057539024077
 20
811.49216021405118
 30
0.0
  0
SEQEND
  5
6CE
  8
DATA
  6
CONTINUOUS
 62
     7
  0
POLYLINE
  5
42E
  8
DATA
  6
CONTINUOUS
 62
     7
 66
     1
 10
0.0
 20
0.0
 30
0.0
  0
VERTEX
  5
6CF
  8
DATA
  6
CONTINUOUS
 62
     7
 10
498.89057539024071
 20
829.64550644765995
 30
0.0
  0
VERTEX
  5
6D0
  8
DATA
  6
CONTINUOUS
 62
     7
 10
499.5415959046743
 20
829.64550644765995
 30
0.0
  0
VERTEX
  5
6D1
  8
DATA
  6
CONTINUOUS
 62
     7
 10
499.5415959046743
 20
827.64550644765995
 30
0.0
  0
VERTEX
  5
6D2
  8
DATA
  6
CONTINUOUS
 62
     7
 10
498.89057539024071
 20
827.64550644765995
 30
0.0
  0
SEQEND
  5
6D3
  8
DATA
  6
CONTINUOUS
 62
     7
  0
POLYLINE
  5
435
  8
DATA
  6
CONTINUOUS
 62
     7
 66
     1
 10
0.0
 20
0.0
 30
0.0
  0
VERTEX
  5
6D4
  8
DATA
  6
CONTINUOUS
 62
     7
 10
489.09261641910791
 20
827.64550644765995
 30
0.0
  0
VERTEX
  5
6D5
  8
DATA
  6
CONTINUOUS
 62
     7
 10
488.44159590467427
 20
827.64550644765995
 30
0.0
  0
VERTEX
  5
6D6
  8
DATA
  6
CONTINUOUS
 62
     7
 10
488.44159590467427
 20
829.64550644765995
 30
0.0
  0
VERTEX
  5
6D7
  8
DATA
  6
CONTINUOUS
 62
     7
 10
489.09261641910791
 20
829.64550644765995
 30
0.0
  0
SEQEND
  5
6D8
  8
DATA
  6
CONTINUOUS
 62
     7
  0
POLYLINE
  5
43C
  8
DATA
  6
CONTINUOUS
 62
     7
 66
     1
 10
0.0
 20
0.0
 30
0.0
  0
VERTEX
  5
6D9
  8
DATA
  6
CONTINUOUS
 62
     7
 10
489.09261641910791
 20
811.49216021405118
 30
0.0
  0
VERTEX
  5
6DA
  8
DATA
  6
CONTINUOUS
 62
     7
 10
488.44159590467427
 20
811.49216021405118
 30
0.0
  0
VERTEX
  5
6DB
  8
DATA
  6
CONTINUOUS
 62
     7
 10
488.44159590467427
 20
813.49216021405107
 30
0.0
  0
VERTEX
  5
6DC
  8
DATA
  6
CONTINUOUS
 62
     7
 10
489.09261641910791
 20
813.49216021405107
 30
0.0
  0
SEQEND
  5
6DD
  8
DATA
  6
CONTINUOUS
 62
     7
  0
POLYLINE
  5
443
  8
DATA
  6
CONTINUOUS
 62
     7
 66
     1
 10
0.0
 20
0.0
 30
0.0
  0
VERTEX
  5
6DE
  8
DATA
  6
CONTINUOUS
 62
     7
 10
498.89057539024071
 20
813.49216021405107
 30
0.0
  0
VERTEX
  5
6DF
  8
DATA
  6
CONTINUOUS
 62
     7
 10
499.5415959046743
 20
813.49216021405107
 30
0.0
  0
VERTEX
  5
6E0
  8
DATA
  6
CONTINUOUS
 62
     7
 10
499.5415959046743
 20
811.49216021405118
 30
0.0
  0
VERTEX
  5
6E1
  8
DATA
  6
CONTINUOUS
 62
     7
 10
498.89057539024071
 20
811.49216021405118
 30
0.0
  0
SEQEND
  5
6E2
  8
DATA
  6
CONTINUOUS
 62
     7
  0
POLYLINE
  5
44A
  8
DATA
  6
CONTINUOUS
 62
     7
 66
     1
 10
0.0
 20
0.0
 30
0.0
  0
VERTEX
  5
6E3
  8
DATA
  6
CONTINUOUS
 62
     7
 10
478.89057539024071
 20
829.64550644765995
 30
0.0
  0
VERTEX
  5
6E4
  8
DATA
  6
CONTINUOUS
 62
     7
 10
479.5415959046743
 20
829.64550644765995
 30
0.0
  0
VERTEX
  5
6E5
  8
DATA
  6
CONTINUOUS
 62
     7
 10
479.5415959046743
 20
827.64550644765995
 30
0.0
  0
VERTEX
  5
6E6
  8
DATA
  6
CONTINUOUS
 62
     7
 10
478.89057539024071
 20
827.64550644765995
 30
0.0
  0
SEQEND
  5
6E7
  8
DATA
  6
CONTINUOUS
 62
     7
  0
POLYLINE
  5
451
  8
DATA
  6
CONTINUOUS
 62
     7
 66
     1
 10
0.0
 20
0.0
 30
0.0
  0
VERTEX
  5
6E8
  8
DATA
  6
CONTINUOUS
 62
     7
 10
469.09261641910791
 20
827.64550644765995
 30
0.0
  0
VERTEX
  5
6E9
  8
DATA
  6
CONTINUOUS
 62
     7
 10
468.44159590467427
 20
827.64550644765995
 30
0.0
  0
VERTEX
  5
6EA
  8
DATA
  6
CONTINUOUS
 62
     7
 10
468.44159590467427
 20
829.64550644765995
 30
0.0
  0
VERTEX
  5
6EB
  8
DATA
  6
CONTINUOUS
 62
     7
 10
469.09261641910791
 20
829.64550644765995
 30
0.0
  0
SEQEND
  5
6EC
  8
DATA
  6
CONTINUOUS
 62
     7
  0
POLYLINE
  5
458
  8
DATA
  6
CONTINUOUS
 62
     7
 66
     1
 10
0.0
 20
0.0
 30
0.0
  0
VERTEX
  5
6ED
  8
DATA
  6
CONTINUOUS
 62
     7
 10
469.09261641910791
 20
811.49216021405118
 30
0.0
  0
VERTEX
  5
6EE
  8
DATA
  6
CONTINUOUS
 62
     7
 10
468.44159590467427
 20
811.49216021405118
 30
0.0
  0
VERTEX
  5
6EF
  8
DATA
  6
CONTINUOUS
 62
     7
 10
468.44159590467427
 20
813.49216021405107
 30
0.0
  0
VERTEX
  5
6F0
  8
DATA
  6
CONTINUOUS
 62
     7
 10
469.09261641910791
 20
813.49216021405107
 30
0.0
  0
SEQEND
  5
6F1
  8
DATA
  6
CONTINUOUS
 62
     7
  0
POLYLINE
  5
45F
  8
DATA
  6
CONTINUOUS
 62
     7
 66
     1
 10
0.0
 20
0.0
 30
0.0
  0
VERTEX
  5
6F2
  8
DATA
  6
CONTINUOUS
 62
     7
 10
478.89057539024071
 20
813.49216021405107
 30
0.0
  0
VERTEX
  5
6F3
  8
DATA
  6
CONTINUOUS
 62
     7
 10
479.5415959046743
 20
813.49216021405107
 30
0.0
  0
VERTEX
  5
6F4
  8
DATA
  6
CONTINUOUS
 62
     7
 10
479.5415959046743
 20
811.49216021405118
 30
0.0
  0
VERTEX
  5
6F5
  8
DATA
  6
CONTINUOUS
 62
     7
 10
478.89057539024071
 20
811.49216021405118
 30
0.0
  0
SEQEND
  5
6F6
  8
DATA
  6
CONTINUOUS
 62
     7
  0
POLYLINE
  5
466
  8
DATA
  6
CONTINUOUS
 62
     7
 66
     1
 10
0.0
 20
0.0
 30
0.0
  0
VERTEX
  5
6F7
  8
DATA
  6
CONTINUOUS
 62
     7
 10
458.89057539024071
 20
829.64550644765995
 30
0.0
  0
VERTEX
  5
6F8
  8
DATA
  6
CONTINUOUS
 62
     7
 10
459.5415959046743
 20
829.64550644765995
 30
0.0
  0
VERTEX
  5
6F9
  8
DATA
  6
CONTINUOUS
 62
     7
 10
459.5415959046743
 20
827.64550644765995
 30
0.0
  0
VERTEX
  5
6FA
  8
DATA
  6
CONTINUOUS
 62
     7
 10
458.89057539024071
 20
827.64550644765995
 30
0.0
  0
SEQEND
  5
6FB
  8
DATA
  6
CONTINUOUS
 62
     7
  0
POLYLINE
  5
46D
  8
DATA
  6
CONTINUOUS
 62
     7
 66
     1
 10
0.0
 20
0.0
 30
0.0
  0
VERTEX
  5
6FC
  8
DATA
  6
CONTINUOUS
 62
     7
 10
449.09261641910791
 20
827.64550644765995
 30
0.0
  0
VERTEX
  5
6FD
  8
DATA
  6
CONTINUOUS
 62
     7
 10
448.44159590467427
 20
827.64550644765995
 30
0.0
  0
VERTEX
  5
6FE
  8
DATA
  6
CONTINUOUS
 62
     7
 10
448.44159590467427
 20
829.64550644765995
 30
0.0
  0
VERTEX
  5
6FF
  8
DATA
  6
CONTINUOUS
 62
     7
 10
449.09261641910791
 20
829.64550644765995
 30
0.0
  0
SEQEND
  5
700
  8
DATA
  6
CONTINUOUS
 62
     7
  0
POLYLINE
  5
474
  8
DATA
  6
CONTINUOUS
 62
     7
 66
     1
 10
0.0
 20
0.0
 30
0.0
  0
VERTEX
  5
701
  8
DATA
  6
CONTINUOUS
 62
     7
 10
449.09261641910791
 20
811.49216021405118
 30
0.0
  0
VERTEX
  5
702
  8
DATA
  6
CONTINUOUS
 62
     7
 10
448.44159590467427
 20
811.49216021405118
 30
0.0
  0
VERTEX
  5
703
  8
DATA
  6
CONTINUOUS
 62
     7
 10
448.44159590467427
 20
813.49216021405107
 30
0.0
  0
VERTEX
  5
704
  8
DATA
  6
CONTINUOUS
 62
     7
 10
449.09261641910791
 20
813.49216021405107
 30
0.0
  0
SEQEND
  5
705
  8
DATA
  6
CONTINUOUS
 62
     7
  0
POLYLINE
  5
47B
  8
DATA
  6
CONTINUOUS
 62
     7
 66
     1
 10
0.0
 20
0.0
 30
0.0
  0
VERTEX
  5
706
  8
DATA
  6
CONTINUOUS
 62
     7
 10
458.89057539024071
 20
813.49216021405107
 30
0.0
  0
VERTEX
  5
707
  8
DATA
  6
CONTINUOUS
 62
     7
 10
459.5415959046743
 20
813.49216021405107
 30
0.0
  0
VERTEX
  5
708
  8
DATA
  6
CONTINUOUS
 62
     7
 10
459.5415959046743
 20
811.49216021405118
 30
0.0
  0
VERTEX
  5
709
  8
DATA
  6
CONTINUOUS
 62
     7
 10
458.89057539024071
 20
811.49216021405118
 30
0.0
  0
SEQEND
  5
70A
  8
DATA
  6
CONTINUOUS
 62
     7
  0
POLYLINE
  5
482
  8
DATA
  6
CONTINUOUS
 62
     7
 66
     1
 10
0.0
 20
0.0
 30
0.0
  0
VERTEX
  5
70B
  8
DATA
  6
CONTINUOUS
 62
     7
 10
438.89057539024071
 20
829.64550644765995
 30
0.0
  0
VERTEX
  5
70C
  8
DATA
  6
CONTINUOUS
 62
     7
 10
439.5415959046743
 20
829.64550644765995
 30
0.0
  0
VERTEX
  5
70D
  8
DATA
  6
CONTINUOUS
 62
     7
 10
439.5415959046743
 20
827.64550644765995
 30
0.0
  0
VERTEX
  5
70E
  8
DATA
  6
CONTINUOUS
 62
     7
 10
438.89057539024071
 20
827.64550644765995
 30
0.0
  0
SEQEND
  5
70F
  8
DATA
  6
CONTINUOUS
 62
     7
  0
POLYLINE
  5
489
  8
DATA
  6
CONTINUOUS
 62
     7
 66
     1
 10
0.0
 20
0.0
 30
0.0
  0
VERTEX
  5
710
  8
DATA
  6
CONTINUOUS
 62
     7
 10
429.09261641910803
 20
827.64550644765995
 30
0.0
  0
VERTEX
  5
711
  8
DATA
  6
CONTINUOUS
 62
     7
 10
428.44159590467439
 20
827.64550644765995
 30
0.0
  0
VERTEX
  5
712
  8
DATA
  6
CONTINUOUS
 62
     7
 10
428.44159590467439
 20
829.64550644765995
 30
0.0
  0
VERTEX
  5
713
  8
DATA
  6
CONTINUOUS
 62
     7
 10
429.09261641910803
 20
829.64550644765995
 30
0.0
  0
SEQEND
  5
714
  8
DATA
  6
CONTINUOUS
 62
     7
  0
POLYLINE
  5
490
  8
DATA
  6
CONTINUOUS
 62
     7
 66
     1
 10
0.0
 20
0.0
 30
0.0
  0
VERTEX
  5
715
  8
DATA
  6
CONTINUOUS
 62
     7
 10
429.09261641910803
 20
811.49216021405118
 30
0.0
  0
VERTEX
  5
716
  8
DATA
  6
CONTINUOUS
 62
     7
 10
428.44159590467439
 20
811.49216021405118
 30
0.0
  0
VERTEX
  5
717
  8
DATA
  6
CONTINUOUS
 62
     7
 10
428.44159590467439
 20
813.49216021405107
 30
0.0
  0
VERTEX
  5
718
  8
DATA
  6
CONTINUOUS
 62
     7
 10
429.09261641910803
 20
813.49216021405107
 30
0.0
  0
SEQEND
  5
719
  8
DATA
  6
CONTINUOUS
 62
     7
  0
POLYLINE
  5
497
  8
DATA
  6
CONTINUOUS
 62
     7
 66
     1
 10
0.0
 20
0.0
 30
0.0
  0
VERTEX
  5
71A
  8
DATA
  6
CONTINUOUS
 62
     7
 10
438.89057539024071
 20
813.49216021405107
 30
0.0
  0
VERTEX
  5
71B
  8
DATA
  6
CONTINUOUS
 62
     7
 10
439.5415959046743
 20
813.49216021405107
 30
0.0
  0
VERTEX
  5
71C
  8
DATA
  6
CONTINUOUS
 62
     7
 10
439.5415959046743
 20
811.49216021405118
 30
0.0
  0
VERTEX
  5
71D
  8
DATA
  6
CONTINUOUS
 62
     7
 10
438.89057539024071
 20
811.49216021405118
 30
0.0
  0
SEQEND
  5
71E
  8
DATA
  6
CONTINUOUS
 62
     7
  0
LINE
  5
49E
  8
DATA
  6
CONTINUOUS
 62
     7
 10
597.99713241639881
 20
654.0
 30
0.0
 11
597.99713241639881
 21
653.0
 31
0.0
  0
LINE
  5
49F
  8
DATA
  6
CONTINUOUS
 62
     7
 10
603.49713241639881
 20
654.0
 30
0.0
 11
603.49713241639881
 21
653.0
 31
0.0
  0
LINE
  5
4A0
  8
DATA
  6
CONTINUOUS
 62
     7
 10
572.99713241639881
 20
654.0
 30
0.0
 11
572.99713241639881
 21
653.0
 31
0.0
  0
LINE
  5
4A1
  8
DATA
  6
CONTINUOUS
 62
     7
 10
578.49713241639881
 20
654.0
 30
0.0
 11
578.49713241639881
 21
653.0
 31
0.0
  0
LINE
  5
4A2
  8
DATA
  6
CONTINUOUS
 62
     7
 10
563.81213334451752
 20
654.0
 30
0.0
 11
563.81213334451752
 21
653.0
 31
0.0
  0
LINE
  5
4A3
  8
DATA
  6
CONTINUOUS
 62
     7
 10
569.31213334451752
 20
654.0
 30
0.0
 11
569.31213334451752
 21
653.0
 31
0.0
  0
LINE
  5
4A4
  8
DATA
  6
CONTINUOUS
 62
     7
 10
602.4971324163987
 20
655.0
 30
0.0
 11
598.99713241639881
 21
655.0
 31
0.0
  0
LINE
  5
4A5
  8
DATA
  6
CONTINUOUS
 62
     7
 10
577.4971324163987
 20
655.0
 30
0.0
 11
573.9971324163987
 21
655.0
 31
0.0
  0
LINE
  5
4A6
  8
DATA
  6
CONTINUOUS
 62
     7
 10
568.31213334451752
 20
655.0
 30
0.0
 11
564.81213334451752
 21
655.0
 31
0.0
  0
ARC
  5
4A7
  8
DATA
  6
CONTINUOUS
 62
     7
 10
602.4971324163987
 20
654.0
 30
0.0
 40
1.0
 50
0.0
 51
90.0
  0
ARC
  5
4A8
  8
DATA
  6
CONTINUOUS
 62
     7
 10
598.99713241639881
 20
654.0
 30
0.0
 40
1.0
 50
90.0
 51
180.0
  0
ARC
  5
4A9
  8
DATA
  6
CONTINUOUS
 62
     7
 10
577.4971324163987
 20
654.0
 30
0.0
 40
1.0
 50
0.0
 51
90.0
  0
ARC
  5
4AA
  8
DATA
  6
CONTINUOUS
 62
     7
 10
573.9971324163987
 20
654.0
 30
0.0
 40
1.0
 50
90.0
 51
180.0
  0
ARC
  5
4AB
  8
DATA
  6
CONTINUOUS
 62
     7
 10
564.81213334451752
 20
654.0
 30
0.0
 40
1.0
 50
90.0
 51
180.0
  0
ARC
  5
4AC
  8
DATA
  6
CONTINUOUS
 62
     7
 10
568.31213334451752
 20
654.0
 30
0.0
 40
1.0
 50
0.0
 51
90.0
  0
LINE
  5
4AD
  8
DATA
  6
CONTINUOUS
 62
     7
 10
348.73177966252757
 20
655.0
 30
0.0
 11
352.23177966252757
 21
655.0
 31
0.0
  0
LINE
  5
4AE
  8
DATA
  6
CONTINUOUS
 62
     7
 10
372.73177966252757
 20
655.0
 30
0.0
 11
376.23177966252757
 21
655.0
 31
0.0
  0
LINE
  5
4AF
  8
DATA
  6
CONTINUOUS
 62
     7
 10
377.23177966252757
 20
654.0
 30
0.0
 11
377.23177966252757
 21
653.0
 31
0.0
  0
LINE
  5
4B0
  8
DATA
  6
CONTINUOUS
 62
     7
 10
371.73177966252757
 20
654.0
 30
0.0
 11
371.73177966252757
 21
653.0
 31
0.0
  0
LINE
  5
4B1
  8
DATA
  6
CONTINUOUS
 62
     7
 10
353.91964631801028
 20
655.0
 30
0.0
 11
353.91964631801028
 21
653.0
 31
0.0
  0
LINE
  5
4B2
  8
DATA
  6
CONTINUOUS
 62
     7
 10
353.23177966252757
 20
654.0
 30
0.0
 11
353.23177966252757
 21
653.0
 31
0.0
  0
LINE
  5
4B3
  8
DATA
  6
CONTINUOUS
 62
     7
 10
347.73177966252757
 20
654.0
 30
0.0
 11
347.73177966252757
 21
653.0
 31
0.0
  0
LINE
  5
4B4
  8
DATA
  6
CONTINUOUS
 62
     7
 10
329.91964631801028
 20
655.0
 30
0.0
 11
329.91964631801028
 21
653.0
 31
0.0
  0
ARC
  5
4B5
  8
DATA
  6
CONTINUOUS
 62
     7
 10
372.73177966252757
 20
654.0
 30
0.0
 40
1.0
 50
90.0
 51
180.0
  0
ARC
  5
4B6
  8
DATA
  6
CONTINUOUS
 62
     7
 10
376.23177966252757
 20
654.0
 30
0.0
 40
1.0
 50
0.0
 51
90.0
  0
ARC
  5
4B7
  8
DATA
  6
CONTINUOUS
 62
     7
 10
348.73177966252757
 20
654.0
 30
0.0
 40
1.0
 50
90.0
 51
180.0
  0
ARC
  5
4B8
  8
DATA
  6
CONTINUOUS
 62
     7
 10
352.23177966252757
 20
654.0
 30
0.0
 40
1.0
 50
0.0
 51
90.0
  0
LINE
  5
4B9
  8
DATA
  6
CONTINUOUS
 62
     7
 10
329.91964631801028
 20
655.0
 30
0.0
 11
348.75
 21
655.0
 31
0.0
  0
LINE
  5
4BA
  8
DATA
  6
CONTINUOUS
 62
     7
 10
353.91964631801028
 20
655.0
 30
0.0
 11
372.4500000000001
 21
655.0
 31
0.0
  0
LINE
  5
4BB
  8
DATA
  6
CONTINUOUS
 62
     7
 10
227.93643721970969
 20
654.0
 30
0.0
 11
227.93643721970969
 21
653.0
 31
0.0
  0
LINE
  5
4BC
  8
DATA
  6
CONTINUOUS
 62
     7
 10
233.43643721970969
 20
654.0
 30
0.0
 11
233.43643721970969
 21
653.0
 31
0.0
  0
LINE
  5
4BD
  8
DATA
  6
CONTINUOUS
 62
     7
 10
284.6897733525372
 20
654.0
 30
0.0
 11
284.6897733525372
 21
653.0
 31
0.0
  0
LINE
  5
4BE
  8
DATA
  6
CONTINUOUS
 62
     7
 10
290.1897733525372
 20
654.0
 30
0.0
 11
290.1897733525372
 21
653.0
 31
0.0
  0
LINE
  5
4BF
  8
DATA
  6
CONTINUOUS
 62
     7
 10
309.91840198045992
 20
654.0
 30
0.0
 11
309.91840198045992
 21
653.0
 31
0.0
  0
LINE
  5
4C0
  8
DATA
  6
CONTINUOUS
 62
     7
 10
315.41840198045992
 20
654.0
 30
0.0
 11
315.41840198045992
 21
653.0
 31
0.0
  0
LINE
  5
4C1
  8
DATA
  6
CONTINUOUS
 62
     7
 10
228.93643721970969
 20
655.0
 30
0.0
 11
232.43643721970969
 21
655.0
 31
0.0
  0
LINE
  5
4C2
  8
DATA
  6
CONTINUOUS
 62
     7
 10
285.6897733525372
 20
655.0
 30
0.0
 11
289.1897733525372
 21
655.0
 31
0.0
  0
LINE
  5
4C3
  8
DATA
  6
CONTINUOUS
 62
     7
 10
310.91840198045992
 20
655.0
 30
0.0
 11
314.41840198045992
 21
655.0
 31
0.0
  0
ARC
  5
4C4
  8
DATA
  6
CONTINUOUS
 62
     7
 10
228.93643721970969
 20
654.0
 30
0.0
 40
1.0
 50
90.0
 51
180.0
  0
ARC
  5
4C5
  8
DATA
  6
CONTINUOUS
 62
     7
 10
232.43643721970969
 20
654.0
 30
0.0
 40
1.0
 50
0.0
 51
90.0
  0
ARC
  5
4C6
  8
DATA
  6
CONTINUOUS
 62
     7
 10
289.1897733525372
 20
654.0
 30
0.0
 40
1.0
 50
0.0
 51
90.0
  0
ARC
  5
4C7
  8
DATA
  6
CONTINUOUS
 62
     7
 10
285.6897733525372
 20
654.0
 30
0.0
 40
1.0
 50
90.0
 51
180.0
  0
ARC
  5
4C8
  8
DATA
  6
CONTINUOUS
 62
     7
 10
314.41840198045992
 20
654.0
 30
0.0
 40
1.0
 50
0.0
 51
90.0
  0
ARC
  5
4C9
  8
DATA
  6
CONTINUOUS
 62
     7
 10
310.91840198045992
 20
654.0
 30
0.0
 40
1.0
 50
90.0
 51
180.0
  0
LINE
  5
4CA
  8
DATA
  6
CONTINUOUS
 62
     7
 10
178.99999999978601
 20
844.99999999978581
 30
0.0
 11
603.99999999978616
 21
844.99999999978581
 31
0.0
  0
ARC
  5
4CB
  8
DATA
  6
CONTINUOUS
 62
     7
 10
626.02631820707211
 20
806.84999999957188
 30
0.0
 40
3.0
 50
270.0
 51
90.0
  0
ARC
  5
4CC
  8
DATA
  6
CONTINUOUS
 62
     7
 10
622.02631820707211
 20
806.84999999957188
 30
0.0
 40
3.0
 50
90.0
 51
270.0
  0
LINE
  5
4CD
  8
DATA
  6
CONTINUOUS
 62
     7
 10
626.02631820707211
 20
803.84999999957188
 30
0.0
 11
621.97631820707215
 21
803.84999999957188
 31
0.0
  0
LINE
  5
4CE
  8
DATA
  6
CONTINUOUS
 62
     7
 10
622.02631820707211
 20
809.84999999957199
 30
0.0
 11
626.12631820707213
 21
809.84999999957199
 31
0.0
  0
ARC
  5
4CF
  8
DATA
  6
CONTINUOUS
 62
     7
 10
626.02631820707211
 20
838.64999999957183
 30
0.0
 40
3.0
 50
270.0
 51
90.0
  0
ARC
  5
4D0
  8
DATA
  6
CONTINUOUS
 62
     7
 10
622.02631820707211
 20
838.64999999957183
 30
0.0
 40
3.0
 50
90.0
 51
270.0
  0
LINE
  5
4D1
  8
DATA
  6
CONTINUOUS
 62
     7
 10
626.02631820707211
 20
835.64999999957172
 30
0.0
 11
621.97631820707215
 21
835.64999999957172
 31
0.0
  0
LINE
  5
4D2
  8
DATA
  6
CONTINUOUS
 62
     7
 10
622.02631820707211
 20
841.64999999957183
 30
0.0
 11
626.12631820707213
 21
841.64999999957183
 31
0.0
  0
ARC
  5
4D3
  8
DATA
  6
CONTINUOUS
 62
     7
 10
161.02631820707211
 20
806.84999999957188
 30
0.0
 40
3.0
 50
270.0
 51
90.0
  0
ARC
  5
4D4
  8
DATA
  6
CONTINUOUS
 62
     7
 10
157.02631820707211
 20
806.84999999957188
 30
0.0
 40
3.0
 50
90.0
 51
270.0
  0
LINE
  5
4D5
  8
DATA
  6
CONTINUOUS
 62
     7
 10
161.02631820707211
 20
803.84999999957188
 30
0.0
 11
156.9763182070721
 21
803.84999999957188
 31
0.0
  0
LINE
  5
4D6
  8
DATA
  6
CONTINUOUS
 62
     7
 10
157.02631820707211
 20
809.84999999957199
 30
0.0
 11
161.1263182070721
 21
809.84999999957199
 31
0.0
  0
ARC
  5
4D7
  8
DATA
  6
CONTINUOUS
 62
     7
 10
161.02631820707211
 20
838.64999999957183
 30
0.0
 40
3.0
 50
270.0
 51
90.0
  0
ARC
  5
4D8
  8
DATA
  6
CONTINUOUS
 62
     7
 10
157.02631820707211
 20
838.64999999957183
 30
0.0
 40
3.0
 50
90.0
 51
270.0
  0
LINE
  5
4D9
  8
DATA
  6
CONTINUOUS
 62
     7
 10
161.02631820707211
 20
835.64999999957172
 30
0.0
 11
156.9763182070721
 21
835.64999999957172
 31
0.0
  0
LINE
  5
4DA
  8
DATA
  6
CONTINUOUS
 62
     7
 10
157.02631820707211
 20
841.64999999957183
 30
0.0
 11
161.1263182070721
 21
841.64999999957183
 31
0.0
  0
LINE
  5
4DB
  8
DATA
  6
CONTINUOUS
 62
     7
 10
169.99999999999989
 20
653.0
 30
0.0
 11
169.99999999999989
 21
453.0
 31
0.0
  0
LINE
  5
4DC
  8
DATA
  6
CONTINUOUS
 62
     7
 10
613.0
 20
653.0
 30
0.0
 11
613.0
 21
453.0
 31
0.0
  0
LINE
  5
4DD
  8
DATA
  6
CONTINUOUS
 62
     7
 10
903.0
 20
345.0
 30
0.0
 11
700.0
 21
345.0
 31
0.0
  0
LINE
  5
4DE
  8
DATA
  6
CONTINUOUS
 62
     7
 10
903.0
 20
300.0
 30
0.0
 11
700.0
 21
300.0
 31
0.0
  0
LINE
  5
4DF
  8
DATA
  6
CONTINUOUS
 62
     7
 10
633.0
 20
302.5
 30
0.0
 11
633.0
 21
342.5
 31
0.0
  0
LINE
  5
4E0
  8
DATA
  6
CONTINUOUS
 62
     7
 10
150.0
 20
342.5
 30
0.0
 11
149.99999999999909
 21
302.5
 31
0.0
  0
CIRCLE
  5
4E1
  8
DATA
  6
CONTINUOUS
 62
     7
 10
481.72374557357921
 20
314.61525988367492
 30
0.0
 40
1.75
  0
TEXT
  5
4E2
  8
DATA
 62
     7
 10
485.05000000000001
 20
312.7161111111111
 30
0.0
 40
2.7147352430555549
  1
HOLD 
 41
0.7
 11
485.05000000000001
 21
315.4308463541667
 31
0.0
 73
     3
  0
LINE
  5
4E3
  8
DATA
  6
CONTINUOUS
 62
     7
 10
149.99999999978601
 20
842.49999999978604
 30
0.0
 11
149.99999999978601
 21
802.49999999978593
 31
0.0
  0
LINE
  5
4E4
  8
DATA
  6
CONTINUOUS
 62
     7
 10
632.99999999978616
 20
842.49999999978604
 30
0.0
 11
632.99999999978616
 21
802.49999999978593
 31
0.0
  0
LINE
  5
4E5
  8
DATA
  6
CONTINUOUS
 62
     7
 10
630.49999999978616
 20
799.99999999978593
 30
0.0
 11
152.49999999978601
 21
799.99999999978593
 31
0.0
  0
LINE
  5
4E6
  8
DATA
  6
CONTINUOUS
 62
     7
 10
169.99999999978601
 20
844.99999999978581
 30
0.0
 11
169.99999999978601
 21
799.99999999978593
 31
0.0
  0
LINE
  5
4E7
  8
DATA
  6
CONTINUOUS
 62
     7
 10
612.99999999978616
 20
844.99999999978581
 30
0.0
 11
612.99999999978616
 21
799.99999999978593
 31
0.0
  0
CIRCLE
  5
4E8
  8
DATA
  6
CONTINUOUS
 62
     7
 10
413.9915959046744
 20
812.49216021405095
 30
0.0
 40
5.0
  0
CIRCLE
  5
4E9
  8
DATA
  6
CONTINUOUS
 62
     7
 10
413.9915959046744
 20
812.49216021405095
 30
0.0
 40
8.0
  0
POLYLINE
  5
4EA
  8
DATA
  6
CONTINUOUS
 62
     7
 66
     1
 10
0.0
 20
0.0
 30
0.0
 70
     1
  0
VERTEX
  5
71F
  8
DATA
  6
CONTINUOUS
 62
     7
 10
412.54327575301312
 20
804.6243543739015
 30
0.0
  0
VERTEX
  5
720
  8
DATA
  6
CONTINUOUS
 62
     7
 10
420.08115555845689
 20
807.30397524982459
 30
0.0
  0
VERTEX
  5
721
  8
DATA
  6
CONTINUOUS
 62
     7
 10
421.52947571011811
 20
815.17178108997427
 30
0.0
  0
VERTEX
  5
722
  8
DATA
  6
CONTINUOUS
 62
     7
 10
415.43991605633562
 20
820.35996605420075
 30
0.0
  0
VERTEX
  5
723
  8
DATA
  6
CONTINUOUS
 62
     7
 10
407.90203625089168
 20
817.68034517827743
 30
0.0
  0
VERTEX
  5
724
  8
DATA
  6
CONTINUOUS
 62
     7
 10
406.45371609923058
 20
809.81253933812786
 30
0.0
  0
SEQEND
  5
725
  8
DATA
  6
CONTINUOUS
 62
     7
  0
CIRCLE
  5
4F3
  8
DATA
  6
CONTINUOUS
 62
     7
 10
413.99159590467451
 20
812.49216021405095
 30
0.0
 40
1.0
  0
CIRCLE
  5
4F4
  8
DATA
  6
CONTINUOUS
 62
     7
 10
413.9915959046744
 20
828.64550644765995
 30
0.0
 40
5.0
  0
CIRCLE
  5
4F5
  8
DATA
  6
CONTINUOUS
 62
     7
 10
413.9915959046744
 20
828.64550644765995
 30
0.0
 40
8.0
  0
POLYLINE
  5
4F6
  8
DATA
  6
CONTINUOUS
 62
     7
 66
     1
 10
0.0
 20
0.0
 30
0.0
 70
     1
  0
VERTEX
  5
726
  8
DATA
  6
CONTINUOUS
 62
     7
 10
412.54327575301312
 20
820.77770060751027
 30
0.0
  0
VERTEX
  5
727
  8
DATA
  6
CONTINUOUS
 62
     7
 10
420.08115555845689
 20
823.45732148343382
 30
0.0
  0
VERTEX
  5
728
  8
DATA
  6
CONTINUOUS
 62
     7
 10
421.52947571011811
 20
831.32512732358305
 30
0.0
  0
VERTEX
  5
729
  8
DATA
  6
CONTINUOUS
 62
     7
 10
415.43991605633562
 20
836.5133122878093
 30
0.0
  0
VERTEX
  5
72A
  8
DATA
  6
CONTINUOUS
 62
     7
 10
407.90203625089168
 20
833.83369141188643
 30
0.0
  0
VERTEX
  5
72B
  8
DATA
  6
CONTINUOUS
 62
     7
 10
406.45371609923058
 20
825.96588557173675
 30
0.0
  0
SEQEND
  5
72C
  8
DATA
  6
CONTINUOUS
 62
     7
  0
CIRCLE
  5
4FF
  8
DATA
  6
CONTINUOUS
 62
     7
 10
413.99159590467451
 20
828.64550644765995
 30
0.0
 40
1.0
  0
TEXT
  5
500
  8
DATA
 62
     7
 10
414.93635366856449
 20
839.85484181498475
 30
0.0
 40
2.7147352430555549
  1
7
 50
180.0
 41
0.7
 11
414.93635366856449
 21
837.14010657192932
 31
0.0
 73
     3
  0
POLYLINE
  5
501
  8
DATA
  6
CONTINUOUS
 62
     7
 66
     1
 10
0.0
 20
0.0
 30
0.0
  0
VERTEX
  5
72D
  8
DATA
  6
CONTINUOUS
 62
     7
 10
418.89057539024083
 20
829.64550644765995
 30
0.0
  0
VERTEX
  5
72E
  8
DATA
  6
CONTINUOUS
 62
     7
 10
419.5415959046743
 20
829.64550644765995
 30
0.0
  0
VERTEX
  5
72F
  8
DATA
  6
CONTINUOUS
 62
     7
 10
419.5415959046743
 20
827.64550644765995
 30
0.0
  0
VERTEX
  5
730
  8
DATA
  6
CONTINUOUS
 62
     7
 10
418.89057539024083
 20
827.64550644765995
 30
0.0
  0
SEQEND
  5
731
  8
DATA
  6
CONTINUOUS
 62
     7
  0
POLYLINE
  5
508
  8
DATA
  6
CONTINUOUS
 62
     7
 66
     1
 10
0.0
 20
0.0
 30
0.0
  0
VERTEX
  5
732
  8
DATA
  6
CONTINUOUS
 62
     7
 10
409.09261641910791
 20
827.64550644765995
 30
0.0
  0
VERTEX
  5
733
  8
DATA
  6
CONTINUOUS
 62
     7
 10
408.44159590467439
 20
827.64550644765995
 30
0.0
  0
VERTEX
  5
734
  8
DATA
  6
CONTINUOUS
 62
     7
 10
408.44159590467439
 20
829.64550644765995
 30
0.0
  0
VERTEX
  5
735
  8
DATA
  6
CONTINUOUS
 62
     7
 10
409.09261641910791
 20
829.64550644765995
 30
0.0
  0
SEQEND
  5
736
  8
DATA
  6
CONTINUOUS
 62
     7
  0
POLYLINE
  5
50F
  8
DATA
  6
CONTINUOUS
 62
     7
 66
     1
 10
0.0
 20
0.0
 30
0.0
  0
VERTEX
  5
737
  8
DATA
  6
CONTINUOUS
 62
     7
 10
409.09261641910791
 20
811.49216021405118
 30
0.0
  0
VERTEX
  5
738
  8
DATA
  6
CONTINUOUS
 62
     7
 10
408.44159590467439
 20
811.49216021405118
 30
0.0
  0
VERTEX
  5
739
  8
DATA
  6
CONTINUOUS
 62
     7
 10
408.44159590467439
 20
813.49216021405107
 30
0.0
  0
VERTEX
  5
73A
  8
DATA
  6
CONTINUOUS
 62
     7
 10
409.09261641910791
 20
813.49216021405107
 30
0.0
  0
SEQEND
  5
73B
  8
DATA
  6
CONTINUOUS
 62
     7
  0
POLYLINE
  5
516
  8
DATA
  6
CONTINUOUS
 62
     7
 66
     1
 10
0.0
 20
0.0
 30
0.0
  0
VERTEX
  5
73C
  8
DATA
  6
CONTINUOUS
 62
     7
 10
418.89057539024083
 20
813.49216021405107
 30
0.0
  0
VERTEX
  5
73D
  8
DATA
  6
CONTINUOUS
 62
     7
 10
419.5415959046743
 20
813.49216021405107
 30
0.0
  0
VERTEX
  5
73E
  8
DATA
  6
CONTINUOUS
 62
     7
 10
419.5415959046743
 20
811.49216021405118
 30
0.0
  0
VERTEX
  5
73F
  8
DATA
  6
CONTINUOUS
 62
     7
 10
418.89057539024083
 20
811.49216021405118
 30
0.0
  0
SEQEND
  5
740
  8
DATA
  6
CONTINUOUS
 62
     7
  0
CIRCLE
  5
51D
  8
DATA
  6
CONTINUOUS
 62
     7
 10
393.9915959046744
 20
812.49216021405095
 30
0.0
 40
5.0
  0
CIRCLE
  5
51E
  8
DATA
  6
CONTINUOUS
 62
     7
 10
393.9915959046744
 20
812.49216021405095
 30
0.0
 40
8.0
  0
POLYLINE
  5
51F
  8
DATA
  6
CONTINUOUS
 62
     7
 66
     1
 10
0.0
 20
0.0
 30
0.0
 70
     1
  0
VERTEX
  5
741
  8
DATA
  6
CONTINUOUS
 62
     7
 10
392.54327575301318
 20
804.6243543739015
 30
0.0
  0
VERTEX
  5
742
  8
DATA
  6
CONTINUOUS
 62
     7
 10
400.08115555845689
 20
807.30397524982459
 30
0.0
  0
VERTEX
  5
743
  8
DATA
  6
CONTINUOUS
 62
     7
 10
401.52947571011811
 20
815.17178108997427
 30
0.0
  0
VERTEX
  5
744
  8
DATA
  6
CONTINUOUS
 62
     7
 10
395.43991605633562
 20
820.35996605420075
 30
0.0
  0
VERTEX
  5
745
  8
DATA
  6
CONTINUOUS
 62
     7
 10
387.9020362508918
 20
817.68034517827743
 30
0.0
  0
VERTEX
  5
746
  8
DATA
  6
CONTINUOUS
 62
     7
 10
386.45371609923058
 20
809.81253933812786
 30
0.0
  0
SEQEND
  5
747
  8
DATA
  6
CONTINUOUS
 62
     7
  0
CIRCLE
  5
528
  8
DATA
  6
CONTINUOUS
 62
     7
 10
393.99159590467451
 20
812.49216021405095
 30
0.0
 40
1.0
  0
CIRCLE
  5
529
  8
DATA
  6
CONTINUOUS
 62
     7
 10
393.9915959046744
 20
828.64550644765995
 30
0.0
 40
5.0
  0
CIRCLE
  5
52A
  8
DATA
  6
CONTINUOUS
 62
     7
 10
393.9915959046744
 20
828.64550644765995
 30
0.0
 40
8.0
  0
POLYLINE
  5
52B
  8
DATA
  6
CONTINUOUS
 62
     7
 66
     1
 10
0.0
 20
0.0
 30
0.0
 70
     1
  0
VERTEX
  5
748
  8
DATA
  6
CONTINUOUS
 62
     7
 10
392.54327575301318
 20
820.77770060751027
 30
0.0
  0
VERTEX
  5
749
  8
DATA
  6
CONTINUOUS
 62
     7
 10
400.08115555845689
 20
823.45732148343382
 30
0.0
  0
VERTEX
  5
74A
  8
DATA
  6
CONTINUOUS
 62
     7
 10
401.52947571011811
 20
831.32512732358305
 30
0.0
  0
VERTEX
  5
74B
  8
DATA
  6
CONTINUOUS
 62
     7
 10
395.43991605633562
 20
836.5133122878093
 30
0.0
  0
VERTEX
  5
74C
  8
DATA
  6
CONTINUOUS
 62
     7
 10
387.9020362508918
 20
833.83369141188643
 30
0.0
  0
VERTEX
  5
74D
  8
DATA
  6
CONTINUOUS
 62
     7
 10
386.45371609923058
 20
825.96588557173675
 30
0.0
  0
SEQEND
  5
74E
  8
DATA
  6
CONTINUOUS
 62
     7
  0
CIRCLE
  5
534
  8
DATA
  6
CONTINUOUS
 62
     7
 10
393.99159590467451
 20
828.64550644765995
 30
0.0
 40
1.0
  0
TEXT
  5
535
  8
DATA
 62
     7
 10
394.93635366856461
 20
839.85484181498475
 30
0.0
 40
2.7147352430555549
  1
8
 50
180.0
 41
0.7
 11
394.93635366856461
 21
837.14010657192932
 31
0.0
 73
     3
  0
POLYLINE
  5
536
  8
DATA
  6
CONTINUOUS
 62
     7
 66
     1
 10
0.0
 20
0.0
 30
0.0
  0
VERTEX
  5
74F
  8
DATA
  6
CONTINUOUS
 62
     7
 10
398.89057539024083
 20
829.64550644765995
 30
0.0
  0
VERTEX
  5
750
  8
DATA
  6
CONTINUOUS
 62
     7
 10
399.54159590467441
 20
829.64550644765995
 30
0.0
  0
VERTEX
  5
751
  8
DATA
  6
CONTINUOUS
 62
     7
 10
399.54159590467441
 20
827.64550644765995
 30
0.0
  0
VERTEX
  5
752
  8
DATA
  6
CONTINUOUS
 62
     7
 10
398.89057539024083
 20
827.64550644765995
 30
0.0
  0
SEQEND
  5
753
  8
DATA
  6
CONTINUOUS
 62
     7
  0
POLYLINE
  5
53D
  8
DATA
  6
CONTINUOUS
 62
     7
 66
     1
 10
0.0
 20
0.0
 30
0.0
  0
VERTEX
  5
754
  8
DATA
  6
CONTINUOUS
 62
     7
 10
389.09261641910803
 20
827.64550644765995
 30
0.0
  0
VERTEX
  5
755
  8
DATA
  6
CONTINUOUS
 62
     7
 10
388.44159590467439
 20
827.64550644765995
 30
0.0
  0
VERTEX
  5
756
  8
DATA
  6
CONTINUOUS
 62
     7
 10
388.44159590467439
 20
829.64550644765995
 30
0.0
  0
VERTEX
  5
757
  8
DATA
  6
CONTINUOUS
 62
     7
 10
389.09261641910803
 20
829.64550644765995
 30
0.0
  0
SEQEND
  5
758
  8
DATA
  6
CONTINUOUS
 62
     7
  0
POLYLINE
  5
544
  8
DATA
  6
CONTINUOUS
 62
     7
 66
     1
 10
0.0
 20
0.0
 30
0.0
  0
VERTEX
  5
759
  8
DATA
  6
CONTINUOUS
 62
     7
 10
389.09261641910803
 20
811.49216021405118
 30
0.0
  0
VERTEX
  5
75A
  8
DATA
  6
CONTINUOUS
 62
     7
 10
388.44159590467439
 20
811.49216021405118
 30
0.0
  0
VERTEX
  5
75B
  8
DATA
  6
CONTINUOUS
 62
     7
 10
388.44159590467439
 20
813.49216021405107
 30
0.0
  0
VERTEX
  5
75C
  8
DATA
  6
CONTINUOUS
 62
     7
 10
389.09261641910803
 20
813.49216021405107
 30
0.0
  0
SEQEND
  5
75D
  8
DATA
  6
CONTINUOUS
 62
     7
  0
POLYLINE
  5
54B
  8
DATA
  6
CONTINUOUS
 62
     7
 66
     1
 10
0.0
 20
0.0
 30
0.0
  0
VERTEX
  5
75E
  8
DATA
  6
CONTINUOUS
 62
     7
 10
398.89057539024083
 20
813.49216021405107
 30
0.0
  0
VERTEX
  5
75F
  8
DATA
  6
CONTINUOUS
 62
     7
 10
399.54159590467441
 20
813.49216021405107
 30
0.0
  0
VERTEX
  5
760
  8
DATA
  6
CONTINUOUS
 62
     7
 10
399.54159590467441
 20
811.49216021405118
 30
0.0
  0
VERTEX
  5
761
  8
DATA
  6
CONTINUOUS
 62
     7
 10
398.89057539024083
 20
811.49216021405118
 30
0.0
  0
SEQEND
  5
762
  8
DATA
  6
CONTINUOUS
 62
     7
  0
TEXT
  5
552
  8
DATA
 62
     7
 10
424.73944489819769
 20
813.61436469003593
 30
0.0
 40
2.7147352430555549
  1
A
 50
180.0
 41
0.7
 11
424.73944489819769
 21
810.89962944698038
 31
0.0
 73
     3
  0
TEXT
  5
553
  8
DATA
 62
     7
 10
424.73984139933219
 20
829.9896878868251
 30
0.0
 40
2.7147352430555549
  1
B
 50
180.0
 41
0.7
 11
424.73984139933219
 21
827.27495264376955
 31
0.0
 73
     3
  0
TEXT
  5
554
  8
DATA
 62
     7
 10
404.7394448981978
 20
813.61436469003593
 30
0.0
 40
2.7147352430555549
  1
A
 50
180.0
 41
0.7
 11
404.7394448981978
 21
810.89962944698038
 31
0.0
 73
     3
  0
TEXT
  5
555
  8
DATA
 62
     7
 10
404.73984139933219
 20
829.9896878868251
 30
0.0
 40
2.7147352430555549
  1
B
 50
180.0
 41
0.7
 11
404.73984139933219
 21
827.27495264376955
 31
0.0
 73
     3
  0
LINE
  5
556
  8
DATA
  6
CONTINUOUS
 62
     7
 10
478.49999999957203
 20
841.49999999957186
 30
0.0
 11
542.59999999957199
 21
841.49999999957186
 31
0.0
  0
LINE
  5
557
  8
DATA
  6
CONTINUOUS
 62
     7
 10
449.96653401589617
 20
841.49999999957186
 30
0.0
 11
385.86653401589592
 21
841.49999999957186
 31
0.0
  0
LINE
  5
558
  8
DATA
  6
CONTINUOUS
 62
     7
 10
418.9915959048883
 20
673.0
 30
0.0
 11
418.9915959048883
 21
659.49999999999989
 31
0.0
  0
LINE
  5
559
  8
DATA
  6
CONTINUOUS
 62
     7
 10
408.9915959048883
 20
673.0
 30
0.0
 11
408.9915959048883
 21
659.49999999999989
 31
0.0
  0
LINE
  5
55A
  8
DATA
  6
CONTINUOUS
 62
     7
 10
418.9915959048883
 20
673.0
 30
0.0
 11
408.9915959048883
 21
673.0
 31
0.0
  0
LINE
  5
55B
  8
DATA
  6
CONTINUOUS
 62
     7
 10
418.9915959048883
 20
661.0
 30
0.0
 11
408.9915959048883
 21
661.0
 31
0.0
  0
LINE
  5
55C
  8
DATA
  6
CONTINUOUS
 62
     7
 10
421.94579408918997
 20
655.49999999999989
 30
0.0
 11
405.9915959048883
 21
655.49999999999989
 31
0.0
  0
LINE
  5
55D
  8
DATA
  6
CONTINUOUS
 62
     7
 10
405.9915959048883
 20
659.49999999999989
 30
0.0
 11
405.9915959048883
 21
653.0
 31
0.0
  0
LINE
  5
55E
  8
DATA
  6
CONTINUOUS
 62
     7
 10
421.94579408918997
 20
659.49999999999989
 30
0.0
 11
421.94579408918997
 21
653.0
 31
0.0
  0
LINE
  5
55F
  8
DATA
  6
CONTINUOUS
 62
     7
 10
405.9915959048883
 20
659.49999999999989
 30
0.0
 11
421.94579408918997
 21
659.49999999999989
 31
0.0
  0
POLYLINE
  5
560
  8
DATA
  6
CONTINUOUS
 62
     7
 66
     1
 10
0.0
 20
0.0
 30
0.0
  0
VERTEX
  5
763
  8
DATA
  6
CONTINUOUS
 62
     7
 10
418.9915959048883
 20
670.0
 30
0.0
  0
VERTEX
  5
764
  8
DATA
  6
CONTINUOUS
 62
     7
 10
419.5415959048882
 20
670.0
 30
0.0
  0
VERTEX
  5
765
  8
DATA
  6
CONTINUOUS
 62
     7
 10
419.5415959048882
 20
668.0
 30
0.0
  0
VERTEX
  5
766
  8
DATA
  6
CONTINUOUS
 62
     7
 10
418.9915959048883
 20
668.0
 30
0.0
  0
SEQEND
  5
767
  8
DATA
  6
CONTINUOUS
 62
     7
  0
POLYLINE
  5
567
  8
DATA
  6
CONTINUOUS
 62
     7
 66
     1
 10
0.0
 20
0.0
 30
0.0
  0
VERTEX
  5
768
  8
DATA
  6
CONTINUOUS
 62
     7
 10
408.9915959048883
 20
668.0
 30
0.0
  0
VERTEX
  5
769
  8
DATA
  6
CONTINUOUS
 62
     7
 10
408.44159590488812
 20
668.0
 30
0.0
  0
VERTEX
  5
76A
  8
DATA
  6
CONTINUOUS
 62
     7
 10
408.44159590488812
 20
670.0
 30
0.0
  0
VERTEX
  5
76B
  8
DATA
  6
CONTINUOUS
 62
     7
 10
408.9915959048883
 20
670.0
 30
0.0
  0
SEQEND
  5
76C
  8
DATA
  6
CONTINUOUS
 62
     7
  0
LINE
  5
56E
  8
DATA
  6
CONTINUOUS
 62
     7
 10
398.9915959048883
 20
673.0
 30
0.0
 11
398.9915959048883
 21
659.49999999999989
 31
0.0
  0
LINE
  5
56F
  8
DATA
  6
CONTINUOUS
 62
     7
 10
388.9915959048883
 20
673.0
 30
0.0
 11
388.9915959048883
 21
659.49999999999989
 31
0.0
  0
LINE
  5
570
  8
DATA
  6
CONTINUOUS
 62
     7
 10
398.9915959048883
 20
673.0
 30
0.0
 11
388.9915959048883
 21
673.0
 31
0.0
  0
LINE
  5
571
  8
DATA
  6
CONTINUOUS
 62
     7
 10
398.9915959048883
 20
661.0
 30
0.0
 11
388.9915959048883
 21
661.0
 31
0.0
  0
LINE
  5
572
  8
DATA
  6
CONTINUOUS
 62
     7
 10
401.94579408919009
 20
655.49999999999989
 30
0.0
 11
385.9915959048883
 21
655.49999999999989
 31
0.0
  0
LINE
  5
573
  8
DATA
  6
CONTINUOUS
 62
     7
 10
385.9915959048883
 20
659.49999999999989
 30
0.0
 11
385.9915959048883
 21
653.0
 31
0.0
  0
LINE
  5
574
  8
DATA
  6
CONTINUOUS
 62
     7
 10
401.94579408919009
 20
659.49999999999989
 30
0.0
 11
401.94579408919009
 21
653.0
 31
0.0
  0
LINE
  5
575
  8
DATA
  6
CONTINUOUS
 62
     7
 10
385.9915959048883
 20
659.49999999999989
 30
0.0
 11
401.94579408919009
 21
659.49999999999989
 31
0.0
  0
POLYLINE
  5
576
  8
DATA
  6
CONTINUOUS
 62
     7
 66
     1
 10
0.0
 20
0.0
 30
0.0
  0
VERTEX
  5
76D
  8
DATA
  6
CONTINUOUS
 62
     7
 10
398.9915959048883
 20
670.0
 30
0.0
  0
VERTEX
  5
76E
  8
DATA
  6
CONTINUOUS
 62
     7
 10
399.5415959048882
 20
670.0
 30
0.0
  0
VERTEX
  5
76F
  8
DATA
  6
CONTINUOUS
 62
     7
 10
399.5415959048882
 20
668.0
 30
0.0
  0
VERTEX
  5
770
  8
DATA
  6
CONTINUOUS
 62
     7
 10
398.9915959048883
 20
668.0
 30
0.0
  0
SEQEND
  5
771
  8
DATA
  6
CONTINUOUS
 62
     7
  0
POLYLINE
  5
57D
  8
DATA
  6
CONTINUOUS
 62
     7
 66
     1
 10
0.0
 20
0.0
 30
0.0
  0
VERTEX
  5
772
  8
DATA
  6
CONTINUOUS
 62
     7
 10
388.9915959048883
 20
668.0
 30
0.0
  0
VERTEX
  5
773
  8
DATA
  6
CONTINUOUS
 62
     7
 10
388.44159590488817
 20
668.0
 30
0.0
  0
VERTEX
  5
774
  8
DATA
  6
CONTINUOUS
 62
     7
 10
388.44159590488817
 20
670.0
 30
0.0
  0
VERTEX
  5
775
  8
DATA
  6
CONTINUOUS
 62
     7
 10
388.9915959048883
 20
670.0
 30
0.0
  0
SEQEND
  5
776
  8
DATA
  6
CONTINUOUS
 62
     7
  0
LINE
  5
584
  8
DATA
  6
CONTINUOUS
 62
     7
 10
903.0
 20
300.0
 30
0.0
 11
903.0
 21
345.0
 31
0.0
  0
LINE
  5
585
  8
DATA
  6
CONTINUOUS
 62
     7
 10
703.0
 20
300.0
 30
0.0
 11
703.0
 21
345.0
 31
0.0
  0
LINE
  5
586
  8
DATA
  6
CONTINUOUS
 62
     7
 10
700.0
 20
300.0
 30
0.0
 11
700.0
 21
345.0
 31
0.0
  0
TEXT
  5
587
  8
DATA
 62
     7
 10
737.07220067676747
 20
125.8391577918762
 30
0.0
 40
8.1442057291666661
  1
マスタクロック・ジェネレータ 
 41
0.7
 11
737.07220067676747
 21
133.9833635210428
 31
0.0
 73
     3
  0
ENDSEC
  0
EOF
