  0
SECTION
  2
HEADER
  9
$ACADVER
  1
AC1009
  9
$DWGCODEPAGE
  3
ansi_932
  9
$INSBASE
 10
0.0
 20
0.0
 30
0.0
  9
$EXTMIN
 10
-900.0
 20
-1343.910077725694
 30
0.0
  9
$EXTMAX
 10
900.0
 20
1331.5790675
 30
0.0
  9
$LIMMIN
 10
0.0
 20
0.0
  9
$LIMMAX
 10
12.0
 20
9.0
  9
$ORTHOMODE
 70
     0
  9
$REGENMODE
 70
     1
  9
$FILLMODE
 70
     1
  9
$QTEXTMODE
 70
     0
  9
$MIRRTEXT
 70
     1
  9
$DRAGMODE
 70
     2
  9
$LTSCALE
 40
50.8
  9
$OSMODE
 70
    37
  9
$ATTMODE
 70
     1
  9
$TEXTSIZE
 40
0.2
  9
$TRACEWID
 40
1.0
  9
$TEXTSTYLE
  7
STANDARD
  9
$CLAYER
  8
DATA
  9
$CELTYPE
  6
BYLAYER
  9
$CECOLOR
 62
   256
  9
$DIMSCALE
 40
1.0
  9
$DIMASZ
 40
0.18
  9
$DIMEXO
 40
0.0625
  9
$DIMDLI
 40
0.38
  9
$DIMRND
 40
0.0
  9
$DIMDLE
 40
0.0
  9
$DIMEXE
 40
0.18
  9
$DIMTP
 40
0.0
  9
$DIMTM
 40
0.0
  9
$DIMTXT
 40
0.18
  9
$DIMCEN
 40
0.09
  9
$DIMTSZ
 40
0.0
  9
$DIMTOL
 70
     0
  9
$DIMLIM
 70
     0
  9
$DIMTIH
 70
     1
  9
$DIMTOH
 70
     1
  9
$DIMSE1
 70
     0
  9
$DIMSE2
 70
     0
  9
$DIMTAD
 70
     0
  9
$DIMZIN
 70
     0
  9
$DIMBLK
  1

  9
$DIMASO
 70
     1
  9
$DIMSHO
 70
     1
  9
$DIMPOST
  1

  9
$DIMAPOST
  1

  9
$DIMALT
 70
     0
  9
$DIMALTD
 70
     2
  9
$DIMALTF
 40
25.4
  9
$DIMLFAC
 40
1.0
  9
$DIMTOFL
 70
     0
  9
$DIMTVP
 40
0.0
  9
$DIMTIX
 70
     0
  9
$DIMSOXD
 70
     0
  9
$DIMSAH
 70
     0
  9
$DIMBLK1
  1

  9
$DIMBLK2
  1

  9
$DIMSTYLE
  2
STANDARD
  9
$DIMCLRD
 70
     0
  9
$DIMCLRE
 70
     0
  9
$DIMCLRT
 70
     0
  9
$DIMTFAC
 40
1.0
  9
$DIMGAP
 40
0.09
  9
$LUNITS
 70
     2
  9
$LUPREC
 70
     1
  9
$SKETCHINC
 40
0.1
  9
$FILLETRAD
 40
0.5
  9
$AUNITS
 70
     0
  9
$AUPREC
 70
     1
  9
$MENU
  1
.
  9
$ELEVATION
 40
0.0
  9
$PELEVATION
 40
0.0
  9
$THICKNESS
 40
0.0
  9
$LIMCHECK
 70
     0
  9
$CHAMFERA
 40
0.0
  9
$CHAMFERB
 40
0.0
  9
$SKPOLY
 70
     0
  9
$TDCREATE
 40
2460115.592924607
  9
$TDUPDATE
 40
2460115.594077338
  9
$TDINDWG
 40
2460115.219077372
  9
$TDUSRTIMER
 40
0.0011527662
  9
$USRTIMER
 70
     1
  9
$ANGBASE
 50
0.0
  9
$ANGDIR
 70
     0
  9
$PDMODE
 70
     1
  9
$PDSIZE
 40
-2.0
  9
$PLINEWID
 40
0.0
  9
$COORDS
 70
     2
  9
$SPLFRAME
 70
     0
  9
$SPLINETYPE
 70
     6
  9
$SPLINESEGS
 70
     8
  9
$ATTDIA
 70
     1
  9
$ATTREQ
 70
     1
  9
$HANDLING
 70
     1
  9
$HANDSEED
  5
8A9
  9
$SURFTAB1
 70
     6
  9
$SURFTAB2
 70
     6
  9
$SURFTYPE
 70
     6
  9
$SURFU
 70
     6
  9
$SURFV
 70
     6
  9
$UCSNAME
  2

  9
$UCSORG
 10
0.0
 20
0.0
 30
0.0
  9
$UCSXDIR
 10
1.0
 20
0.0
 30
0.0
  9
$UCSYDIR
 10
0.0
 20
1.0
 30
0.0
  9
$PUCSNAME
  2

  9
$PUCSORG
 10
0.0
 20
0.0
 30
0.0
  9
$PUCSXDIR
 10
1.0
 20
0.0
 30
0.0
  9
$PUCSYDIR
 10
0.0
 20
1.0
 30
0.0
  9
$USERI1
 70
     0
  9
$USERI2
 70
     0
  9
$USERI3
 70
     0
  9
$USERI4
 70
     0
  9
$USERI5
 70
     0
  9
$USERR1
 40
0.0
  9
$USERR2
 40
0.0
  9
$USERR3
 40
0.0
  9
$USERR4
 40
0.0
  9
$USERR5
 40
0.0
  9
$WORLDVIEW
 70
     1
  9
$SHADEDGE
 70
     3
  9
$SHADEDIF
 70
    70
  9
$TILEMODE
 70
     1
  9
$MAXACTVP
 70
    64
  9
$PLIMCHECK
 70
     0
  9
$PEXTMIN
 10
1.000000000000000E+20
 20
1.000000000000000E+20
 30
1.000000000000000E+20
  9
$PEXTMAX
 10
-1.000000000000000E+20
 20
-1.000000000000000E+20
 30
-1.000000000000000E+20
  9
$PLIMMIN
 10
-20.0
 20
-7.5
  9
$PLIMMAX
 10
277.0
 20
202.5
  9
$UNITMODE
 70
     0
  9
$VISRETAIN
 70
     1
  9
$PLINEGEN
 70
     0
  9
$PSLTSCALE
 70
     1
  0
ENDSEC
  0
SECTION
  2
TABLES
  0
TABLE
  2
VPORT
 70
     1
  0
VPORT
  2
*ACTIVE
 70
     0
 10
0.0
 20
0.0
 11
1.0
 21
1.0
 12
0.0
 22
-3.508785277777633
 13
0.0
 23
0.0
 14
0.5
 24
0.5
 15
0.5
 25
0.5
 16
0.0
 26
0.0
 36
1.0
 17
0.0
 27
0.0
 37
0.0
 40
2670.175705555555
 41
2.898954703832753
 42
2000.0
 43
0.0
 44
0.0
 50
0.0
 51
0.0
 71
     0
 72
   100
 73
     1
 74
     3
 75
     0
 76
     0
 77
     0
 78
     0
  0
ENDTAB
  0
TABLE
  2
LTYPE
 70
    11
  0
LTYPE
  2
CONTINUOUS
 70
     0
  3
Solid line
 72
    65
 73
     0
 40
0.0
  0
LTYPE
  2
______-15
 70
     0
  3

 72
    65
 73
     4
 40
1.041641235351562
 49
0.625
 49
-0.208282470703125
 49
0.069427490234375
 49
-0.1389312744140625
  0
ENDTAB
  0
TABLE
  2
LAYER
 70
     6
  0
LAYER
  2
0
 70
     0
 62
     7
  6
CONTINUOUS
  0
LAYER
  2
HIBINO-BASE
 70
     0
 62
     7
  6
CONTINUOUS
  0
LAYER
  2
PATTERN_FILL
 70
     0
 62
     7
  6
CONTINUOUS
  0
LAYER
  2
SPEC
 70
     0
 62
     7
  6
CONTINUOUS
  0
LAYER
  2
DIMNSIONS
 70
     0
 62
     7
  6
CONTINUOUS
  0
LAYER
  2
DATA
 70
     0
 62
     7
  6
CONTINUOUS
  0
ENDTAB
  0
TABLE
  2
STYLE
 70
     2
  0
STYLE
  2
STANDARD
 70
     0
 40
0.0
 41
1.0
 50
0.0
 71
     0
 42
0.2
  3
txt
  4
BIGFONT.SHX
  0
ENDTAB
  0
TABLE
  2
VIEW
 70
     0
  0
ENDTAB
  0
TABLE
  2
UCS
 70
     0
  0
ENDTAB
  0
TABLE
  2
APPID
 70
     5
  0
APPID
  2
ACAD
 70
     0
  0
APPID
  2
ACAECLAYERSTANDARD
 70
     0
  0
APPID
  2
ACCMTRANSPARENCY
 70
     0
  0
APPID
  2
ACAD_MLEADERVER
 70
     0
  0
APPID
  2
ACADANNOPO
 70
     0
  0
ENDTAB
  0
TABLE
  2
DIMSTYLE
 70
     1
  0
DIMSTYLE
  2
STANDARD
 70
     0
  3

  4

  5

  6

  7

 40
1.0
 41
0.18
 42
0.0625
 43
0.38
 44
0.18
 45
0.0
 46
0.0
 47
0.0
 48
0.0
140
0.18
141
0.09
142
0.0
143
25.4
144
1.0
145
0.0
146
1.0
147
0.09
 71
     0
 72
     0
 73
     1
 74
     1
 75
     0
 76
     0
 77
     0
 78
     0
170
     0
171
     2
172
     0
173
     0
174
     0
175
     0
176
     0
177
     0
178
     0
  0
ENDTAB
  0
ENDSEC
  0
SECTION
  2
BLOCKS
  0
BLOCK
  8
DATA
  2
$MODEL_SPACE
 70
     0
 10
0.0
 20
0.0
 30
0.0
  3
$MODEL_SPACE
  1

  0
ENDBLK
  5
80B
  8
DATA
  0
BLOCK
 67
     1
  8
DATA
  2
$PAPER_SPACE
 70
     0
 10
0.0
 20
0.0
 30
0.0
  3
$PAPER_SPACE
  1

  0
ENDBLK
  5
809
 67
     1
  8
DATA
  0
ENDSEC
  0
SECTION
  2
ENTITIES
  0
LINE
  5
80
  8
HIBINO-BASE
  6
CONTINUOUS
 62
     7
 10
-900.0
 20
1331.5790675
 30
0.0
 11
900.0
 21
1331.5790675
 31
0.0
  0
LINE
  5
81
  8
HIBINO-BASE
  6
CONTINUOUS
 62
     7
 10
900.0
 20
-1268.4209325
 30
0.0
 11
-900.0
 21
-1268.4209325
 31
0.0
  0
LINE
  5
82
  8
HIBINO-BASE
  6
CONTINUOUS
 62
     7
 10
-900.0
 20
-1268.4209325
 30
0.0
 11
-900.0
 21
1331.5790675
 31
0.0
  0
LINE
  5
83
  8
HIBINO-BASE
  6
CONTINUOUS
 62
     7
 10
900.0
 20
1331.5790675
 30
0.0
 11
900.0
 21
-1268.4209325
 31
0.0
  0
LINE
  5
84
  8
HIBINO-BASE
  6
CONTINUOUS
 62
     7
 10
0.0
 20
-1043.4209325
 30
0.0
 11
900.0
 21
-1043.4209325
 31
0.0
  0
LINE
  5
85
  8
HIBINO-BASE
  6
CONTINUOUS
 62
     7
 10
0.0
 20
-1268.4209325
 30
0.0
 11
0.0
 21
-1043.4209325
 31
0.0
  0
TEXT
  5
86
  8
HIBINO-BASE
 62
     7
 10
9.000000000000341
 20
-1068.507865833333
 30
0.0
 40
16.2470703125
  1
NOTE
 41
0.7
 11
9.000000000000341
 21
-1052.260795520833
 31
0.0
 73
     3
  0
LINE
  5
87
  8
HIBINO-BASE
  6
CONTINUOUS
 62
     7
 10
350.0
 20
-1268.4209325
 30
0.0
 11
350.0
 21
-1043.4209325
 31
0.0
  0
TEXT
  5
88
  8
HIBINO-BASE
 62
     7
 10
358.9999999999998
 20
-1068.507865833333
 30
0.0
 40
16.2470703125
  1
TITLE
 41
0.7
 11
358.9999999999998
 21
-1052.260795520833
 31
0.0
 73
     3
  0
LINE
  5
89
  8
HIBINO-BASE
  6
CONTINUOUS
 62
     7
 10
0.0
 20
-1168.4209325
 30
0.0
 11
900.0
 21
-1168.4209325
 31
0.0
  0
TEXT
  5
8A
  8
HIBINO-BASE
 62
     7
 10
483.9999999999998
 20
-1192.944665833333
 30
0.0
 40
16.2470703125
  1
DRAWN
 41
0.7
 11
483.9999999999998
 21
-1176.697595520833
 31
0.0
 73
     3
  0
TEXT
  5
8B
  8
HIBINO-BASE
 62
     7
 10
233.9999999999998
 20
-1192.944665833333
 30
0.0
 40
16.2470703125
  1
DATE
 41
0.7
 11
233.9999999999998
 21
-1176.697595520833
 31
0.0
 73
     3
  0
TEXT
  5
8C
  8
HIBINO-BASE
 62
     7
 10
133.9999999999998
 20
-1192.944665833333
 30
0.0
 40
16.2470703125
  1
SCALE
 41
0.7
 11
133.9999999999998
 21
-1176.697595520833
 31
0.0
 73
     3
  0
TEXT
  5
8D
  8
HIBINO-BASE
 62
     7
 10
358.9999999999998
 20
-1192.944665833333
 30
0.0
 40
16.2470703125
  1
DESIGN
 41
0.7
 11
358.9999999999998
 21
-1176.697595520833
 31
0.0
 73
     3
  0
TEXT
  5
8E
  8
HIBINO-BASE
 62
     7
 10
733.9999999999998
 20
-1192.944665833333
 30
0.0
 40
16.2470703125
  1
DRAWING NO.
 41
0.7
 11
733.9999999999998
 21
-1176.697595520833
 31
0.0
 73
     3
  0
TEXT
  5
8F
  8
HIBINO-BASE
 62
     7
 10
608.9999999999998
 20
-1192.944665833333
 30
0.0
 40
16.2470703125
  1
CHECK
 41
0.7
 11
608.9999999999998
 21
-1176.697595520833
 31
0.0
 73
     3
  0
LINE
  5
90
  8
HIBINO-BASE
  6
CONTINUOUS
 62
     7
 10
143.75
 20
-1255.9209325
 30
0.0
 11
181.25
 21
-1218.4209325
 31
0.0
  0
TEXT
  5
91
  8
HIBINO-BASE
 62
     7
 10
137.5
 20
-1229.510365833333
 30
0.0
 40
16.2470703125
  1
1
 41
0.7
 11
137.5
 21
-1213.263295520833
 31
0.0
 73
     3
  0
LINE
  5
92
  8
HIBINO-BASE
  6
CONTINUOUS
 62
     7
 10
125.0
 20
-1268.4209325
 30
0.0
 11
125.0
 21
-1168.4209325
 31
0.0
  0
LINE
  5
93
  8
HIBINO-BASE
  6
CONTINUOUS
 62
     7
 10
225.0
 20
-1268.4209325
 30
0.0
 11
225.0
 21
-1168.4209325
 31
0.0
  0
LINE
  5
94
  8
HIBINO-BASE
  6
CONTINUOUS
 62
     7
 10
475.0
 20
-1168.4209325
 30
0.0
 11
475.0
 21
-1268.4209325
 31
0.0
  0
LINE
  5
95
  8
HIBINO-BASE
  6
CONTINUOUS
 62
     7
 10
725.0
 20
-1168.4209325
 30
0.0
 11
725.0
 21
-1268.4209325
 31
0.0
  0
LINE
  5
96
  8
HIBINO-BASE
  6
CONTINUOUS
 62
     7
 10
600.0
 20
-1268.4209325
 30
0.0
 11
600.0
 21
-1168.4209325
 31
0.0
  0
TEXT
  5
97
  8
HIBINO-BASE
 62
     7
 10
233.5654
 20
-1239.784465833333
 30
0.0
 40
16.2470703125
  1
'23.06.
 41
0.7
 11
233.5654
 21
-1223.537395520833
 31
0.0
 73
     3
  0
TEXT
  5
98
  8
HIBINO-BASE
 62
     7
 10
175.0
 20
-1248.260365833333
 30
0.0
 40
16.2470703125
  1
10
 41
0.7
 11
175.0
 21
-1232.013295520833
 31
0.0
 73
     3
  0
TEXT
  5
99
  8
HIBINO-BASE
 62
     7
 10
490.0581001103461
 20
-1239.784465833333
 30
0.0
 40
16.2470703125
  1
N.Sasaki
 41
0.7
 11
490.0581001103461
 21
-1223.537395520833
 31
0.0
 73
     3
  0
TEXT
  5
9A
  8
HIBINO-BASE
 62
     7
 10
38.83333333333383
 20
-1248.6609325
 30
0.0
 40
32.49414062499999
  1
A4
 41
0.7
 11
38.83333333333383
 21
-1216.166791875
 31
0.0
 73
     3
  0
TEXT
  5
9B
  8
HIBINO-BASE
 62
     7
 10
9.583333333333144
 20
-1194.6154825
 30
0.0
 40
16.2470703125
  1
PAPER SIZE
 41
0.7
 11
9.583333333333144
 21
-1178.3684121875
 31
0.0
 73
     3
  0
TEXT
  5
9C
  8
HIBINO-BASE
 62
     7
 10
-828.1599999999997
 20
-1332.1760825
 30
0.0
 40
35.20198567708332
  1
Hibino-Intersound Corporation
 41
0.7
 11
-828.1599999999997
 21
-1296.974096822916
 31
0.0
 73
     3
  0
TEXT
  5
9D
  8
HIBINO-BASE
 62
     7
 10
140.2433416724313
 20
-1332.1760825
 30
0.0
 40
35.20198567708332
  1
ヒビノインターサウンド株式会社
 41
0.7
 11
140.2433416724313
 21
-1296.974096822916
 31
0.0
 73
     3
  0
CIRCLE
  5
9E
  8
PATTERN_FILL
  6
CONTINUOUS
 62
     7
 10
-407.8023572339018
 20
-317.6000000002932
 30
0.0
 40
1.503159791081657
  0
CIRCLE
  5
9F
  8
PATTERN_FILL
  6
CONTINUOUS
 62
     7
 10
-402.6055170249836
 20
-317.6000000002932
 30
0.0
 40
1.503159791081771
  0
CIRCLE
  5
A0
  8
PATTERN_FILL
  6
CONTINUOUS
 62
     7
 10
-392.2023572339007
 20
-317.6000000002932
 30
0.0
 40
1.503159791081657
  0
CIRCLE
  5
A1
  8
PATTERN_FILL
  6
CONTINUOUS
 62
     7
 10
-397.3991974428189
 20
-317.6000000002932
 30
0.0
 40
1.503159791081544
  0
CIRCLE
  5
A2
  8
PATTERN_FILL
  6
CONTINUOUS
 62
     7
 10
-405.2055170249833
 20
-315.0000000002819
 30
0.0
 40
1.503159791081771
  0
CIRCLE
  5
A3
  8
PATTERN_FILL
  6
CONTINUOUS
 62
     7
 10
-400.008676816065
 20
-315.0000000002819
 30
0.0
 40
1.503159791081771
  0
CIRCLE
  5
A4
  8
PATTERN_FILL
  6
CONTINUOUS
 62
     7
 10
-394.8023572339004
 20
-315.0000000002819
 30
0.0
 40
1.503159791081657
  0
CIRCLE
  5
A5
  8
PATTERN_FILL
  6
CONTINUOUS
 62
     7
 10
-407.8023572339018
 20
-312.4000000002707
 30
0.0
 40
1.503159791081657
  0
CIRCLE
  5
A6
  8
PATTERN_FILL
  6
CONTINUOUS
 62
     7
 10
-402.6055170249836
 20
-312.4000000002707
 30
0.0
 40
1.503159791081771
  0
CIRCLE
  5
A7
  8
PATTERN_FILL
  6
CONTINUOUS
 62
     7
 10
-392.2023572339007
 20
-312.4000000002707
 30
0.0
 40
1.503159791081657
  0
CIRCLE
  5
A8
  8
PATTERN_FILL
  6
CONTINUOUS
 62
     7
 10
-397.3991974428189
 20
-312.4000000002707
 30
0.0
 40
1.503159791081544
  0
CIRCLE
  5
A9
  8
PATTERN_FILL
  6
CONTINUOUS
 62
     7
 10
-407.8023572339018
 20
-307.2000000002481
 30
0.0
 40
1.503159791081657
  0
CIRCLE
  5
AA
  8
PATTERN_FILL
  6
CONTINUOUS
 62
     7
 10
-402.6055170249836
 20
-307.2000000002481
 30
0.0
 40
1.503159791081771
  0
CIRCLE
  5
AB
  8
PATTERN_FILL
  6
CONTINUOUS
 62
     7
 10
-392.2023572339007
 20
-307.2000000002481
 30
0.0
 40
1.503159791081657
  0
CIRCLE
  5
AC
  8
PATTERN_FILL
  6
CONTINUOUS
 62
     7
 10
-397.3991974428189
 20
-307.2000000002481
 30
0.0
 40
1.503159791081544
  0
CIRCLE
  5
AD
  8
PATTERN_FILL
  6
CONTINUOUS
 62
     7
 10
-405.2055170249833
 20
-309.8000000002594
 30
0.0
 40
1.503159791081771
  0
CIRCLE
  5
AE
  8
PATTERN_FILL
  6
CONTINUOUS
 62
     7
 10
-400.008676816065
 20
-309.8000000002594
 30
0.0
 40
1.503159791081771
  0
CIRCLE
  5
AF
  8
PATTERN_FILL
  6
CONTINUOUS
 62
     7
 10
-394.8023572339004
 20
-309.8000000002594
 30
0.0
 40
1.503159791081657
  0
CIRCLE
  5
B0
  8
PATTERN_FILL
  6
CONTINUOUS
 62
     7
 10
-407.8023572339018
 20
-296.800000000203
 30
0.0
 40
1.503159791081657
  0
CIRCLE
  5
B1
  8
PATTERN_FILL
  6
CONTINUOUS
 62
     7
 10
-402.6055170249836
 20
-296.800000000203
 30
0.0
 40
1.503159791081771
  0
CIRCLE
  5
B2
  8
PATTERN_FILL
  6
CONTINUOUS
 62
     7
 10
-392.2023572339007
 20
-296.800000000203
 30
0.0
 40
1.503159791081657
  0
CIRCLE
  5
B3
  8
PATTERN_FILL
  6
CONTINUOUS
 62
     7
 10
-397.3991974428189
 20
-296.800000000203
 30
0.0
 40
1.503159791081544
  0
CIRCLE
  5
B4
  8
PATTERN_FILL
  6
CONTINUOUS
 62
     7
 10
-405.2055170249833
 20
-299.4000000002143
 30
0.0
 40
1.503159791081771
  0
CIRCLE
  5
B5
  8
PATTERN_FILL
  6
CONTINUOUS
 62
     7
 10
-400.008676816065
 20
-299.4000000002143
 30
0.0
 40
1.503159791081771
  0
CIRCLE
  5
B6
  8
PATTERN_FILL
  6
CONTINUOUS
 62
     7
 10
-394.8023572339004
 20
-299.4000000002143
 30
0.0
 40
1.503159791081657
  0
CIRCLE
  5
B7
  8
PATTERN_FILL
  6
CONTINUOUS
 62
     7
 10
-407.8023572339018
 20
-302.0000000002256
 30
0.0
 40
1.503159791081657
  0
CIRCLE
  5
B8
  8
PATTERN_FILL
  6
CONTINUOUS
 62
     7
 10
-402.6055170249836
 20
-302.0000000002256
 30
0.0
 40
1.503159791081771
  0
CIRCLE
  5
B9
  8
PATTERN_FILL
  6
CONTINUOUS
 62
     7
 10
-392.2023572339007
 20
-302.0000000002256
 30
0.0
 40
1.503159791081657
  0
CIRCLE
  5
BA
  8
PATTERN_FILL
  6
CONTINUOUS
 62
     7
 10
-397.3991974428189
 20
-302.0000000002256
 30
0.0
 40
1.503159791081544
  0
CIRCLE
  5
BB
  8
PATTERN_FILL
  6
CONTINUOUS
 62
     7
 10
-405.2055170249833
 20
-304.6000000002368
 30
0.0
 40
1.503159791081771
  0
CIRCLE
  5
BC
  8
PATTERN_FILL
  6
CONTINUOUS
 62
     7
 10
-400.008676816065
 20
-304.6000000002368
 30
0.0
 40
1.503159791081771
  0
CIRCLE
  5
BD
  8
PATTERN_FILL
  6
CONTINUOUS
 62
     7
 10
-394.8023572339004
 20
-304.6000000002368
 30
0.0
 40
1.503159791081657
  0
CIRCLE
  5
BE
  8
PATTERN_FILL
  6
CONTINUOUS
 62
     7
 10
-407.8023572339018
 20
-276.0000000001128
 30
0.0
 40
1.503159791081657
  0
CIRCLE
  5
BF
  8
PATTERN_FILL
  6
CONTINUOUS
 62
     7
 10
-402.6055170249836
 20
-276.0000000001128
 30
0.0
 40
1.503159791081771
  0
CIRCLE
  5
C0
  8
PATTERN_FILL
  6
CONTINUOUS
 62
     7
 10
-392.2023572339007
 20
-276.0000000001128
 30
0.0
 40
1.503159791081657
  0
CIRCLE
  5
C1
  8
PATTERN_FILL
  6
CONTINUOUS
 62
     7
 10
-397.3991974428189
 20
-276.0000000001128
 30
0.0
 40
1.503159791081544
  0
CIRCLE
  5
C2
  8
PATTERN_FILL
  6
CONTINUOUS
 62
     7
 10
-405.2055170249833
 20
-278.6000000001241
 30
0.0
 40
1.503159791081771
  0
CIRCLE
  5
C3
  8
PATTERN_FILL
  6
CONTINUOUS
 62
     7
 10
-400.008676816065
 20
-278.6000000001241
 30
0.0
 40
1.503159791081771
  0
CIRCLE
  5
C4
  8
PATTERN_FILL
  6
CONTINUOUS
 62
     7
 10
-394.8023572339004
 20
-278.6000000001241
 30
0.0
 40
1.503159791081657
  0
CIRCLE
  5
C5
  8
PATTERN_FILL
  6
CONTINUOUS
 62
     7
 10
-407.8023572339018
 20
-281.2000000001353
 30
0.0
 40
1.503159791081657
  0
CIRCLE
  5
C6
  8
PATTERN_FILL
  6
CONTINUOUS
 62
     7
 10
-402.6055170249836
 20
-281.2000000001353
 30
0.0
 40
1.503159791081771
  0
CIRCLE
  5
C7
  8
PATTERN_FILL
  6
CONTINUOUS
 62
     7
 10
-392.2023572339007
 20
-281.2000000001353
 30
0.0
 40
1.503159791081657
  0
CIRCLE
  5
C8
  8
PATTERN_FILL
  6
CONTINUOUS
 62
     7
 10
-397.3991974428189
 20
-281.2000000001353
 30
0.0
 40
1.503159791081544
  0
CIRCLE
  5
C9
  8
PATTERN_FILL
  6
CONTINUOUS
 62
     7
 10
-407.8023572339018
 20
-286.4000000001579
 30
0.0
 40
1.503159791081657
  0
CIRCLE
  5
CA
  8
PATTERN_FILL
  6
CONTINUOUS
 62
     7
 10
-402.6055170249836
 20
-286.4000000001579
 30
0.0
 40
1.503159791081771
  0
CIRCLE
  5
CB
  8
PATTERN_FILL
  6
CONTINUOUS
 62
     7
 10
-392.2023572339007
 20
-286.4000000001579
 30
0.0
 40
1.503159791081657
  0
CIRCLE
  5
CC
  8
PATTERN_FILL
  6
CONTINUOUS
 62
     7
 10
-397.3991974428189
 20
-286.4000000001579
 30
0.0
 40
1.503159791081544
  0
CIRCLE
  5
CD
  8
PATTERN_FILL
  6
CONTINUOUS
 62
     7
 10
-405.2055170249833
 20
-283.8000000001466
 30
0.0
 40
1.503159791081771
  0
CIRCLE
  5
CE
  8
PATTERN_FILL
  6
CONTINUOUS
 62
     7
 10
-400.008676816065
 20
-283.8000000001466
 30
0.0
 40
1.503159791081771
  0
CIRCLE
  5
CF
  8
PATTERN_FILL
  6
CONTINUOUS
 62
     7
 10
-394.8023572339004
 20
-283.8000000001466
 30
0.0
 40
1.503159791081657
  0
CIRCLE
  5
D0
  8
PATTERN_FILL
  6
CONTINUOUS
 62
     7
 10
-405.2055170249833
 20
-294.2000000001917
 30
0.0
 40
1.503159791081771
  0
CIRCLE
  5
D1
  8
PATTERN_FILL
  6
CONTINUOUS
 62
     7
 10
-400.008676816065
 20
-294.2000000001917
 30
0.0
 40
1.503159791081771
  0
CIRCLE
  5
D2
  8
PATTERN_FILL
  6
CONTINUOUS
 62
     7
 10
-394.8023572339004
 20
-294.2000000001917
 30
0.0
 40
1.503159791081657
  0
CIRCLE
  5
D3
  8
PATTERN_FILL
  6
CONTINUOUS
 62
     7
 10
-407.8023572339018
 20
-291.6000000001804
 30
0.0
 40
1.503159791081657
  0
CIRCLE
  5
D4
  8
PATTERN_FILL
  6
CONTINUOUS
 62
     7
 10
-402.6055170249836
 20
-291.6000000001804
 30
0.0
 40
1.503159791081771
  0
CIRCLE
  5
D5
  8
PATTERN_FILL
  6
CONTINUOUS
 62
     7
 10
-392.2023572339007
 20
-291.6000000001804
 30
0.0
 40
1.503159791081657
  0
CIRCLE
  5
D6
  8
PATTERN_FILL
  6
CONTINUOUS
 62
     7
 10
-397.3991974428189
 20
-291.6000000001804
 30
0.0
 40
1.503159791081544
  0
CIRCLE
  5
D7
  8
PATTERN_FILL
  6
CONTINUOUS
 62
     7
 10
-405.2055170249833
 20
-289.0000000001692
 30
0.0
 40
1.503159791081771
  0
CIRCLE
  5
D8
  8
PATTERN_FILL
  6
CONTINUOUS
 62
     7
 10
-400.008676816065
 20
-289.0000000001692
 30
0.0
 40
1.503159791081771
  0
CIRCLE
  5
D9
  8
PATTERN_FILL
  6
CONTINUOUS
 62
     7
 10
-394.8023572339004
 20
-289.0000000001692
 30
0.0
 40
1.503159791081657
  0
CIRCLE
  5
DA
  8
PATTERN_FILL
  6
CONTINUOUS
 62
     7
 10
-407.8023572339018
 20
-234.3999999999323
 30
0.0
 40
1.503159791081657
  0
CIRCLE
  5
DB
  8
PATTERN_FILL
  6
CONTINUOUS
 62
     7
 10
-402.6055170249836
 20
-234.3999999999323
 30
0.0
 40
1.503159791081771
  0
CIRCLE
  5
DC
  8
PATTERN_FILL
  6
CONTINUOUS
 62
     7
 10
-392.2023572339007
 20
-234.3999999999323
 30
0.0
 40
1.503159791081657
  0
CIRCLE
  5
DD
  8
PATTERN_FILL
  6
CONTINUOUS
 62
     7
 10
-397.3991974428189
 20
-234.3999999999323
 30
0.0
 40
1.503159791081544
  0
CIRCLE
  5
DE
  8
PATTERN_FILL
  6
CONTINUOUS
 62
     7
 10
-405.2055170249833
 20
-236.9999999999436
 30
0.0
 40
1.503159791081771
  0
CIRCLE
  5
DF
  8
PATTERN_FILL
  6
CONTINUOUS
 62
     7
 10
-400.008676816065
 20
-236.9999999999436
 30
0.0
 40
1.503159791081771
  0
CIRCLE
  5
E0
  8
PATTERN_FILL
  6
CONTINUOUS
 62
     7
 10
-394.8023572339004
 20
-236.9999999999436
 30
0.0
 40
1.503159791081657
  0
CIRCLE
  5
E1
  8
PATTERN_FILL
  6
CONTINUOUS
 62
     7
 10
-407.8023572339018
 20
-239.5999999999549
 30
0.0
 40
1.503159791081657
  0
CIRCLE
  5
E2
  8
PATTERN_FILL
  6
CONTINUOUS
 62
     7
 10
-402.6055170249836
 20
-239.5999999999549
 30
0.0
 40
1.503159791081771
  0
CIRCLE
  5
E3
  8
PATTERN_FILL
  6
CONTINUOUS
 62
     7
 10
-392.2023572339007
 20
-239.5999999999549
 30
0.0
 40
1.503159791081657
  0
CIRCLE
  5
E4
  8
PATTERN_FILL
  6
CONTINUOUS
 62
     7
 10
-397.3991974428189
 20
-239.5999999999549
 30
0.0
 40
1.503159791081544
  0
CIRCLE
  5
E5
  8
PATTERN_FILL
  6
CONTINUOUS
 62
     7
 10
-407.8023572339018
 20
-244.7999999999774
 30
0.0
 40
1.503159791081657
  0
CIRCLE
  5
E6
  8
PATTERN_FILL
  6
CONTINUOUS
 62
     7
 10
-402.6055170249836
 20
-244.7999999999774
 30
0.0
 40
1.503159791081771
  0
CIRCLE
  5
E7
  8
PATTERN_FILL
  6
CONTINUOUS
 62
     7
 10
-392.2023572339007
 20
-244.7999999999774
 30
0.0
 40
1.503159791081657
  0
CIRCLE
  5
E8
  8
PATTERN_FILL
  6
CONTINUOUS
 62
     7
 10
-397.3991974428189
 20
-244.7999999999774
 30
0.0
 40
1.503159791081544
  0
CIRCLE
  5
E9
  8
PATTERN_FILL
  6
CONTINUOUS
 62
     7
 10
-405.2055170249833
 20
-242.1999999999662
 30
0.0
 40
1.503159791081771
  0
CIRCLE
  5
EA
  8
PATTERN_FILL
  6
CONTINUOUS
 62
     7
 10
-400.008676816065
 20
-242.1999999999662
 30
0.0
 40
1.503159791081771
  0
CIRCLE
  5
EB
  8
PATTERN_FILL
  6
CONTINUOUS
 62
     7
 10
-394.8023572339004
 20
-242.1999999999662
 30
0.0
 40
1.503159791081657
  0
CIRCLE
  5
EC
  8
PATTERN_FILL
  6
CONTINUOUS
 62
     7
 10
-407.8023572339018
 20
-255.2000000000226
 30
0.0
 40
1.503159791081657
  0
CIRCLE
  5
ED
  8
PATTERN_FILL
  6
CONTINUOUS
 62
     7
 10
-402.6055170249836
 20
-255.2000000000226
 30
0.0
 40
1.503159791081771
  0
CIRCLE
  5
EE
  8
PATTERN_FILL
  6
CONTINUOUS
 62
     7
 10
-392.2023572339007
 20
-255.2000000000226
 30
0.0
 40
1.503159791081657
  0
CIRCLE
  5
EF
  8
PATTERN_FILL
  6
CONTINUOUS
 62
     7
 10
-397.3991974428189
 20
-255.2000000000226
 30
0.0
 40
1.503159791081544
  0
CIRCLE
  5
F0
  8
PATTERN_FILL
  6
CONTINUOUS
 62
     7
 10
-405.2055170249833
 20
-252.6000000000113
 30
0.0
 40
1.503159791081771
  0
CIRCLE
  5
F1
  8
PATTERN_FILL
  6
CONTINUOUS
 62
     7
 10
-400.008676816065
 20
-252.6000000000113
 30
0.0
 40
1.503159791081771
  0
CIRCLE
  5
F2
  8
PATTERN_FILL
  6
CONTINUOUS
 62
     7
 10
-394.8023572339004
 20
-252.6000000000113
 30
0.0
 40
1.503159791081657
  0
CIRCLE
  5
F3
  8
PATTERN_FILL
  6
CONTINUOUS
 62
     7
 10
-407.8023572339018
 20
-250.0
 30
0.0
 40
1.503159791081657
  0
CIRCLE
  5
F4
  8
PATTERN_FILL
  6
CONTINUOUS
 62
     7
 10
-402.6055170249836
 20
-250.0
 30
0.0
 40
1.503159791081771
  0
CIRCLE
  5
F5
  8
PATTERN_FILL
  6
CONTINUOUS
 62
     7
 10
-392.2023572339007
 20
-250.0
 30
0.0
 40
1.503159791081657
  0
CIRCLE
  5
F6
  8
PATTERN_FILL
  6
CONTINUOUS
 62
     7
 10
-397.3991974428189
 20
-250.0
 30
0.0
 40
1.503159791081544
  0
CIRCLE
  5
F7
  8
PATTERN_FILL
  6
CONTINUOUS
 62
     7
 10
-405.2055170249833
 20
-247.3999999999887
 30
0.0
 40
1.503159791081771
  0
CIRCLE
  5
F8
  8
PATTERN_FILL
  6
CONTINUOUS
 62
     7
 10
-400.008676816065
 20
-247.3999999999887
 30
0.0
 40
1.503159791081771
  0
CIRCLE
  5
F9
  8
PATTERN_FILL
  6
CONTINUOUS
 62
     7
 10
-394.8023572339004
 20
-247.3999999999887
 30
0.0
 40
1.503159791081657
  0
CIRCLE
  5
FA
  8
PATTERN_FILL
  6
CONTINUOUS
 62
     7
 10
-405.2055170249833
 20
-273.4000000001015
 30
0.0
 40
1.503159791081771
  0
CIRCLE
  5
FB
  8
PATTERN_FILL
  6
CONTINUOUS
 62
     7
 10
-400.008676816065
 20
-273.4000000001015
 30
0.0
 40
1.503159791081771
  0
CIRCLE
  5
FC
  8
PATTERN_FILL
  6
CONTINUOUS
 62
     7
 10
-394.8023572339004
 20
-273.4000000001015
 30
0.0
 40
1.503159791081657
  0
CIRCLE
  5
FD
  8
PATTERN_FILL
  6
CONTINUOUS
 62
     7
 10
-407.8023572339018
 20
-270.8000000000902
 30
0.0
 40
1.503159791081657
  0
CIRCLE
  5
FE
  8
PATTERN_FILL
  6
CONTINUOUS
 62
     7
 10
-402.6055170249836
 20
-270.8000000000902
 30
0.0
 40
1.503159791081771
  0
CIRCLE
  5
FF
  8
PATTERN_FILL
  6
CONTINUOUS
 62
     7
 10
-392.2023572339007
 20
-270.8000000000902
 30
0.0
 40
1.503159791081657
  0
CIRCLE
  5
100
  8
PATTERN_FILL
  6
CONTINUOUS
 62
     7
 10
-397.3991974428189
 20
-270.8000000000902
 30
0.0
 40
1.503159791081544
  0
CIRCLE
  5
101
  8
PATTERN_FILL
  6
CONTINUOUS
 62
     7
 10
-407.8023572339018
 20
-265.6000000000677
 30
0.0
 40
1.503159791081657
  0
CIRCLE
  5
102
  8
PATTERN_FILL
  6
CONTINUOUS
 62
     7
 10
-402.6055170249836
 20
-265.6000000000677
 30
0.0
 40
1.503159791081771
  0
CIRCLE
  5
103
  8
PATTERN_FILL
  6
CONTINUOUS
 62
     7
 10
-392.2023572339007
 20
-265.6000000000677
 30
0.0
 40
1.503159791081657
  0
CIRCLE
  5
104
  8
PATTERN_FILL
  6
CONTINUOUS
 62
     7
 10
-397.3991974428189
 20
-265.6000000000677
 30
0.0
 40
1.503159791081544
  0
CIRCLE
  5
105
  8
PATTERN_FILL
  6
CONTINUOUS
 62
     7
 10
-405.2055170249833
 20
-268.2000000000789
 30
0.0
 40
1.503159791081771
  0
CIRCLE
  5
106
  8
PATTERN_FILL
  6
CONTINUOUS
 62
     7
 10
-400.008676816065
 20
-268.2000000000789
 30
0.0
 40
1.503159791081771
  0
CIRCLE
  5
107
  8
PATTERN_FILL
  6
CONTINUOUS
 62
     7
 10
-394.8023572339004
 20
-268.2000000000789
 30
0.0
 40
1.503159791081657
  0
CIRCLE
  5
108
  8
PATTERN_FILL
  6
CONTINUOUS
 62
     7
 10
-405.2055170249833
 20
-257.8000000000338
 30
0.0
 40
1.503159791081771
  0
CIRCLE
  5
109
  8
PATTERN_FILL
  6
CONTINUOUS
 62
     7
 10
-400.008676816065
 20
-257.8000000000338
 30
0.0
 40
1.503159791081771
  0
CIRCLE
  5
10A
  8
PATTERN_FILL
  6
CONTINUOUS
 62
     7
 10
-394.8023572339004
 20
-257.8000000000338
 30
0.0
 40
1.503159791081657
  0
CIRCLE
  5
10B
  8
PATTERN_FILL
  6
CONTINUOUS
 62
     7
 10
-407.8023572339018
 20
-260.4000000000451
 30
0.0
 40
1.503159791081657
  0
CIRCLE
  5
10C
  8
PATTERN_FILL
  6
CONTINUOUS
 62
     7
 10
-402.6055170249836
 20
-260.4000000000451
 30
0.0
 40
1.503159791081771
  0
CIRCLE
  5
10D
  8
PATTERN_FILL
  6
CONTINUOUS
 62
     7
 10
-392.2023572339007
 20
-260.4000000000451
 30
0.0
 40
1.503159791081657
  0
CIRCLE
  5
10E
  8
PATTERN_FILL
  6
CONTINUOUS
 62
     7
 10
-397.3991974428189
 20
-260.4000000000451
 30
0.0
 40
1.503159791081544
  0
CIRCLE
  5
10F
  8
PATTERN_FILL
  6
CONTINUOUS
 62
     7
 10
-405.2055170249833
 20
-263.0000000000564
 30
0.0
 40
1.503159791081771
  0
CIRCLE
  5
110
  8
PATTERN_FILL
  6
CONTINUOUS
 62
     7
 10
-400.008676816065
 20
-263.0000000000564
 30
0.0
 40
1.503159791081771
  0
CIRCLE
  5
111
  8
PATTERN_FILL
  6
CONTINUOUS
 62
     7
 10
-394.8023572339004
 20
-263.0000000000564
 30
0.0
 40
1.503159791081657
  0
CIRCLE
  5
112
  8
PATTERN_FILL
  6
CONTINUOUS
 62
     7
 10
-407.8023572339018
 20
-151.1999999995714
 30
0.0
 40
1.503159791081657
  0
CIRCLE
  5
113
  8
PATTERN_FILL
  6
CONTINUOUS
 62
     7
 10
-402.6055170249836
 20
-151.1999999995714
 30
0.0
 40
1.503159791081771
  0
CIRCLE
  5
114
  8
PATTERN_FILL
  6
CONTINUOUS
 62
     7
 10
-392.2023572339007
 20
-151.1999999995714
 30
0.0
 40
1.503159791081657
  0
CIRCLE
  5
115
  8
PATTERN_FILL
  6
CONTINUOUS
 62
     7
 10
-397.3991974428189
 20
-151.1999999995714
 30
0.0
 40
1.503159791081544
  0
CIRCLE
  5
116
  8
PATTERN_FILL
  6
CONTINUOUS
 62
     7
 10
-405.2055170249833
 20
-153.7999999995827
 30
0.0
 40
1.503159791081771
  0
CIRCLE
  5
117
  8
PATTERN_FILL
  6
CONTINUOUS
 62
     7
 10
-400.008676816065
 20
-153.7999999995827
 30
0.0
 40
1.503159791081771
  0
CIRCLE
  5
118
  8
PATTERN_FILL
  6
CONTINUOUS
 62
     7
 10
-394.8023572339004
 20
-153.7999999995827
 30
0.0
 40
1.503159791081657
  0
CIRCLE
  5
119
  8
PATTERN_FILL
  6
CONTINUOUS
 62
     7
 10
-407.8023572339018
 20
-156.399999999594
 30
0.0
 40
1.503159791081657
  0
CIRCLE
  5
11A
  8
PATTERN_FILL
  6
CONTINUOUS
 62
     7
 10
-402.6055170249836
 20
-156.399999999594
 30
0.0
 40
1.503159791081771
  0
CIRCLE
  5
11B
  8
PATTERN_FILL
  6
CONTINUOUS
 62
     7
 10
-392.2023572339007
 20
-156.399999999594
 30
0.0
 40
1.503159791081657
  0
CIRCLE
  5
11C
  8
PATTERN_FILL
  6
CONTINUOUS
 62
     7
 10
-397.3991974428189
 20
-156.399999999594
 30
0.0
 40
1.503159791081544
  0
CIRCLE
  5
11D
  8
PATTERN_FILL
  6
CONTINUOUS
 62
     7
 10
-407.8023572339018
 20
-161.5999999996166
 30
0.0
 40
1.503159791081657
  0
CIRCLE
  5
11E
  8
PATTERN_FILL
  6
CONTINUOUS
 62
     7
 10
-402.6055170249836
 20
-161.5999999996166
 30
0.0
 40
1.503159791081771
  0
CIRCLE
  5
11F
  8
PATTERN_FILL
  6
CONTINUOUS
 62
     7
 10
-392.2023572339007
 20
-161.5999999996166
 30
0.0
 40
1.503159791081657
  0
CIRCLE
  5
120
  8
PATTERN_FILL
  6
CONTINUOUS
 62
     7
 10
-397.3991974428189
 20
-161.5999999996166
 30
0.0
 40
1.503159791081544
  0
CIRCLE
  5
121
  8
PATTERN_FILL
  6
CONTINUOUS
 62
     7
 10
-405.2055170249833
 20
-158.9999999996053
 30
0.0
 40
1.503159791081771
  0
CIRCLE
  5
122
  8
PATTERN_FILL
  6
CONTINUOUS
 62
     7
 10
-400.008676816065
 20
-158.9999999996053
 30
0.0
 40
1.503159791081771
  0
CIRCLE
  5
123
  8
PATTERN_FILL
  6
CONTINUOUS
 62
     7
 10
-394.8023572339004
 20
-158.9999999996053
 30
0.0
 40
1.503159791081657
  0
CIRCLE
  5
124
  8
PATTERN_FILL
  6
CONTINUOUS
 62
     7
 10
-407.8023572339018
 20
-171.9999999996617
 30
0.0
 40
1.503159791081657
  0
CIRCLE
  5
125
  8
PATTERN_FILL
  6
CONTINUOUS
 62
     7
 10
-402.6055170249836
 20
-171.9999999996617
 30
0.0
 40
1.503159791081771
  0
CIRCLE
  5
126
  8
PATTERN_FILL
  6
CONTINUOUS
 62
     7
 10
-392.2023572339007
 20
-171.9999999996617
 30
0.0
 40
1.503159791081657
  0
CIRCLE
  5
127
  8
PATTERN_FILL
  6
CONTINUOUS
 62
     7
 10
-397.3991974428189
 20
-171.9999999996617
 30
0.0
 40
1.503159791081544
  0
CIRCLE
  5
128
  8
PATTERN_FILL
  6
CONTINUOUS
 62
     7
 10
-405.2055170249833
 20
-169.3999999996504
 30
0.0
 40
1.503159791081771
  0
CIRCLE
  5
129
  8
PATTERN_FILL
  6
CONTINUOUS
 62
     7
 10
-400.008676816065
 20
-169.3999999996504
 30
0.0
 40
1.503159791081771
  0
CIRCLE
  5
12A
  8
PATTERN_FILL
  6
CONTINUOUS
 62
     7
 10
-394.8023572339004
 20
-169.3999999996504
 30
0.0
 40
1.503159791081657
  0
CIRCLE
  5
12B
  8
PATTERN_FILL
  6
CONTINUOUS
 62
     7
 10
-407.8023572339018
 20
-166.7999999996391
 30
0.0
 40
1.503159791081657
  0
CIRCLE
  5
12C
  8
PATTERN_FILL
  6
CONTINUOUS
 62
     7
 10
-402.6055170249836
 20
-166.7999999996391
 30
0.0
 40
1.503159791081771
  0
CIRCLE
  5
12D
  8
PATTERN_FILL
  6
CONTINUOUS
 62
     7
 10
-392.2023572339007
 20
-166.7999999996391
 30
0.0
 40
1.503159791081657
  0
CIRCLE
  5
12E
  8
PATTERN_FILL
  6
CONTINUOUS
 62
     7
 10
-397.3991974428189
 20
-166.7999999996391
 30
0.0
 40
1.503159791081544
  0
CIRCLE
  5
12F
  8
PATTERN_FILL
  6
CONTINUOUS
 62
     7
 10
-405.2055170249833
 20
-164.1999999996278
 30
0.0
 40
1.503159791081771
  0
CIRCLE
  5
130
  8
PATTERN_FILL
  6
CONTINUOUS
 62
     7
 10
-400.008676816065
 20
-164.1999999996278
 30
0.0
 40
1.503159791081771
  0
CIRCLE
  5
131
  8
PATTERN_FILL
  6
CONTINUOUS
 62
     7
 10
-394.8023572339004
 20
-164.1999999996278
 30
0.0
 40
1.503159791081657
  0
CIRCLE
  5
132
  8
PATTERN_FILL
  6
CONTINUOUS
 62
     7
 10
-407.8023572339018
 20
-192.7999999997519
 30
0.0
 40
1.503159791081657
  0
CIRCLE
  5
133
  8
PATTERN_FILL
  6
CONTINUOUS
 62
     7
 10
-402.6055170249836
 20
-192.7999999997519
 30
0.0
 40
1.503159791081771
  0
CIRCLE
  5
134
  8
PATTERN_FILL
  6
CONTINUOUS
 62
     7
 10
-392.2023572339007
 20
-192.7999999997519
 30
0.0
 40
1.503159791081657
  0
CIRCLE
  5
135
  8
PATTERN_FILL
  6
CONTINUOUS
 62
     7
 10
-397.3991974428189
 20
-192.7999999997519
 30
0.0
 40
1.503159791081544
  0
CIRCLE
  5
136
  8
PATTERN_FILL
  6
CONTINUOUS
 62
     7
 10
-405.2055170249833
 20
-190.1999999997406
 30
0.0
 40
1.503159791081771
  0
CIRCLE
  5
137
  8
PATTERN_FILL
  6
CONTINUOUS
 62
     7
 10
-400.008676816065
 20
-190.1999999997406
 30
0.0
 40
1.503159791081771
  0
CIRCLE
  5
138
  8
PATTERN_FILL
  6
CONTINUOUS
 62
     7
 10
-394.8023572339004
 20
-190.1999999997406
 30
0.0
 40
1.503159791081657
  0
CIRCLE
  5
139
  8
PATTERN_FILL
  6
CONTINUOUS
 62
     7
 10
-407.8023572339018
 20
-187.5999999997293
 30
0.0
 40
1.503159791081657
  0
CIRCLE
  5
13A
  8
PATTERN_FILL
  6
CONTINUOUS
 62
     7
 10
-402.6055170249836
 20
-187.5999999997293
 30
0.0
 40
1.503159791081771
  0
CIRCLE
  5
13B
  8
PATTERN_FILL
  6
CONTINUOUS
 62
     7
 10
-392.2023572339007
 20
-187.5999999997293
 30
0.0
 40
1.503159791081657
  0
CIRCLE
  5
13C
  8
PATTERN_FILL
  6
CONTINUOUS
 62
     7
 10
-397.3991974428189
 20
-187.5999999997293
 30
0.0
 40
1.503159791081544
  0
CIRCLE
  5
13D
  8
PATTERN_FILL
  6
CONTINUOUS
 62
     7
 10
-407.8023572339018
 20
-182.3999999997068
 30
0.0
 40
1.503159791081657
  0
CIRCLE
  5
13E
  8
PATTERN_FILL
  6
CONTINUOUS
 62
     7
 10
-402.6055170249836
 20
-182.3999999997068
 30
0.0
 40
1.503159791081771
  0
CIRCLE
  5
13F
  8
PATTERN_FILL
  6
CONTINUOUS
 62
     7
 10
-392.2023572339007
 20
-182.3999999997068
 30
0.0
 40
1.503159791081657
  0
CIRCLE
  5
140
  8
PATTERN_FILL
  6
CONTINUOUS
 62
     7
 10
-397.3991974428189
 20
-182.3999999997068
 30
0.0
 40
1.503159791081544
  0
CIRCLE
  5
141
  8
PATTERN_FILL
  6
CONTINUOUS
 62
     7
 10
-405.2055170249833
 20
-184.9999999997181
 30
0.0
 40
1.503159791081771
  0
CIRCLE
  5
142
  8
PATTERN_FILL
  6
CONTINUOUS
 62
     7
 10
-400.008676816065
 20
-184.9999999997181
 30
0.0
 40
1.503159791081771
  0
CIRCLE
  5
143
  8
PATTERN_FILL
  6
CONTINUOUS
 62
     7
 10
-394.8023572339004
 20
-184.9999999997181
 30
0.0
 40
1.503159791081657
  0
CIRCLE
  5
144
  8
PATTERN_FILL
  6
CONTINUOUS
 62
     7
 10
-405.2055170249833
 20
-174.5999999996729
 30
0.0
 40
1.503159791081771
  0
CIRCLE
  5
145
  8
PATTERN_FILL
  6
CONTINUOUS
 62
     7
 10
-400.008676816065
 20
-174.5999999996729
 30
0.0
 40
1.503159791081771
  0
CIRCLE
  5
146
  8
PATTERN_FILL
  6
CONTINUOUS
 62
     7
 10
-394.8023572339004
 20
-174.5999999996729
 30
0.0
 40
1.503159791081657
  0
CIRCLE
  5
147
  8
PATTERN_FILL
  6
CONTINUOUS
 62
     7
 10
-407.8023572339018
 20
-177.1999999996842
 30
0.0
 40
1.503159791081657
  0
CIRCLE
  5
148
  8
PATTERN_FILL
  6
CONTINUOUS
 62
     7
 10
-402.6055170249836
 20
-177.1999999996842
 30
0.0
 40
1.503159791081771
  0
CIRCLE
  5
149
  8
PATTERN_FILL
  6
CONTINUOUS
 62
     7
 10
-392.2023572339007
 20
-177.1999999996842
 30
0.0
 40
1.503159791081657
  0
CIRCLE
  5
14A
  8
PATTERN_FILL
  6
CONTINUOUS
 62
     7
 10
-397.3991974428189
 20
-177.1999999996842
 30
0.0
 40
1.503159791081544
  0
CIRCLE
  5
14B
  8
PATTERN_FILL
  6
CONTINUOUS
 62
     7
 10
-405.2055170249833
 20
-179.7999999996955
 30
0.0
 40
1.503159791081771
  0
CIRCLE
  5
14C
  8
PATTERN_FILL
  6
CONTINUOUS
 62
     7
 10
-400.008676816065
 20
-179.7999999996955
 30
0.0
 40
1.503159791081771
  0
CIRCLE
  5
14D
  8
PATTERN_FILL
  6
CONTINUOUS
 62
     7
 10
-394.8023572339004
 20
-179.7999999996955
 30
0.0
 40
1.503159791081657
  0
CIRCLE
  5
14E
  8
PATTERN_FILL
  6
CONTINUOUS
 62
     7
 10
-405.2055170249833
 20
-231.7999999999211
 30
0.0
 40
1.503159791081771
  0
CIRCLE
  5
14F
  8
PATTERN_FILL
  6
CONTINUOUS
 62
     7
 10
-400.008676816065
 20
-231.7999999999211
 30
0.0
 40
1.503159791081771
  0
CIRCLE
  5
150
  8
PATTERN_FILL
  6
CONTINUOUS
 62
     7
 10
-394.8023572339004
 20
-231.7999999999211
 30
0.0
 40
1.503159791081657
  0
CIRCLE
  5
151
  8
PATTERN_FILL
  6
CONTINUOUS
 62
     7
 10
-407.8023572339018
 20
-229.1999999999098
 30
0.0
 40
1.503159791081657
  0
CIRCLE
  5
152
  8
PATTERN_FILL
  6
CONTINUOUS
 62
     7
 10
-402.6055170249836
 20
-229.1999999999098
 30
0.0
 40
1.503159791081771
  0
CIRCLE
  5
153
  8
PATTERN_FILL
  6
CONTINUOUS
 62
     7
 10
-392.2023572339007
 20
-229.1999999999098
 30
0.0
 40
1.503159791081657
  0
CIRCLE
  5
154
  8
PATTERN_FILL
  6
CONTINUOUS
 62
     7
 10
-397.3991974428189
 20
-229.1999999999098
 30
0.0
 40
1.503159791081544
  0
CIRCLE
  5
155
  8
PATTERN_FILL
  6
CONTINUOUS
 62
     7
 10
-407.8023572339018
 20
-223.9999999998872
 30
0.0
 40
1.503159791081657
  0
CIRCLE
  5
156
  8
PATTERN_FILL
  6
CONTINUOUS
 62
     7
 10
-402.6055170249836
 20
-223.9999999998872
 30
0.0
 40
1.503159791081771
  0
CIRCLE
  5
157
  8
PATTERN_FILL
  6
CONTINUOUS
 62
     7
 10
-392.2023572339007
 20
-223.9999999998872
 30
0.0
 40
1.503159791081657
  0
CIRCLE
  5
158
  8
PATTERN_FILL
  6
CONTINUOUS
 62
     7
 10
-397.3991974428189
 20
-223.9999999998872
 30
0.0
 40
1.503159791081544
  0
CIRCLE
  5
159
  8
PATTERN_FILL
  6
CONTINUOUS
 62
     7
 10
-405.2055170249833
 20
-226.5999999998985
 30
0.0
 40
1.503159791081771
  0
CIRCLE
  5
15A
  8
PATTERN_FILL
  6
CONTINUOUS
 62
     7
 10
-400.008676816065
 20
-226.5999999998985
 30
0.0
 40
1.503159791081771
  0
CIRCLE
  5
15B
  8
PATTERN_FILL
  6
CONTINUOUS
 62
     7
 10
-394.8023572339004
 20
-226.5999999998985
 30
0.0
 40
1.503159791081657
  0
CIRCLE
  5
15C
  8
PATTERN_FILL
  6
CONTINUOUS
 62
     7
 10
-407.8023572339018
 20
-213.5999999998421
 30
0.0
 40
1.503159791081657
  0
CIRCLE
  5
15D
  8
PATTERN_FILL
  6
CONTINUOUS
 62
     7
 10
-402.6055170249836
 20
-213.5999999998421
 30
0.0
 40
1.503159791081771
  0
CIRCLE
  5
15E
  8
PATTERN_FILL
  6
CONTINUOUS
 62
     7
 10
-392.2023572339007
 20
-213.5999999998421
 30
0.0
 40
1.503159791081657
  0
CIRCLE
  5
15F
  8
PATTERN_FILL
  6
CONTINUOUS
 62
     7
 10
-397.3991974428189
 20
-213.5999999998421
 30
0.0
 40
1.503159791081544
  0
CIRCLE
  5
160
  8
PATTERN_FILL
  6
CONTINUOUS
 62
     7
 10
-405.2055170249833
 20
-216.1999999998534
 30
0.0
 40
1.503159791081771
  0
CIRCLE
  5
161
  8
PATTERN_FILL
  6
CONTINUOUS
 62
     7
 10
-400.008676816065
 20
-216.1999999998534
 30
0.0
 40
1.503159791081771
  0
CIRCLE
  5
162
  8
PATTERN_FILL
  6
CONTINUOUS
 62
     7
 10
-394.8023572339004
 20
-216.1999999998534
 30
0.0
 40
1.503159791081657
  0
CIRCLE
  5
163
  8
PATTERN_FILL
  6
CONTINUOUS
 62
     7
 10
-407.8023572339018
 20
-218.7999999998647
 30
0.0
 40
1.503159791081657
  0
CIRCLE
  5
164
  8
PATTERN_FILL
  6
CONTINUOUS
 62
     7
 10
-402.6055170249836
 20
-218.7999999998647
 30
0.0
 40
1.503159791081771
  0
CIRCLE
  5
165
  8
PATTERN_FILL
  6
CONTINUOUS
 62
     7
 10
-392.2023572339007
 20
-218.7999999998647
 30
0.0
 40
1.503159791081657
  0
CIRCLE
  5
166
  8
PATTERN_FILL
  6
CONTINUOUS
 62
     7
 10
-397.3991974428189
 20
-218.7999999998647
 30
0.0
 40
1.503159791081544
  0
CIRCLE
  5
167
  8
PATTERN_FILL
  6
CONTINUOUS
 62
     7
 10
-405.2055170249833
 20
-221.3999999998759
 30
0.0
 40
1.503159791081771
  0
CIRCLE
  5
168
  8
PATTERN_FILL
  6
CONTINUOUS
 62
     7
 10
-400.008676816065
 20
-221.3999999998759
 30
0.0
 40
1.503159791081771
  0
CIRCLE
  5
169
  8
PATTERN_FILL
  6
CONTINUOUS
 62
     7
 10
-394.8023572339004
 20
-221.3999999998759
 30
0.0
 40
1.503159791081657
  0
CIRCLE
  5
16A
  8
PATTERN_FILL
  6
CONTINUOUS
 62
     7
 10
-405.2055170249833
 20
-195.3999999997632
 30
0.0
 40
1.503159791081771
  0
CIRCLE
  5
16B
  8
PATTERN_FILL
  6
CONTINUOUS
 62
     7
 10
-400.008676816065
 20
-195.3999999997632
 30
0.0
 40
1.503159791081771
  0
CIRCLE
  5
16C
  8
PATTERN_FILL
  6
CONTINUOUS
 62
     7
 10
-394.8023572339004
 20
-195.3999999997632
 30
0.0
 40
1.503159791081657
  0
CIRCLE
  5
16D
  8
PATTERN_FILL
  6
CONTINUOUS
 62
     7
 10
-407.8023572339018
 20
-197.9999999997744
 30
0.0
 40
1.503159791081657
  0
CIRCLE
  5
16E
  8
PATTERN_FILL
  6
CONTINUOUS
 62
     7
 10
-402.6055170249836
 20
-197.9999999997744
 30
0.0
 40
1.503159791081771
  0
CIRCLE
  5
16F
  8
PATTERN_FILL
  6
CONTINUOUS
 62
     7
 10
-392.2023572339007
 20
-197.9999999997744
 30
0.0
 40
1.503159791081657
  0
CIRCLE
  5
170
  8
PATTERN_FILL
  6
CONTINUOUS
 62
     7
 10
-397.3991974428189
 20
-197.9999999997744
 30
0.0
 40
1.503159791081544
  0
CIRCLE
  5
171
  8
PATTERN_FILL
  6
CONTINUOUS
 62
     7
 10
-407.8023572339018
 20
-203.199999999797
 30
0.0
 40
1.503159791081657
  0
CIRCLE
  5
172
  8
PATTERN_FILL
  6
CONTINUOUS
 62
     7
 10
-402.6055170249836
 20
-203.199999999797
 30
0.0
 40
1.503159791081771
  0
CIRCLE
  5
173
  8
PATTERN_FILL
  6
CONTINUOUS
 62
     7
 10
-392.2023572339007
 20
-203.199999999797
 30
0.0
 40
1.503159791081657
  0
CIRCLE
  5
174
  8
PATTERN_FILL
  6
CONTINUOUS
 62
     7
 10
-397.3991974428189
 20
-203.199999999797
 30
0.0
 40
1.503159791081544
  0
CIRCLE
  5
175
  8
PATTERN_FILL
  6
CONTINUOUS
 62
     7
 10
-405.2055170249833
 20
-200.5999999997857
 30
0.0
 40
1.503159791081771
  0
CIRCLE
  5
176
  8
PATTERN_FILL
  6
CONTINUOUS
 62
     7
 10
-400.008676816065
 20
-200.5999999997857
 30
0.0
 40
1.503159791081771
  0
CIRCLE
  5
177
  8
PATTERN_FILL
  6
CONTINUOUS
 62
     7
 10
-394.8023572339004
 20
-200.5999999997857
 30
0.0
 40
1.503159791081657
  0
CIRCLE
  5
178
  8
PATTERN_FILL
  6
CONTINUOUS
 62
     7
 10
-405.2055170249833
 20
-210.9999999998308
 30
0.0
 40
1.503159791081771
  0
CIRCLE
  5
179
  8
PATTERN_FILL
  6
CONTINUOUS
 62
     7
 10
-400.008676816065
 20
-210.9999999998308
 30
0.0
 40
1.503159791081771
  0
CIRCLE
  5
17A
  8
PATTERN_FILL
  6
CONTINUOUS
 62
     7
 10
-394.8023572339004
 20
-210.9999999998308
 30
0.0
 40
1.503159791081657
  0
CIRCLE
  5
17B
  8
PATTERN_FILL
  6
CONTINUOUS
 62
     7
 10
-407.8023572339018
 20
-208.3999999998196
 30
0.0
 40
1.503159791081657
  0
CIRCLE
  5
17C
  8
PATTERN_FILL
  6
CONTINUOUS
 62
     7
 10
-402.6055170249836
 20
-208.3999999998196
 30
0.0
 40
1.503159791081771
  0
CIRCLE
  5
17D
  8
PATTERN_FILL
  6
CONTINUOUS
 62
     7
 10
-392.2023572339007
 20
-208.3999999998196
 30
0.0
 40
1.503159791081657
  0
CIRCLE
  5
17E
  8
PATTERN_FILL
  6
CONTINUOUS
 62
     7
 10
-397.3991974428189
 20
-208.3999999998196
 30
0.0
 40
1.503159791081544
  0
CIRCLE
  5
17F
  8
PATTERN_FILL
  6
CONTINUOUS
 62
     7
 10
-405.2055170249833
 20
-205.7999999998083
 30
0.0
 40
1.503159791081771
  0
CIRCLE
  5
180
  8
PATTERN_FILL
  6
CONTINUOUS
 62
     7
 10
-400.008676816065
 20
-205.7999999998083
 30
0.0
 40
1.503159791081771
  0
CIRCLE
  5
181
  8
PATTERN_FILL
  6
CONTINUOUS
 62
     7
 10
-394.8023572339004
 20
-205.7999999998083
 30
0.0
 40
1.503159791081657
  0
CIRCLE
  5
182
  8
PATTERN_FILL
  6
CONTINUOUS
 62
     7
 10
-407.8023572339018
 20
-26.39999999903011
 30
0.0
 40
1.503159791081657
  0
CIRCLE
  5
183
  8
PATTERN_FILL
  6
CONTINUOUS
 62
     7
 10
-402.6055170249836
 20
-26.39999999903011
 30
0.0
 40
1.503159791081771
  0
CIRCLE
  5
184
  8
PATTERN_FILL
  6
CONTINUOUS
 62
     7
 10
-392.2023572339007
 20
-26.39999999903011
 30
0.0
 40
1.503159791081657
  0
CIRCLE
  5
185
  8
PATTERN_FILL
  6
CONTINUOUS
 62
     7
 10
-397.3991974428189
 20
-26.39999999903011
 30
0.0
 40
1.503159791081544
  0
CIRCLE
  5
186
  8
PATTERN_FILL
  6
CONTINUOUS
 62
     7
 10
-405.2055170249833
 20
-23.79999999901884
 30
0.0
 40
1.503159791081771
  0
CIRCLE
  5
187
  8
PATTERN_FILL
  6
CONTINUOUS
 62
     7
 10
-400.008676816065
 20
-23.79999999901884
 30
0.0
 40
1.503159791081771
  0
CIRCLE
  5
188
  8
PATTERN_FILL
  6
CONTINUOUS
 62
     7
 10
-394.8023572339004
 20
-23.79999999901884
 30
0.0
 40
1.503159791081657
  0
CIRCLE
  5
189
  8
PATTERN_FILL
  6
CONTINUOUS
 62
     7
 10
-407.8023572339018
 20
-21.19999999900756
 30
0.0
 40
1.503159791081657
  0
CIRCLE
  5
18A
  8
PATTERN_FILL
  6
CONTINUOUS
 62
     7
 10
-402.6055170249836
 20
-21.19999999900756
 30
0.0
 40
1.503159791081771
  0
CIRCLE
  5
18B
  8
PATTERN_FILL
  6
CONTINUOUS
 62
     7
 10
-392.2023572339007
 20
-21.19999999900756
 30
0.0
 40
1.503159791081657
  0
CIRCLE
  5
18C
  8
PATTERN_FILL
  6
CONTINUOUS
 62
     7
 10
-397.3991974428189
 20
-21.19999999900756
 30
0.0
 40
1.503159791081544
  0
CIRCLE
  5
18D
  8
PATTERN_FILL
  6
CONTINUOUS
 62
     7
 10
-407.8023572339018
 20
-15.999999998985
 30
0.0
 40
1.503159791081657
  0
CIRCLE
  5
18E
  8
PATTERN_FILL
  6
CONTINUOUS
 62
     7
 10
-402.6055170249836
 20
-15.999999998985
 30
0.0
 40
1.503159791081771
  0
CIRCLE
  5
18F
  8
PATTERN_FILL
  6
CONTINUOUS
 62
     7
 10
-392.2023572339007
 20
-15.999999998985
 30
0.0
 40
1.503159791081657
  0
CIRCLE
  5
190
  8
PATTERN_FILL
  6
CONTINUOUS
 62
     7
 10
-397.3991974428189
 20
-15.999999998985
 30
0.0
 40
1.503159791081544
  0
CIRCLE
  5
191
  8
PATTERN_FILL
  6
CONTINUOUS
 62
     7
 10
-405.2055170249833
 20
-18.59999999899628
 30
0.0
 40
1.503159791081771
  0
CIRCLE
  5
192
  8
PATTERN_FILL
  6
CONTINUOUS
 62
     7
 10
-400.008676816065
 20
-18.59999999899628
 30
0.0
 40
1.503159791081771
  0
CIRCLE
  5
193
  8
PATTERN_FILL
  6
CONTINUOUS
 62
     7
 10
-394.8023572339004
 20
-18.59999999899628
 30
0.0
 40
1.503159791081657
  0
CIRCLE
  5
194
  8
PATTERN_FILL
  6
CONTINUOUS
 62
     7
 10
-405.2055170249833
 20
-8.19999999895117
 30
0.0
 40
1.503159791081771
  0
CIRCLE
  5
195
  8
PATTERN_FILL
  6
CONTINUOUS
 62
     7
 10
-400.008676816065
 20
-8.19999999895117
 30
0.0
 40
1.503159791081771
  0
CIRCLE
  5
196
  8
PATTERN_FILL
  6
CONTINUOUS
 62
     7
 10
-394.8023572339004
 20
-8.19999999895117
 30
0.0
 40
1.503159791081657
  0
CIRCLE
  5
197
  8
PATTERN_FILL
  6
CONTINUOUS
 62
     7
 10
-407.8023572339018
 20
-10.79999999896245
 30
0.0
 40
1.503159791081657
  0
CIRCLE
  5
198
  8
PATTERN_FILL
  6
CONTINUOUS
 62
     7
 10
-402.6055170249836
 20
-10.79999999896245
 30
0.0
 40
1.503159791081771
  0
CIRCLE
  5
199
  8
PATTERN_FILL
  6
CONTINUOUS
 62
     7
 10
-392.2023572339007
 20
-10.79999999896245
 30
0.0
 40
1.503159791081657
  0
CIRCLE
  5
19A
  8
PATTERN_FILL
  6
CONTINUOUS
 62
     7
 10
-397.3991974428189
 20
-10.79999999896245
 30
0.0
 40
1.503159791081544
  0
CIRCLE
  5
19B
  8
PATTERN_FILL
  6
CONTINUOUS
 62
     7
 10
-405.2055170249833
 20
-13.39999999897373
 30
0.0
 40
1.503159791081771
  0
CIRCLE
  5
19C
  8
PATTERN_FILL
  6
CONTINUOUS
 62
     7
 10
-400.008676816065
 20
-13.39999999897373
 30
0.0
 40
1.503159791081771
  0
CIRCLE
  5
19D
  8
PATTERN_FILL
  6
CONTINUOUS
 62
     7
 10
-394.8023572339004
 20
-13.39999999897373
 30
0.0
 40
1.503159791081657
  0
CIRCLE
  5
19E
  8
PATTERN_FILL
  6
CONTINUOUS
 62
     7
 10
-407.8023572339018
 20
-67.99999999921056
 30
0.0
 40
1.503159791081657
  0
CIRCLE
  5
19F
  8
PATTERN_FILL
  6
CONTINUOUS
 62
     7
 10
-402.6055170249836
 20
-67.99999999921056
 30
0.0
 40
1.503159791081771
  0
CIRCLE
  5
1A0
  8
PATTERN_FILL
  6
CONTINUOUS
 62
     7
 10
-392.2023572339007
 20
-67.99999999921056
 30
0.0
 40
1.503159791081657
  0
CIRCLE
  5
1A1
  8
PATTERN_FILL
  6
CONTINUOUS
 62
     7
 10
-397.3991974428189
 20
-67.99999999921056
 30
0.0
 40
1.503159791081544
  0
CIRCLE
  5
1A2
  8
PATTERN_FILL
  6
CONTINUOUS
 62
     7
 10
-405.2055170249833
 20
-65.39999999919928
 30
0.0
 40
1.503159791081771
  0
CIRCLE
  5
1A3
  8
PATTERN_FILL
  6
CONTINUOUS
 62
     7
 10
-400.008676816065
 20
-65.39999999919928
 30
0.0
 40
1.503159791081771
  0
CIRCLE
  5
1A4
  8
PATTERN_FILL
  6
CONTINUOUS
 62
     7
 10
-394.8023572339004
 20
-65.39999999919928
 30
0.0
 40
1.503159791081657
  0
CIRCLE
  5
1A5
  8
PATTERN_FILL
  6
CONTINUOUS
 62
     7
 10
-407.8023572339018
 20
-62.799999999188
 30
0.0
 40
1.503159791081657
  0
CIRCLE
  5
1A6
  8
PATTERN_FILL
  6
CONTINUOUS
 62
     7
 10
-402.6055170249836
 20
-62.799999999188
 30
0.0
 40
1.503159791081771
  0
CIRCLE
  5
1A7
  8
PATTERN_FILL
  6
CONTINUOUS
 62
     7
 10
-392.2023572339007
 20
-62.799999999188
 30
0.0
 40
1.503159791081657
  0
CIRCLE
  5
1A8
  8
PATTERN_FILL
  6
CONTINUOUS
 62
     7
 10
-397.3991974428189
 20
-62.799999999188
 30
0.0
 40
1.503159791081544
  0
CIRCLE
  5
1A9
  8
PATTERN_FILL
  6
CONTINUOUS
 62
     7
 10
-407.8023572339018
 20
-57.59999999916545
 30
0.0
 40
1.503159791081657
  0
CIRCLE
  5
1AA
  8
PATTERN_FILL
  6
CONTINUOUS
 62
     7
 10
-402.6055170249836
 20
-57.59999999916545
 30
0.0
 40
1.503159791081771
  0
CIRCLE
  5
1AB
  8
PATTERN_FILL
  6
CONTINUOUS
 62
     7
 10
-392.2023572339007
 20
-57.59999999916545
 30
0.0
 40
1.503159791081657
  0
CIRCLE
  5
1AC
  8
PATTERN_FILL
  6
CONTINUOUS
 62
     7
 10
-397.3991974428189
 20
-57.59999999916545
 30
0.0
 40
1.503159791081544
  0
CIRCLE
  5
1AD
  8
PATTERN_FILL
  6
CONTINUOUS
 62
     7
 10
-405.2055170249833
 20
-60.19999999917673
 30
0.0
 40
1.503159791081771
  0
CIRCLE
  5
1AE
  8
PATTERN_FILL
  6
CONTINUOUS
 62
     7
 10
-400.008676816065
 20
-60.19999999917673
 30
0.0
 40
1.503159791081771
  0
CIRCLE
  5
1AF
  8
PATTERN_FILL
  6
CONTINUOUS
 62
     7
 10
-394.8023572339004
 20
-60.19999999917673
 30
0.0
 40
1.503159791081657
  0
CIRCLE
  5
1B0
  8
PATTERN_FILL
  6
CONTINUOUS
 62
     7
 10
-407.8023572339018
 20
-47.19999999912034
 30
0.0
 40
1.503159791081657
  0
CIRCLE
  5
1B1
  8
PATTERN_FILL
  6
CONTINUOUS
 62
     7
 10
-402.6055170249836
 20
-47.19999999912034
 30
0.0
 40
1.503159791081771
  0
CIRCLE
  5
1B2
  8
PATTERN_FILL
  6
CONTINUOUS
 62
     7
 10
-392.2023572339007
 20
-47.19999999912034
 30
0.0
 40
1.503159791081657
  0
CIRCLE
  5
1B3
  8
PATTERN_FILL
  6
CONTINUOUS
 62
     7
 10
-397.3991974428189
 20
-47.19999999912034
 30
0.0
 40
1.503159791081544
  0
CIRCLE
  5
1B4
  8
PATTERN_FILL
  6
CONTINUOUS
 62
     7
 10
-405.2055170249833
 20
-49.79999999913161
 30
0.0
 40
1.503159791081771
  0
CIRCLE
  5
1B5
  8
PATTERN_FILL
  6
CONTINUOUS
 62
     7
 10
-400.008676816065
 20
-49.79999999913161
 30
0.0
 40
1.503159791081771
  0
CIRCLE
  5
1B6
  8
PATTERN_FILL
  6
CONTINUOUS
 62
     7
 10
-394.8023572339004
 20
-49.79999999913161
 30
0.0
 40
1.503159791081657
  0
CIRCLE
  5
1B7
  8
PATTERN_FILL
  6
CONTINUOUS
 62
     7
 10
-407.8023572339018
 20
-52.39999999914289
 30
0.0
 40
1.503159791081657
  0
CIRCLE
  5
1B8
  8
PATTERN_FILL
  6
CONTINUOUS
 62
     7
 10
-402.6055170249836
 20
-52.39999999914289
 30
0.0
 40
1.503159791081771
  0
CIRCLE
  5
1B9
  8
PATTERN_FILL
  6
CONTINUOUS
 62
     7
 10
-392.2023572339007
 20
-52.39999999914289
 30
0.0
 40
1.503159791081657
  0
CIRCLE
  5
1BA
  8
PATTERN_FILL
  6
CONTINUOUS
 62
     7
 10
-397.3991974428189
 20
-52.39999999914289
 30
0.0
 40
1.503159791081544
  0
CIRCLE
  5
1BB
  8
PATTERN_FILL
  6
CONTINUOUS
 62
     7
 10
-405.2055170249833
 20
-54.99999999915417
 30
0.0
 40
1.503159791081771
  0
CIRCLE
  5
1BC
  8
PATTERN_FILL
  6
CONTINUOUS
 62
     7
 10
-400.008676816065
 20
-54.99999999915417
 30
0.0
 40
1.503159791081771
  0
CIRCLE
  5
1BD
  8
PATTERN_FILL
  6
CONTINUOUS
 62
     7
 10
-394.8023572339004
 20
-54.99999999915417
 30
0.0
 40
1.503159791081657
  0
CIRCLE
  5
1BE
  8
PATTERN_FILL
  6
CONTINUOUS
 62
     7
 10
-405.2055170249833
 20
-28.99999999904139
 30
0.0
 40
1.503159791081771
  0
CIRCLE
  5
1BF
  8
PATTERN_FILL
  6
CONTINUOUS
 62
     7
 10
-400.008676816065
 20
-28.99999999904139
 30
0.0
 40
1.503159791081771
  0
CIRCLE
  5
1C0
  8
PATTERN_FILL
  6
CONTINUOUS
 62
     7
 10
-394.8023572339004
 20
-28.99999999904139
 30
0.0
 40
1.503159791081657
  0
CIRCLE
  5
1C1
  8
PATTERN_FILL
  6
CONTINUOUS
 62
     7
 10
-407.8023572339018
 20
-31.59999999905267
 30
0.0
 40
1.503159791081657
  0
CIRCLE
  5
1C2
  8
PATTERN_FILL
  6
CONTINUOUS
 62
     7
 10
-402.6055170249836
 20
-31.59999999905267
 30
0.0
 40
1.503159791081771
  0
CIRCLE
  5
1C3
  8
PATTERN_FILL
  6
CONTINUOUS
 62
     7
 10
-392.2023572339007
 20
-31.59999999905267
 30
0.0
 40
1.503159791081657
  0
CIRCLE
  5
1C4
  8
PATTERN_FILL
  6
CONTINUOUS
 62
     7
 10
-397.3991974428189
 20
-31.59999999905267
 30
0.0
 40
1.503159791081544
  0
CIRCLE
  5
1C5
  8
PATTERN_FILL
  6
CONTINUOUS
 62
     7
 10
-407.8023572339018
 20
-36.79999999907523
 30
0.0
 40
1.503159791081657
  0
CIRCLE
  5
1C6
  8
PATTERN_FILL
  6
CONTINUOUS
 62
     7
 10
-402.6055170249836
 20
-36.79999999907523
 30
0.0
 40
1.503159791081771
  0
CIRCLE
  5
1C7
  8
PATTERN_FILL
  6
CONTINUOUS
 62
     7
 10
-392.2023572339007
 20
-36.79999999907523
 30
0.0
 40
1.503159791081657
  0
CIRCLE
  5
1C8
  8
PATTERN_FILL
  6
CONTINUOUS
 62
     7
 10
-397.3991974428189
 20
-36.79999999907523
 30
0.0
 40
1.503159791081544
  0
CIRCLE
  5
1C9
  8
PATTERN_FILL
  6
CONTINUOUS
 62
     7
 10
-405.2055170249833
 20
-34.19999999906395
 30
0.0
 40
1.503159791081771
  0
CIRCLE
  5
1CA
  8
PATTERN_FILL
  6
CONTINUOUS
 62
     7
 10
-400.008676816065
 20
-34.19999999906395
 30
0.0
 40
1.503159791081771
  0
CIRCLE
  5
1CB
  8
PATTERN_FILL
  6
CONTINUOUS
 62
     7
 10
-394.8023572339004
 20
-34.19999999906395
 30
0.0
 40
1.503159791081657
  0
CIRCLE
  5
1CC
  8
PATTERN_FILL
  6
CONTINUOUS
 62
     7
 10
-405.2055170249833
 20
-44.59999999910906
 30
0.0
 40
1.503159791081771
  0
CIRCLE
  5
1CD
  8
PATTERN_FILL
  6
CONTINUOUS
 62
     7
 10
-400.008676816065
 20
-44.59999999910906
 30
0.0
 40
1.503159791081771
  0
CIRCLE
  5
1CE
  8
PATTERN_FILL
  6
CONTINUOUS
 62
     7
 10
-394.8023572339004
 20
-44.59999999910906
 30
0.0
 40
1.503159791081657
  0
CIRCLE
  5
1CF
  8
PATTERN_FILL
  6
CONTINUOUS
 62
     7
 10
-407.8023572339018
 20
-41.99999999909778
 30
0.0
 40
1.503159791081657
  0
CIRCLE
  5
1D0
  8
PATTERN_FILL
  6
CONTINUOUS
 62
     7
 10
-402.6055170249836
 20
-41.99999999909778
 30
0.0
 40
1.503159791081771
  0
CIRCLE
  5
1D1
  8
PATTERN_FILL
  6
CONTINUOUS
 62
     7
 10
-392.2023572339007
 20
-41.99999999909778
 30
0.0
 40
1.503159791081657
  0
CIRCLE
  5
1D2
  8
PATTERN_FILL
  6
CONTINUOUS
 62
     7
 10
-397.3991974428189
 20
-41.99999999909778
 30
0.0
 40
1.503159791081544
  0
CIRCLE
  5
1D3
  8
PATTERN_FILL
  6
CONTINUOUS
 62
     7
 10
-405.2055170249833
 20
-39.3999999990865
 30
0.0
 40
1.503159791081771
  0
CIRCLE
  5
1D4
  8
PATTERN_FILL
  6
CONTINUOUS
 62
     7
 10
-400.008676816065
 20
-39.3999999990865
 30
0.0
 40
1.503159791081771
  0
CIRCLE
  5
1D5
  8
PATTERN_FILL
  6
CONTINUOUS
 62
     7
 10
-394.8023572339004
 20
-39.3999999990865
 30
0.0
 40
1.503159791081657
  0
CIRCLE
  5
1D6
  8
PATTERN_FILL
  6
CONTINUOUS
 62
     7
 10
-405.2055170249833
 20
-148.5999999995602
 30
0.0
 40
1.503159791081771
  0
CIRCLE
  5
1D7
  8
PATTERN_FILL
  6
CONTINUOUS
 62
     7
 10
-400.008676816065
 20
-148.5999999995602
 30
0.0
 40
1.503159791081771
  0
CIRCLE
  5
1D8
  8
PATTERN_FILL
  6
CONTINUOUS
 62
     7
 10
-394.8023572339004
 20
-148.5999999995602
 30
0.0
 40
1.503159791081657
  0
CIRCLE
  5
1D9
  8
PATTERN_FILL
  6
CONTINUOUS
 62
     7
 10
-407.8023572339018
 20
-145.9999999995489
 30
0.0
 40
1.503159791081657
  0
CIRCLE
  5
1DA
  8
PATTERN_FILL
  6
CONTINUOUS
 62
     7
 10
-402.6055170249836
 20
-145.9999999995489
 30
0.0
 40
1.503159791081771
  0
CIRCLE
  5
1DB
  8
PATTERN_FILL
  6
CONTINUOUS
 62
     7
 10
-392.2023572339007
 20
-145.9999999995489
 30
0.0
 40
1.503159791081657
  0
CIRCLE
  5
1DC
  8
PATTERN_FILL
  6
CONTINUOUS
 62
     7
 10
-397.3991974428189
 20
-145.9999999995489
 30
0.0
 40
1.503159791081544
  0
CIRCLE
  5
1DD
  8
PATTERN_FILL
  6
CONTINUOUS
 62
     7
 10
-407.8023572339018
 20
-140.7999999995263
 30
0.0
 40
1.503159791081657
  0
CIRCLE
  5
1DE
  8
PATTERN_FILL
  6
CONTINUOUS
 62
     7
 10
-402.6055170249836
 20
-140.7999999995263
 30
0.0
 40
1.503159791081771
  0
CIRCLE
  5
1DF
  8
PATTERN_FILL
  6
CONTINUOUS
 62
     7
 10
-392.2023572339007
 20
-140.7999999995263
 30
0.0
 40
1.503159791081657
  0
CIRCLE
  5
1E0
  8
PATTERN_FILL
  6
CONTINUOUS
 62
     7
 10
-397.3991974428189
 20
-140.7999999995263
 30
0.0
 40
1.503159791081544
  0
CIRCLE
  5
1E1
  8
PATTERN_FILL
  6
CONTINUOUS
 62
     7
 10
-405.2055170249833
 20
-143.3999999995376
 30
0.0
 40
1.503159791081771
  0
CIRCLE
  5
1E2
  8
PATTERN_FILL
  6
CONTINUOUS
 62
     7
 10
-400.008676816065
 20
-143.3999999995376
 30
0.0
 40
1.503159791081771
  0
CIRCLE
  5
1E3
  8
PATTERN_FILL
  6
CONTINUOUS
 62
     7
 10
-394.8023572339004
 20
-143.3999999995376
 30
0.0
 40
1.503159791081657
  0
CIRCLE
  5
1E4
  8
PATTERN_FILL
  6
CONTINUOUS
 62
     7
 10
-407.8023572339018
 20
-130.3999999994812
 30
0.0
 40
1.503159791081657
  0
CIRCLE
  5
1E5
  8
PATTERN_FILL
  6
CONTINUOUS
 62
     7
 10
-402.6055170249836
 20
-130.3999999994812
 30
0.0
 40
1.503159791081771
  0
CIRCLE
  5
1E6
  8
PATTERN_FILL
  6
CONTINUOUS
 62
     7
 10
-392.2023572339007
 20
-130.3999999994812
 30
0.0
 40
1.503159791081657
  0
CIRCLE
  5
1E7
  8
PATTERN_FILL
  6
CONTINUOUS
 62
     7
 10
-397.3991974428189
 20
-130.3999999994812
 30
0.0
 40
1.503159791081544
  0
CIRCLE
  5
1E8
  8
PATTERN_FILL
  6
CONTINUOUS
 62
     7
 10
-405.2055170249833
 20
-132.9999999994925
 30
0.0
 40
1.503159791081771
  0
CIRCLE
  5
1E9
  8
PATTERN_FILL
  6
CONTINUOUS
 62
     7
 10
-400.008676816065
 20
-132.9999999994925
 30
0.0
 40
1.503159791081771
  0
CIRCLE
  5
1EA
  8
PATTERN_FILL
  6
CONTINUOUS
 62
     7
 10
-394.8023572339004
 20
-132.9999999994925
 30
0.0
 40
1.503159791081657
  0
CIRCLE
  5
1EB
  8
PATTERN_FILL
  6
CONTINUOUS
 62
     7
 10
-407.8023572339018
 20
-135.5999999995038
 30
0.0
 40
1.503159791081657
  0
CIRCLE
  5
1EC
  8
PATTERN_FILL
  6
CONTINUOUS
 62
     7
 10
-402.6055170249836
 20
-135.5999999995038
 30
0.0
 40
1.503159791081771
  0
CIRCLE
  5
1ED
  8
PATTERN_FILL
  6
CONTINUOUS
 62
     7
 10
-392.2023572339007
 20
-135.5999999995038
 30
0.0
 40
1.503159791081657
  0
CIRCLE
  5
1EE
  8
PATTERN_FILL
  6
CONTINUOUS
 62
     7
 10
-397.3991974428189
 20
-135.5999999995038
 30
0.0
 40
1.503159791081544
  0
CIRCLE
  5
1EF
  8
PATTERN_FILL
  6
CONTINUOUS
 62
     7
 10
-405.2055170249833
 20
-138.1999999995151
 30
0.0
 40
1.503159791081771
  0
CIRCLE
  5
1F0
  8
PATTERN_FILL
  6
CONTINUOUS
 62
     7
 10
-400.008676816065
 20
-138.1999999995151
 30
0.0
 40
1.503159791081771
  0
CIRCLE
  5
1F1
  8
PATTERN_FILL
  6
CONTINUOUS
 62
     7
 10
-394.8023572339004
 20
-138.1999999995151
 30
0.0
 40
1.503159791081657
  0
CIRCLE
  5
1F2
  8
PATTERN_FILL
  6
CONTINUOUS
 62
     7
 10
-407.8023572339018
 20
-109.599999999391
 30
0.0
 40
1.503159791081657
  0
CIRCLE
  5
1F3
  8
PATTERN_FILL
  6
CONTINUOUS
 62
     7
 10
-402.6055170249836
 20
-109.599999999391
 30
0.0
 40
1.503159791081771
  0
CIRCLE
  5
1F4
  8
PATTERN_FILL
  6
CONTINUOUS
 62
     7
 10
-392.2023572339007
 20
-109.599999999391
 30
0.0
 40
1.503159791081657
  0
CIRCLE
  5
1F5
  8
PATTERN_FILL
  6
CONTINUOUS
 62
     7
 10
-397.3991974428189
 20
-109.599999999391
 30
0.0
 40
1.503159791081544
  0
CIRCLE
  5
1F6
  8
PATTERN_FILL
  6
CONTINUOUS
 62
     7
 10
-405.2055170249833
 20
-112.1999999994023
 30
0.0
 40
1.503159791081771
  0
CIRCLE
  5
1F7
  8
PATTERN_FILL
  6
CONTINUOUS
 62
     7
 10
-400.008676816065
 20
-112.1999999994023
 30
0.0
 40
1.503159791081771
  0
CIRCLE
  5
1F8
  8
PATTERN_FILL
  6
CONTINUOUS
 62
     7
 10
-394.8023572339004
 20
-112.1999999994023
 30
0.0
 40
1.503159791081657
  0
CIRCLE
  5
1F9
  8
PATTERN_FILL
  6
CONTINUOUS
 62
     7
 10
-407.8023572339018
 20
-114.7999999994136
 30
0.0
 40
1.503159791081657
  0
CIRCLE
  5
1FA
  8
PATTERN_FILL
  6
CONTINUOUS
 62
     7
 10
-402.6055170249836
 20
-114.7999999994136
 30
0.0
 40
1.503159791081771
  0
CIRCLE
  5
1FB
  8
PATTERN_FILL
  6
CONTINUOUS
 62
     7
 10
-392.2023572339007
 20
-114.7999999994136
 30
0.0
 40
1.503159791081657
  0
CIRCLE
  5
1FC
  8
PATTERN_FILL
  6
CONTINUOUS
 62
     7
 10
-397.3991974428189
 20
-114.7999999994136
 30
0.0
 40
1.503159791081544
  0
CIRCLE
  5
1FD
  8
PATTERN_FILL
  6
CONTINUOUS
 62
     7
 10
-407.8023572339018
 20
-119.9999999994361
 30
0.0
 40
1.503159791081657
  0
CIRCLE
  5
1FE
  8
PATTERN_FILL
  6
CONTINUOUS
 62
     7
 10
-402.6055170249836
 20
-119.9999999994361
 30
0.0
 40
1.503159791081771
  0
CIRCLE
  5
1FF
  8
PATTERN_FILL
  6
CONTINUOUS
 62
     7
 10
-392.2023572339007
 20
-119.9999999994361
 30
0.0
 40
1.503159791081657
  0
CIRCLE
  5
200
  8
PATTERN_FILL
  6
CONTINUOUS
 62
     7
 10
-397.3991974428189
 20
-119.9999999994361
 30
0.0
 40
1.503159791081544
  0
CIRCLE
  5
201
  8
PATTERN_FILL
  6
CONTINUOUS
 62
     7
 10
-405.2055170249833
 20
-117.3999999994248
 30
0.0
 40
1.503159791081771
  0
CIRCLE
  5
202
  8
PATTERN_FILL
  6
CONTINUOUS
 62
     7
 10
-400.008676816065
 20
-117.3999999994248
 30
0.0
 40
1.503159791081771
  0
CIRCLE
  5
203
  8
PATTERN_FILL
  6
CONTINUOUS
 62
     7
 10
-394.8023572339004
 20
-117.3999999994248
 30
0.0
 40
1.503159791081657
  0
CIRCLE
  5
204
  8
PATTERN_FILL
  6
CONTINUOUS
 62
     7
 10
-405.2055170249833
 20
-127.7999999994699
 30
0.0
 40
1.503159791081771
  0
CIRCLE
  5
205
  8
PATTERN_FILL
  6
CONTINUOUS
 62
     7
 10
-400.008676816065
 20
-127.7999999994699
 30
0.0
 40
1.503159791081771
  0
CIRCLE
  5
206
  8
PATTERN_FILL
  6
CONTINUOUS
 62
     7
 10
-394.8023572339004
 20
-127.7999999994699
 30
0.0
 40
1.503159791081657
  0
CIRCLE
  5
207
  8
PATTERN_FILL
  6
CONTINUOUS
 62
     7
 10
-407.8023572339018
 20
-125.1999999994587
 30
0.0
 40
1.503159791081657
  0
CIRCLE
  5
208
  8
PATTERN_FILL
  6
CONTINUOUS
 62
     7
 10
-402.6055170249836
 20
-125.1999999994587
 30
0.0
 40
1.503159791081771
  0
CIRCLE
  5
209
  8
PATTERN_FILL
  6
CONTINUOUS
 62
     7
 10
-392.2023572339007
 20
-125.1999999994587
 30
0.0
 40
1.503159791081657
  0
CIRCLE
  5
20A
  8
PATTERN_FILL
  6
CONTINUOUS
 62
     7
 10
-397.3991974428189
 20
-125.1999999994587
 30
0.0
 40
1.503159791081544
  0
CIRCLE
  5
20B
  8
PATTERN_FILL
  6
CONTINUOUS
 62
     7
 10
-405.2055170249833
 20
-122.5999999994474
 30
0.0
 40
1.503159791081771
  0
CIRCLE
  5
20C
  8
PATTERN_FILL
  6
CONTINUOUS
 62
     7
 10
-400.008676816065
 20
-122.5999999994474
 30
0.0
 40
1.503159791081771
  0
CIRCLE
  5
20D
  8
PATTERN_FILL
  6
CONTINUOUS
 62
     7
 10
-394.8023572339004
 20
-122.5999999994474
 30
0.0
 40
1.503159791081657
  0
CIRCLE
  5
20E
  8
PATTERN_FILL
  6
CONTINUOUS
 62
     7
 10
-405.2055170249833
 20
-70.59999999922184
 30
0.0
 40
1.503159791081771
  0
CIRCLE
  5
20F
  8
PATTERN_FILL
  6
CONTINUOUS
 62
     7
 10
-400.008676816065
 20
-70.59999999922184
 30
0.0
 40
1.503159791081771
  0
CIRCLE
  5
210
  8
PATTERN_FILL
  6
CONTINUOUS
 62
     7
 10
-394.8023572339004
 20
-70.59999999922184
 30
0.0
 40
1.503159791081657
  0
CIRCLE
  5
211
  8
PATTERN_FILL
  6
CONTINUOUS
 62
     7
 10
-407.8023572339018
 20
-73.19999999923311
 30
0.0
 40
1.503159791081657
  0
CIRCLE
  5
212
  8
PATTERN_FILL
  6
CONTINUOUS
 62
     7
 10
-402.6055170249836
 20
-73.19999999923311
 30
0.0
 40
1.503159791081771
  0
CIRCLE
  5
213
  8
PATTERN_FILL
  6
CONTINUOUS
 62
     7
 10
-392.2023572339007
 20
-73.19999999923311
 30
0.0
 40
1.503159791081657
  0
CIRCLE
  5
214
  8
PATTERN_FILL
  6
CONTINUOUS
 62
     7
 10
-397.3991974428189
 20
-73.19999999923311
 30
0.0
 40
1.503159791081544
  0
CIRCLE
  5
215
  8
PATTERN_FILL
  6
CONTINUOUS
 62
     7
 10
-407.8023572339018
 20
-78.39999999925567
 30
0.0
 40
1.503159791081657
  0
CIRCLE
  5
216
  8
PATTERN_FILL
  6
CONTINUOUS
 62
     7
 10
-402.6055170249836
 20
-78.39999999925567
 30
0.0
 40
1.503159791081771
  0
CIRCLE
  5
217
  8
PATTERN_FILL
  6
CONTINUOUS
 62
     7
 10
-392.2023572339007
 20
-78.39999999925567
 30
0.0
 40
1.503159791081657
  0
CIRCLE
  5
218
  8
PATTERN_FILL
  6
CONTINUOUS
 62
     7
 10
-397.3991974428189
 20
-78.39999999925567
 30
0.0
 40
1.503159791081544
  0
CIRCLE
  5
219
  8
PATTERN_FILL
  6
CONTINUOUS
 62
     7
 10
-405.2055170249833
 20
-75.79999999924439
 30
0.0
 40
1.503159791081771
  0
CIRCLE
  5
21A
  8
PATTERN_FILL
  6
CONTINUOUS
 62
     7
 10
-400.008676816065
 20
-75.79999999924439
 30
0.0
 40
1.503159791081771
  0
CIRCLE
  5
21B
  8
PATTERN_FILL
  6
CONTINUOUS
 62
     7
 10
-394.8023572339004
 20
-75.79999999924439
 30
0.0
 40
1.503159791081657
  0
CIRCLE
  5
21C
  8
PATTERN_FILL
  6
CONTINUOUS
 62
     7
 10
-407.8023572339018
 20
-88.79999999930078
 30
0.0
 40
1.503159791081657
  0
CIRCLE
  5
21D
  8
PATTERN_FILL
  6
CONTINUOUS
 62
     7
 10
-402.6055170249836
 20
-88.79999999930078
 30
0.0
 40
1.503159791081771
  0
CIRCLE
  5
21E
  8
PATTERN_FILL
  6
CONTINUOUS
 62
     7
 10
-392.2023572339007
 20
-88.79999999930078
 30
0.0
 40
1.503159791081657
  0
CIRCLE
  5
21F
  8
PATTERN_FILL
  6
CONTINUOUS
 62
     7
 10
-397.3991974428189
 20
-88.79999999930078
 30
0.0
 40
1.503159791081544
  0
CIRCLE
  5
220
  8
PATTERN_FILL
  6
CONTINUOUS
 62
     7
 10
-405.2055170249833
 20
-86.1999999992895
 30
0.0
 40
1.503159791081771
  0
CIRCLE
  5
221
  8
PATTERN_FILL
  6
CONTINUOUS
 62
     7
 10
-400.008676816065
 20
-86.1999999992895
 30
0.0
 40
1.503159791081771
  0
CIRCLE
  5
222
  8
PATTERN_FILL
  6
CONTINUOUS
 62
     7
 10
-394.8023572339004
 20
-86.1999999992895
 30
0.0
 40
1.503159791081657
  0
CIRCLE
  5
223
  8
PATTERN_FILL
  6
CONTINUOUS
 62
     7
 10
-407.8023572339018
 20
-83.59999999927823
 30
0.0
 40
1.503159791081657
  0
CIRCLE
  5
224
  8
PATTERN_FILL
  6
CONTINUOUS
 62
     7
 10
-402.6055170249836
 20
-83.59999999927823
 30
0.0
 40
1.503159791081771
  0
CIRCLE
  5
225
  8
PATTERN_FILL
  6
CONTINUOUS
 62
     7
 10
-392.2023572339007
 20
-83.59999999927823
 30
0.0
 40
1.503159791081657
  0
CIRCLE
  5
226
  8
PATTERN_FILL
  6
CONTINUOUS
 62
     7
 10
-397.3991974428189
 20
-83.59999999927823
 30
0.0
 40
1.503159791081544
  0
CIRCLE
  5
227
  8
PATTERN_FILL
  6
CONTINUOUS
 62
     7
 10
-405.2055170249833
 20
-80.99999999926695
 30
0.0
 40
1.503159791081771
  0
CIRCLE
  5
228
  8
PATTERN_FILL
  6
CONTINUOUS
 62
     7
 10
-400.008676816065
 20
-80.99999999926695
 30
0.0
 40
1.503159791081771
  0
CIRCLE
  5
229
  8
PATTERN_FILL
  6
CONTINUOUS
 62
     7
 10
-394.8023572339004
 20
-80.99999999926695
 30
0.0
 40
1.503159791081657
  0
CIRCLE
  5
22A
  8
PATTERN_FILL
  6
CONTINUOUS
 62
     7
 10
-405.2055170249833
 20
-106.9999999993797
 30
0.0
 40
1.503159791081771
  0
CIRCLE
  5
22B
  8
PATTERN_FILL
  6
CONTINUOUS
 62
     7
 10
-400.008676816065
 20
-106.9999999993797
 30
0.0
 40
1.503159791081771
  0
CIRCLE
  5
22C
  8
PATTERN_FILL
  6
CONTINUOUS
 62
     7
 10
-394.8023572339004
 20
-106.9999999993797
 30
0.0
 40
1.503159791081657
  0
CIRCLE
  5
22D
  8
PATTERN_FILL
  6
CONTINUOUS
 62
     7
 10
-407.8023572339018
 20
-104.3999999993684
 30
0.0
 40
1.503159791081657
  0
CIRCLE
  5
22E
  8
PATTERN_FILL
  6
CONTINUOUS
 62
     7
 10
-402.6055170249836
 20
-104.3999999993684
 30
0.0
 40
1.503159791081771
  0
CIRCLE
  5
22F
  8
PATTERN_FILL
  6
CONTINUOUS
 62
     7
 10
-392.2023572339007
 20
-104.3999999993684
 30
0.0
 40
1.503159791081657
  0
CIRCLE
  5
230
  8
PATTERN_FILL
  6
CONTINUOUS
 62
     7
 10
-397.3991974428189
 20
-104.3999999993684
 30
0.0
 40
1.503159791081544
  0
CIRCLE
  5
231
  8
PATTERN_FILL
  6
CONTINUOUS
 62
     7
 10
-407.8023572339018
 20
-99.19999999934589
 30
0.0
 40
1.503159791081657
  0
CIRCLE
  5
232
  8
PATTERN_FILL
  6
CONTINUOUS
 62
     7
 10
-402.6055170249836
 20
-99.19999999934589
 30
0.0
 40
1.503159791081771
  0
CIRCLE
  5
233
  8
PATTERN_FILL
  6
CONTINUOUS
 62
     7
 10
-392.2023572339007
 20
-99.19999999934589
 30
0.0
 40
1.503159791081657
  0
CIRCLE
  5
234
  8
PATTERN_FILL
  6
CONTINUOUS
 62
     7
 10
-397.3991974428189
 20
-99.19999999934589
 30
0.0
 40
1.503159791081544
  0
CIRCLE
  5
235
  8
PATTERN_FILL
  6
CONTINUOUS
 62
     7
 10
-405.2055170249833
 20
-101.7999999993572
 30
0.0
 40
1.503159791081771
  0
CIRCLE
  5
236
  8
PATTERN_FILL
  6
CONTINUOUS
 62
     7
 10
-400.008676816065
 20
-101.7999999993572
 30
0.0
 40
1.503159791081771
  0
CIRCLE
  5
237
  8
PATTERN_FILL
  6
CONTINUOUS
 62
     7
 10
-394.8023572339004
 20
-101.7999999993572
 30
0.0
 40
1.503159791081657
  0
CIRCLE
  5
238
  8
PATTERN_FILL
  6
CONTINUOUS
 62
     7
 10
-405.2055170249833
 20
-91.39999999931206
 30
0.0
 40
1.503159791081771
  0
CIRCLE
  5
239
  8
PATTERN_FILL
  6
CONTINUOUS
 62
     7
 10
-400.008676816065
 20
-91.39999999931206
 30
0.0
 40
1.503159791081771
  0
CIRCLE
  5
23A
  8
PATTERN_FILL
  6
CONTINUOUS
 62
     7
 10
-394.8023572339004
 20
-91.39999999931206
 30
0.0
 40
1.503159791081657
  0
CIRCLE
  5
23B
  8
PATTERN_FILL
  6
CONTINUOUS
 62
     7
 10
-407.8023572339018
 20
-93.99999999932334
 30
0.0
 40
1.503159791081657
  0
CIRCLE
  5
23C
  8
PATTERN_FILL
  6
CONTINUOUS
 62
     7
 10
-402.6055170249836
 20
-93.99999999932334
 30
0.0
 40
1.503159791081771
  0
CIRCLE
  5
23D
  8
PATTERN_FILL
  6
CONTINUOUS
 62
     7
 10
-392.2023572339007
 20
-93.99999999932334
 30
0.0
 40
1.503159791081657
  0
CIRCLE
  5
23E
  8
PATTERN_FILL
  6
CONTINUOUS
 62
     7
 10
-397.3991974428189
 20
-93.99999999932334
 30
0.0
 40
1.503159791081544
  0
CIRCLE
  5
23F
  8
PATTERN_FILL
  6
CONTINUOUS
 62
     7
 10
-405.2055170249833
 20
-96.59999999933461
 30
0.0
 40
1.503159791081771
  0
CIRCLE
  5
240
  8
PATTERN_FILL
  6
CONTINUOUS
 62
     7
 10
-400.008676816065
 20
-96.59999999933461
 30
0.0
 40
1.503159791081771
  0
CIRCLE
  5
241
  8
PATTERN_FILL
  6
CONTINUOUS
 62
     7
 10
-394.8023572339004
 20
-96.59999999933461
 30
0.0
 40
1.503159791081657
  0
CIRCLE
  5
242
  8
PATTERN_FILL
  6
CONTINUOUS
 62
     7
 10
-405.2055170249833
 20
-320.2000000003045
 30
0.0
 40
1.503159791081771
  0
CIRCLE
  5
243
  8
PATTERN_FILL
  6
CONTINUOUS
 62
     7
 10
-400.008676816065
 20
-320.2000000003045
 30
0.0
 40
1.503159791081771
  0
CIRCLE
  5
244
  8
PATTERN_FILL
  6
CONTINUOUS
 62
     7
 10
-394.8023572339004
 20
-320.2000000003045
 30
0.0
 40
1.503159791081657
  0
CIRCLE
  5
245
  8
PATTERN_FILL
  6
CONTINUOUS
 62
     7
 10
-407.8023572339018
 20
-322.8000000003158
 30
0.0
 40
1.503159791081657
  0
CIRCLE
  5
246
  8
PATTERN_FILL
  6
CONTINUOUS
 62
     7
 10
-402.6055170249836
 20
-322.8000000003158
 30
0.0
 40
1.503159791081771
  0
CIRCLE
  5
247
  8
PATTERN_FILL
  6
CONTINUOUS
 62
     7
 10
-392.2023572339007
 20
-322.8000000003158
 30
0.0
 40
1.503159791081657
  0
CIRCLE
  5
248
  8
PATTERN_FILL
  6
CONTINUOUS
 62
     7
 10
-397.3991974428189
 20
-322.8000000003158
 30
0.0
 40
1.503159791081544
  0
CIRCLE
  5
249
  8
PATTERN_FILL
  6
CONTINUOUS
 62
     7
 10
-407.8023572339018
 20
-328.0000000003383
 30
0.0
 40
1.503159791081657
  0
CIRCLE
  5
24A
  8
PATTERN_FILL
  6
CONTINUOUS
 62
     7
 10
-402.6055170249836
 20
-328.0000000003383
 30
0.0
 40
1.503159791081771
  0
CIRCLE
  5
24B
  8
PATTERN_FILL
  6
CONTINUOUS
 62
     7
 10
-392.2023572339007
 20
-328.0000000003383
 30
0.0
 40
1.503159791081657
  0
CIRCLE
  5
24C
  8
PATTERN_FILL
  6
CONTINUOUS
 62
     7
 10
-397.3991974428189
 20
-328.0000000003383
 30
0.0
 40
1.503159791081544
  0
CIRCLE
  5
24D
  8
PATTERN_FILL
  6
CONTINUOUS
 62
     7
 10
-405.2055170249833
 20
-325.4000000003271
 30
0.0
 40
1.503159791081771
  0
CIRCLE
  5
24E
  8
PATTERN_FILL
  6
CONTINUOUS
 62
     7
 10
-400.008676816065
 20
-325.4000000003271
 30
0.0
 40
1.503159791081771
  0
CIRCLE
  5
24F
  8
PATTERN_FILL
  6
CONTINUOUS
 62
     7
 10
-394.8023572339004
 20
-325.4000000003271
 30
0.0
 40
1.503159791081657
  0
CIRCLE
  5
250
  8
PATTERN_FILL
  6
CONTINUOUS
 62
     7
 10
-407.8023572339018
 20
-338.4000000003834
 30
0.0
 40
1.503159791081657
  0
CIRCLE
  5
251
  8
PATTERN_FILL
  6
CONTINUOUS
 62
     7
 10
-402.6055170249836
 20
-338.4000000003834
 30
0.0
 40
1.503159791081771
  0
CIRCLE
  5
252
  8
PATTERN_FILL
  6
CONTINUOUS
 62
     7
 10
-392.2023572339007
 20
-338.4000000003834
 30
0.0
 40
1.503159791081657
  0
CIRCLE
  5
253
  8
PATTERN_FILL
  6
CONTINUOUS
 62
     7
 10
-397.3991974428189
 20
-338.4000000003834
 30
0.0
 40
1.503159791081544
  0
CIRCLE
  5
254
  8
PATTERN_FILL
  6
CONTINUOUS
 62
     7
 10
-405.2055170249833
 20
-335.8000000003722
 30
0.0
 40
1.503159791081771
  0
CIRCLE
  5
255
  8
PATTERN_FILL
  6
CONTINUOUS
 62
     7
 10
-400.008676816065
 20
-335.8000000003722
 30
0.0
 40
1.503159791081771
  0
CIRCLE
  5
256
  8
PATTERN_FILL
  6
CONTINUOUS
 62
     7
 10
-394.8023572339004
 20
-335.8000000003722
 30
0.0
 40
1.503159791081657
  0
CIRCLE
  5
257
  8
PATTERN_FILL
  6
CONTINUOUS
 62
     7
 10
-407.8023572339018
 20
-333.2000000003609
 30
0.0
 40
1.503159791081657
  0
CIRCLE
  5
258
  8
PATTERN_FILL
  6
CONTINUOUS
 62
     7
 10
-402.6055170249836
 20
-333.2000000003609
 30
0.0
 40
1.503159791081771
  0
CIRCLE
  5
259
  8
PATTERN_FILL
  6
CONTINUOUS
 62
     7
 10
-392.2023572339007
 20
-333.2000000003609
 30
0.0
 40
1.503159791081657
  0
CIRCLE
  5
25A
  8
PATTERN_FILL
  6
CONTINUOUS
 62
     7
 10
-397.3991974428189
 20
-333.2000000003609
 30
0.0
 40
1.503159791081544
  0
CIRCLE
  5
25B
  8
PATTERN_FILL
  6
CONTINUOUS
 62
     7
 10
-405.2055170249833
 20
-330.6000000003496
 30
0.0
 40
1.503159791081771
  0
CIRCLE
  5
25C
  8
PATTERN_FILL
  6
CONTINUOUS
 62
     7
 10
-400.008676816065
 20
-330.6000000003496
 30
0.0
 40
1.503159791081771
  0
CIRCLE
  5
25D
  8
PATTERN_FILL
  6
CONTINUOUS
 62
     7
 10
-394.8023572339004
 20
-330.6000000003496
 30
0.0
 40
1.503159791081657
  0
CIRCLE
  5
25E
  8
PATTERN_FILL
  6
CONTINUOUS
 62
     7
 10
-407.8023572339018
 20
-359.2000000004737
 30
0.0
 40
1.503159791081657
  0
CIRCLE
  5
25F
  8
PATTERN_FILL
  6
CONTINUOUS
 62
     7
 10
-402.6055170249836
 20
-359.2000000004737
 30
0.0
 40
1.503159791081771
  0
CIRCLE
  5
260
  8
PATTERN_FILL
  6
CONTINUOUS
 62
     7
 10
-392.2023572339007
 20
-359.2000000004737
 30
0.0
 40
1.503159791081657
  0
CIRCLE
  5
261
  8
PATTERN_FILL
  6
CONTINUOUS
 62
     7
 10
-397.3991974428189
 20
-359.2000000004737
 30
0.0
 40
1.503159791081544
  0
CIRCLE
  5
262
  8
PATTERN_FILL
  6
CONTINUOUS
 62
     7
 10
-405.2055170249833
 20
-356.6000000004624
 30
0.0
 40
1.503159791081771
  0
CIRCLE
  5
263
  8
PATTERN_FILL
  6
CONTINUOUS
 62
     7
 10
-400.008676816065
 20
-356.6000000004624
 30
0.0
 40
1.503159791081771
  0
CIRCLE
  5
264
  8
PATTERN_FILL
  6
CONTINUOUS
 62
     7
 10
-394.8023572339004
 20
-356.6000000004624
 30
0.0
 40
1.503159791081657
  0
CIRCLE
  5
265
  8
PATTERN_FILL
  6
CONTINUOUS
 62
     7
 10
-407.8023572339018
 20
-354.0000000004511
 30
0.0
 40
1.503159791081657
  0
CIRCLE
  5
266
  8
PATTERN_FILL
  6
CONTINUOUS
 62
     7
 10
-402.6055170249836
 20
-354.0000000004511
 30
0.0
 40
1.503159791081771
  0
CIRCLE
  5
267
  8
PATTERN_FILL
  6
CONTINUOUS
 62
     7
 10
-392.2023572339007
 20
-354.0000000004511
 30
0.0
 40
1.503159791081657
  0
CIRCLE
  5
268
  8
PATTERN_FILL
  6
CONTINUOUS
 62
     7
 10
-397.3991974428189
 20
-354.0000000004511
 30
0.0
 40
1.503159791081544
  0
CIRCLE
  5
269
  8
PATTERN_FILL
  6
CONTINUOUS
 62
     7
 10
-407.8023572339018
 20
-348.8000000004286
 30
0.0
 40
1.503159791081657
  0
CIRCLE
  5
26A
  8
PATTERN_FILL
  6
CONTINUOUS
 62
     7
 10
-402.6055170249836
 20
-348.8000000004286
 30
0.0
 40
1.503159791081771
  0
CIRCLE
  5
26B
  8
PATTERN_FILL
  6
CONTINUOUS
 62
     7
 10
-392.2023572339007
 20
-348.8000000004286
 30
0.0
 40
1.503159791081657
  0
CIRCLE
  5
26C
  8
PATTERN_FILL
  6
CONTINUOUS
 62
     7
 10
-397.3991974428189
 20
-348.8000000004286
 30
0.0
 40
1.503159791081544
  0
CIRCLE
  5
26D
  8
PATTERN_FILL
  6
CONTINUOUS
 62
     7
 10
-405.2055170249833
 20
-351.4000000004398
 30
0.0
 40
1.503159791081771
  0
CIRCLE
  5
26E
  8
PATTERN_FILL
  6
CONTINUOUS
 62
     7
 10
-400.008676816065
 20
-351.4000000004398
 30
0.0
 40
1.503159791081771
  0
CIRCLE
  5
26F
  8
PATTERN_FILL
  6
CONTINUOUS
 62
     7
 10
-394.8023572339004
 20
-351.4000000004398
 30
0.0
 40
1.503159791081657
  0
CIRCLE
  5
270
  8
PATTERN_FILL
  6
CONTINUOUS
 62
     7
 10
-405.2055170249833
 20
-341.0000000003947
 30
0.0
 40
1.503159791081771
  0
CIRCLE
  5
271
  8
PATTERN_FILL
  6
CONTINUOUS
 62
     7
 10
-400.008676816065
 20
-341.0000000003947
 30
0.0
 40
1.503159791081771
  0
CIRCLE
  5
272
  8
PATTERN_FILL
  6
CONTINUOUS
 62
     7
 10
-394.8023572339004
 20
-341.0000000003947
 30
0.0
 40
1.503159791081657
  0
CIRCLE
  5
273
  8
PATTERN_FILL
  6
CONTINUOUS
 62
     7
 10
-407.8023572339018
 20
-343.600000000406
 30
0.0
 40
1.503159791081657
  0
CIRCLE
  5
274
  8
PATTERN_FILL
  6
CONTINUOUS
 62
     7
 10
-402.6055170249836
 20
-343.600000000406
 30
0.0
 40
1.503159791081771
  0
CIRCLE
  5
275
  8
PATTERN_FILL
  6
CONTINUOUS
 62
     7
 10
-392.2023572339007
 20
-343.600000000406
 30
0.0
 40
1.503159791081657
  0
CIRCLE
  5
276
  8
PATTERN_FILL
  6
CONTINUOUS
 62
     7
 10
-397.3991974428189
 20
-343.600000000406
 30
0.0
 40
1.503159791081544
  0
CIRCLE
  5
277
  8
PATTERN_FILL
  6
CONTINUOUS
 62
     7
 10
-405.2055170249833
 20
-346.2000000004173
 30
0.0
 40
1.503159791081771
  0
CIRCLE
  5
278
  8
PATTERN_FILL
  6
CONTINUOUS
 62
     7
 10
-400.008676816065
 20
-346.2000000004173
 30
0.0
 40
1.503159791081771
  0
CIRCLE
  5
279
  8
PATTERN_FILL
  6
CONTINUOUS
 62
     7
 10
-394.8023572339004
 20
-346.2000000004173
 30
0.0
 40
1.503159791081657
  0
CIRCLE
  5
27A
  8
PATTERN_FILL
  6
CONTINUOUS
 62
     7
 10
-407.8023572339018
 20
-400.8000000006541
 30
0.0
 40
1.503159791081657
  0
CIRCLE
  5
27B
  8
PATTERN_FILL
  6
CONTINUOUS
 62
     7
 10
-402.6055170249836
 20
-400.8000000006541
 30
0.0
 40
1.503159791081771
  0
CIRCLE
  5
27C
  8
PATTERN_FILL
  6
CONTINUOUS
 62
     7
 10
-392.2023572339007
 20
-400.8000000006541
 30
0.0
 40
1.503159791081657
  0
CIRCLE
  5
27D
  8
PATTERN_FILL
  6
CONTINUOUS
 62
     7
 10
-397.3991974428189
 20
-400.8000000006541
 30
0.0
 40
1.503159791081544
  0
CIRCLE
  5
27E
  8
PATTERN_FILL
  6
CONTINUOUS
 62
     7
 10
-405.2055170249833
 20
-398.2000000006428
 30
0.0
 40
1.503159791081771
  0
CIRCLE
  5
27F
  8
PATTERN_FILL
  6
CONTINUOUS
 62
     7
 10
-400.008676816065
 20
-398.2000000006428
 30
0.0
 40
1.503159791081771
  0
CIRCLE
  5
280
  8
PATTERN_FILL
  6
CONTINUOUS
 62
     7
 10
-394.8023572339004
 20
-398.2000000006428
 30
0.0
 40
1.503159791081657
  0
CIRCLE
  5
281
  8
PATTERN_FILL
  6
CONTINUOUS
 62
     7
 10
-407.8023572339018
 20
-395.6000000006316
 30
0.0
 40
1.503159791081657
  0
CIRCLE
  5
282
  8
PATTERN_FILL
  6
CONTINUOUS
 62
     7
 10
-402.6055170249836
 20
-395.6000000006316
 30
0.0
 40
1.503159791081771
  0
CIRCLE
  5
283
  8
PATTERN_FILL
  6
CONTINUOUS
 62
     7
 10
-392.2023572339007
 20
-395.6000000006316
 30
0.0
 40
1.503159791081657
  0
CIRCLE
  5
284
  8
PATTERN_FILL
  6
CONTINUOUS
 62
     7
 10
-397.3991974428189
 20
-395.6000000006316
 30
0.0
 40
1.503159791081544
  0
CIRCLE
  5
285
  8
PATTERN_FILL
  6
CONTINUOUS
 62
     7
 10
-407.8023572339018
 20
-390.400000000609
 30
0.0
 40
1.503159791081657
  0
CIRCLE
  5
286
  8
PATTERN_FILL
  6
CONTINUOUS
 62
     7
 10
-402.6055170249836
 20
-390.400000000609
 30
0.0
 40
1.503159791081771
  0
CIRCLE
  5
287
  8
PATTERN_FILL
  6
CONTINUOUS
 62
     7
 10
-392.2023572339007
 20
-390.400000000609
 30
0.0
 40
1.503159791081657
  0
CIRCLE
  5
288
  8
PATTERN_FILL
  6
CONTINUOUS
 62
     7
 10
-397.3991974428189
 20
-390.400000000609
 30
0.0
 40
1.503159791081544
  0
CIRCLE
  5
289
  8
PATTERN_FILL
  6
CONTINUOUS
 62
     7
 10
-405.2055170249833
 20
-393.0000000006203
 30
0.0
 40
1.503159791081771
  0
CIRCLE
  5
28A
  8
PATTERN_FILL
  6
CONTINUOUS
 62
     7
 10
-400.008676816065
 20
-393.0000000006203
 30
0.0
 40
1.503159791081771
  0
CIRCLE
  5
28B
  8
PATTERN_FILL
  6
CONTINUOUS
 62
     7
 10
-394.8023572339004
 20
-393.0000000006203
 30
0.0
 40
1.503159791081657
  0
CIRCLE
  5
28C
  8
PATTERN_FILL
  6
CONTINUOUS
 62
     7
 10
-407.8023572339018
 20
-380.0000000005639
 30
0.0
 40
1.503159791081657
  0
CIRCLE
  5
28D
  8
PATTERN_FILL
  6
CONTINUOUS
 62
     7
 10
-402.6055170249836
 20
-380.0000000005639
 30
0.0
 40
1.503159791081771
  0
CIRCLE
  5
28E
  8
PATTERN_FILL
  6
CONTINUOUS
 62
     7
 10
-392.2023572339007
 20
-380.0000000005639
 30
0.0
 40
1.503159791081657
  0
CIRCLE
  5
28F
  8
PATTERN_FILL
  6
CONTINUOUS
 62
     7
 10
-397.3991974428189
 20
-380.0000000005639
 30
0.0
 40
1.503159791081544
  0
CIRCLE
  5
290
  8
PATTERN_FILL
  6
CONTINUOUS
 62
     7
 10
-405.2055170249833
 20
-382.6000000005752
 30
0.0
 40
1.503159791081771
  0
CIRCLE
  5
291
  8
PATTERN_FILL
  6
CONTINUOUS
 62
     7
 10
-400.008676816065
 20
-382.6000000005752
 30
0.0
 40
1.503159791081771
  0
CIRCLE
  5
292
  8
PATTERN_FILL
  6
CONTINUOUS
 62
     7
 10
-394.8023572339004
 20
-382.6000000005752
 30
0.0
 40
1.503159791081657
  0
CIRCLE
  5
293
  8
PATTERN_FILL
  6
CONTINUOUS
 62
     7
 10
-407.8023572339018
 20
-385.2000000005864
 30
0.0
 40
1.503159791081657
  0
CIRCLE
  5
294
  8
PATTERN_FILL
  6
CONTINUOUS
 62
     7
 10
-402.6055170249836
 20
-385.2000000005864
 30
0.0
 40
1.503159791081771
  0
CIRCLE
  5
295
  8
PATTERN_FILL
  6
CONTINUOUS
 62
     7
 10
-392.2023572339007
 20
-385.2000000005864
 30
0.0
 40
1.503159791081657
  0
CIRCLE
  5
296
  8
PATTERN_FILL
  6
CONTINUOUS
 62
     7
 10
-397.3991974428189
 20
-385.2000000005864
 30
0.0
 40
1.503159791081544
  0
CIRCLE
  5
297
  8
PATTERN_FILL
  6
CONTINUOUS
 62
     7
 10
-405.2055170249833
 20
-387.8000000005977
 30
0.0
 40
1.503159791081771
  0
CIRCLE
  5
298
  8
PATTERN_FILL
  6
CONTINUOUS
 62
     7
 10
-400.008676816065
 20
-387.8000000005977
 30
0.0
 40
1.503159791081771
  0
CIRCLE
  5
299
  8
PATTERN_FILL
  6
CONTINUOUS
 62
     7
 10
-394.8023572339004
 20
-387.8000000005977
 30
0.0
 40
1.503159791081657
  0
CIRCLE
  5
29A
  8
PATTERN_FILL
  6
CONTINUOUS
 62
     7
 10
-405.2055170249833
 20
-361.8000000004849
 30
0.0
 40
1.503159791081771
  0
CIRCLE
  5
29B
  8
PATTERN_FILL
  6
CONTINUOUS
 62
     7
 10
-400.008676816065
 20
-361.8000000004849
 30
0.0
 40
1.503159791081771
  0
CIRCLE
  5
29C
  8
PATTERN_FILL
  6
CONTINUOUS
 62
     7
 10
-394.8023572339004
 20
-361.8000000004849
 30
0.0
 40
1.503159791081657
  0
CIRCLE
  5
29D
  8
PATTERN_FILL
  6
CONTINUOUS
 62
     7
 10
-407.8023572339018
 20
-364.4000000004962
 30
0.0
 40
1.503159791081657
  0
CIRCLE
  5
29E
  8
PATTERN_FILL
  6
CONTINUOUS
 62
     7
 10
-402.6055170249836
 20
-364.4000000004962
 30
0.0
 40
1.503159791081771
  0
CIRCLE
  5
29F
  8
PATTERN_FILL
  6
CONTINUOUS
 62
     7
 10
-392.2023572339007
 20
-364.4000000004962
 30
0.0
 40
1.503159791081657
  0
CIRCLE
  5
2A0
  8
PATTERN_FILL
  6
CONTINUOUS
 62
     7
 10
-397.3991974428189
 20
-364.4000000004962
 30
0.0
 40
1.503159791081544
  0
CIRCLE
  5
2A1
  8
PATTERN_FILL
  6
CONTINUOUS
 62
     7
 10
-407.8023572339018
 20
-369.6000000005188
 30
0.0
 40
1.503159791081657
  0
CIRCLE
  5
2A2
  8
PATTERN_FILL
  6
CONTINUOUS
 62
     7
 10
-402.6055170249836
 20
-369.6000000005188
 30
0.0
 40
1.503159791081771
  0
CIRCLE
  5
2A3
  8
PATTERN_FILL
  6
CONTINUOUS
 62
     7
 10
-392.2023572339007
 20
-369.6000000005188
 30
0.0
 40
1.503159791081657
  0
CIRCLE
  5
2A4
  8
PATTERN_FILL
  6
CONTINUOUS
 62
     7
 10
-397.3991974428189
 20
-369.6000000005188
 30
0.0
 40
1.503159791081544
  0
CIRCLE
  5
2A5
  8
PATTERN_FILL
  6
CONTINUOUS
 62
     7
 10
-405.2055170249833
 20
-367.0000000005075
 30
0.0
 40
1.503159791081771
  0
CIRCLE
  5
2A6
  8
PATTERN_FILL
  6
CONTINUOUS
 62
     7
 10
-400.008676816065
 20
-367.0000000005075
 30
0.0
 40
1.503159791081771
  0
CIRCLE
  5
2A7
  8
PATTERN_FILL
  6
CONTINUOUS
 62
     7
 10
-394.8023572339004
 20
-367.0000000005075
 30
0.0
 40
1.503159791081657
  0
CIRCLE
  5
2A8
  8
PATTERN_FILL
  6
CONTINUOUS
 62
     7
 10
-405.2055170249833
 20
-377.4000000005526
 30
0.0
 40
1.503159791081771
  0
CIRCLE
  5
2A9
  8
PATTERN_FILL
  6
CONTINUOUS
 62
     7
 10
-400.008676816065
 20
-377.4000000005526
 30
0.0
 40
1.503159791081771
  0
CIRCLE
  5
2AA
  8
PATTERN_FILL
  6
CONTINUOUS
 62
     7
 10
-394.8023572339004
 20
-377.4000000005526
 30
0.0
 40
1.503159791081657
  0
CIRCLE
  5
2AB
  8
PATTERN_FILL
  6
CONTINUOUS
 62
     7
 10
-407.8023572339018
 20
-374.8000000005413
 30
0.0
 40
1.503159791081657
  0
CIRCLE
  5
2AC
  8
PATTERN_FILL
  6
CONTINUOUS
 62
     7
 10
-402.6055170249836
 20
-374.8000000005413
 30
0.0
 40
1.503159791081771
  0
CIRCLE
  5
2AD
  8
PATTERN_FILL
  6
CONTINUOUS
 62
     7
 10
-392.2023572339007
 20
-374.8000000005413
 30
0.0
 40
1.503159791081657
  0
CIRCLE
  5
2AE
  8
PATTERN_FILL
  6
CONTINUOUS
 62
     7
 10
-397.3991974428189
 20
-374.8000000005413
 30
0.0
 40
1.503159791081544
  0
CIRCLE
  5
2AF
  8
PATTERN_FILL
  6
CONTINUOUS
 62
     7
 10
-405.2055170249833
 20
-372.2000000005301
 30
0.0
 40
1.503159791081771
  0
CIRCLE
  5
2B0
  8
PATTERN_FILL
  6
CONTINUOUS
 62
     7
 10
-400.008676816065
 20
-372.2000000005301
 30
0.0
 40
1.503159791081771
  0
CIRCLE
  5
2B1
  8
PATTERN_FILL
  6
CONTINUOUS
 62
     7
 10
-394.8023572339004
 20
-372.2000000005301
 30
0.0
 40
1.503159791081657
  0
CIRCLE
  5
2B2
  8
PATTERN_FILL
  6
CONTINUOUS
 62
     7
 10
-407.8023572339018
 20
-484.000000001015
 30
0.0
 40
1.503159791081657
  0
CIRCLE
  5
2B3
  8
PATTERN_FILL
  6
CONTINUOUS
 62
     7
 10
-402.6055170249836
 20
-484.000000001015
 30
0.0
 40
1.503159791081771
  0
CIRCLE
  5
2B4
  8
PATTERN_FILL
  6
CONTINUOUS
 62
     7
 10
-392.2023572339007
 20
-484.000000001015
 30
0.0
 40
1.503159791081657
  0
CIRCLE
  5
2B5
  8
PATTERN_FILL
  6
CONTINUOUS
 62
     7
 10
-397.3991974428189
 20
-484.000000001015
 30
0.0
 40
1.503159791081544
  0
CIRCLE
  5
2B6
  8
PATTERN_FILL
  6
CONTINUOUS
 62
     7
 10
-405.2055170249833
 20
-481.4000000010037
 30
0.0
 40
1.503159791081771
  0
CIRCLE
  5
2B7
  8
PATTERN_FILL
  6
CONTINUOUS
 62
     7
 10
-400.008676816065
 20
-481.4000000010037
 30
0.0
 40
1.503159791081771
  0
CIRCLE
  5
2B8
  8
PATTERN_FILL
  6
CONTINUOUS
 62
     7
 10
-394.8023572339004
 20
-481.4000000010037
 30
0.0
 40
1.503159791081657
  0
CIRCLE
  5
2B9
  8
PATTERN_FILL
  6
CONTINUOUS
 62
     7
 10
-407.8023572339018
 20
-478.8000000009924
 30
0.0
 40
1.503159791081657
  0
CIRCLE
  5
2BA
  8
PATTERN_FILL
  6
CONTINUOUS
 62
     7
 10
-402.6055170249836
 20
-478.8000000009924
 30
0.0
 40
1.503159791081771
  0
CIRCLE
  5
2BB
  8
PATTERN_FILL
  6
CONTINUOUS
 62
     7
 10
-392.2023572339007
 20
-478.8000000009924
 30
0.0
 40
1.503159791081657
  0
CIRCLE
  5
2BC
  8
PATTERN_FILL
  6
CONTINUOUS
 62
     7
 10
-397.3991974428189
 20
-478.8000000009924
 30
0.0
 40
1.503159791081544
  0
CIRCLE
  5
2BD
  8
PATTERN_FILL
  6
CONTINUOUS
 62
     7
 10
-407.8023572339018
 20
-473.6000000009699
 30
0.0
 40
1.503159791081657
  0
CIRCLE
  5
2BE
  8
PATTERN_FILL
  6
CONTINUOUS
 62
     7
 10
-402.6055170249836
 20
-473.6000000009699
 30
0.0
 40
1.503159791081771
  0
CIRCLE
  5
2BF
  8
PATTERN_FILL
  6
CONTINUOUS
 62
     7
 10
-392.2023572339007
 20
-473.6000000009699
 30
0.0
 40
1.503159791081657
  0
CIRCLE
  5
2C0
  8
PATTERN_FILL
  6
CONTINUOUS
 62
     7
 10
-397.3991974428189
 20
-473.6000000009699
 30
0.0
 40
1.503159791081544
  0
CIRCLE
  5
2C1
  8
PATTERN_FILL
  6
CONTINUOUS
 62
     7
 10
-405.2055170249833
 20
-476.2000000009812
 30
0.0
 40
1.503159791081771
  0
CIRCLE
  5
2C2
  8
PATTERN_FILL
  6
CONTINUOUS
 62
     7
 10
-400.008676816065
 20
-476.2000000009812
 30
0.0
 40
1.503159791081771
  0
CIRCLE
  5
2C3
  8
PATTERN_FILL
  6
CONTINUOUS
 62
     7
 10
-394.8023572339004
 20
-476.2000000009812
 30
0.0
 40
1.503159791081657
  0
CIRCLE
  5
2C4
  8
PATTERN_FILL
  6
CONTINUOUS
 62
     7
 10
-407.8023572339018
 20
-463.2000000009248
 30
0.0
 40
1.503159791081657
  0
CIRCLE
  5
2C5
  8
PATTERN_FILL
  6
CONTINUOUS
 62
     7
 10
-402.6055170249836
 20
-463.2000000009248
 30
0.0
 40
1.503159791081771
  0
CIRCLE
  5
2C6
  8
PATTERN_FILL
  6
CONTINUOUS
 62
     7
 10
-392.2023572339007
 20
-463.2000000009248
 30
0.0
 40
1.503159791081657
  0
CIRCLE
  5
2C7
  8
PATTERN_FILL
  6
CONTINUOUS
 62
     7
 10
-397.3991974428189
 20
-463.2000000009248
 30
0.0
 40
1.503159791081544
  0
CIRCLE
  5
2C8
  8
PATTERN_FILL
  6
CONTINUOUS
 62
     7
 10
-405.2055170249833
 20
-465.8000000009361
 30
0.0
 40
1.503159791081771
  0
CIRCLE
  5
2C9
  8
PATTERN_FILL
  6
CONTINUOUS
 62
     7
 10
-400.008676816065
 20
-465.8000000009361
 30
0.0
 40
1.503159791081771
  0
CIRCLE
  5
2CA
  8
PATTERN_FILL
  6
CONTINUOUS
 62
     7
 10
-394.8023572339004
 20
-465.8000000009361
 30
0.0
 40
1.503159791081657
  0
CIRCLE
  5
2CB
  8
PATTERN_FILL
  6
CONTINUOUS
 62
     7
 10
-407.8023572339018
 20
-468.4000000009473
 30
0.0
 40
1.503159791081657
  0
CIRCLE
  5
2CC
  8
PATTERN_FILL
  6
CONTINUOUS
 62
     7
 10
-402.6055170249836
 20
-468.4000000009473
 30
0.0
 40
1.503159791081771
  0
CIRCLE
  5
2CD
  8
PATTERN_FILL
  6
CONTINUOUS
 62
     7
 10
-392.2023572339007
 20
-468.4000000009473
 30
0.0
 40
1.503159791081657
  0
CIRCLE
  5
2CE
  8
PATTERN_FILL
  6
CONTINUOUS
 62
     7
 10
-397.3991974428189
 20
-468.4000000009473
 30
0.0
 40
1.503159791081544
  0
CIRCLE
  5
2CF
  8
PATTERN_FILL
  6
CONTINUOUS
 62
     7
 10
-405.2055170249833
 20
-471.0000000009586
 30
0.0
 40
1.503159791081771
  0
CIRCLE
  5
2D0
  8
PATTERN_FILL
  6
CONTINUOUS
 62
     7
 10
-400.008676816065
 20
-471.0000000009586
 30
0.0
 40
1.503159791081771
  0
CIRCLE
  5
2D1
  8
PATTERN_FILL
  6
CONTINUOUS
 62
     7
 10
-394.8023572339004
 20
-471.0000000009586
 30
0.0
 40
1.503159791081657
  0
CIRCLE
  5
2D2
  8
PATTERN_FILL
  6
CONTINUOUS
 62
     7
 10
-407.8023572339018
 20
-442.4000000008346
 30
0.0
 40
1.503159791081657
  0
CIRCLE
  5
2D3
  8
PATTERN_FILL
  6
CONTINUOUS
 62
     7
 10
-402.6055170249836
 20
-442.4000000008346
 30
0.0
 40
1.503159791081771
  0
CIRCLE
  5
2D4
  8
PATTERN_FILL
  6
CONTINUOUS
 62
     7
 10
-392.2023572339007
 20
-442.4000000008346
 30
0.0
 40
1.503159791081657
  0
CIRCLE
  5
2D5
  8
PATTERN_FILL
  6
CONTINUOUS
 62
     7
 10
-397.3991974428189
 20
-442.4000000008346
 30
0.0
 40
1.503159791081544
  0
CIRCLE
  5
2D6
  8
PATTERN_FILL
  6
CONTINUOUS
 62
     7
 10
-405.2055170249833
 20
-445.0000000008458
 30
0.0
 40
1.503159791081771
  0
CIRCLE
  5
2D7
  8
PATTERN_FILL
  6
CONTINUOUS
 62
     7
 10
-400.008676816065
 20
-445.0000000008458
 30
0.0
 40
1.503159791081771
  0
CIRCLE
  5
2D8
  8
PATTERN_FILL
  6
CONTINUOUS
 62
     7
 10
-394.8023572339004
 20
-445.0000000008458
 30
0.0
 40
1.503159791081657
  0
CIRCLE
  5
2D9
  8
PATTERN_FILL
  6
CONTINUOUS
 62
     7
 10
-407.8023572339018
 20
-447.6000000008571
 30
0.0
 40
1.503159791081657
  0
CIRCLE
  5
2DA
  8
PATTERN_FILL
  6
CONTINUOUS
 62
     7
 10
-402.6055170249836
 20
-447.6000000008571
 30
0.0
 40
1.503159791081771
  0
CIRCLE
  5
2DB
  8
PATTERN_FILL
  6
CONTINUOUS
 62
     7
 10
-392.2023572339007
 20
-447.6000000008571
 30
0.0
 40
1.503159791081657
  0
CIRCLE
  5
2DC
  8
PATTERN_FILL
  6
CONTINUOUS
 62
     7
 10
-397.3991974428189
 20
-447.6000000008571
 30
0.0
 40
1.503159791081544
  0
CIRCLE
  5
2DD
  8
PATTERN_FILL
  6
CONTINUOUS
 62
     7
 10
-407.8023572339018
 20
-452.8000000008797
 30
0.0
 40
1.503159791081657
  0
CIRCLE
  5
2DE
  8
PATTERN_FILL
  6
CONTINUOUS
 62
     7
 10
-402.6055170249836
 20
-452.8000000008797
 30
0.0
 40
1.503159791081771
  0
CIRCLE
  5
2DF
  8
PATTERN_FILL
  6
CONTINUOUS
 62
     7
 10
-392.2023572339007
 20
-452.8000000008797
 30
0.0
 40
1.503159791081657
  0
CIRCLE
  5
2E0
  8
PATTERN_FILL
  6
CONTINUOUS
 62
     7
 10
-397.3991974428189
 20
-452.8000000008797
 30
0.0
 40
1.503159791081544
  0
CIRCLE
  5
2E1
  8
PATTERN_FILL
  6
CONTINUOUS
 62
     7
 10
-405.2055170249833
 20
-450.2000000008684
 30
0.0
 40
1.503159791081771
  0
CIRCLE
  5
2E2
  8
PATTERN_FILL
  6
CONTINUOUS
 62
     7
 10
-400.008676816065
 20
-450.2000000008684
 30
0.0
 40
1.503159791081771
  0
CIRCLE
  5
2E3
  8
PATTERN_FILL
  6
CONTINUOUS
 62
     7
 10
-394.8023572339004
 20
-450.2000000008684
 30
0.0
 40
1.503159791081657
  0
CIRCLE
  5
2E4
  8
PATTERN_FILL
  6
CONTINUOUS
 62
     7
 10
-405.2055170249833
 20
-460.6000000009135
 30
0.0
 40
1.503159791081771
  0
CIRCLE
  5
2E5
  8
PATTERN_FILL
  6
CONTINUOUS
 62
     7
 10
-400.008676816065
 20
-460.6000000009135
 30
0.0
 40
1.503159791081771
  0
CIRCLE
  5
2E6
  8
PATTERN_FILL
  6
CONTINUOUS
 62
     7
 10
-394.8023572339004
 20
-460.6000000009135
 30
0.0
 40
1.503159791081657
  0
CIRCLE
  5
2E7
  8
PATTERN_FILL
  6
CONTINUOUS
 62
     7
 10
-407.8023572339018
 20
-458.0000000009022
 30
0.0
 40
1.503159791081657
  0
CIRCLE
  5
2E8
  8
PATTERN_FILL
  6
CONTINUOUS
 62
     7
 10
-402.6055170249836
 20
-458.0000000009022
 30
0.0
 40
1.503159791081771
  0
CIRCLE
  5
2E9
  8
PATTERN_FILL
  6
CONTINUOUS
 62
     7
 10
-392.2023572339007
 20
-458.0000000009022
 30
0.0
 40
1.503159791081657
  0
CIRCLE
  5
2EA
  8
PATTERN_FILL
  6
CONTINUOUS
 62
     7
 10
-397.3991974428189
 20
-458.0000000009022
 30
0.0
 40
1.503159791081544
  0
CIRCLE
  5
2EB
  8
PATTERN_FILL
  6
CONTINUOUS
 62
     7
 10
-405.2055170249833
 20
-455.4000000008909
 30
0.0
 40
1.503159791081771
  0
CIRCLE
  5
2EC
  8
PATTERN_FILL
  6
CONTINUOUS
 62
     7
 10
-400.008676816065
 20
-455.4000000008909
 30
0.0
 40
1.503159791081771
  0
CIRCLE
  5
2ED
  8
PATTERN_FILL
  6
CONTINUOUS
 62
     7
 10
-394.8023572339004
 20
-455.4000000008909
 30
0.0
 40
1.503159791081657
  0
CIRCLE
  5
2EE
  8
PATTERN_FILL
  6
CONTINUOUS
 62
     7
 10
-405.2055170249833
 20
-403.4000000006654
 30
0.0
 40
1.503159791081771
  0
CIRCLE
  5
2EF
  8
PATTERN_FILL
  6
CONTINUOUS
 62
     7
 10
-400.008676816065
 20
-403.4000000006654
 30
0.0
 40
1.503159791081771
  0
CIRCLE
  5
2F0
  8
PATTERN_FILL
  6
CONTINUOUS
 62
     7
 10
-394.8023572339004
 20
-403.4000000006654
 30
0.0
 40
1.503159791081657
  0
CIRCLE
  5
2F1
  8
PATTERN_FILL
  6
CONTINUOUS
 62
     7
 10
-407.8023572339018
 20
-406.0000000006767
 30
0.0
 40
1.503159791081657
  0
CIRCLE
  5
2F2
  8
PATTERN_FILL
  6
CONTINUOUS
 62
     7
 10
-402.6055170249836
 20
-406.0000000006767
 30
0.0
 40
1.503159791081771
  0
CIRCLE
  5
2F3
  8
PATTERN_FILL
  6
CONTINUOUS
 62
     7
 10
-392.2023572339007
 20
-406.0000000006767
 30
0.0
 40
1.503159791081657
  0
CIRCLE
  5
2F4
  8
PATTERN_FILL
  6
CONTINUOUS
 62
     7
 10
-397.3991974428189
 20
-406.0000000006767
 30
0.0
 40
1.503159791081544
  0
CIRCLE
  5
2F5
  8
PATTERN_FILL
  6
CONTINUOUS
 62
     7
 10
-407.8023572339018
 20
-411.2000000006992
 30
0.0
 40
1.503159791081657
  0
CIRCLE
  5
2F6
  8
PATTERN_FILL
  6
CONTINUOUS
 62
     7
 10
-402.6055170249836
 20
-411.2000000006992
 30
0.0
 40
1.503159791081771
  0
CIRCLE
  5
2F7
  8
PATTERN_FILL
  6
CONTINUOUS
 62
     7
 10
-392.2023572339007
 20
-411.2000000006992
 30
0.0
 40
1.503159791081657
  0
CIRCLE
  5
2F8
  8
PATTERN_FILL
  6
CONTINUOUS
 62
     7
 10
-397.3991974428189
 20
-411.2000000006992
 30
0.0
 40
1.503159791081544
  0
CIRCLE
  5
2F9
  8
PATTERN_FILL
  6
CONTINUOUS
 62
     7
 10
-405.2055170249833
 20
-408.6000000006879
 30
0.0
 40
1.503159791081771
  0
CIRCLE
  5
2FA
  8
PATTERN_FILL
  6
CONTINUOUS
 62
     7
 10
-400.008676816065
 20
-408.6000000006879
 30
0.0
 40
1.503159791081771
  0
CIRCLE
  5
2FB
  8
PATTERN_FILL
  6
CONTINUOUS
 62
     7
 10
-394.8023572339004
 20
-408.6000000006879
 30
0.0
 40
1.503159791081657
  0
CIRCLE
  5
2FC
  8
PATTERN_FILL
  6
CONTINUOUS
 62
     7
 10
-407.8023572339018
 20
-421.6000000007443
 30
0.0
 40
1.503159791081657
  0
CIRCLE
  5
2FD
  8
PATTERN_FILL
  6
CONTINUOUS
 62
     7
 10
-402.6055170249836
 20
-421.6000000007443
 30
0.0
 40
1.503159791081771
  0
CIRCLE
  5
2FE
  8
PATTERN_FILL
  6
CONTINUOUS
 62
     7
 10
-392.2023572339007
 20
-421.6000000007443
 30
0.0
 40
1.503159791081657
  0
CIRCLE
  5
2FF
  8
PATTERN_FILL
  6
CONTINUOUS
 62
     7
 10
-397.3991974428189
 20
-421.6000000007443
 30
0.0
 40
1.503159791081544
  0
CIRCLE
  5
300
  8
PATTERN_FILL
  6
CONTINUOUS
 62
     7
 10
-405.2055170249833
 20
-419.0000000007331
 30
0.0
 40
1.503159791081771
  0
CIRCLE
  5
301
  8
PATTERN_FILL
  6
CONTINUOUS
 62
     7
 10
-400.008676816065
 20
-419.0000000007331
 30
0.0
 40
1.503159791081771
  0
CIRCLE
  5
302
  8
PATTERN_FILL
  6
CONTINUOUS
 62
     7
 10
-394.8023572339004
 20
-419.0000000007331
 30
0.0
 40
1.503159791081657
  0
CIRCLE
  5
303
  8
PATTERN_FILL
  6
CONTINUOUS
 62
     7
 10
-407.8023572339018
 20
-416.4000000007218
 30
0.0
 40
1.503159791081657
  0
CIRCLE
  5
304
  8
PATTERN_FILL
  6
CONTINUOUS
 62
     7
 10
-402.6055170249836
 20
-416.4000000007218
 30
0.0
 40
1.503159791081771
  0
CIRCLE
  5
305
  8
PATTERN_FILL
  6
CONTINUOUS
 62
     7
 10
-392.2023572339007
 20
-416.4000000007218
 30
0.0
 40
1.503159791081657
  0
CIRCLE
  5
306
  8
PATTERN_FILL
  6
CONTINUOUS
 62
     7
 10
-397.3991974428189
 20
-416.4000000007218
 30
0.0
 40
1.503159791081544
  0
CIRCLE
  5
307
  8
PATTERN_FILL
  6
CONTINUOUS
 62
     7
 10
-405.2055170249833
 20
-413.8000000007105
 30
0.0
 40
1.503159791081771
  0
CIRCLE
  5
308
  8
PATTERN_FILL
  6
CONTINUOUS
 62
     7
 10
-400.008676816065
 20
-413.8000000007105
 30
0.0
 40
1.503159791081771
  0
CIRCLE
  5
309
  8
PATTERN_FILL
  6
CONTINUOUS
 62
     7
 10
-394.8023572339004
 20
-413.8000000007105
 30
0.0
 40
1.503159791081657
  0
CIRCLE
  5
30A
  8
PATTERN_FILL
  6
CONTINUOUS
 62
     7
 10
-405.2055170249833
 20
-439.8000000008233
 30
0.0
 40
1.503159791081771
  0
CIRCLE
  5
30B
  8
PATTERN_FILL
  6
CONTINUOUS
 62
     7
 10
-400.008676816065
 20
-439.8000000008233
 30
0.0
 40
1.503159791081771
  0
CIRCLE
  5
30C
  8
PATTERN_FILL
  6
CONTINUOUS
 62
     7
 10
-394.8023572339004
 20
-439.8000000008233
 30
0.0
 40
1.503159791081657
  0
CIRCLE
  5
30D
  8
PATTERN_FILL
  6
CONTINUOUS
 62
     7
 10
-407.8023572339018
 20
-437.200000000812
 30
0.0
 40
1.503159791081657
  0
CIRCLE
  5
30E
  8
PATTERN_FILL
  6
CONTINUOUS
 62
     7
 10
-402.6055170249836
 20
-437.200000000812
 30
0.0
 40
1.503159791081771
  0
CIRCLE
  5
30F
  8
PATTERN_FILL
  6
CONTINUOUS
 62
     7
 10
-392.2023572339007
 20
-437.200000000812
 30
0.0
 40
1.503159791081657
  0
CIRCLE
  5
310
  8
PATTERN_FILL
  6
CONTINUOUS
 62
     7
 10
-397.3991974428189
 20
-437.200000000812
 30
0.0
 40
1.503159791081544
  0
CIRCLE
  5
311
  8
PATTERN_FILL
  6
CONTINUOUS
 62
     7
 10
-407.8023572339018
 20
-432.0000000007894
 30
0.0
 40
1.503159791081657
  0
CIRCLE
  5
312
  8
PATTERN_FILL
  6
CONTINUOUS
 62
     7
 10
-402.6055170249836
 20
-432.0000000007894
 30
0.0
 40
1.503159791081771
  0
CIRCLE
  5
313
  8
PATTERN_FILL
  6
CONTINUOUS
 62
     7
 10
-392.2023572339007
 20
-432.0000000007894
 30
0.0
 40
1.503159791081657
  0
CIRCLE
  5
314
  8
PATTERN_FILL
  6
CONTINUOUS
 62
     7
 10
-397.3991974428189
 20
-432.0000000007894
 30
0.0
 40
1.503159791081544
  0
CIRCLE
  5
315
  8
PATTERN_FILL
  6
CONTINUOUS
 62
     7
 10
-405.2055170249833
 20
-434.6000000008007
 30
0.0
 40
1.503159791081771
  0
CIRCLE
  5
316
  8
PATTERN_FILL
  6
CONTINUOUS
 62
     7
 10
-400.008676816065
 20
-434.6000000008007
 30
0.0
 40
1.503159791081771
  0
CIRCLE
  5
317
  8
PATTERN_FILL
  6
CONTINUOUS
 62
     7
 10
-394.8023572339004
 20
-434.6000000008007
 30
0.0
 40
1.503159791081657
  0
CIRCLE
  5
318
  8
PATTERN_FILL
  6
CONTINUOUS
 62
     7
 10
-405.2055170249833
 20
-424.2000000007556
 30
0.0
 40
1.503159791081771
  0
CIRCLE
  5
319
  8
PATTERN_FILL
  6
CONTINUOUS
 62
     7
 10
-400.008676816065
 20
-424.2000000007556
 30
0.0
 40
1.503159791081771
  0
CIRCLE
  5
31A
  8
PATTERN_FILL
  6
CONTINUOUS
 62
     7
 10
-394.8023572339004
 20
-424.2000000007556
 30
0.0
 40
1.503159791081657
  0
CIRCLE
  5
31B
  8
PATTERN_FILL
  6
CONTINUOUS
 62
     7
 10
-407.8023572339018
 20
-426.8000000007669
 30
0.0
 40
1.503159791081657
  0
CIRCLE
  5
31C
  8
PATTERN_FILL
  6
CONTINUOUS
 62
     7
 10
-402.6055170249836
 20
-426.8000000007669
 30
0.0
 40
1.503159791081771
  0
CIRCLE
  5
31D
  8
PATTERN_FILL
  6
CONTINUOUS
 62
     7
 10
-392.2023572339007
 20
-426.8000000007669
 30
0.0
 40
1.503159791081657
  0
CIRCLE
  5
31E
  8
PATTERN_FILL
  6
CONTINUOUS
 62
     7
 10
-397.3991974428189
 20
-426.8000000007669
 30
0.0
 40
1.503159791081544
  0
CIRCLE
  5
31F
  8
PATTERN_FILL
  6
CONTINUOUS
 62
     7
 10
-405.2055170249833
 20
-429.4000000007782
 30
0.0
 40
1.503159791081771
  0
CIRCLE
  5
320
  8
PATTERN_FILL
  6
CONTINUOUS
 62
     7
 10
-400.008676816065
 20
-429.4000000007782
 30
0.0
 40
1.503159791081771
  0
CIRCLE
  5
321
  8
PATTERN_FILL
  6
CONTINUOUS
 62
     7
 10
-394.8023572339004
 20
-429.4000000007782
 30
0.0
 40
1.503159791081657
  0
CIRCLE
  5
322
  8
PATTERN_FILL
  6
CONTINUOUS
 62
     7
 10
-405.2055170249833
 20
-486.6000000010263
 30
0.0
 40
1.503159791081771
  0
CIRCLE
  5
323
  8
PATTERN_FILL
  6
CONTINUOUS
 62
     7
 10
-400.008676816065
 20
-486.6000000010263
 30
0.0
 40
1.503159791081771
  0
CIRCLE
  5
324
  8
PATTERN_FILL
  6
CONTINUOUS
 62
     7
 10
-394.8023572339004
 20
-486.6000000010263
 30
0.0
 40
1.503159791081657
  0
CIRCLE
  5
325
  8
PATTERN_FILL
  6
CONTINUOUS
 62
     7
 10
-407.8023572339018
 20
-489.2000000010376
 30
0.0
 40
1.503159791081657
  0
CIRCLE
  5
326
  8
PATTERN_FILL
  6
CONTINUOUS
 62
     7
 10
-402.6055170249836
 20
-489.2000000010376
 30
0.0
 40
1.503159791081771
  0
CIRCLE
  5
327
  8
PATTERN_FILL
  6
CONTINUOUS
 62
     7
 10
-392.2023572339007
 20
-489.2000000010376
 30
0.0
 40
1.503159791081657
  0
CIRCLE
  5
328
  8
PATTERN_FILL
  6
CONTINUOUS
 62
     7
 10
-397.3991974428189
 20
-489.2000000010376
 30
0.0
 40
1.503159791081544
  0
CIRCLE
  5
329
  8
PATTERN_FILL
  6
CONTINUOUS
 62
     7
 10
-407.8023572339018
 20
-494.4000000010601
 30
0.0
 40
1.503159791081657
  0
CIRCLE
  5
32A
  8
PATTERN_FILL
  6
CONTINUOUS
 62
     7
 10
-402.6055170249836
 20
-494.4000000010601
 30
0.0
 40
1.503159791081771
  0
CIRCLE
  5
32B
  8
PATTERN_FILL
  6
CONTINUOUS
 62
     7
 10
-392.2023572339007
 20
-494.4000000010601
 30
0.0
 40
1.503159791081657
  0
CIRCLE
  5
32C
  8
PATTERN_FILL
  6
CONTINUOUS
 62
     7
 10
-397.3991974428189
 20
-494.4000000010601
 30
0.0
 40
1.503159791081544
  0
CIRCLE
  5
32D
  8
PATTERN_FILL
  6
CONTINUOUS
 62
     7
 10
-405.2055170249833
 20
-491.8000000010488
 30
0.0
 40
1.503159791081771
  0
CIRCLE
  5
32E
  8
PATTERN_FILL
  6
CONTINUOUS
 62
     7
 10
-400.008676816065
 20
-491.8000000010488
 30
0.0
 40
1.503159791081771
  0
CIRCLE
  5
32F
  8
PATTERN_FILL
  6
CONTINUOUS
 62
     7
 10
-394.8023572339004
 20
-491.8000000010488
 30
0.0
 40
1.503159791081657
  0
CIRCLE
  5
330
  8
PATTERN_FILL
  6
CONTINUOUS
 62
     7
 10
542.1976427660982
 20
-317.6000000002932
 30
0.0
 40
1.503159791081771
  0
CIRCLE
  5
331
  8
PATTERN_FILL
  6
CONTINUOUS
 62
     7
 10
547.3944829750164
 20
-317.6000000002932
 30
0.0
 40
1.503159791081771
  0
CIRCLE
  5
332
  8
PATTERN_FILL
  6
CONTINUOUS
 62
     7
 10
557.7976427660992
 20
-317.6000000002932
 30
0.0
 40
1.503159791081771
  0
CIRCLE
  5
333
  8
PATTERN_FILL
  6
CONTINUOUS
 62
     7
 10
552.6008025571812
 20
-317.6000000002932
 30
0.0
 40
1.503159791081544
  0
CIRCLE
  5
334
  8
PATTERN_FILL
  6
CONTINUOUS
 62
     7
 10
544.7944829750168
 20
-315.0000000002819
 30
0.0
 40
1.503159791081771
  0
CIRCLE
  5
335
  8
PATTERN_FILL
  6
CONTINUOUS
 62
     7
 10
549.991323183935
 20
-315.0000000002819
 30
0.0
 40
1.503159791081771
  0
CIRCLE
  5
336
  8
PATTERN_FILL
  6
CONTINUOUS
 62
     7
 10
555.1976427660995
 20
-315.0000000002819
 30
0.0
 40
1.503159791081771
  0
CIRCLE
  5
337
  8
PATTERN_FILL
  6
CONTINUOUS
 62
     7
 10
542.1976427660982
 20
-312.4000000002707
 30
0.0
 40
1.503159791081771
  0
CIRCLE
  5
338
  8
PATTERN_FILL
  6
CONTINUOUS
 62
     7
 10
547.3944829750164
 20
-312.4000000002707
 30
0.0
 40
1.503159791081771
  0
CIRCLE
  5
339
  8
PATTERN_FILL
  6
CONTINUOUS
 62
     7
 10
557.7976427660992
 20
-312.4000000002707
 30
0.0
 40
1.503159791081771
  0
CIRCLE
  5
33A
  8
PATTERN_FILL
  6
CONTINUOUS
 62
     7
 10
552.6008025571812
 20
-312.4000000002707
 30
0.0
 40
1.503159791081544
  0
CIRCLE
  5
33B
  8
PATTERN_FILL
  6
CONTINUOUS
 62
     7
 10
542.1976427660982
 20
-307.2000000002481
 30
0.0
 40
1.503159791081771
  0
CIRCLE
  5
33C
  8
PATTERN_FILL
  6
CONTINUOUS
 62
     7
 10
547.3944829750164
 20
-307.2000000002481
 30
0.0
 40
1.503159791081771
  0
CIRCLE
  5
33D
  8
PATTERN_FILL
  6
CONTINUOUS
 62
     7
 10
557.7976427660992
 20
-307.2000000002481
 30
0.0
 40
1.503159791081771
  0
CIRCLE
  5
33E
  8
PATTERN_FILL
  6
CONTINUOUS
 62
     7
 10
552.6008025571812
 20
-307.2000000002481
 30
0.0
 40
1.503159791081544
  0
CIRCLE
  5
33F
  8
PATTERN_FILL
  6
CONTINUOUS
 62
     7
 10
544.7944829750168
 20
-309.8000000002594
 30
0.0
 40
1.503159791081771
  0
CIRCLE
  5
340
  8
PATTERN_FILL
  6
CONTINUOUS
 62
     7
 10
549.991323183935
 20
-309.8000000002594
 30
0.0
 40
1.503159791081771
  0
CIRCLE
  5
341
  8
PATTERN_FILL
  6
CONTINUOUS
 62
     7
 10
555.1976427660995
 20
-309.8000000002594
 30
0.0
 40
1.503159791081771
  0
CIRCLE
  5
342
  8
PATTERN_FILL
  6
CONTINUOUS
 62
     7
 10
542.1976427660982
 20
-296.800000000203
 30
0.0
 40
1.503159791081771
  0
CIRCLE
  5
343
  8
PATTERN_FILL
  6
CONTINUOUS
 62
     7
 10
547.3944829750164
 20
-296.800000000203
 30
0.0
 40
1.503159791081771
  0
CIRCLE
  5
344
  8
PATTERN_FILL
  6
CONTINUOUS
 62
     7
 10
557.7976427660992
 20
-296.800000000203
 30
0.0
 40
1.503159791081771
  0
CIRCLE
  5
345
  8
PATTERN_FILL
  6
CONTINUOUS
 62
     7
 10
552.6008025571812
 20
-296.800000000203
 30
0.0
 40
1.503159791081544
  0
CIRCLE
  5
346
  8
PATTERN_FILL
  6
CONTINUOUS
 62
     7
 10
544.7944829750168
 20
-299.4000000002143
 30
0.0
 40
1.503159791081771
  0
CIRCLE
  5
347
  8
PATTERN_FILL
  6
CONTINUOUS
 62
     7
 10
549.991323183935
 20
-299.4000000002143
 30
0.0
 40
1.503159791081771
  0
CIRCLE
  5
348
  8
PATTERN_FILL
  6
CONTINUOUS
 62
     7
 10
555.1976427660995
 20
-299.4000000002143
 30
0.0
 40
1.503159791081771
  0
CIRCLE
  5
349
  8
PATTERN_FILL
  6
CONTINUOUS
 62
     7
 10
542.1976427660982
 20
-302.0000000002256
 30
0.0
 40
1.503159791081771
  0
CIRCLE
  5
34A
  8
PATTERN_FILL
  6
CONTINUOUS
 62
     7
 10
547.3944829750164
 20
-302.0000000002256
 30
0.0
 40
1.503159791081771
  0
CIRCLE
  5
34B
  8
PATTERN_FILL
  6
CONTINUOUS
 62
     7
 10
557.7976427660992
 20
-302.0000000002256
 30
0.0
 40
1.503159791081771
  0
CIRCLE
  5
34C
  8
PATTERN_FILL
  6
CONTINUOUS
 62
     7
 10
552.6008025571812
 20
-302.0000000002256
 30
0.0
 40
1.503159791081544
  0
CIRCLE
  5
34D
  8
PATTERN_FILL
  6
CONTINUOUS
 62
     7
 10
544.7944829750168
 20
-304.6000000002368
 30
0.0
 40
1.503159791081771
  0
CIRCLE
  5
34E
  8
PATTERN_FILL
  6
CONTINUOUS
 62
     7
 10
549.991323183935
 20
-304.6000000002368
 30
0.0
 40
1.503159791081771
  0
CIRCLE
  5
34F
  8
PATTERN_FILL
  6
CONTINUOUS
 62
     7
 10
555.1976427660995
 20
-304.6000000002368
 30
0.0
 40
1.503159791081771
  0
CIRCLE
  5
350
  8
PATTERN_FILL
  6
CONTINUOUS
 62
     7
 10
542.1976427660982
 20
-276.0000000001128
 30
0.0
 40
1.503159791081771
  0
CIRCLE
  5
351
  8
PATTERN_FILL
  6
CONTINUOUS
 62
     7
 10
547.3944829750164
 20
-276.0000000001128
 30
0.0
 40
1.503159791081771
  0
CIRCLE
  5
352
  8
PATTERN_FILL
  6
CONTINUOUS
 62
     7
 10
557.7976427660992
 20
-276.0000000001128
 30
0.0
 40
1.503159791081771
  0
CIRCLE
  5
353
  8
PATTERN_FILL
  6
CONTINUOUS
 62
     7
 10
552.6008025571812
 20
-276.0000000001128
 30
0.0
 40
1.503159791081544
  0
CIRCLE
  5
354
  8
PATTERN_FILL
  6
CONTINUOUS
 62
     7
 10
544.7944829750168
 20
-278.6000000001241
 30
0.0
 40
1.503159791081771
  0
CIRCLE
  5
355
  8
PATTERN_FILL
  6
CONTINUOUS
 62
     7
 10
549.991323183935
 20
-278.6000000001241
 30
0.0
 40
1.503159791081771
  0
CIRCLE
  5
356
  8
PATTERN_FILL
  6
CONTINUOUS
 62
     7
 10
555.1976427660995
 20
-278.6000000001241
 30
0.0
 40
1.503159791081771
  0
CIRCLE
  5
357
  8
PATTERN_FILL
  6
CONTINUOUS
 62
     7
 10
542.1976427660982
 20
-281.2000000001353
 30
0.0
 40
1.503159791081771
  0
CIRCLE
  5
358
  8
PATTERN_FILL
  6
CONTINUOUS
 62
     7
 10
547.3944829750164
 20
-281.2000000001353
 30
0.0
 40
1.503159791081771
  0
CIRCLE
  5
359
  8
PATTERN_FILL
  6
CONTINUOUS
 62
     7
 10
557.7976427660992
 20
-281.2000000001353
 30
0.0
 40
1.503159791081771
  0
CIRCLE
  5
35A
  8
PATTERN_FILL
  6
CONTINUOUS
 62
     7
 10
552.6008025571812
 20
-281.2000000001353
 30
0.0
 40
1.503159791081544
  0
CIRCLE
  5
35B
  8
PATTERN_FILL
  6
CONTINUOUS
 62
     7
 10
542.1976427660982
 20
-286.4000000001579
 30
0.0
 40
1.503159791081771
  0
CIRCLE
  5
35C
  8
PATTERN_FILL
  6
CONTINUOUS
 62
     7
 10
547.3944829750164
 20
-286.4000000001579
 30
0.0
 40
1.503159791081771
  0
CIRCLE
  5
35D
  8
PATTERN_FILL
  6
CONTINUOUS
 62
     7
 10
557.7976427660992
 20
-286.4000000001579
 30
0.0
 40
1.503159791081771
  0
CIRCLE
  5
35E
  8
PATTERN_FILL
  6
CONTINUOUS
 62
     7
 10
552.6008025571812
 20
-286.4000000001579
 30
0.0
 40
1.503159791081544
  0
CIRCLE
  5
35F
  8
PATTERN_FILL
  6
CONTINUOUS
 62
     7
 10
544.7944829750168
 20
-283.8000000001466
 30
0.0
 40
1.503159791081771
  0
CIRCLE
  5
360
  8
PATTERN_FILL
  6
CONTINUOUS
 62
     7
 10
549.991323183935
 20
-283.8000000001466
 30
0.0
 40
1.503159791081771
  0
CIRCLE
  5
361
  8
PATTERN_FILL
  6
CONTINUOUS
 62
     7
 10
555.1976427660995
 20
-283.8000000001466
 30
0.0
 40
1.503159791081771
  0
CIRCLE
  5
362
  8
PATTERN_FILL
  6
CONTINUOUS
 62
     7
 10
544.7944829750168
 20
-294.2000000001917
 30
0.0
 40
1.503159791081771
  0
CIRCLE
  5
363
  8
PATTERN_FILL
  6
CONTINUOUS
 62
     7
 10
549.991323183935
 20
-294.2000000001917
 30
0.0
 40
1.503159791081771
  0
CIRCLE
  5
364
  8
PATTERN_FILL
  6
CONTINUOUS
 62
     7
 10
555.1976427660995
 20
-294.2000000001917
 30
0.0
 40
1.503159791081771
  0
CIRCLE
  5
365
  8
PATTERN_FILL
  6
CONTINUOUS
 62
     7
 10
542.1976427660982
 20
-291.6000000001804
 30
0.0
 40
1.503159791081771
  0
CIRCLE
  5
366
  8
PATTERN_FILL
  6
CONTINUOUS
 62
     7
 10
547.3944829750164
 20
-291.6000000001804
 30
0.0
 40
1.503159791081771
  0
CIRCLE
  5
367
  8
PATTERN_FILL
  6
CONTINUOUS
 62
     7
 10
557.7976427660992
 20
-291.6000000001804
 30
0.0
 40
1.503159791081771
  0
CIRCLE
  5
368
  8
PATTERN_FILL
  6
CONTINUOUS
 62
     7
 10
552.6008025571812
 20
-291.6000000001804
 30
0.0
 40
1.503159791081544
  0
CIRCLE
  5
369
  8
PATTERN_FILL
  6
CONTINUOUS
 62
     7
 10
544.7944829750168
 20
-289.0000000001692
 30
0.0
 40
1.503159791081771
  0
CIRCLE
  5
36A
  8
PATTERN_FILL
  6
CONTINUOUS
 62
     7
 10
549.991323183935
 20
-289.0000000001692
 30
0.0
 40
1.503159791081771
  0
CIRCLE
  5
36B
  8
PATTERN_FILL
  6
CONTINUOUS
 62
     7
 10
555.1976427660995
 20
-289.0000000001692
 30
0.0
 40
1.503159791081771
  0
CIRCLE
  5
36C
  8
PATTERN_FILL
  6
CONTINUOUS
 62
     7
 10
542.1976427660982
 20
-234.3999999999323
 30
0.0
 40
1.503159791081771
  0
CIRCLE
  5
36D
  8
PATTERN_FILL
  6
CONTINUOUS
 62
     7
 10
547.3944829750164
 20
-234.3999999999323
 30
0.0
 40
1.503159791081771
  0
CIRCLE
  5
36E
  8
PATTERN_FILL
  6
CONTINUOUS
 62
     7
 10
557.7976427660992
 20
-234.3999999999323
 30
0.0
 40
1.503159791081771
  0
CIRCLE
  5
36F
  8
PATTERN_FILL
  6
CONTINUOUS
 62
     7
 10
552.6008025571812
 20
-234.3999999999323
 30
0.0
 40
1.503159791081544
  0
CIRCLE
  5
370
  8
PATTERN_FILL
  6
CONTINUOUS
 62
     7
 10
544.7944829750168
 20
-236.9999999999436
 30
0.0
 40
1.503159791081771
  0
CIRCLE
  5
371
  8
PATTERN_FILL
  6
CONTINUOUS
 62
     7
 10
549.991323183935
 20
-236.9999999999436
 30
0.0
 40
1.503159791081771
  0
CIRCLE
  5
372
  8
PATTERN_FILL
  6
CONTINUOUS
 62
     7
 10
555.1976427660995
 20
-236.9999999999436
 30
0.0
 40
1.503159791081771
  0
CIRCLE
  5
373
  8
PATTERN_FILL
  6
CONTINUOUS
 62
     7
 10
542.1976427660982
 20
-239.5999999999549
 30
0.0
 40
1.503159791081771
  0
CIRCLE
  5
374
  8
PATTERN_FILL
  6
CONTINUOUS
 62
     7
 10
547.3944829750164
 20
-239.5999999999549
 30
0.0
 40
1.503159791081771
  0
CIRCLE
  5
375
  8
PATTERN_FILL
  6
CONTINUOUS
 62
     7
 10
557.7976427660992
 20
-239.5999999999549
 30
0.0
 40
1.503159791081771
  0
CIRCLE
  5
376
  8
PATTERN_FILL
  6
CONTINUOUS
 62
     7
 10
552.6008025571812
 20
-239.5999999999549
 30
0.0
 40
1.503159791081544
  0
CIRCLE
  5
377
  8
PATTERN_FILL
  6
CONTINUOUS
 62
     7
 10
542.1976427660982
 20
-244.7999999999774
 30
0.0
 40
1.503159791081771
  0
CIRCLE
  5
378
  8
PATTERN_FILL
  6
CONTINUOUS
 62
     7
 10
547.3944829750164
 20
-244.7999999999774
 30
0.0
 40
1.503159791081771
  0
CIRCLE
  5
379
  8
PATTERN_FILL
  6
CONTINUOUS
 62
     7
 10
557.7976427660992
 20
-244.7999999999774
 30
0.0
 40
1.503159791081771
  0
CIRCLE
  5
37A
  8
PATTERN_FILL
  6
CONTINUOUS
 62
     7
 10
552.6008025571812
 20
-244.7999999999774
 30
0.0
 40
1.503159791081544
  0
CIRCLE
  5
37B
  8
PATTERN_FILL
  6
CONTINUOUS
 62
     7
 10
544.7944829750168
 20
-242.1999999999662
 30
0.0
 40
1.503159791081771
  0
CIRCLE
  5
37C
  8
PATTERN_FILL
  6
CONTINUOUS
 62
     7
 10
549.991323183935
 20
-242.1999999999662
 30
0.0
 40
1.503159791081771
  0
CIRCLE
  5
37D
  8
PATTERN_FILL
  6
CONTINUOUS
 62
     7
 10
555.1976427660995
 20
-242.1999999999662
 30
0.0
 40
1.503159791081771
  0
CIRCLE
  5
37E
  8
PATTERN_FILL
  6
CONTINUOUS
 62
     7
 10
542.1976427660982
 20
-255.2000000000226
 30
0.0
 40
1.503159791081771
  0
CIRCLE
  5
37F
  8
PATTERN_FILL
  6
CONTINUOUS
 62
     7
 10
547.3944829750164
 20
-255.2000000000226
 30
0.0
 40
1.503159791081771
  0
CIRCLE
  5
380
  8
PATTERN_FILL
  6
CONTINUOUS
 62
     7
 10
557.7976427660992
 20
-255.2000000000226
 30
0.0
 40
1.503159791081771
  0
CIRCLE
  5
381
  8
PATTERN_FILL
  6
CONTINUOUS
 62
     7
 10
552.6008025571812
 20
-255.2000000000226
 30
0.0
 40
1.503159791081544
  0
CIRCLE
  5
382
  8
PATTERN_FILL
  6
CONTINUOUS
 62
     7
 10
544.7944829750168
 20
-252.6000000000113
 30
0.0
 40
1.503159791081771
  0
CIRCLE
  5
383
  8
PATTERN_FILL
  6
CONTINUOUS
 62
     7
 10
549.991323183935
 20
-252.6000000000113
 30
0.0
 40
1.503159791081771
  0
CIRCLE
  5
384
  8
PATTERN_FILL
  6
CONTINUOUS
 62
     7
 10
555.1976427660995
 20
-252.6000000000113
 30
0.0
 40
1.503159791081771
  0
CIRCLE
  5
385
  8
PATTERN_FILL
  6
CONTINUOUS
 62
     7
 10
542.1976427660982
 20
-250.0
 30
0.0
 40
1.503159791081771
  0
CIRCLE
  5
386
  8
PATTERN_FILL
  6
CONTINUOUS
 62
     7
 10
547.3944829750164
 20
-250.0
 30
0.0
 40
1.503159791081771
  0
CIRCLE
  5
387
  8
PATTERN_FILL
  6
CONTINUOUS
 62
     7
 10
557.7976427660992
 20
-250.0
 30
0.0
 40
1.503159791081771
  0
CIRCLE
  5
388
  8
PATTERN_FILL
  6
CONTINUOUS
 62
     7
 10
552.6008025571812
 20
-250.0
 30
0.0
 40
1.503159791081544
  0
CIRCLE
  5
389
  8
PATTERN_FILL
  6
CONTINUOUS
 62
     7
 10
544.7944829750168
 20
-247.3999999999887
 30
0.0
 40
1.503159791081771
  0
CIRCLE
  5
38A
  8
PATTERN_FILL
  6
CONTINUOUS
 62
     7
 10
549.991323183935
 20
-247.3999999999887
 30
0.0
 40
1.503159791081771
  0
CIRCLE
  5
38B
  8
PATTERN_FILL
  6
CONTINUOUS
 62
     7
 10
555.1976427660995
 20
-247.3999999999887
 30
0.0
 40
1.503159791081771
  0
CIRCLE
  5
38C
  8
PATTERN_FILL
  6
CONTINUOUS
 62
     7
 10
544.7944829750168
 20
-273.4000000001015
 30
0.0
 40
1.503159791081771
  0
CIRCLE
  5
38D
  8
PATTERN_FILL
  6
CONTINUOUS
 62
     7
 10
549.991323183935
 20
-273.4000000001015
 30
0.0
 40
1.503159791081771
  0
CIRCLE
  5
38E
  8
PATTERN_FILL
  6
CONTINUOUS
 62
     7
 10
555.1976427660995
 20
-273.4000000001015
 30
0.0
 40
1.503159791081771
  0
CIRCLE
  5
38F
  8
PATTERN_FILL
  6
CONTINUOUS
 62
     7
 10
542.1976427660982
 20
-270.8000000000902
 30
0.0
 40
1.503159791081771
  0
CIRCLE
  5
390
  8
PATTERN_FILL
  6
CONTINUOUS
 62
     7
 10
547.3944829750164
 20
-270.8000000000902
 30
0.0
 40
1.503159791081771
  0
CIRCLE
  5
391
  8
PATTERN_FILL
  6
CONTINUOUS
 62
     7
 10
557.7976427660992
 20
-270.8000000000902
 30
0.0
 40
1.503159791081771
  0
CIRCLE
  5
392
  8
PATTERN_FILL
  6
CONTINUOUS
 62
     7
 10
552.6008025571812
 20
-270.8000000000902
 30
0.0
 40
1.503159791081544
  0
CIRCLE
  5
393
  8
PATTERN_FILL
  6
CONTINUOUS
 62
     7
 10
542.1976427660982
 20
-265.6000000000677
 30
0.0
 40
1.503159791081771
  0
CIRCLE
  5
394
  8
PATTERN_FILL
  6
CONTINUOUS
 62
     7
 10
547.3944829750164
 20
-265.6000000000677
 30
0.0
 40
1.503159791081771
  0
CIRCLE
  5
395
  8
PATTERN_FILL
  6
CONTINUOUS
 62
     7
 10
557.7976427660992
 20
-265.6000000000677
 30
0.0
 40
1.503159791081771
  0
CIRCLE
  5
396
  8
PATTERN_FILL
  6
CONTINUOUS
 62
     7
 10
552.6008025571812
 20
-265.6000000000677
 30
0.0
 40
1.503159791081544
  0
CIRCLE
  5
397
  8
PATTERN_FILL
  6
CONTINUOUS
 62
     7
 10
544.7944829750168
 20
-268.2000000000789
 30
0.0
 40
1.503159791081771
  0
CIRCLE
  5
398
  8
PATTERN_FILL
  6
CONTINUOUS
 62
     7
 10
549.991323183935
 20
-268.2000000000789
 30
0.0
 40
1.503159791081771
  0
CIRCLE
  5
399
  8
PATTERN_FILL
  6
CONTINUOUS
 62
     7
 10
555.1976427660995
 20
-268.2000000000789
 30
0.0
 40
1.503159791081771
  0
CIRCLE
  5
39A
  8
PATTERN_FILL
  6
CONTINUOUS
 62
     7
 10
544.7944829750168
 20
-257.8000000000338
 30
0.0
 40
1.503159791081771
  0
CIRCLE
  5
39B
  8
PATTERN_FILL
  6
CONTINUOUS
 62
     7
 10
549.991323183935
 20
-257.8000000000338
 30
0.0
 40
1.503159791081771
  0
CIRCLE
  5
39C
  8
PATTERN_FILL
  6
CONTINUOUS
 62
     7
 10
555.1976427660995
 20
-257.8000000000338
 30
0.0
 40
1.503159791081771
  0
CIRCLE
  5
39D
  8
PATTERN_FILL
  6
CONTINUOUS
 62
     7
 10
542.1976427660982
 20
-260.4000000000451
 30
0.0
 40
1.503159791081771
  0
CIRCLE
  5
39E
  8
PATTERN_FILL
  6
CONTINUOUS
 62
     7
 10
547.3944829750164
 20
-260.4000000000451
 30
0.0
 40
1.503159791081771
  0
CIRCLE
  5
39F
  8
PATTERN_FILL
  6
CONTINUOUS
 62
     7
 10
557.7976427660992
 20
-260.4000000000451
 30
0.0
 40
1.503159791081771
  0
CIRCLE
  5
3A0
  8
PATTERN_FILL
  6
CONTINUOUS
 62
     7
 10
552.6008025571812
 20
-260.4000000000451
 30
0.0
 40
1.503159791081544
  0
CIRCLE
  5
3A1
  8
PATTERN_FILL
  6
CONTINUOUS
 62
     7
 10
544.7944829750168
 20
-263.0000000000564
 30
0.0
 40
1.503159791081771
  0
CIRCLE
  5
3A2
  8
PATTERN_FILL
  6
CONTINUOUS
 62
     7
 10
549.991323183935
 20
-263.0000000000564
 30
0.0
 40
1.503159791081771
  0
CIRCLE
  5
3A3
  8
PATTERN_FILL
  6
CONTINUOUS
 62
     7
 10
555.1976427660995
 20
-263.0000000000564
 30
0.0
 40
1.503159791081771
  0
CIRCLE
  5
3A4
  8
PATTERN_FILL
  6
CONTINUOUS
 62
     7
 10
542.1976427660982
 20
-151.1999999995714
 30
0.0
 40
1.503159791081771
  0
CIRCLE
  5
3A5
  8
PATTERN_FILL
  6
CONTINUOUS
 62
     7
 10
547.3944829750164
 20
-151.1999999995714
 30
0.0
 40
1.503159791081771
  0
CIRCLE
  5
3A6
  8
PATTERN_FILL
  6
CONTINUOUS
 62
     7
 10
557.7976427660992
 20
-151.1999999995714
 30
0.0
 40
1.503159791081771
  0
CIRCLE
  5
3A7
  8
PATTERN_FILL
  6
CONTINUOUS
 62
     7
 10
552.6008025571812
 20
-151.1999999995714
 30
0.0
 40
1.503159791081544
  0
CIRCLE
  5
3A8
  8
PATTERN_FILL
  6
CONTINUOUS
 62
     7
 10
544.7944829750168
 20
-153.7999999995827
 30
0.0
 40
1.503159791081771
  0
CIRCLE
  5
3A9
  8
PATTERN_FILL
  6
CONTINUOUS
 62
     7
 10
549.991323183935
 20
-153.7999999995827
 30
0.0
 40
1.503159791081771
  0
CIRCLE
  5
3AA
  8
PATTERN_FILL
  6
CONTINUOUS
 62
     7
 10
555.1976427660995
 20
-153.7999999995827
 30
0.0
 40
1.503159791081771
  0
CIRCLE
  5
3AB
  8
PATTERN_FILL
  6
CONTINUOUS
 62
     7
 10
542.1976427660982
 20
-156.399999999594
 30
0.0
 40
1.503159791081771
  0
CIRCLE
  5
3AC
  8
PATTERN_FILL
  6
CONTINUOUS
 62
     7
 10
547.3944829750164
 20
-156.399999999594
 30
0.0
 40
1.503159791081771
  0
CIRCLE
  5
3AD
  8
PATTERN_FILL
  6
CONTINUOUS
 62
     7
 10
557.7976427660992
 20
-156.399999999594
 30
0.0
 40
1.503159791081771
  0
CIRCLE
  5
3AE
  8
PATTERN_FILL
  6
CONTINUOUS
 62
     7
 10
552.6008025571812
 20
-156.399999999594
 30
0.0
 40
1.503159791081544
  0
CIRCLE
  5
3AF
  8
PATTERN_FILL
  6
CONTINUOUS
 62
     7
 10
542.1976427660982
 20
-161.5999999996166
 30
0.0
 40
1.503159791081771
  0
CIRCLE
  5
3B0
  8
PATTERN_FILL
  6
CONTINUOUS
 62
     7
 10
547.3944829750164
 20
-161.5999999996166
 30
0.0
 40
1.503159791081771
  0
CIRCLE
  5
3B1
  8
PATTERN_FILL
  6
CONTINUOUS
 62
     7
 10
557.7976427660992
 20
-161.5999999996166
 30
0.0
 40
1.503159791081771
  0
CIRCLE
  5
3B2
  8
PATTERN_FILL
  6
CONTINUOUS
 62
     7
 10
552.6008025571812
 20
-161.5999999996166
 30
0.0
 40
1.503159791081544
  0
CIRCLE
  5
3B3
  8
PATTERN_FILL
  6
CONTINUOUS
 62
     7
 10
544.7944829750168
 20
-158.9999999996053
 30
0.0
 40
1.503159791081771
  0
CIRCLE
  5
3B4
  8
PATTERN_FILL
  6
CONTINUOUS
 62
     7
 10
549.991323183935
 20
-158.9999999996053
 30
0.0
 40
1.503159791081771
  0
CIRCLE
  5
3B5
  8
PATTERN_FILL
  6
CONTINUOUS
 62
     7
 10
555.1976427660995
 20
-158.9999999996053
 30
0.0
 40
1.503159791081771
  0
CIRCLE
  5
3B6
  8
PATTERN_FILL
  6
CONTINUOUS
 62
     7
 10
542.1976427660982
 20
-171.9999999996617
 30
0.0
 40
1.503159791081771
  0
CIRCLE
  5
3B7
  8
PATTERN_FILL
  6
CONTINUOUS
 62
     7
 10
547.3944829750164
 20
-171.9999999996617
 30
0.0
 40
1.503159791081771
  0
CIRCLE
  5
3B8
  8
PATTERN_FILL
  6
CONTINUOUS
 62
     7
 10
557.7976427660992
 20
-171.9999999996617
 30
0.0
 40
1.503159791081771
  0
CIRCLE
  5
3B9
  8
PATTERN_FILL
  6
CONTINUOUS
 62
     7
 10
552.6008025571812
 20
-171.9999999996617
 30
0.0
 40
1.503159791081544
  0
CIRCLE
  5
3BA
  8
PATTERN_FILL
  6
CONTINUOUS
 62
     7
 10
544.7944829750168
 20
-169.3999999996504
 30
0.0
 40
1.503159791081771
  0
CIRCLE
  5
3BB
  8
PATTERN_FILL
  6
CONTINUOUS
 62
     7
 10
549.991323183935
 20
-169.3999999996504
 30
0.0
 40
1.503159791081771
  0
CIRCLE
  5
3BC
  8
PATTERN_FILL
  6
CONTINUOUS
 62
     7
 10
555.1976427660995
 20
-169.3999999996504
 30
0.0
 40
1.503159791081771
  0
CIRCLE
  5
3BD
  8
PATTERN_FILL
  6
CONTINUOUS
 62
     7
 10
542.1976427660982
 20
-166.7999999996391
 30
0.0
 40
1.503159791081771
  0
CIRCLE
  5
3BE
  8
PATTERN_FILL
  6
CONTINUOUS
 62
     7
 10
547.3944829750164
 20
-166.7999999996391
 30
0.0
 40
1.503159791081771
  0
CIRCLE
  5
3BF
  8
PATTERN_FILL
  6
CONTINUOUS
 62
     7
 10
557.7976427660992
 20
-166.7999999996391
 30
0.0
 40
1.503159791081771
  0
CIRCLE
  5
3C0
  8
PATTERN_FILL
  6
CONTINUOUS
 62
     7
 10
552.6008025571812
 20
-166.7999999996391
 30
0.0
 40
1.503159791081544
  0
CIRCLE
  5
3C1
  8
PATTERN_FILL
  6
CONTINUOUS
 62
     7
 10
544.7944829750168
 20
-164.1999999996278
 30
0.0
 40
1.503159791081771
  0
CIRCLE
  5
3C2
  8
PATTERN_FILL
  6
CONTINUOUS
 62
     7
 10
549.991323183935
 20
-164.1999999996278
 30
0.0
 40
1.503159791081771
  0
CIRCLE
  5
3C3
  8
PATTERN_FILL
  6
CONTINUOUS
 62
     7
 10
555.1976427660995
 20
-164.1999999996278
 30
0.0
 40
1.503159791081771
  0
CIRCLE
  5
3C4
  8
PATTERN_FILL
  6
CONTINUOUS
 62
     7
 10
542.1976427660982
 20
-192.7999999997519
 30
0.0
 40
1.503159791081771
  0
CIRCLE
  5
3C5
  8
PATTERN_FILL
  6
CONTINUOUS
 62
     7
 10
547.3944829750164
 20
-192.7999999997519
 30
0.0
 40
1.503159791081771
  0
CIRCLE
  5
3C6
  8
PATTERN_FILL
  6
CONTINUOUS
 62
     7
 10
557.7976427660992
 20
-192.7999999997519
 30
0.0
 40
1.503159791081771
  0
CIRCLE
  5
3C7
  8
PATTERN_FILL
  6
CONTINUOUS
 62
     7
 10
552.6008025571812
 20
-192.7999999997519
 30
0.0
 40
1.503159791081544
  0
CIRCLE
  5
3C8
  8
PATTERN_FILL
  6
CONTINUOUS
 62
     7
 10
544.7944829750168
 20
-190.1999999997406
 30
0.0
 40
1.503159791081771
  0
CIRCLE
  5
3C9
  8
PATTERN_FILL
  6
CONTINUOUS
 62
     7
 10
549.991323183935
 20
-190.1999999997406
 30
0.0
 40
1.503159791081771
  0
CIRCLE
  5
3CA
  8
PATTERN_FILL
  6
CONTINUOUS
 62
     7
 10
555.1976427660995
 20
-190.1999999997406
 30
0.0
 40
1.503159791081771
  0
CIRCLE
  5
3CB
  8
PATTERN_FILL
  6
CONTINUOUS
 62
     7
 10
542.1976427660982
 20
-187.5999999997293
 30
0.0
 40
1.503159791081771
  0
CIRCLE
  5
3CC
  8
PATTERN_FILL
  6
CONTINUOUS
 62
     7
 10
547.3944829750164
 20
-187.5999999997293
 30
0.0
 40
1.503159791081771
  0
CIRCLE
  5
3CD
  8
PATTERN_FILL
  6
CONTINUOUS
 62
     7
 10
557.7976427660992
 20
-187.5999999997293
 30
0.0
 40
1.503159791081771
  0
CIRCLE
  5
3CE
  8
PATTERN_FILL
  6
CONTINUOUS
 62
     7
 10
552.6008025571812
 20
-187.5999999997293
 30
0.0
 40
1.503159791081544
  0
CIRCLE
  5
3CF
  8
PATTERN_FILL
  6
CONTINUOUS
 62
     7
 10
542.1976427660982
 20
-182.3999999997068
 30
0.0
 40
1.503159791081771
  0
CIRCLE
  5
3D0
  8
PATTERN_FILL
  6
CONTINUOUS
 62
     7
 10
547.3944829750164
 20
-182.3999999997068
 30
0.0
 40
1.503159791081771
  0
CIRCLE
  5
3D1
  8
PATTERN_FILL
  6
CONTINUOUS
 62
     7
 10
557.7976427660992
 20
-182.3999999997068
 30
0.0
 40
1.503159791081771
  0
CIRCLE
  5
3D2
  8
PATTERN_FILL
  6
CONTINUOUS
 62
     7
 10
552.6008025571812
 20
-182.3999999997068
 30
0.0
 40
1.503159791081544
  0
CIRCLE
  5
3D3
  8
PATTERN_FILL
  6
CONTINUOUS
 62
     7
 10
544.7944829750168
 20
-184.9999999997181
 30
0.0
 40
1.503159791081771
  0
CIRCLE
  5
3D4
  8
PATTERN_FILL
  6
CONTINUOUS
 62
     7
 10
549.991323183935
 20
-184.9999999997181
 30
0.0
 40
1.503159791081771
  0
CIRCLE
  5
3D5
  8
PATTERN_FILL
  6
CONTINUOUS
 62
     7
 10
555.1976427660995
 20
-184.9999999997181
 30
0.0
 40
1.503159791081771
  0
CIRCLE
  5
3D6
  8
PATTERN_FILL
  6
CONTINUOUS
 62
     7
 10
544.7944829750168
 20
-174.5999999996729
 30
0.0
 40
1.503159791081771
  0
CIRCLE
  5
3D7
  8
PATTERN_FILL
  6
CONTINUOUS
 62
     7
 10
549.991323183935
 20
-174.5999999996729
 30
0.0
 40
1.503159791081771
  0
CIRCLE
  5
3D8
  8
PATTERN_FILL
  6
CONTINUOUS
 62
     7
 10
555.1976427660995
 20
-174.5999999996729
 30
0.0
 40
1.503159791081771
  0
CIRCLE
  5
3D9
  8
PATTERN_FILL
  6
CONTINUOUS
 62
     7
 10
542.1976427660982
 20
-177.1999999996842
 30
0.0
 40
1.503159791081771
  0
CIRCLE
  5
3DA
  8
PATTERN_FILL
  6
CONTINUOUS
 62
     7
 10
547.3944829750164
 20
-177.1999999996842
 30
0.0
 40
1.503159791081771
  0
CIRCLE
  5
3DB
  8
PATTERN_FILL
  6
CONTINUOUS
 62
     7
 10
557.7976427660992
 20
-177.1999999996842
 30
0.0
 40
1.503159791081771
  0
CIRCLE
  5
3DC
  8
PATTERN_FILL
  6
CONTINUOUS
 62
     7
 10
552.6008025571812
 20
-177.1999999996842
 30
0.0
 40
1.503159791081544
  0
CIRCLE
  5
3DD
  8
PATTERN_FILL
  6
CONTINUOUS
 62
     7
 10
544.7944829750168
 20
-179.7999999996955
 30
0.0
 40
1.503159791081771
  0
CIRCLE
  5
3DE
  8
PATTERN_FILL
  6
CONTINUOUS
 62
     7
 10
549.991323183935
 20
-179.7999999996955
 30
0.0
 40
1.503159791081771
  0
CIRCLE
  5
3DF
  8
PATTERN_FILL
  6
CONTINUOUS
 62
     7
 10
555.1976427660995
 20
-179.7999999996955
 30
0.0
 40
1.503159791081771
  0
CIRCLE
  5
3E0
  8
PATTERN_FILL
  6
CONTINUOUS
 62
     7
 10
544.7944829750168
 20
-231.7999999999211
 30
0.0
 40
1.503159791081771
  0
CIRCLE
  5
3E1
  8
PATTERN_FILL
  6
CONTINUOUS
 62
     7
 10
549.991323183935
 20
-231.7999999999211
 30
0.0
 40
1.503159791081771
  0
CIRCLE
  5
3E2
  8
PATTERN_FILL
  6
CONTINUOUS
 62
     7
 10
555.1976427660995
 20
-231.7999999999211
 30
0.0
 40
1.503159791081771
  0
CIRCLE
  5
3E3
  8
PATTERN_FILL
  6
CONTINUOUS
 62
     7
 10
542.1976427660982
 20
-229.1999999999098
 30
0.0
 40
1.503159791081771
  0
CIRCLE
  5
3E4
  8
PATTERN_FILL
  6
CONTINUOUS
 62
     7
 10
547.3944829750164
 20
-229.1999999999098
 30
0.0
 40
1.503159791081771
  0
CIRCLE
  5
3E5
  8
PATTERN_FILL
  6
CONTINUOUS
 62
     7
 10
557.7976427660992
 20
-229.1999999999098
 30
0.0
 40
1.503159791081771
  0
CIRCLE
  5
3E6
  8
PATTERN_FILL
  6
CONTINUOUS
 62
     7
 10
552.6008025571812
 20
-229.1999999999098
 30
0.0
 40
1.503159791081544
  0
CIRCLE
  5
3E7
  8
PATTERN_FILL
  6
CONTINUOUS
 62
     7
 10
542.1976427660982
 20
-223.9999999998872
 30
0.0
 40
1.503159791081771
  0
CIRCLE
  5
3E8
  8
PATTERN_FILL
  6
CONTINUOUS
 62
     7
 10
547.3944829750164
 20
-223.9999999998872
 30
0.0
 40
1.503159791081771
  0
CIRCLE
  5
3E9
  8
PATTERN_FILL
  6
CONTINUOUS
 62
     7
 10
557.7976427660992
 20
-223.9999999998872
 30
0.0
 40
1.503159791081771
  0
CIRCLE
  5
3EA
  8
PATTERN_FILL
  6
CONTINUOUS
 62
     7
 10
552.6008025571812
 20
-223.9999999998872
 30
0.0
 40
1.503159791081544
  0
CIRCLE
  5
3EB
  8
PATTERN_FILL
  6
CONTINUOUS
 62
     7
 10
544.7944829750168
 20
-226.5999999998985
 30
0.0
 40
1.503159791081771
  0
CIRCLE
  5
3EC
  8
PATTERN_FILL
  6
CONTINUOUS
 62
     7
 10
549.991323183935
 20
-226.5999999998985
 30
0.0
 40
1.503159791081771
  0
CIRCLE
  5
3ED
  8
PATTERN_FILL
  6
CONTINUOUS
 62
     7
 10
555.1976427660995
 20
-226.5999999998985
 30
0.0
 40
1.503159791081771
  0
CIRCLE
  5
3EE
  8
PATTERN_FILL
  6
CONTINUOUS
 62
     7
 10
542.1976427660982
 20
-213.5999999998421
 30
0.0
 40
1.503159791081771
  0
CIRCLE
  5
3EF
  8
PATTERN_FILL
  6
CONTINUOUS
 62
     7
 10
547.3944829750164
 20
-213.5999999998421
 30
0.0
 40
1.503159791081771
  0
CIRCLE
  5
3F0
  8
PATTERN_FILL
  6
CONTINUOUS
 62
     7
 10
557.7976427660992
 20
-213.5999999998421
 30
0.0
 40
1.503159791081771
  0
CIRCLE
  5
3F1
  8
PATTERN_FILL
  6
CONTINUOUS
 62
     7
 10
552.6008025571812
 20
-213.5999999998421
 30
0.0
 40
1.503159791081544
  0
CIRCLE
  5
3F2
  8
PATTERN_FILL
  6
CONTINUOUS
 62
     7
 10
544.7944829750168
 20
-216.1999999998534
 30
0.0
 40
1.503159791081771
  0
CIRCLE
  5
3F3
  8
PATTERN_FILL
  6
CONTINUOUS
 62
     7
 10
549.991323183935
 20
-216.1999999998534
 30
0.0
 40
1.503159791081771
  0
CIRCLE
  5
3F4
  8
PATTERN_FILL
  6
CONTINUOUS
 62
     7
 10
555.1976427660995
 20
-216.1999999998534
 30
0.0
 40
1.503159791081771
  0
CIRCLE
  5
3F5
  8
PATTERN_FILL
  6
CONTINUOUS
 62
     7
 10
542.1976427660982
 20
-218.7999999998647
 30
0.0
 40
1.503159791081771
  0
CIRCLE
  5
3F6
  8
PATTERN_FILL
  6
CONTINUOUS
 62
     7
 10
547.3944829750164
 20
-218.7999999998647
 30
0.0
 40
1.503159791081771
  0
CIRCLE
  5
3F7
  8
PATTERN_FILL
  6
CONTINUOUS
 62
     7
 10
557.7976427660992
 20
-218.7999999998647
 30
0.0
 40
1.503159791081771
  0
CIRCLE
  5
3F8
  8
PATTERN_FILL
  6
CONTINUOUS
 62
     7
 10
552.6008025571812
 20
-218.7999999998647
 30
0.0
 40
1.503159791081544
  0
CIRCLE
  5
3F9
  8
PATTERN_FILL
  6
CONTINUOUS
 62
     7
 10
544.7944829750168
 20
-221.3999999998759
 30
0.0
 40
1.503159791081771
  0
CIRCLE
  5
3FA
  8
PATTERN_FILL
  6
CONTINUOUS
 62
     7
 10
549.991323183935
 20
-221.3999999998759
 30
0.0
 40
1.503159791081771
  0
CIRCLE
  5
3FB
  8
PATTERN_FILL
  6
CONTINUOUS
 62
     7
 10
555.1976427660995
 20
-221.3999999998759
 30
0.0
 40
1.503159791081771
  0
CIRCLE
  5
3FC
  8
PATTERN_FILL
  6
CONTINUOUS
 62
     7
 10
544.7944829750168
 20
-195.3999999997632
 30
0.0
 40
1.503159791081771
  0
CIRCLE
  5
3FD
  8
PATTERN_FILL
  6
CONTINUOUS
 62
     7
 10
549.991323183935
 20
-195.3999999997632
 30
0.0
 40
1.503159791081771
  0
CIRCLE
  5
3FE
  8
PATTERN_FILL
  6
CONTINUOUS
 62
     7
 10
555.1976427660995
 20
-195.3999999997632
 30
0.0
 40
1.503159791081771
  0
CIRCLE
  5
3FF
  8
PATTERN_FILL
  6
CONTINUOUS
 62
     7
 10
542.1976427660982
 20
-197.9999999997744
 30
0.0
 40
1.503159791081771
  0
CIRCLE
  5
400
  8
PATTERN_FILL
  6
CONTINUOUS
 62
     7
 10
547.3944829750164
 20
-197.9999999997744
 30
0.0
 40
1.503159791081771
  0
CIRCLE
  5
401
  8
PATTERN_FILL
  6
CONTINUOUS
 62
     7
 10
557.7976427660992
 20
-197.9999999997744
 30
0.0
 40
1.503159791081771
  0
CIRCLE
  5
402
  8
PATTERN_FILL
  6
CONTINUOUS
 62
     7
 10
552.6008025571812
 20
-197.9999999997744
 30
0.0
 40
1.503159791081544
  0
CIRCLE
  5
403
  8
PATTERN_FILL
  6
CONTINUOUS
 62
     7
 10
542.1976427660982
 20
-203.199999999797
 30
0.0
 40
1.503159791081771
  0
CIRCLE
  5
404
  8
PATTERN_FILL
  6
CONTINUOUS
 62
     7
 10
547.3944829750164
 20
-203.199999999797
 30
0.0
 40
1.503159791081771
  0
CIRCLE
  5
405
  8
PATTERN_FILL
  6
CONTINUOUS
 62
     7
 10
557.7976427660992
 20
-203.199999999797
 30
0.0
 40
1.503159791081771
  0
CIRCLE
  5
406
  8
PATTERN_FILL
  6
CONTINUOUS
 62
     7
 10
552.6008025571812
 20
-203.199999999797
 30
0.0
 40
1.503159791081544
  0
CIRCLE
  5
407
  8
PATTERN_FILL
  6
CONTINUOUS
 62
     7
 10
544.7944829750168
 20
-200.5999999997857
 30
0.0
 40
1.503159791081771
  0
CIRCLE
  5
408
  8
PATTERN_FILL
  6
CONTINUOUS
 62
     7
 10
549.991323183935
 20
-200.5999999997857
 30
0.0
 40
1.503159791081771
  0
CIRCLE
  5
409
  8
PATTERN_FILL
  6
CONTINUOUS
 62
     7
 10
555.1976427660995
 20
-200.5999999997857
 30
0.0
 40
1.503159791081771
  0
CIRCLE
  5
40A
  8
PATTERN_FILL
  6
CONTINUOUS
 62
     7
 10
544.7944829750168
 20
-210.9999999998308
 30
0.0
 40
1.503159791081771
  0
CIRCLE
  5
40B
  8
PATTERN_FILL
  6
CONTINUOUS
 62
     7
 10
549.991323183935
 20
-210.9999999998308
 30
0.0
 40
1.503159791081771
  0
CIRCLE
  5
40C
  8
PATTERN_FILL
  6
CONTINUOUS
 62
     7
 10
555.1976427660995
 20
-210.9999999998308
 30
0.0
 40
1.503159791081771
  0
CIRCLE
  5
40D
  8
PATTERN_FILL
  6
CONTINUOUS
 62
     7
 10
542.1976427660982
 20
-208.3999999998196
 30
0.0
 40
1.503159791081771
  0
CIRCLE
  5
40E
  8
PATTERN_FILL
  6
CONTINUOUS
 62
     7
 10
547.3944829750164
 20
-208.3999999998196
 30
0.0
 40
1.503159791081771
  0
CIRCLE
  5
40F
  8
PATTERN_FILL
  6
CONTINUOUS
 62
     7
 10
557.7976427660992
 20
-208.3999999998196
 30
0.0
 40
1.503159791081771
  0
CIRCLE
  5
410
  8
PATTERN_FILL
  6
CONTINUOUS
 62
     7
 10
552.6008025571812
 20
-208.3999999998196
 30
0.0
 40
1.503159791081544
  0
CIRCLE
  5
411
  8
PATTERN_FILL
  6
CONTINUOUS
 62
     7
 10
544.7944829750168
 20
-205.7999999998083
 30
0.0
 40
1.503159791081771
  0
CIRCLE
  5
412
  8
PATTERN_FILL
  6
CONTINUOUS
 62
     7
 10
549.991323183935
 20
-205.7999999998083
 30
0.0
 40
1.503159791081771
  0
CIRCLE
  5
413
  8
PATTERN_FILL
  6
CONTINUOUS
 62
     7
 10
555.1976427660995
 20
-205.7999999998083
 30
0.0
 40
1.503159791081771
  0
CIRCLE
  5
414
  8
PATTERN_FILL
  6
CONTINUOUS
 62
     7
 10
542.1976427660982
 20
-5.599999998939893
 30
0.0
 40
1.503159791081771
  0
CIRCLE
  5
415
  8
PATTERN_FILL
  6
CONTINUOUS
 62
     7
 10
547.3944829750164
 20
-5.599999998939893
 30
0.0
 40
1.503159791081771
  0
CIRCLE
  5
416
  8
PATTERN_FILL
  6
CONTINUOUS
 62
     7
 10
557.7976427660992
 20
-5.599999998939893
 30
0.0
 40
1.503159791081771
  0
CIRCLE
  5
417
  8
PATTERN_FILL
  6
CONTINUOUS
 62
     7
 10
552.6008025571812
 20
-5.599999998939893
 30
0.0
 40
1.503159791081544
  0
CIRCLE
  5
418
  8
PATTERN_FILL
  6
CONTINUOUS
 62
     7
 10
542.1976427660982
 20
-26.39999999903011
 30
0.0
 40
1.503159791081771
  0
CIRCLE
  5
419
  8
PATTERN_FILL
  6
CONTINUOUS
 62
     7
 10
547.3944829750164
 20
-26.39999999903011
 30
0.0
 40
1.503159791081771
  0
CIRCLE
  5
41A
  8
PATTERN_FILL
  6
CONTINUOUS
 62
     7
 10
557.7976427660992
 20
-26.39999999903011
 30
0.0
 40
1.503159791081771
  0
CIRCLE
  5
41B
  8
PATTERN_FILL
  6
CONTINUOUS
 62
     7
 10
552.6008025571812
 20
-26.39999999903011
 30
0.0
 40
1.503159791081544
  0
CIRCLE
  5
41C
  8
PATTERN_FILL
  6
CONTINUOUS
 62
     7
 10
544.7944829750168
 20
-23.79999999901884
 30
0.0
 40
1.503159791081771
  0
CIRCLE
  5
41D
  8
PATTERN_FILL
  6
CONTINUOUS
 62
     7
 10
549.991323183935
 20
-23.79999999901884
 30
0.0
 40
1.503159791081771
  0
CIRCLE
  5
41E
  8
PATTERN_FILL
  6
CONTINUOUS
 62
     7
 10
555.1976427660995
 20
-23.79999999901884
 30
0.0
 40
1.503159791081771
  0
CIRCLE
  5
41F
  8
PATTERN_FILL
  6
CONTINUOUS
 62
     7
 10
542.1976427660982
 20
-21.19999999900756
 30
0.0
 40
1.503159791081771
  0
CIRCLE
  5
420
  8
PATTERN_FILL
  6
CONTINUOUS
 62
     7
 10
547.3944829750164
 20
-21.19999999900756
 30
0.0
 40
1.503159791081771
  0
CIRCLE
  5
421
  8
PATTERN_FILL
  6
CONTINUOUS
 62
     7
 10
557.7976427660992
 20
-21.19999999900756
 30
0.0
 40
1.503159791081771
  0
CIRCLE
  5
422
  8
PATTERN_FILL
  6
CONTINUOUS
 62
     7
 10
552.6008025571812
 20
-21.19999999900756
 30
0.0
 40
1.503159791081544
  0
CIRCLE
  5
423
  8
PATTERN_FILL
  6
CONTINUOUS
 62
     7
 10
542.1976427660982
 20
-15.999999998985
 30
0.0
 40
1.503159791081771
  0
CIRCLE
  5
424
  8
PATTERN_FILL
  6
CONTINUOUS
 62
     7
 10
547.3944829750164
 20
-15.999999998985
 30
0.0
 40
1.503159791081771
  0
CIRCLE
  5
425
  8
PATTERN_FILL
  6
CONTINUOUS
 62
     7
 10
557.7976427660992
 20
-15.999999998985
 30
0.0
 40
1.503159791081771
  0
CIRCLE
  5
426
  8
PATTERN_FILL
  6
CONTINUOUS
 62
     7
 10
552.6008025571812
 20
-15.999999998985
 30
0.0
 40
1.503159791081544
  0
CIRCLE
  5
427
  8
PATTERN_FILL
  6
CONTINUOUS
 62
     7
 10
544.7944829750168
 20
-18.59999999899628
 30
0.0
 40
1.503159791081771
  0
CIRCLE
  5
428
  8
PATTERN_FILL
  6
CONTINUOUS
 62
     7
 10
549.991323183935
 20
-18.59999999899628
 30
0.0
 40
1.503159791081771
  0
CIRCLE
  5
429
  8
PATTERN_FILL
  6
CONTINUOUS
 62
     7
 10
555.1976427660995
 20
-18.59999999899628
 30
0.0
 40
1.503159791081771
  0
CIRCLE
  5
42A
  8
PATTERN_FILL
  6
CONTINUOUS
 62
     7
 10
544.7944829750168
 20
-8.19999999895117
 30
0.0
 40
1.503159791081771
  0
CIRCLE
  5
42B
  8
PATTERN_FILL
  6
CONTINUOUS
 62
     7
 10
549.991323183935
 20
-8.19999999895117
 30
0.0
 40
1.503159791081771
  0
CIRCLE
  5
42C
  8
PATTERN_FILL
  6
CONTINUOUS
 62
     7
 10
555.1976427660995
 20
-8.19999999895117
 30
0.0
 40
1.503159791081771
  0
CIRCLE
  5
42D
  8
PATTERN_FILL
  6
CONTINUOUS
 62
     7
 10
542.1976427660982
 20
-10.79999999896245
 30
0.0
 40
1.503159791081771
  0
CIRCLE
  5
42E
  8
PATTERN_FILL
  6
CONTINUOUS
 62
     7
 10
547.3944829750164
 20
-10.79999999896245
 30
0.0
 40
1.503159791081771
  0
CIRCLE
  5
42F
  8
PATTERN_FILL
  6
CONTINUOUS
 62
     7
 10
557.7976427660992
 20
-10.79999999896245
 30
0.0
 40
1.503159791081771
  0
CIRCLE
  5
430
  8
PATTERN_FILL
  6
CONTINUOUS
 62
     7
 10
552.6008025571812
 20
-10.79999999896245
 30
0.0
 40
1.503159791081544
  0
CIRCLE
  5
431
  8
PATTERN_FILL
  6
CONTINUOUS
 62
     7
 10
544.7944829750168
 20
-13.39999999897373
 30
0.0
 40
1.503159791081771
  0
CIRCLE
  5
432
  8
PATTERN_FILL
  6
CONTINUOUS
 62
     7
 10
549.991323183935
 20
-13.39999999897373
 30
0.0
 40
1.503159791081771
  0
CIRCLE
  5
433
  8
PATTERN_FILL
  6
CONTINUOUS
 62
     7
 10
555.1976427660995
 20
-13.39999999897373
 30
0.0
 40
1.503159791081771
  0
CIRCLE
  5
434
  8
PATTERN_FILL
  6
CONTINUOUS
 62
     7
 10
542.1976427660982
 20
-67.99999999921056
 30
0.0
 40
1.503159791081771
  0
CIRCLE
  5
435
  8
PATTERN_FILL
  6
CONTINUOUS
 62
     7
 10
547.3944829750164
 20
-67.99999999921056
 30
0.0
 40
1.503159791081771
  0
CIRCLE
  5
436
  8
PATTERN_FILL
  6
CONTINUOUS
 62
     7
 10
557.7976427660992
 20
-67.99999999921056
 30
0.0
 40
1.503159791081771
  0
CIRCLE
  5
437
  8
PATTERN_FILL
  6
CONTINUOUS
 62
     7
 10
552.6008025571812
 20
-67.99999999921056
 30
0.0
 40
1.503159791081544
  0
CIRCLE
  5
438
  8
PATTERN_FILL
  6
CONTINUOUS
 62
     7
 10
544.7944829750168
 20
-65.39999999919928
 30
0.0
 40
1.503159791081771
  0
CIRCLE
  5
439
  8
PATTERN_FILL
  6
CONTINUOUS
 62
     7
 10
549.991323183935
 20
-65.39999999919928
 30
0.0
 40
1.503159791081771
  0
CIRCLE
  5
43A
  8
PATTERN_FILL
  6
CONTINUOUS
 62
     7
 10
555.1976427660995
 20
-65.39999999919928
 30
0.0
 40
1.503159791081771
  0
CIRCLE
  5
43B
  8
PATTERN_FILL
  6
CONTINUOUS
 62
     7
 10
542.1976427660982
 20
-62.799999999188
 30
0.0
 40
1.503159791081771
  0
CIRCLE
  5
43C
  8
PATTERN_FILL
  6
CONTINUOUS
 62
     7
 10
547.3944829750164
 20
-62.799999999188
 30
0.0
 40
1.503159791081771
  0
CIRCLE
  5
43D
  8
PATTERN_FILL
  6
CONTINUOUS
 62
     7
 10
557.7976427660992
 20
-62.799999999188
 30
0.0
 40
1.503159791081771
  0
CIRCLE
  5
43E
  8
PATTERN_FILL
  6
CONTINUOUS
 62
     7
 10
552.6008025571812
 20
-62.799999999188
 30
0.0
 40
1.503159791081544
  0
CIRCLE
  5
43F
  8
PATTERN_FILL
  6
CONTINUOUS
 62
     7
 10
542.1976427660982
 20
-57.59999999916545
 30
0.0
 40
1.503159791081771
  0
CIRCLE
  5
440
  8
PATTERN_FILL
  6
CONTINUOUS
 62
     7
 10
547.3944829750164
 20
-57.59999999916545
 30
0.0
 40
1.503159791081771
  0
CIRCLE
  5
441
  8
PATTERN_FILL
  6
CONTINUOUS
 62
     7
 10
557.7976427660992
 20
-57.59999999916545
 30
0.0
 40
1.503159791081771
  0
CIRCLE
  5
442
  8
PATTERN_FILL
  6
CONTINUOUS
 62
     7
 10
552.6008025571812
 20
-57.59999999916545
 30
0.0
 40
1.503159791081544
  0
CIRCLE
  5
443
  8
PATTERN_FILL
  6
CONTINUOUS
 62
     7
 10
544.7944829750168
 20
-60.19999999917673
 30
0.0
 40
1.503159791081771
  0
CIRCLE
  5
444
  8
PATTERN_FILL
  6
CONTINUOUS
 62
     7
 10
549.991323183935
 20
-60.19999999917673
 30
0.0
 40
1.503159791081771
  0
CIRCLE
  5
445
  8
PATTERN_FILL
  6
CONTINUOUS
 62
     7
 10
555.1976427660995
 20
-60.19999999917673
 30
0.0
 40
1.503159791081771
  0
CIRCLE
  5
446
  8
PATTERN_FILL
  6
CONTINUOUS
 62
     7
 10
542.1976427660982
 20
-47.19999999912034
 30
0.0
 40
1.503159791081771
  0
CIRCLE
  5
447
  8
PATTERN_FILL
  6
CONTINUOUS
 62
     7
 10
547.3944829750164
 20
-47.19999999912034
 30
0.0
 40
1.503159791081771
  0
CIRCLE
  5
448
  8
PATTERN_FILL
  6
CONTINUOUS
 62
     7
 10
557.7976427660992
 20
-47.19999999912034
 30
0.0
 40
1.503159791081771
  0
CIRCLE
  5
449
  8
PATTERN_FILL
  6
CONTINUOUS
 62
     7
 10
552.6008025571812
 20
-47.19999999912034
 30
0.0
 40
1.503159791081544
  0
CIRCLE
  5
44A
  8
PATTERN_FILL
  6
CONTINUOUS
 62
     7
 10
544.7944829750168
 20
-49.79999999913161
 30
0.0
 40
1.503159791081771
  0
CIRCLE
  5
44B
  8
PATTERN_FILL
  6
CONTINUOUS
 62
     7
 10
549.991323183935
 20
-49.79999999913161
 30
0.0
 40
1.503159791081771
  0
CIRCLE
  5
44C
  8
PATTERN_FILL
  6
CONTINUOUS
 62
     7
 10
555.1976427660995
 20
-49.79999999913161
 30
0.0
 40
1.503159791081771
  0
CIRCLE
  5
44D
  8
PATTERN_FILL
  6
CONTINUOUS
 62
     7
 10
542.1976427660982
 20
-52.39999999914289
 30
0.0
 40
1.503159791081771
  0
CIRCLE
  5
44E
  8
PATTERN_FILL
  6
CONTINUOUS
 62
     7
 10
547.3944829750164
 20
-52.39999999914289
 30
0.0
 40
1.503159791081771
  0
CIRCLE
  5
44F
  8
PATTERN_FILL
  6
CONTINUOUS
 62
     7
 10
557.7976427660992
 20
-52.39999999914289
 30
0.0
 40
1.503159791081771
  0
CIRCLE
  5
450
  8
PATTERN_FILL
  6
CONTINUOUS
 62
     7
 10
552.6008025571812
 20
-52.39999999914289
 30
0.0
 40
1.503159791081544
  0
CIRCLE
  5
451
  8
PATTERN_FILL
  6
CONTINUOUS
 62
     7
 10
544.7944829750168
 20
-54.99999999915417
 30
0.0
 40
1.503159791081771
  0
CIRCLE
  5
452
  8
PATTERN_FILL
  6
CONTINUOUS
 62
     7
 10
549.991323183935
 20
-54.99999999915417
 30
0.0
 40
1.503159791081771
  0
CIRCLE
  5
453
  8
PATTERN_FILL
  6
CONTINUOUS
 62
     7
 10
555.1976427660995
 20
-54.99999999915417
 30
0.0
 40
1.503159791081771
  0
CIRCLE
  5
454
  8
PATTERN_FILL
  6
CONTINUOUS
 62
     7
 10
544.7944829750168
 20
-28.99999999904139
 30
0.0
 40
1.503159791081771
  0
CIRCLE
  5
455
  8
PATTERN_FILL
  6
CONTINUOUS
 62
     7
 10
549.991323183935
 20
-28.99999999904139
 30
0.0
 40
1.503159791081771
  0
CIRCLE
  5
456
  8
PATTERN_FILL
  6
CONTINUOUS
 62
     7
 10
555.1976427660995
 20
-28.99999999904139
 30
0.0
 40
1.503159791081771
  0
CIRCLE
  5
457
  8
PATTERN_FILL
  6
CONTINUOUS
 62
     7
 10
542.1976427660982
 20
-31.59999999905267
 30
0.0
 40
1.503159791081771
  0
CIRCLE
  5
458
  8
PATTERN_FILL
  6
CONTINUOUS
 62
     7
 10
547.3944829750164
 20
-31.59999999905267
 30
0.0
 40
1.503159791081771
  0
CIRCLE
  5
459
  8
PATTERN_FILL
  6
CONTINUOUS
 62
     7
 10
557.7976427660992
 20
-31.59999999905267
 30
0.0
 40
1.503159791081771
  0
CIRCLE
  5
45A
  8
PATTERN_FILL
  6
CONTINUOUS
 62
     7
 10
552.6008025571812
 20
-31.59999999905267
 30
0.0
 40
1.503159791081544
  0
CIRCLE
  5
45B
  8
PATTERN_FILL
  6
CONTINUOUS
 62
     7
 10
542.1976427660982
 20
-36.79999999907523
 30
0.0
 40
1.503159791081771
  0
CIRCLE
  5
45C
  8
PATTERN_FILL
  6
CONTINUOUS
 62
     7
 10
547.3944829750164
 20
-36.79999999907523
 30
0.0
 40
1.503159791081771
  0
CIRCLE
  5
45D
  8
PATTERN_FILL
  6
CONTINUOUS
 62
     7
 10
557.7976427660992
 20
-36.79999999907523
 30
0.0
 40
1.503159791081771
  0
CIRCLE
  5
45E
  8
PATTERN_FILL
  6
CONTINUOUS
 62
     7
 10
552.6008025571812
 20
-36.79999999907523
 30
0.0
 40
1.503159791081544
  0
CIRCLE
  5
45F
  8
PATTERN_FILL
  6
CONTINUOUS
 62
     7
 10
544.7944829750168
 20
-34.19999999906395
 30
0.0
 40
1.503159791081771
  0
CIRCLE
  5
460
  8
PATTERN_FILL
  6
CONTINUOUS
 62
     7
 10
549.991323183935
 20
-34.19999999906395
 30
0.0
 40
1.503159791081771
  0
CIRCLE
  5
461
  8
PATTERN_FILL
  6
CONTINUOUS
 62
     7
 10
555.1976427660995
 20
-34.19999999906395
 30
0.0
 40
1.503159791081771
  0
CIRCLE
  5
462
  8
PATTERN_FILL
  6
CONTINUOUS
 62
     7
 10
544.7944829750168
 20
-44.59999999910906
 30
0.0
 40
1.503159791081771
  0
CIRCLE
  5
463
  8
PATTERN_FILL
  6
CONTINUOUS
 62
     7
 10
549.991323183935
 20
-44.59999999910906
 30
0.0
 40
1.503159791081771
  0
CIRCLE
  5
464
  8
PATTERN_FILL
  6
CONTINUOUS
 62
     7
 10
555.1976427660995
 20
-44.59999999910906
 30
0.0
 40
1.503159791081771
  0
CIRCLE
  5
465
  8
PATTERN_FILL
  6
CONTINUOUS
 62
     7
 10
542.1976427660982
 20
-41.99999999909778
 30
0.0
 40
1.503159791081771
  0
CIRCLE
  5
466
  8
PATTERN_FILL
  6
CONTINUOUS
 62
     7
 10
547.3944829750164
 20
-41.99999999909778
 30
0.0
 40
1.503159791081771
  0
CIRCLE
  5
467
  8
PATTERN_FILL
  6
CONTINUOUS
 62
     7
 10
557.7976427660992
 20
-41.99999999909778
 30
0.0
 40
1.503159791081771
  0
CIRCLE
  5
468
  8
PATTERN_FILL
  6
CONTINUOUS
 62
     7
 10
552.6008025571812
 20
-41.99999999909778
 30
0.0
 40
1.503159791081544
  0
CIRCLE
  5
469
  8
PATTERN_FILL
  6
CONTINUOUS
 62
     7
 10
544.7944829750168
 20
-39.3999999990865
 30
0.0
 40
1.503159791081771
  0
CIRCLE
  5
46A
  8
PATTERN_FILL
  6
CONTINUOUS
 62
     7
 10
549.991323183935
 20
-39.3999999990865
 30
0.0
 40
1.503159791081771
  0
CIRCLE
  5
46B
  8
PATTERN_FILL
  6
CONTINUOUS
 62
     7
 10
555.1976427660995
 20
-39.3999999990865
 30
0.0
 40
1.503159791081771
  0
CIRCLE
  5
46C
  8
PATTERN_FILL
  6
CONTINUOUS
 62
     7
 10
544.7944829750168
 20
-148.5999999995602
 30
0.0
 40
1.503159791081771
  0
CIRCLE
  5
46D
  8
PATTERN_FILL
  6
CONTINUOUS
 62
     7
 10
549.991323183935
 20
-148.5999999995602
 30
0.0
 40
1.503159791081771
  0
CIRCLE
  5
46E
  8
PATTERN_FILL
  6
CONTINUOUS
 62
     7
 10
555.1976427660995
 20
-148.5999999995602
 30
0.0
 40
1.503159791081771
  0
CIRCLE
  5
46F
  8
PATTERN_FILL
  6
CONTINUOUS
 62
     7
 10
542.1976427660982
 20
-145.9999999995489
 30
0.0
 40
1.503159791081771
  0
CIRCLE
  5
470
  8
PATTERN_FILL
  6
CONTINUOUS
 62
     7
 10
547.3944829750164
 20
-145.9999999995489
 30
0.0
 40
1.503159791081771
  0
CIRCLE
  5
471
  8
PATTERN_FILL
  6
CONTINUOUS
 62
     7
 10
557.7976427660992
 20
-145.9999999995489
 30
0.0
 40
1.503159791081771
  0
CIRCLE
  5
472
  8
PATTERN_FILL
  6
CONTINUOUS
 62
     7
 10
552.6008025571812
 20
-145.9999999995489
 30
0.0
 40
1.503159791081544
  0
CIRCLE
  5
473
  8
PATTERN_FILL
  6
CONTINUOUS
 62
     7
 10
542.1976427660982
 20
-140.7999999995263
 30
0.0
 40
1.503159791081771
  0
CIRCLE
  5
474
  8
PATTERN_FILL
  6
CONTINUOUS
 62
     7
 10
547.3944829750164
 20
-140.7999999995263
 30
0.0
 40
1.503159791081771
  0
CIRCLE
  5
475
  8
PATTERN_FILL
  6
CONTINUOUS
 62
     7
 10
557.7976427660992
 20
-140.7999999995263
 30
0.0
 40
1.503159791081771
  0
CIRCLE
  5
476
  8
PATTERN_FILL
  6
CONTINUOUS
 62
     7
 10
552.6008025571812
 20
-140.7999999995263
 30
0.0
 40
1.503159791081544
  0
CIRCLE
  5
477
  8
PATTERN_FILL
  6
CONTINUOUS
 62
     7
 10
544.7944829750168
 20
-143.3999999995376
 30
0.0
 40
1.503159791081771
  0
CIRCLE
  5
478
  8
PATTERN_FILL
  6
CONTINUOUS
 62
     7
 10
549.991323183935
 20
-143.3999999995376
 30
0.0
 40
1.503159791081771
  0
CIRCLE
  5
479
  8
PATTERN_FILL
  6
CONTINUOUS
 62
     7
 10
555.1976427660995
 20
-143.3999999995376
 30
0.0
 40
1.503159791081771
  0
CIRCLE
  5
47A
  8
PATTERN_FILL
  6
CONTINUOUS
 62
     7
 10
542.1976427660982
 20
-130.3999999994812
 30
0.0
 40
1.503159791081771
  0
CIRCLE
  5
47B
  8
PATTERN_FILL
  6
CONTINUOUS
 62
     7
 10
547.3944829750164
 20
-130.3999999994812
 30
0.0
 40
1.503159791081771
  0
CIRCLE
  5
47C
  8
PATTERN_FILL
  6
CONTINUOUS
 62
     7
 10
557.7976427660992
 20
-130.3999999994812
 30
0.0
 40
1.503159791081771
  0
CIRCLE
  5
47D
  8
PATTERN_FILL
  6
CONTINUOUS
 62
     7
 10
552.6008025571812
 20
-130.3999999994812
 30
0.0
 40
1.503159791081544
  0
CIRCLE
  5
47E
  8
PATTERN_FILL
  6
CONTINUOUS
 62
     7
 10
544.7944829750168
 20
-132.9999999994925
 30
0.0
 40
1.503159791081771
  0
CIRCLE
  5
47F
  8
PATTERN_FILL
  6
CONTINUOUS
 62
     7
 10
549.991323183935
 20
-132.9999999994925
 30
0.0
 40
1.503159791081771
  0
CIRCLE
  5
480
  8
PATTERN_FILL
  6
CONTINUOUS
 62
     7
 10
555.1976427660995
 20
-132.9999999994925
 30
0.0
 40
1.503159791081771
  0
CIRCLE
  5
481
  8
PATTERN_FILL
  6
CONTINUOUS
 62
     7
 10
542.1976427660982
 20
-135.5999999995038
 30
0.0
 40
1.503159791081771
  0
CIRCLE
  5
482
  8
PATTERN_FILL
  6
CONTINUOUS
 62
     7
 10
547.3944829750164
 20
-135.5999999995038
 30
0.0
 40
1.503159791081771
  0
CIRCLE
  5
483
  8
PATTERN_FILL
  6
CONTINUOUS
 62
     7
 10
557.7976427660992
 20
-135.5999999995038
 30
0.0
 40
1.503159791081771
  0
CIRCLE
  5
484
  8
PATTERN_FILL
  6
CONTINUOUS
 62
     7
 10
552.6008025571812
 20
-135.5999999995038
 30
0.0
 40
1.503159791081544
  0
CIRCLE
  5
485
  8
PATTERN_FILL
  6
CONTINUOUS
 62
     7
 10
544.7944829750168
 20
-138.1999999995151
 30
0.0
 40
1.503159791081771
  0
CIRCLE
  5
486
  8
PATTERN_FILL
  6
CONTINUOUS
 62
     7
 10
549.991323183935
 20
-138.1999999995151
 30
0.0
 40
1.503159791081771
  0
CIRCLE
  5
487
  8
PATTERN_FILL
  6
CONTINUOUS
 62
     7
 10
555.1976427660995
 20
-138.1999999995151
 30
0.0
 40
1.503159791081771
  0
CIRCLE
  5
488
  8
PATTERN_FILL
  6
CONTINUOUS
 62
     7
 10
542.1976427660982
 20
-109.599999999391
 30
0.0
 40
1.503159791081771
  0
CIRCLE
  5
489
  8
PATTERN_FILL
  6
CONTINUOUS
 62
     7
 10
547.3944829750164
 20
-109.599999999391
 30
0.0
 40
1.503159791081771
  0
CIRCLE
  5
48A
  8
PATTERN_FILL
  6
CONTINUOUS
 62
     7
 10
557.7976427660992
 20
-109.599999999391
 30
0.0
 40
1.503159791081771
  0
CIRCLE
  5
48B
  8
PATTERN_FILL
  6
CONTINUOUS
 62
     7
 10
552.6008025571812
 20
-109.599999999391
 30
0.0
 40
1.503159791081544
  0
CIRCLE
  5
48C
  8
PATTERN_FILL
  6
CONTINUOUS
 62
     7
 10
544.7944829750168
 20
-112.1999999994023
 30
0.0
 40
1.503159791081771
  0
CIRCLE
  5
48D
  8
PATTERN_FILL
  6
CONTINUOUS
 62
     7
 10
549.991323183935
 20
-112.1999999994023
 30
0.0
 40
1.503159791081771
  0
CIRCLE
  5
48E
  8
PATTERN_FILL
  6
CONTINUOUS
 62
     7
 10
555.1976427660995
 20
-112.1999999994023
 30
0.0
 40
1.503159791081771
  0
CIRCLE
  5
48F
  8
PATTERN_FILL
  6
CONTINUOUS
 62
     7
 10
542.1976427660982
 20
-114.7999999994136
 30
0.0
 40
1.503159791081771
  0
CIRCLE
  5
490
  8
PATTERN_FILL
  6
CONTINUOUS
 62
     7
 10
547.3944829750164
 20
-114.7999999994136
 30
0.0
 40
1.503159791081771
  0
CIRCLE
  5
491
  8
PATTERN_FILL
  6
CONTINUOUS
 62
     7
 10
557.7976427660992
 20
-114.7999999994136
 30
0.0
 40
1.503159791081771
  0
CIRCLE
  5
492
  8
PATTERN_FILL
  6
CONTINUOUS
 62
     7
 10
552.6008025571812
 20
-114.7999999994136
 30
0.0
 40
1.503159791081544
  0
CIRCLE
  5
493
  8
PATTERN_FILL
  6
CONTINUOUS
 62
     7
 10
542.1976427660982
 20
-119.9999999994361
 30
0.0
 40
1.503159791081771
  0
CIRCLE
  5
494
  8
PATTERN_FILL
  6
CONTINUOUS
 62
     7
 10
547.3944829750164
 20
-119.9999999994361
 30
0.0
 40
1.503159791081771
  0
CIRCLE
  5
495
  8
PATTERN_FILL
  6
CONTINUOUS
 62
     7
 10
557.7976427660992
 20
-119.9999999994361
 30
0.0
 40
1.503159791081771
  0
CIRCLE
  5
496
  8
PATTERN_FILL
  6
CONTINUOUS
 62
     7
 10
552.6008025571812
 20
-119.9999999994361
 30
0.0
 40
1.503159791081544
  0
CIRCLE
  5
497
  8
PATTERN_FILL
  6
CONTINUOUS
 62
     7
 10
544.7944829750168
 20
-117.3999999994248
 30
0.0
 40
1.503159791081771
  0
CIRCLE
  5
498
  8
PATTERN_FILL
  6
CONTINUOUS
 62
     7
 10
549.991323183935
 20
-117.3999999994248
 30
0.0
 40
1.503159791081771
  0
CIRCLE
  5
499
  8
PATTERN_FILL
  6
CONTINUOUS
 62
     7
 10
555.1976427660995
 20
-117.3999999994248
 30
0.0
 40
1.503159791081771
  0
CIRCLE
  5
49A
  8
PATTERN_FILL
  6
CONTINUOUS
 62
     7
 10
544.7944829750168
 20
-127.7999999994699
 30
0.0
 40
1.503159791081771
  0
CIRCLE
  5
49B
  8
PATTERN_FILL
  6
CONTINUOUS
 62
     7
 10
549.991323183935
 20
-127.7999999994699
 30
0.0
 40
1.503159791081771
  0
CIRCLE
  5
49C
  8
PATTERN_FILL
  6
CONTINUOUS
 62
     7
 10
555.1976427660995
 20
-127.7999999994699
 30
0.0
 40
1.503159791081771
  0
CIRCLE
  5
49D
  8
PATTERN_FILL
  6
CONTINUOUS
 62
     7
 10
542.1976427660982
 20
-125.1999999994587
 30
0.0
 40
1.503159791081771
  0
CIRCLE
  5
49E
  8
PATTERN_FILL
  6
CONTINUOUS
 62
     7
 10
547.3944829750164
 20
-125.1999999994587
 30
0.0
 40
1.503159791081771
  0
CIRCLE
  5
49F
  8
PATTERN_FILL
  6
CONTINUOUS
 62
     7
 10
557.7976427660992
 20
-125.1999999994587
 30
0.0
 40
1.503159791081771
  0
CIRCLE
  5
4A0
  8
PATTERN_FILL
  6
CONTINUOUS
 62
     7
 10
552.6008025571812
 20
-125.1999999994587
 30
0.0
 40
1.503159791081544
  0
CIRCLE
  5
4A1
  8
PATTERN_FILL
  6
CONTINUOUS
 62
     7
 10
544.7944829750168
 20
-122.5999999994474
 30
0.0
 40
1.503159791081771
  0
CIRCLE
  5
4A2
  8
PATTERN_FILL
  6
CONTINUOUS
 62
     7
 10
549.991323183935
 20
-122.5999999994474
 30
0.0
 40
1.503159791081771
  0
CIRCLE
  5
4A3
  8
PATTERN_FILL
  6
CONTINUOUS
 62
     7
 10
555.1976427660995
 20
-122.5999999994474
 30
0.0
 40
1.503159791081771
  0
CIRCLE
  5
4A4
  8
PATTERN_FILL
  6
CONTINUOUS
 62
     7
 10
544.7944829750168
 20
-70.59999999922184
 30
0.0
 40
1.503159791081771
  0
CIRCLE
  5
4A5
  8
PATTERN_FILL
  6
CONTINUOUS
 62
     7
 10
549.991323183935
 20
-70.59999999922184
 30
0.0
 40
1.503159791081771
  0
CIRCLE
  5
4A6
  8
PATTERN_FILL
  6
CONTINUOUS
 62
     7
 10
555.1976427660995
 20
-70.59999999922184
 30
0.0
 40
1.503159791081771
  0
CIRCLE
  5
4A7
  8
PATTERN_FILL
  6
CONTINUOUS
 62
     7
 10
542.1976427660982
 20
-73.19999999923311
 30
0.0
 40
1.503159791081771
  0
CIRCLE
  5
4A8
  8
PATTERN_FILL
  6
CONTINUOUS
 62
     7
 10
547.3944829750164
 20
-73.19999999923311
 30
0.0
 40
1.503159791081771
  0
CIRCLE
  5
4A9
  8
PATTERN_FILL
  6
CONTINUOUS
 62
     7
 10
557.7976427660992
 20
-73.19999999923311
 30
0.0
 40
1.503159791081771
  0
CIRCLE
  5
4AA
  8
PATTERN_FILL
  6
CONTINUOUS
 62
     7
 10
552.6008025571812
 20
-73.19999999923311
 30
0.0
 40
1.503159791081544
  0
CIRCLE
  5
4AB
  8
PATTERN_FILL
  6
CONTINUOUS
 62
     7
 10
542.1976427660982
 20
-78.39999999925567
 30
0.0
 40
1.503159791081771
  0
CIRCLE
  5
4AC
  8
PATTERN_FILL
  6
CONTINUOUS
 62
     7
 10
547.3944829750164
 20
-78.39999999925567
 30
0.0
 40
1.503159791081771
  0
CIRCLE
  5
4AD
  8
PATTERN_FILL
  6
CONTINUOUS
 62
     7
 10
557.7976427660992
 20
-78.39999999925567
 30
0.0
 40
1.503159791081771
  0
CIRCLE
  5
4AE
  8
PATTERN_FILL
  6
CONTINUOUS
 62
     7
 10
552.6008025571812
 20
-78.39999999925567
 30
0.0
 40
1.503159791081544
  0
CIRCLE
  5
4AF
  8
PATTERN_FILL
  6
CONTINUOUS
 62
     7
 10
544.7944829750168
 20
-75.79999999924439
 30
0.0
 40
1.503159791081771
  0
CIRCLE
  5
4B0
  8
PATTERN_FILL
  6
CONTINUOUS
 62
     7
 10
549.991323183935
 20
-75.79999999924439
 30
0.0
 40
1.503159791081771
  0
CIRCLE
  5
4B1
  8
PATTERN_FILL
  6
CONTINUOUS
 62
     7
 10
555.1976427660995
 20
-75.79999999924439
 30
0.0
 40
1.503159791081771
  0
CIRCLE
  5
4B2
  8
PATTERN_FILL
  6
CONTINUOUS
 62
     7
 10
542.1976427660982
 20
-88.79999999930078
 30
0.0
 40
1.503159791081771
  0
CIRCLE
  5
4B3
  8
PATTERN_FILL
  6
CONTINUOUS
 62
     7
 10
547.3944829750164
 20
-88.79999999930078
 30
0.0
 40
1.503159791081771
  0
CIRCLE
  5
4B4
  8
PATTERN_FILL
  6
CONTINUOUS
 62
     7
 10
557.7976427660992
 20
-88.79999999930078
 30
0.0
 40
1.503159791081771
  0
CIRCLE
  5
4B5
  8
PATTERN_FILL
  6
CONTINUOUS
 62
     7
 10
552.6008025571812
 20
-88.79999999930078
 30
0.0
 40
1.503159791081544
  0
CIRCLE
  5
4B6
  8
PATTERN_FILL
  6
CONTINUOUS
 62
     7
 10
544.7944829750168
 20
-86.1999999992895
 30
0.0
 40
1.503159791081771
  0
CIRCLE
  5
4B7
  8
PATTERN_FILL
  6
CONTINUOUS
 62
     7
 10
549.991323183935
 20
-86.1999999992895
 30
0.0
 40
1.503159791081771
  0
CIRCLE
  5
4B8
  8
PATTERN_FILL
  6
CONTINUOUS
 62
     7
 10
555.1976427660995
 20
-86.1999999992895
 30
0.0
 40
1.503159791081771
  0
CIRCLE
  5
4B9
  8
PATTERN_FILL
  6
CONTINUOUS
 62
     7
 10
542.1976427660982
 20
-83.59999999927823
 30
0.0
 40
1.503159791081771
  0
CIRCLE
  5
4BA
  8
PATTERN_FILL
  6
CONTINUOUS
 62
     7
 10
547.3944829750164
 20
-83.59999999927823
 30
0.0
 40
1.503159791081771
  0
CIRCLE
  5
4BB
  8
PATTERN_FILL
  6
CONTINUOUS
 62
     7
 10
557.7976427660992
 20
-83.59999999927823
 30
0.0
 40
1.503159791081771
  0
CIRCLE
  5
4BC
  8
PATTERN_FILL
  6
CONTINUOUS
 62
     7
 10
552.6008025571812
 20
-83.59999999927823
 30
0.0
 40
1.503159791081544
  0
CIRCLE
  5
4BD
  8
PATTERN_FILL
  6
CONTINUOUS
 62
     7
 10
544.7944829750168
 20
-80.99999999926695
 30
0.0
 40
1.503159791081771
  0
CIRCLE
  5
4BE
  8
PATTERN_FILL
  6
CONTINUOUS
 62
     7
 10
549.991323183935
 20
-80.99999999926695
 30
0.0
 40
1.503159791081771
  0
CIRCLE
  5
4BF
  8
PATTERN_FILL
  6
CONTINUOUS
 62
     7
 10
555.1976427660995
 20
-80.99999999926695
 30
0.0
 40
1.503159791081771
  0
CIRCLE
  5
4C0
  8
PATTERN_FILL
  6
CONTINUOUS
 62
     7
 10
544.7944829750168
 20
-106.9999999993797
 30
0.0
 40
1.503159791081771
  0
CIRCLE
  5
4C1
  8
PATTERN_FILL
  6
CONTINUOUS
 62
     7
 10
549.991323183935
 20
-106.9999999993797
 30
0.0
 40
1.503159791081771
  0
CIRCLE
  5
4C2
  8
PATTERN_FILL
  6
CONTINUOUS
 62
     7
 10
555.1976427660995
 20
-106.9999999993797
 30
0.0
 40
1.503159791081771
  0
CIRCLE
  5
4C3
  8
PATTERN_FILL
  6
CONTINUOUS
 62
     7
 10
542.1976427660982
 20
-104.3999999993684
 30
0.0
 40
1.503159791081771
  0
CIRCLE
  5
4C4
  8
PATTERN_FILL
  6
CONTINUOUS
 62
     7
 10
547.3944829750164
 20
-104.3999999993684
 30
0.0
 40
1.503159791081771
  0
CIRCLE
  5
4C5
  8
PATTERN_FILL
  6
CONTINUOUS
 62
     7
 10
557.7976427660992
 20
-104.3999999993684
 30
0.0
 40
1.503159791081771
  0
CIRCLE
  5
4C6
  8
PATTERN_FILL
  6
CONTINUOUS
 62
     7
 10
552.6008025571812
 20
-104.3999999993684
 30
0.0
 40
1.503159791081544
  0
CIRCLE
  5
4C7
  8
PATTERN_FILL
  6
CONTINUOUS
 62
     7
 10
542.1976427660982
 20
-99.19999999934589
 30
0.0
 40
1.503159791081771
  0
CIRCLE
  5
4C8
  8
PATTERN_FILL
  6
CONTINUOUS
 62
     7
 10
547.3944829750164
 20
-99.19999999934589
 30
0.0
 40
1.503159791081771
  0
CIRCLE
  5
4C9
  8
PATTERN_FILL
  6
CONTINUOUS
 62
     7
 10
557.7976427660992
 20
-99.19999999934589
 30
0.0
 40
1.503159791081771
  0
CIRCLE
  5
4CA
  8
PATTERN_FILL
  6
CONTINUOUS
 62
     7
 10
552.6008025571812
 20
-99.19999999934589
 30
0.0
 40
1.503159791081544
  0
CIRCLE
  5
4CB
  8
PATTERN_FILL
  6
CONTINUOUS
 62
     7
 10
544.7944829750168
 20
-101.7999999993572
 30
0.0
 40
1.503159791081771
  0
CIRCLE
  5
4CC
  8
PATTERN_FILL
  6
CONTINUOUS
 62
     7
 10
549.991323183935
 20
-101.7999999993572
 30
0.0
 40
1.503159791081771
  0
CIRCLE
  5
4CD
  8
PATTERN_FILL
  6
CONTINUOUS
 62
     7
 10
555.1976427660995
 20
-101.7999999993572
 30
0.0
 40
1.503159791081771
  0
CIRCLE
  5
4CE
  8
PATTERN_FILL
  6
CONTINUOUS
 62
     7
 10
544.7944829750168
 20
-91.39999999931206
 30
0.0
 40
1.503159791081771
  0
CIRCLE
  5
4CF
  8
PATTERN_FILL
  6
CONTINUOUS
 62
     7
 10
549.991323183935
 20
-91.39999999931206
 30
0.0
 40
1.503159791081771
  0
CIRCLE
  5
4D0
  8
PATTERN_FILL
  6
CONTINUOUS
 62
     7
 10
555.1976427660995
 20
-91.39999999931206
 30
0.0
 40
1.503159791081771
  0
CIRCLE
  5
4D1
  8
PATTERN_FILL
  6
CONTINUOUS
 62
     7
 10
542.1976427660982
 20
-93.99999999932334
 30
0.0
 40
1.503159791081771
  0
CIRCLE
  5
4D2
  8
PATTERN_FILL
  6
CONTINUOUS
 62
     7
 10
547.3944829750164
 20
-93.99999999932334
 30
0.0
 40
1.503159791081771
  0
CIRCLE
  5
4D3
  8
PATTERN_FILL
  6
CONTINUOUS
 62
     7
 10
557.7976427660992
 20
-93.99999999932334
 30
0.0
 40
1.503159791081771
  0
CIRCLE
  5
4D4
  8
PATTERN_FILL
  6
CONTINUOUS
 62
     7
 10
552.6008025571812
 20
-93.99999999932334
 30
0.0
 40
1.503159791081544
  0
CIRCLE
  5
4D5
  8
PATTERN_FILL
  6
CONTINUOUS
 62
     7
 10
544.7944829750168
 20
-96.59999999933461
 30
0.0
 40
1.503159791081771
  0
CIRCLE
  5
4D6
  8
PATTERN_FILL
  6
CONTINUOUS
 62
     7
 10
549.991323183935
 20
-96.59999999933461
 30
0.0
 40
1.503159791081771
  0
CIRCLE
  5
4D7
  8
PATTERN_FILL
  6
CONTINUOUS
 62
     7
 10
555.1976427660995
 20
-96.59999999933461
 30
0.0
 40
1.503159791081771
  0
CIRCLE
  5
4D8
  8
PATTERN_FILL
  6
CONTINUOUS
 62
     7
 10
544.7944829750168
 20
-320.2000000003045
 30
0.0
 40
1.503159791081771
  0
CIRCLE
  5
4D9
  8
PATTERN_FILL
  6
CONTINUOUS
 62
     7
 10
549.991323183935
 20
-320.2000000003045
 30
0.0
 40
1.503159791081771
  0
CIRCLE
  5
4DA
  8
PATTERN_FILL
  6
CONTINUOUS
 62
     7
 10
555.1976427660995
 20
-320.2000000003045
 30
0.0
 40
1.503159791081771
  0
CIRCLE
  5
4DB
  8
PATTERN_FILL
  6
CONTINUOUS
 62
     7
 10
542.1976427660982
 20
-322.8000000003158
 30
0.0
 40
1.503159791081771
  0
CIRCLE
  5
4DC
  8
PATTERN_FILL
  6
CONTINUOUS
 62
     7
 10
547.3944829750164
 20
-322.8000000003158
 30
0.0
 40
1.503159791081771
  0
CIRCLE
  5
4DD
  8
PATTERN_FILL
  6
CONTINUOUS
 62
     7
 10
557.7976427660992
 20
-322.8000000003158
 30
0.0
 40
1.503159791081771
  0
CIRCLE
  5
4DE
  8
PATTERN_FILL
  6
CONTINUOUS
 62
     7
 10
552.6008025571812
 20
-322.8000000003158
 30
0.0
 40
1.503159791081544
  0
CIRCLE
  5
4DF
  8
PATTERN_FILL
  6
CONTINUOUS
 62
     7
 10
542.1976427660982
 20
-328.0000000003383
 30
0.0
 40
1.503159791081771
  0
CIRCLE
  5
4E0
  8
PATTERN_FILL
  6
CONTINUOUS
 62
     7
 10
547.3944829750164
 20
-328.0000000003383
 30
0.0
 40
1.503159791081771
  0
CIRCLE
  5
4E1
  8
PATTERN_FILL
  6
CONTINUOUS
 62
     7
 10
557.7976427660992
 20
-328.0000000003383
 30
0.0
 40
1.503159791081771
  0
CIRCLE
  5
4E2
  8
PATTERN_FILL
  6
CONTINUOUS
 62
     7
 10
552.6008025571812
 20
-328.0000000003383
 30
0.0
 40
1.503159791081544
  0
CIRCLE
  5
4E3
  8
PATTERN_FILL
  6
CONTINUOUS
 62
     7
 10
544.7944829750168
 20
-325.4000000003271
 30
0.0
 40
1.503159791081771
  0
CIRCLE
  5
4E4
  8
PATTERN_FILL
  6
CONTINUOUS
 62
     7
 10
549.991323183935
 20
-325.4000000003271
 30
0.0
 40
1.503159791081771
  0
CIRCLE
  5
4E5
  8
PATTERN_FILL
  6
CONTINUOUS
 62
     7
 10
555.1976427660995
 20
-325.4000000003271
 30
0.0
 40
1.503159791081771
  0
CIRCLE
  5
4E6
  8
PATTERN_FILL
  6
CONTINUOUS
 62
     7
 10
542.1976427660982
 20
-338.4000000003834
 30
0.0
 40
1.503159791081771
  0
CIRCLE
  5
4E7
  8
PATTERN_FILL
  6
CONTINUOUS
 62
     7
 10
547.3944829750164
 20
-338.4000000003834
 30
0.0
 40
1.503159791081771
  0
CIRCLE
  5
4E8
  8
PATTERN_FILL
  6
CONTINUOUS
 62
     7
 10
557.7976427660992
 20
-338.4000000003834
 30
0.0
 40
1.503159791081771
  0
CIRCLE
  5
4E9
  8
PATTERN_FILL
  6
CONTINUOUS
 62
     7
 10
552.6008025571812
 20
-338.4000000003834
 30
0.0
 40
1.503159791081544
  0
CIRCLE
  5
4EA
  8
PATTERN_FILL
  6
CONTINUOUS
 62
     7
 10
544.7944829750168
 20
-335.8000000003722
 30
0.0
 40
1.503159791081771
  0
CIRCLE
  5
4EB
  8
PATTERN_FILL
  6
CONTINUOUS
 62
     7
 10
549.991323183935
 20
-335.8000000003722
 30
0.0
 40
1.503159791081771
  0
CIRCLE
  5
4EC
  8
PATTERN_FILL
  6
CONTINUOUS
 62
     7
 10
555.1976427660995
 20
-335.8000000003722
 30
0.0
 40
1.503159791081771
  0
CIRCLE
  5
4ED
  8
PATTERN_FILL
  6
CONTINUOUS
 62
     7
 10
542.1976427660982
 20
-333.2000000003609
 30
0.0
 40
1.503159791081771
  0
CIRCLE
  5
4EE
  8
PATTERN_FILL
  6
CONTINUOUS
 62
     7
 10
547.3944829750164
 20
-333.2000000003609
 30
0.0
 40
1.503159791081771
  0
CIRCLE
  5
4EF
  8
PATTERN_FILL
  6
CONTINUOUS
 62
     7
 10
557.7976427660992
 20
-333.2000000003609
 30
0.0
 40
1.503159791081771
  0
CIRCLE
  5
4F0
  8
PATTERN_FILL
  6
CONTINUOUS
 62
     7
 10
552.6008025571812
 20
-333.2000000003609
 30
0.0
 40
1.503159791081544
  0
CIRCLE
  5
4F1
  8
PATTERN_FILL
  6
CONTINUOUS
 62
     7
 10
544.7944829750168
 20
-330.6000000003496
 30
0.0
 40
1.503159791081771
  0
CIRCLE
  5
4F2
  8
PATTERN_FILL
  6
CONTINUOUS
 62
     7
 10
549.991323183935
 20
-330.6000000003496
 30
0.0
 40
1.503159791081771
  0
CIRCLE
  5
4F3
  8
PATTERN_FILL
  6
CONTINUOUS
 62
     7
 10
555.1976427660995
 20
-330.6000000003496
 30
0.0
 40
1.503159791081771
  0
CIRCLE
  5
4F4
  8
PATTERN_FILL
  6
CONTINUOUS
 62
     7
 10
542.1976427660982
 20
-359.2000000004737
 30
0.0
 40
1.503159791081771
  0
CIRCLE
  5
4F5
  8
PATTERN_FILL
  6
CONTINUOUS
 62
     7
 10
547.3944829750164
 20
-359.2000000004737
 30
0.0
 40
1.503159791081771
  0
CIRCLE
  5
4F6
  8
PATTERN_FILL
  6
CONTINUOUS
 62
     7
 10
557.7976427660992
 20
-359.2000000004737
 30
0.0
 40
1.503159791081771
  0
CIRCLE
  5
4F7
  8
PATTERN_FILL
  6
CONTINUOUS
 62
     7
 10
552.6008025571812
 20
-359.2000000004737
 30
0.0
 40
1.503159791081544
  0
CIRCLE
  5
4F8
  8
PATTERN_FILL
  6
CONTINUOUS
 62
     7
 10
544.7944829750168
 20
-356.6000000004624
 30
0.0
 40
1.503159791081771
  0
CIRCLE
  5
4F9
  8
PATTERN_FILL
  6
CONTINUOUS
 62
     7
 10
549.991323183935
 20
-356.6000000004624
 30
0.0
 40
1.503159791081771
  0
CIRCLE
  5
4FA
  8
PATTERN_FILL
  6
CONTINUOUS
 62
     7
 10
555.1976427660995
 20
-356.6000000004624
 30
0.0
 40
1.503159791081771
  0
CIRCLE
  5
4FB
  8
PATTERN_FILL
  6
CONTINUOUS
 62
     7
 10
542.1976427660982
 20
-354.0000000004511
 30
0.0
 40
1.503159791081771
  0
CIRCLE
  5
4FC
  8
PATTERN_FILL
  6
CONTINUOUS
 62
     7
 10
547.3944829750164
 20
-354.0000000004511
 30
0.0
 40
1.503159791081771
  0
CIRCLE
  5
4FD
  8
PATTERN_FILL
  6
CONTINUOUS
 62
     7
 10
557.7976427660992
 20
-354.0000000004511
 30
0.0
 40
1.503159791081771
  0
CIRCLE
  5
4FE
  8
PATTERN_FILL
  6
CONTINUOUS
 62
     7
 10
552.6008025571812
 20
-354.0000000004511
 30
0.0
 40
1.503159791081544
  0
CIRCLE
  5
4FF
  8
PATTERN_FILL
  6
CONTINUOUS
 62
     7
 10
542.1976427660982
 20
-348.8000000004286
 30
0.0
 40
1.503159791081771
  0
CIRCLE
  5
500
  8
PATTERN_FILL
  6
CONTINUOUS
 62
     7
 10
547.3944829750164
 20
-348.8000000004286
 30
0.0
 40
1.503159791081771
  0
CIRCLE
  5
501
  8
PATTERN_FILL
  6
CONTINUOUS
 62
     7
 10
557.7976427660992
 20
-348.8000000004286
 30
0.0
 40
1.503159791081771
  0
CIRCLE
  5
502
  8
PATTERN_FILL
  6
CONTINUOUS
 62
     7
 10
552.6008025571812
 20
-348.8000000004286
 30
0.0
 40
1.503159791081544
  0
CIRCLE
  5
503
  8
PATTERN_FILL
  6
CONTINUOUS
 62
     7
 10
544.7944829750168
 20
-351.4000000004398
 30
0.0
 40
1.503159791081771
  0
CIRCLE
  5
504
  8
PATTERN_FILL
  6
CONTINUOUS
 62
     7
 10
549.991323183935
 20
-351.4000000004398
 30
0.0
 40
1.503159791081771
  0
CIRCLE
  5
505
  8
PATTERN_FILL
  6
CONTINUOUS
 62
     7
 10
555.1976427660995
 20
-351.4000000004398
 30
0.0
 40
1.503159791081771
  0
CIRCLE
  5
506
  8
PATTERN_FILL
  6
CONTINUOUS
 62
     7
 10
544.7944829750168
 20
-341.0000000003947
 30
0.0
 40
1.503159791081771
  0
CIRCLE
  5
507
  8
PATTERN_FILL
  6
CONTINUOUS
 62
     7
 10
549.991323183935
 20
-341.0000000003947
 30
0.0
 40
1.503159791081771
  0
CIRCLE
  5
508
  8
PATTERN_FILL
  6
CONTINUOUS
 62
     7
 10
555.1976427660995
 20
-341.0000000003947
 30
0.0
 40
1.503159791081771
  0
CIRCLE
  5
509
  8
PATTERN_FILL
  6
CONTINUOUS
 62
     7
 10
542.1976427660982
 20
-343.600000000406
 30
0.0
 40
1.503159791081771
  0
CIRCLE
  5
50A
  8
PATTERN_FILL
  6
CONTINUOUS
 62
     7
 10
547.3944829750164
 20
-343.600000000406
 30
0.0
 40
1.503159791081771
  0
CIRCLE
  5
50B
  8
PATTERN_FILL
  6
CONTINUOUS
 62
     7
 10
557.7976427660992
 20
-343.600000000406
 30
0.0
 40
1.503159791081771
  0
CIRCLE
  5
50C
  8
PATTERN_FILL
  6
CONTINUOUS
 62
     7
 10
552.6008025571812
 20
-343.600000000406
 30
0.0
 40
1.503159791081544
  0
CIRCLE
  5
50D
  8
PATTERN_FILL
  6
CONTINUOUS
 62
     7
 10
544.7944829750168
 20
-346.2000000004173
 30
0.0
 40
1.503159791081771
  0
CIRCLE
  5
50E
  8
PATTERN_FILL
  6
CONTINUOUS
 62
     7
 10
549.991323183935
 20
-346.2000000004173
 30
0.0
 40
1.503159791081771
  0
CIRCLE
  5
50F
  8
PATTERN_FILL
  6
CONTINUOUS
 62
     7
 10
555.1976427660995
 20
-346.2000000004173
 30
0.0
 40
1.503159791081771
  0
CIRCLE
  5
510
  8
PATTERN_FILL
  6
CONTINUOUS
 62
     7
 10
542.1976427660982
 20
-400.8000000006541
 30
0.0
 40
1.503159791081771
  0
CIRCLE
  5
511
  8
PATTERN_FILL
  6
CONTINUOUS
 62
     7
 10
547.3944829750164
 20
-400.8000000006541
 30
0.0
 40
1.503159791081771
  0
CIRCLE
  5
512
  8
PATTERN_FILL
  6
CONTINUOUS
 62
     7
 10
557.7976427660992
 20
-400.8000000006541
 30
0.0
 40
1.503159791081771
  0
CIRCLE
  5
513
  8
PATTERN_FILL
  6
CONTINUOUS
 62
     7
 10
552.6008025571812
 20
-400.8000000006541
 30
0.0
 40
1.503159791081544
  0
CIRCLE
  5
514
  8
PATTERN_FILL
  6
CONTINUOUS
 62
     7
 10
544.7944829750168
 20
-398.2000000006428
 30
0.0
 40
1.503159791081771
  0
CIRCLE
  5
515
  8
PATTERN_FILL
  6
CONTINUOUS
 62
     7
 10
549.991323183935
 20
-398.2000000006428
 30
0.0
 40
1.503159791081771
  0
CIRCLE
  5
516
  8
PATTERN_FILL
  6
CONTINUOUS
 62
     7
 10
555.1976427660995
 20
-398.2000000006428
 30
0.0
 40
1.503159791081771
  0
CIRCLE
  5
517
  8
PATTERN_FILL
  6
CONTINUOUS
 62
     7
 10
542.1976427660982
 20
-395.6000000006316
 30
0.0
 40
1.503159791081771
  0
CIRCLE
  5
518
  8
PATTERN_FILL
  6
CONTINUOUS
 62
     7
 10
547.3944829750164
 20
-395.6000000006316
 30
0.0
 40
1.503159791081771
  0
CIRCLE
  5
519
  8
PATTERN_FILL
  6
CONTINUOUS
 62
     7
 10
557.7976427660992
 20
-395.6000000006316
 30
0.0
 40
1.503159791081771
  0
CIRCLE
  5
51A
  8
PATTERN_FILL
  6
CONTINUOUS
 62
     7
 10
552.6008025571812
 20
-395.6000000006316
 30
0.0
 40
1.503159791081544
  0
CIRCLE
  5
51B
  8
PATTERN_FILL
  6
CONTINUOUS
 62
     7
 10
542.1976427660982
 20
-390.400000000609
 30
0.0
 40
1.503159791081771
  0
CIRCLE
  5
51C
  8
PATTERN_FILL
  6
CONTINUOUS
 62
     7
 10
547.3944829750164
 20
-390.400000000609
 30
0.0
 40
1.503159791081771
  0
CIRCLE
  5
51D
  8
PATTERN_FILL
  6
CONTINUOUS
 62
     7
 10
557.7976427660992
 20
-390.400000000609
 30
0.0
 40
1.503159791081771
  0
CIRCLE
  5
51E
  8
PATTERN_FILL
  6
CONTINUOUS
 62
     7
 10
552.6008025571812
 20
-390.400000000609
 30
0.0
 40
1.503159791081544
  0
CIRCLE
  5
51F
  8
PATTERN_FILL
  6
CONTINUOUS
 62
     7
 10
544.7944829750168
 20
-393.0000000006203
 30
0.0
 40
1.503159791081771
  0
CIRCLE
  5
520
  8
PATTERN_FILL
  6
CONTINUOUS
 62
     7
 10
549.991323183935
 20
-393.0000000006203
 30
0.0
 40
1.503159791081771
  0
CIRCLE
  5
521
  8
PATTERN_FILL
  6
CONTINUOUS
 62
     7
 10
555.1976427660995
 20
-393.0000000006203
 30
0.0
 40
1.503159791081771
  0
CIRCLE
  5
522
  8
PATTERN_FILL
  6
CONTINUOUS
 62
     7
 10
542.1976427660982
 20
-380.0000000005639
 30
0.0
 40
1.503159791081771
  0
CIRCLE
  5
523
  8
PATTERN_FILL
  6
CONTINUOUS
 62
     7
 10
547.3944829750164
 20
-380.0000000005639
 30
0.0
 40
1.503159791081771
  0
CIRCLE
  5
524
  8
PATTERN_FILL
  6
CONTINUOUS
 62
     7
 10
557.7976427660992
 20
-380.0000000005639
 30
0.0
 40
1.503159791081771
  0
CIRCLE
  5
525
  8
PATTERN_FILL
  6
CONTINUOUS
 62
     7
 10
552.6008025571812
 20
-380.0000000005639
 30
0.0
 40
1.503159791081544
  0
CIRCLE
  5
526
  8
PATTERN_FILL
  6
CONTINUOUS
 62
     7
 10
544.7944829750168
 20
-382.6000000005752
 30
0.0
 40
1.503159791081771
  0
CIRCLE
  5
527
  8
PATTERN_FILL
  6
CONTINUOUS
 62
     7
 10
549.991323183935
 20
-382.6000000005752
 30
0.0
 40
1.503159791081771
  0
CIRCLE
  5
528
  8
PATTERN_FILL
  6
CONTINUOUS
 62
     7
 10
555.1976427660995
 20
-382.6000000005752
 30
0.0
 40
1.503159791081771
  0
CIRCLE
  5
529
  8
PATTERN_FILL
  6
CONTINUOUS
 62
     7
 10
542.1976427660982
 20
-385.2000000005864
 30
0.0
 40
1.503159791081771
  0
CIRCLE
  5
52A
  8
PATTERN_FILL
  6
CONTINUOUS
 62
     7
 10
547.3944829750164
 20
-385.2000000005864
 30
0.0
 40
1.503159791081771
  0
CIRCLE
  5
52B
  8
PATTERN_FILL
  6
CONTINUOUS
 62
     7
 10
557.7976427660992
 20
-385.2000000005864
 30
0.0
 40
1.503159791081771
  0
CIRCLE
  5
52C
  8
PATTERN_FILL
  6
CONTINUOUS
 62
     7
 10
552.6008025571812
 20
-385.2000000005864
 30
0.0
 40
1.503159791081544
  0
CIRCLE
  5
52D
  8
PATTERN_FILL
  6
CONTINUOUS
 62
     7
 10
544.7944829750168
 20
-387.8000000005977
 30
0.0
 40
1.503159791081771
  0
CIRCLE
  5
52E
  8
PATTERN_FILL
  6
CONTINUOUS
 62
     7
 10
549.991323183935
 20
-387.8000000005977
 30
0.0
 40
1.503159791081771
  0
CIRCLE
  5
52F
  8
PATTERN_FILL
  6
CONTINUOUS
 62
     7
 10
555.1976427660995
 20
-387.8000000005977
 30
0.0
 40
1.503159791081771
  0
CIRCLE
  5
530
  8
PATTERN_FILL
  6
CONTINUOUS
 62
     7
 10
544.7944829750168
 20
-361.8000000004849
 30
0.0
 40
1.503159791081771
  0
CIRCLE
  5
531
  8
PATTERN_FILL
  6
CONTINUOUS
 62
     7
 10
549.991323183935
 20
-361.8000000004849
 30
0.0
 40
1.503159791081771
  0
CIRCLE
  5
532
  8
PATTERN_FILL
  6
CONTINUOUS
 62
     7
 10
555.1976427660995
 20
-361.8000000004849
 30
0.0
 40
1.503159791081771
  0
CIRCLE
  5
533
  8
PATTERN_FILL
  6
CONTINUOUS
 62
     7
 10
542.1976427660982
 20
-364.4000000004962
 30
0.0
 40
1.503159791081771
  0
CIRCLE
  5
534
  8
PATTERN_FILL
  6
CONTINUOUS
 62
     7
 10
547.3944829750164
 20
-364.4000000004962
 30
0.0
 40
1.503159791081771
  0
CIRCLE
  5
535
  8
PATTERN_FILL
  6
CONTINUOUS
 62
     7
 10
557.7976427660992
 20
-364.4000000004962
 30
0.0
 40
1.503159791081771
  0
CIRCLE
  5
536
  8
PATTERN_FILL
  6
CONTINUOUS
 62
     7
 10
552.6008025571812
 20
-364.4000000004962
 30
0.0
 40
1.503159791081544
  0
CIRCLE
  5
537
  8
PATTERN_FILL
  6
CONTINUOUS
 62
     7
 10
542.1976427660982
 20
-369.6000000005188
 30
0.0
 40
1.503159791081771
  0
CIRCLE
  5
538
  8
PATTERN_FILL
  6
CONTINUOUS
 62
     7
 10
547.3944829750164
 20
-369.6000000005188
 30
0.0
 40
1.503159791081771
  0
CIRCLE
  5
539
  8
PATTERN_FILL
  6
CONTINUOUS
 62
     7
 10
557.7976427660992
 20
-369.6000000005188
 30
0.0
 40
1.503159791081771
  0
CIRCLE
  5
53A
  8
PATTERN_FILL
  6
CONTINUOUS
 62
     7
 10
552.6008025571812
 20
-369.6000000005188
 30
0.0
 40
1.503159791081544
  0
CIRCLE
  5
53B
  8
PATTERN_FILL
  6
CONTINUOUS
 62
     7
 10
544.7944829750168
 20
-367.0000000005075
 30
0.0
 40
1.503159791081771
  0
CIRCLE
  5
53C
  8
PATTERN_FILL
  6
CONTINUOUS
 62
     7
 10
549.991323183935
 20
-367.0000000005075
 30
0.0
 40
1.503159791081771
  0
CIRCLE
  5
53D
  8
PATTERN_FILL
  6
CONTINUOUS
 62
     7
 10
555.1976427660995
 20
-367.0000000005075
 30
0.0
 40
1.503159791081771
  0
CIRCLE
  5
53E
  8
PATTERN_FILL
  6
CONTINUOUS
 62
     7
 10
544.7944829750168
 20
-377.4000000005526
 30
0.0
 40
1.503159791081771
  0
CIRCLE
  5
53F
  8
PATTERN_FILL
  6
CONTINUOUS
 62
     7
 10
549.991323183935
 20
-377.4000000005526
 30
0.0
 40
1.503159791081771
  0
CIRCLE
  5
540
  8
PATTERN_FILL
  6
CONTINUOUS
 62
     7
 10
555.1976427660995
 20
-377.4000000005526
 30
0.0
 40
1.503159791081771
  0
CIRCLE
  5
541
  8
PATTERN_FILL
  6
CONTINUOUS
 62
     7
 10
542.1976427660982
 20
-374.8000000005413
 30
0.0
 40
1.503159791081771
  0
CIRCLE
  5
542
  8
PATTERN_FILL
  6
CONTINUOUS
 62
     7
 10
547.3944829750164
 20
-374.8000000005413
 30
0.0
 40
1.503159791081771
  0
CIRCLE
  5
543
  8
PATTERN_FILL
  6
CONTINUOUS
 62
     7
 10
557.7976427660992
 20
-374.8000000005413
 30
0.0
 40
1.503159791081771
  0
CIRCLE
  5
544
  8
PATTERN_FILL
  6
CONTINUOUS
 62
     7
 10
552.6008025571812
 20
-374.8000000005413
 30
0.0
 40
1.503159791081544
  0
CIRCLE
  5
545
  8
PATTERN_FILL
  6
CONTINUOUS
 62
     7
 10
544.7944829750168
 20
-372.2000000005301
 30
0.0
 40
1.503159791081771
  0
CIRCLE
  5
546
  8
PATTERN_FILL
  6
CONTINUOUS
 62
     7
 10
549.991323183935
 20
-372.2000000005301
 30
0.0
 40
1.503159791081771
  0
CIRCLE
  5
547
  8
PATTERN_FILL
  6
CONTINUOUS
 62
     7
 10
555.1976427660995
 20
-372.2000000005301
 30
0.0
 40
1.503159791081771
  0
CIRCLE
  5
548
  8
PATTERN_FILL
  6
CONTINUOUS
 62
     7
 10
542.1976427660982
 20
-484.000000001015
 30
0.0
 40
1.503159791081771
  0
CIRCLE
  5
549
  8
PATTERN_FILL
  6
CONTINUOUS
 62
     7
 10
547.3944829750164
 20
-484.000000001015
 30
0.0
 40
1.503159791081771
  0
CIRCLE
  5
54A
  8
PATTERN_FILL
  6
CONTINUOUS
 62
     7
 10
557.7976427660992
 20
-484.000000001015
 30
0.0
 40
1.503159791081771
  0
CIRCLE
  5
54B
  8
PATTERN_FILL
  6
CONTINUOUS
 62
     7
 10
552.6008025571812
 20
-484.000000001015
 30
0.0
 40
1.503159791081544
  0
CIRCLE
  5
54C
  8
PATTERN_FILL
  6
CONTINUOUS
 62
     7
 10
544.7944829750168
 20
-481.4000000010037
 30
0.0
 40
1.503159791081771
  0
CIRCLE
  5
54D
  8
PATTERN_FILL
  6
CONTINUOUS
 62
     7
 10
549.991323183935
 20
-481.4000000010037
 30
0.0
 40
1.503159791081771
  0
CIRCLE
  5
54E
  8
PATTERN_FILL
  6
CONTINUOUS
 62
     7
 10
555.1976427660995
 20
-481.4000000010037
 30
0.0
 40
1.503159791081771
  0
CIRCLE
  5
54F
  8
PATTERN_FILL
  6
CONTINUOUS
 62
     7
 10
542.1976427660982
 20
-478.8000000009924
 30
0.0
 40
1.503159791081771
  0
CIRCLE
  5
550
  8
PATTERN_FILL
  6
CONTINUOUS
 62
     7
 10
547.3944829750164
 20
-478.8000000009924
 30
0.0
 40
1.503159791081771
  0
CIRCLE
  5
551
  8
PATTERN_FILL
  6
CONTINUOUS
 62
     7
 10
557.7976427660992
 20
-478.8000000009924
 30
0.0
 40
1.503159791081771
  0
CIRCLE
  5
552
  8
PATTERN_FILL
  6
CONTINUOUS
 62
     7
 10
552.6008025571812
 20
-478.8000000009924
 30
0.0
 40
1.503159791081544
  0
CIRCLE
  5
553
  8
PATTERN_FILL
  6
CONTINUOUS
 62
     7
 10
542.1976427660982
 20
-473.6000000009699
 30
0.0
 40
1.503159791081771
  0
CIRCLE
  5
554
  8
PATTERN_FILL
  6
CONTINUOUS
 62
     7
 10
547.3944829750164
 20
-473.6000000009699
 30
0.0
 40
1.503159791081771
  0
CIRCLE
  5
555
  8
PATTERN_FILL
  6
CONTINUOUS
 62
     7
 10
557.7976427660992
 20
-473.6000000009699
 30
0.0
 40
1.503159791081771
  0
CIRCLE
  5
556
  8
PATTERN_FILL
  6
CONTINUOUS
 62
     7
 10
552.6008025571812
 20
-473.6000000009699
 30
0.0
 40
1.503159791081544
  0
CIRCLE
  5
557
  8
PATTERN_FILL
  6
CONTINUOUS
 62
     7
 10
544.7944829750168
 20
-476.2000000009812
 30
0.0
 40
1.503159791081771
  0
CIRCLE
  5
558
  8
PATTERN_FILL
  6
CONTINUOUS
 62
     7
 10
549.991323183935
 20
-476.2000000009812
 30
0.0
 40
1.503159791081771
  0
CIRCLE
  5
559
  8
PATTERN_FILL
  6
CONTINUOUS
 62
     7
 10
555.1976427660995
 20
-476.2000000009812
 30
0.0
 40
1.503159791081771
  0
CIRCLE
  5
55A
  8
PATTERN_FILL
  6
CONTINUOUS
 62
     7
 10
542.1976427660982
 20
-463.2000000009248
 30
0.0
 40
1.503159791081771
  0
CIRCLE
  5
55B
  8
PATTERN_FILL
  6
CONTINUOUS
 62
     7
 10
547.3944829750164
 20
-463.2000000009248
 30
0.0
 40
1.503159791081771
  0
CIRCLE
  5
55C
  8
PATTERN_FILL
  6
CONTINUOUS
 62
     7
 10
557.7976427660992
 20
-463.2000000009248
 30
0.0
 40
1.503159791081771
  0
CIRCLE
  5
55D
  8
PATTERN_FILL
  6
CONTINUOUS
 62
     7
 10
552.6008025571812
 20
-463.2000000009248
 30
0.0
 40
1.503159791081544
  0
CIRCLE
  5
55E
  8
PATTERN_FILL
  6
CONTINUOUS
 62
     7
 10
544.7944829750168
 20
-465.8000000009361
 30
0.0
 40
1.503159791081771
  0
CIRCLE
  5
55F
  8
PATTERN_FILL
  6
CONTINUOUS
 62
     7
 10
549.991323183935
 20
-465.8000000009361
 30
0.0
 40
1.503159791081771
  0
CIRCLE
  5
560
  8
PATTERN_FILL
  6
CONTINUOUS
 62
     7
 10
555.1976427660995
 20
-465.8000000009361
 30
0.0
 40
1.503159791081771
  0
CIRCLE
  5
561
  8
PATTERN_FILL
  6
CONTINUOUS
 62
     7
 10
542.1976427660982
 20
-468.4000000009473
 30
0.0
 40
1.503159791081771
  0
CIRCLE
  5
562
  8
PATTERN_FILL
  6
CONTINUOUS
 62
     7
 10
547.3944829750164
 20
-468.4000000009473
 30
0.0
 40
1.503159791081771
  0
CIRCLE
  5
563
  8
PATTERN_FILL
  6
CONTINUOUS
 62
     7
 10
557.7976427660992
 20
-468.4000000009473
 30
0.0
 40
1.503159791081771
  0
CIRCLE
  5
564
  8
PATTERN_FILL
  6
CONTINUOUS
 62
     7
 10
552.6008025571812
 20
-468.4000000009473
 30
0.0
 40
1.503159791081544
  0
CIRCLE
  5
565
  8
PATTERN_FILL
  6
CONTINUOUS
 62
     7
 10
544.7944829750168
 20
-471.0000000009586
 30
0.0
 40
1.503159791081771
  0
CIRCLE
  5
566
  8
PATTERN_FILL
  6
CONTINUOUS
 62
     7
 10
549.991323183935
 20
-471.0000000009586
 30
0.0
 40
1.503159791081771
  0
CIRCLE
  5
567
  8
PATTERN_FILL
  6
CONTINUOUS
 62
     7
 10
555.1976427660995
 20
-471.0000000009586
 30
0.0
 40
1.503159791081771
  0
CIRCLE
  5
568
  8
PATTERN_FILL
  6
CONTINUOUS
 62
     7
 10
542.1976427660982
 20
-442.4000000008346
 30
0.0
 40
1.503159791081771
  0
CIRCLE
  5
569
  8
PATTERN_FILL
  6
CONTINUOUS
 62
     7
 10
547.3944829750164
 20
-442.4000000008346
 30
0.0
 40
1.503159791081771
  0
CIRCLE
  5
56A
  8
PATTERN_FILL
  6
CONTINUOUS
 62
     7
 10
557.7976427660992
 20
-442.4000000008346
 30
0.0
 40
1.503159791081771
  0
CIRCLE
  5
56B
  8
PATTERN_FILL
  6
CONTINUOUS
 62
     7
 10
552.6008025571812
 20
-442.4000000008346
 30
0.0
 40
1.503159791081544
  0
CIRCLE
  5
56C
  8
PATTERN_FILL
  6
CONTINUOUS
 62
     7
 10
544.7944829750168
 20
-445.0000000008458
 30
0.0
 40
1.503159791081771
  0
CIRCLE
  5
56D
  8
PATTERN_FILL
  6
CONTINUOUS
 62
     7
 10
549.991323183935
 20
-445.0000000008458
 30
0.0
 40
1.503159791081771
  0
CIRCLE
  5
56E
  8
PATTERN_FILL
  6
CONTINUOUS
 62
     7
 10
555.1976427660995
 20
-445.0000000008458
 30
0.0
 40
1.503159791081771
  0
CIRCLE
  5
56F
  8
PATTERN_FILL
  6
CONTINUOUS
 62
     7
 10
542.1976427660982
 20
-447.6000000008571
 30
0.0
 40
1.503159791081771
  0
CIRCLE
  5
570
  8
PATTERN_FILL
  6
CONTINUOUS
 62
     7
 10
547.3944829750164
 20
-447.6000000008571
 30
0.0
 40
1.503159791081771
  0
CIRCLE
  5
571
  8
PATTERN_FILL
  6
CONTINUOUS
 62
     7
 10
557.7976427660992
 20
-447.6000000008571
 30
0.0
 40
1.503159791081771
  0
CIRCLE
  5
572
  8
PATTERN_FILL
  6
CONTINUOUS
 62
     7
 10
552.6008025571812
 20
-447.6000000008571
 30
0.0
 40
1.503159791081544
  0
CIRCLE
  5
573
  8
PATTERN_FILL
  6
CONTINUOUS
 62
     7
 10
542.1976427660982
 20
-452.8000000008797
 30
0.0
 40
1.503159791081771
  0
CIRCLE
  5
574
  8
PATTERN_FILL
  6
CONTINUOUS
 62
     7
 10
547.3944829750164
 20
-452.8000000008797
 30
0.0
 40
1.503159791081771
  0
CIRCLE
  5
575
  8
PATTERN_FILL
  6
CONTINUOUS
 62
     7
 10
557.7976427660992
 20
-452.8000000008797
 30
0.0
 40
1.503159791081771
  0
CIRCLE
  5
576
  8
PATTERN_FILL
  6
CONTINUOUS
 62
     7
 10
552.6008025571812
 20
-452.8000000008797
 30
0.0
 40
1.503159791081544
  0
CIRCLE
  5
577
  8
PATTERN_FILL
  6
CONTINUOUS
 62
     7
 10
544.7944829750168
 20
-450.2000000008684
 30
0.0
 40
1.503159791081771
  0
CIRCLE
  5
578
  8
PATTERN_FILL
  6
CONTINUOUS
 62
     7
 10
549.991323183935
 20
-450.2000000008684
 30
0.0
 40
1.503159791081771
  0
CIRCLE
  5
579
  8
PATTERN_FILL
  6
CONTINUOUS
 62
     7
 10
555.1976427660995
 20
-450.2000000008684
 30
0.0
 40
1.503159791081771
  0
CIRCLE
  5
57A
  8
PATTERN_FILL
  6
CONTINUOUS
 62
     7
 10
544.7944829750168
 20
-460.6000000009135
 30
0.0
 40
1.503159791081771
  0
CIRCLE
  5
57B
  8
PATTERN_FILL
  6
CONTINUOUS
 62
     7
 10
549.991323183935
 20
-460.6000000009135
 30
0.0
 40
1.503159791081771
  0
CIRCLE
  5
57C
  8
PATTERN_FILL
  6
CONTINUOUS
 62
     7
 10
555.1976427660995
 20
-460.6000000009135
 30
0.0
 40
1.503159791081771
  0
CIRCLE
  5
57D
  8
PATTERN_FILL
  6
CONTINUOUS
 62
     7
 10
542.1976427660982
 20
-458.0000000009022
 30
0.0
 40
1.503159791081771
  0
CIRCLE
  5
57E
  8
PATTERN_FILL
  6
CONTINUOUS
 62
     7
 10
547.3944829750164
 20
-458.0000000009022
 30
0.0
 40
1.503159791081771
  0
CIRCLE
  5
57F
  8
PATTERN_FILL
  6
CONTINUOUS
 62
     7
 10
557.7976427660992
 20
-458.0000000009022
 30
0.0
 40
1.503159791081771
  0
CIRCLE
  5
580
  8
PATTERN_FILL
  6
CONTINUOUS
 62
     7
 10
552.6008025571812
 20
-458.0000000009022
 30
0.0
 40
1.503159791081544
  0
CIRCLE
  5
581
  8
PATTERN_FILL
  6
CONTINUOUS
 62
     7
 10
544.7944829750168
 20
-455.4000000008909
 30
0.0
 40
1.503159791081771
  0
CIRCLE
  5
582
  8
PATTERN_FILL
  6
CONTINUOUS
 62
     7
 10
549.991323183935
 20
-455.4000000008909
 30
0.0
 40
1.503159791081771
  0
CIRCLE
  5
583
  8
PATTERN_FILL
  6
CONTINUOUS
 62
     7
 10
555.1976427660995
 20
-455.4000000008909
 30
0.0
 40
1.503159791081771
  0
CIRCLE
  5
584
  8
PATTERN_FILL
  6
CONTINUOUS
 62
     7
 10
544.7944829750168
 20
-403.4000000006654
 30
0.0
 40
1.503159791081771
  0
CIRCLE
  5
585
  8
PATTERN_FILL
  6
CONTINUOUS
 62
     7
 10
549.991323183935
 20
-403.4000000006654
 30
0.0
 40
1.503159791081771
  0
CIRCLE
  5
586
  8
PATTERN_FILL
  6
CONTINUOUS
 62
     7
 10
555.1976427660995
 20
-403.4000000006654
 30
0.0
 40
1.503159791081771
  0
CIRCLE
  5
587
  8
PATTERN_FILL
  6
CONTINUOUS
 62
     7
 10
542.1976427660982
 20
-406.0000000006767
 30
0.0
 40
1.503159791081771
  0
CIRCLE
  5
588
  8
PATTERN_FILL
  6
CONTINUOUS
 62
     7
 10
547.3944829750164
 20
-406.0000000006767
 30
0.0
 40
1.503159791081771
  0
CIRCLE
  5
589
  8
PATTERN_FILL
  6
CONTINUOUS
 62
     7
 10
557.7976427660992
 20
-406.0000000006767
 30
0.0
 40
1.503159791081771
  0
CIRCLE
  5
58A
  8
PATTERN_FILL
  6
CONTINUOUS
 62
     7
 10
552.6008025571812
 20
-406.0000000006767
 30
0.0
 40
1.503159791081544
  0
CIRCLE
  5
58B
  8
PATTERN_FILL
  6
CONTINUOUS
 62
     7
 10
542.1976427660982
 20
-411.2000000006992
 30
0.0
 40
1.503159791081771
  0
CIRCLE
  5
58C
  8
PATTERN_FILL
  6
CONTINUOUS
 62
     7
 10
547.3944829750164
 20
-411.2000000006992
 30
0.0
 40
1.503159791081771
  0
CIRCLE
  5
58D
  8
PATTERN_FILL
  6
CONTINUOUS
 62
     7
 10
557.7976427660992
 20
-411.2000000006992
 30
0.0
 40
1.503159791081771
  0
CIRCLE
  5
58E
  8
PATTERN_FILL
  6
CONTINUOUS
 62
     7
 10
552.6008025571812
 20
-411.2000000006992
 30
0.0
 40
1.503159791081544
  0
CIRCLE
  5
58F
  8
PATTERN_FILL
  6
CONTINUOUS
 62
     7
 10
544.7944829750168
 20
-408.6000000006879
 30
0.0
 40
1.503159791081771
  0
CIRCLE
  5
590
  8
PATTERN_FILL
  6
CONTINUOUS
 62
     7
 10
549.991323183935
 20
-408.6000000006879
 30
0.0
 40
1.503159791081771
  0
CIRCLE
  5
591
  8
PATTERN_FILL
  6
CONTINUOUS
 62
     7
 10
555.1976427660995
 20
-408.6000000006879
 30
0.0
 40
1.503159791081771
  0
CIRCLE
  5
592
  8
PATTERN_FILL
  6
CONTINUOUS
 62
     7
 10
542.1976427660982
 20
-421.6000000007443
 30
0.0
 40
1.503159791081771
  0
CIRCLE
  5
593
  8
PATTERN_FILL
  6
CONTINUOUS
 62
     7
 10
547.3944829750164
 20
-421.6000000007443
 30
0.0
 40
1.503159791081771
  0
CIRCLE
  5
594
  8
PATTERN_FILL
  6
CONTINUOUS
 62
     7
 10
557.7976427660992
 20
-421.6000000007443
 30
0.0
 40
1.503159791081771
  0
CIRCLE
  5
595
  8
PATTERN_FILL
  6
CONTINUOUS
 62
     7
 10
552.6008025571812
 20
-421.6000000007443
 30
0.0
 40
1.503159791081544
  0
CIRCLE
  5
596
  8
PATTERN_FILL
  6
CONTINUOUS
 62
     7
 10
544.7944829750168
 20
-419.0000000007331
 30
0.0
 40
1.503159791081771
  0
CIRCLE
  5
597
  8
PATTERN_FILL
  6
CONTINUOUS
 62
     7
 10
549.991323183935
 20
-419.0000000007331
 30
0.0
 40
1.503159791081771
  0
CIRCLE
  5
598
  8
PATTERN_FILL
  6
CONTINUOUS
 62
     7
 10
555.1976427660995
 20
-419.0000000007331
 30
0.0
 40
1.503159791081771
  0
CIRCLE
  5
599
  8
PATTERN_FILL
  6
CONTINUOUS
 62
     7
 10
542.1976427660982
 20
-416.4000000007218
 30
0.0
 40
1.503159791081771
  0
CIRCLE
  5
59A
  8
PATTERN_FILL
  6
CONTINUOUS
 62
     7
 10
547.3944829750164
 20
-416.4000000007218
 30
0.0
 40
1.503159791081771
  0
CIRCLE
  5
59B
  8
PATTERN_FILL
  6
CONTINUOUS
 62
     7
 10
557.7976427660992
 20
-416.4000000007218
 30
0.0
 40
1.503159791081771
  0
CIRCLE
  5
59C
  8
PATTERN_FILL
  6
CONTINUOUS
 62
     7
 10
552.6008025571812
 20
-416.4000000007218
 30
0.0
 40
1.503159791081544
  0
CIRCLE
  5
59D
  8
PATTERN_FILL
  6
CONTINUOUS
 62
     7
 10
544.7944829750168
 20
-413.8000000007105
 30
0.0
 40
1.503159791081771
  0
CIRCLE
  5
59E
  8
PATTERN_FILL
  6
CONTINUOUS
 62
     7
 10
549.991323183935
 20
-413.8000000007105
 30
0.0
 40
1.503159791081771
  0
CIRCLE
  5
59F
  8
PATTERN_FILL
  6
CONTINUOUS
 62
     7
 10
555.1976427660995
 20
-413.8000000007105
 30
0.0
 40
1.503159791081771
  0
CIRCLE
  5
5A0
  8
PATTERN_FILL
  6
CONTINUOUS
 62
     7
 10
544.7944829750168
 20
-439.8000000008233
 30
0.0
 40
1.503159791081771
  0
CIRCLE
  5
5A1
  8
PATTERN_FILL
  6
CONTINUOUS
 62
     7
 10
549.991323183935
 20
-439.8000000008233
 30
0.0
 40
1.503159791081771
  0
CIRCLE
  5
5A2
  8
PATTERN_FILL
  6
CONTINUOUS
 62
     7
 10
555.1976427660995
 20
-439.8000000008233
 30
0.0
 40
1.503159791081771
  0
CIRCLE
  5
5A3
  8
PATTERN_FILL
  6
CONTINUOUS
 62
     7
 10
542.1976427660982
 20
-437.200000000812
 30
0.0
 40
1.503159791081771
  0
CIRCLE
  5
5A4
  8
PATTERN_FILL
  6
CONTINUOUS
 62
     7
 10
547.3944829750164
 20
-437.200000000812
 30
0.0
 40
1.503159791081771
  0
CIRCLE
  5
5A5
  8
PATTERN_FILL
  6
CONTINUOUS
 62
     7
 10
557.7976427660992
 20
-437.200000000812
 30
0.0
 40
1.503159791081771
  0
CIRCLE
  5
5A6
  8
PATTERN_FILL
  6
CONTINUOUS
 62
     7
 10
552.6008025571812
 20
-437.200000000812
 30
0.0
 40
1.503159791081544
  0
CIRCLE
  5
5A7
  8
PATTERN_FILL
  6
CONTINUOUS
 62
     7
 10
542.1976427660982
 20
-432.0000000007894
 30
0.0
 40
1.503159791081771
  0
CIRCLE
  5
5A8
  8
PATTERN_FILL
  6
CONTINUOUS
 62
     7
 10
547.3944829750164
 20
-432.0000000007894
 30
0.0
 40
1.503159791081771
  0
CIRCLE
  5
5A9
  8
PATTERN_FILL
  6
CONTINUOUS
 62
     7
 10
557.7976427660992
 20
-432.0000000007894
 30
0.0
 40
1.503159791081771
  0
CIRCLE
  5
5AA
  8
PATTERN_FILL
  6
CONTINUOUS
 62
     7
 10
552.6008025571812
 20
-432.0000000007894
 30
0.0
 40
1.503159791081544
  0
CIRCLE
  5
5AB
  8
PATTERN_FILL
  6
CONTINUOUS
 62
     7
 10
544.7944829750168
 20
-434.6000000008007
 30
0.0
 40
1.503159791081771
  0
CIRCLE
  5
5AC
  8
PATTERN_FILL
  6
CONTINUOUS
 62
     7
 10
549.991323183935
 20
-434.6000000008007
 30
0.0
 40
1.503159791081771
  0
CIRCLE
  5
5AD
  8
PATTERN_FILL
  6
CONTINUOUS
 62
     7
 10
555.1976427660995
 20
-434.6000000008007
 30
0.0
 40
1.503159791081771
  0
CIRCLE
  5
5AE
  8
PATTERN_FILL
  6
CONTINUOUS
 62
     7
 10
544.7944829750168
 20
-424.2000000007556
 30
0.0
 40
1.503159791081771
  0
CIRCLE
  5
5AF
  8
PATTERN_FILL
  6
CONTINUOUS
 62
     7
 10
549.991323183935
 20
-424.2000000007556
 30
0.0
 40
1.503159791081771
  0
CIRCLE
  5
5B0
  8
PATTERN_FILL
  6
CONTINUOUS
 62
     7
 10
555.1976427660995
 20
-424.2000000007556
 30
0.0
 40
1.503159791081771
  0
CIRCLE
  5
5B1
  8
PATTERN_FILL
  6
CONTINUOUS
 62
     7
 10
542.1976427660982
 20
-426.8000000007669
 30
0.0
 40
1.503159791081771
  0
CIRCLE
  5
5B2
  8
PATTERN_FILL
  6
CONTINUOUS
 62
     7
 10
547.3944829750164
 20
-426.8000000007669
 30
0.0
 40
1.503159791081771
  0
CIRCLE
  5
5B3
  8
PATTERN_FILL
  6
CONTINUOUS
 62
     7
 10
557.7976427660992
 20
-426.8000000007669
 30
0.0
 40
1.503159791081771
  0
CIRCLE
  5
5B4
  8
PATTERN_FILL
  6
CONTINUOUS
 62
     7
 10
552.6008025571812
 20
-426.8000000007669
 30
0.0
 40
1.503159791081544
  0
CIRCLE
  5
5B5
  8
PATTERN_FILL
  6
CONTINUOUS
 62
     7
 10
544.7944829750168
 20
-429.4000000007782
 30
0.0
 40
1.503159791081771
  0
CIRCLE
  5
5B6
  8
PATTERN_FILL
  6
CONTINUOUS
 62
     7
 10
549.991323183935
 20
-429.4000000007782
 30
0.0
 40
1.503159791081771
  0
CIRCLE
  5
5B7
  8
PATTERN_FILL
  6
CONTINUOUS
 62
     7
 10
555.1976427660995
 20
-429.4000000007782
 30
0.0
 40
1.503159791081771
  0
CIRCLE
  5
5B8
  8
PATTERN_FILL
  6
CONTINUOUS
 62
     7
 10
544.7944829750168
 20
-486.6000000010263
 30
0.0
 40
1.503159791081771
  0
CIRCLE
  5
5B9
  8
PATTERN_FILL
  6
CONTINUOUS
 62
     7
 10
549.991323183935
 20
-486.6000000010263
 30
0.0
 40
1.503159791081771
  0
CIRCLE
  5
5BA
  8
PATTERN_FILL
  6
CONTINUOUS
 62
     7
 10
555.1976427660995
 20
-486.6000000010263
 30
0.0
 40
1.503159791081771
  0
CIRCLE
  5
5BB
  8
PATTERN_FILL
  6
CONTINUOUS
 62
     7
 10
542.1976427660982
 20
-489.2000000010376
 30
0.0
 40
1.503159791081771
  0
CIRCLE
  5
5BC
  8
PATTERN_FILL
  6
CONTINUOUS
 62
     7
 10
547.3944829750164
 20
-489.2000000010376
 30
0.0
 40
1.503159791081771
  0
CIRCLE
  5
5BD
  8
PATTERN_FILL
  6
CONTINUOUS
 62
     7
 10
557.7976427660992
 20
-489.2000000010376
 30
0.0
 40
1.503159791081771
  0
CIRCLE
  5
5BE
  8
PATTERN_FILL
  6
CONTINUOUS
 62
     7
 10
552.6008025571812
 20
-489.2000000010376
 30
0.0
 40
1.503159791081544
  0
CIRCLE
  5
5BF
  8
PATTERN_FILL
  6
CONTINUOUS
 62
     7
 10
542.1976427660982
 20
-494.4000000010601
 30
0.0
 40
1.503159791081771
  0
CIRCLE
  5
5C0
  8
PATTERN_FILL
  6
CONTINUOUS
 62
     7
 10
547.3944829750164
 20
-494.4000000010601
 30
0.0
 40
1.503159791081771
  0
CIRCLE
  5
5C1
  8
PATTERN_FILL
  6
CONTINUOUS
 62
     7
 10
557.7976427660992
 20
-494.4000000010601
 30
0.0
 40
1.503159791081771
  0
CIRCLE
  5
5C2
  8
PATTERN_FILL
  6
CONTINUOUS
 62
     7
 10
552.6008025571812
 20
-494.4000000010601
 30
0.0
 40
1.503159791081544
  0
CIRCLE
  5
5C3
  8
PATTERN_FILL
  6
CONTINUOUS
 62
     7
 10
544.7944829750168
 20
-491.8000000010488
 30
0.0
 40
1.503159791081771
  0
CIRCLE
  5
5C4
  8
PATTERN_FILL
  6
CONTINUOUS
 62
     7
 10
549.991323183935
 20
-491.8000000010488
 30
0.0
 40
1.503159791081771
  0
CIRCLE
  5
5C5
  8
PATTERN_FILL
  6
CONTINUOUS
 62
     7
 10
555.1976427660995
 20
-491.8000000010488
 30
0.0
 40
1.503159791081771
  0
CIRCLE
  5
5C6
  8
PATTERN_FILL
  6
CONTINUOUS
 62
     7
 10
-407.8023572339018
 20
-5.599999998939893
 30
0.0
 40
1.503159791081657
  0
CIRCLE
  5
5C7
  8
PATTERN_FILL
  6
CONTINUOUS
 62
     7
 10
-402.6055170249836
 20
-5.599999998939893
 30
0.0
 40
1.503159791081771
  0
CIRCLE
  5
5C8
  8
PATTERN_FILL
  6
CONTINUOUS
 62
     7
 10
-392.2023572339007
 20
-5.599999998939893
 30
0.0
 40
1.503159791081657
  0
CIRCLE
  5
5C9
  8
PATTERN_FILL
  6
CONTINUOUS
 62
     7
 10
-397.3991974428189
 20
-5.599999998939893
 30
0.0
 40
1.503159791081544
  0
LINE
  5
5CA
  8
SPEC
  6
CONTINUOUS
 62
     7
 10
-824.9999999999998
 20
1231.5790675
 30
0.0
 11
650.0000000000001
 21
1231.5790675
 31
0.0
  0
LINE
  5
5CB
  8
SPEC
  6
CONTINUOUS
 62
     7
 10
-824.9999999999998
 20
1194.0790675
 30
0.0
 11
650.0000000000001
 21
1194.0790675
 31
0.0
  0
LINE
  5
5CC
  8
SPEC
  6
CONTINUOUS
 62
     7
 10
-824.9999999999998
 20
1231.5790675
 30
0.0
 11
-824.9999999999998
 21
669.0790674999997
 31
0.0
  0
TEXT
  5
5CD
  8
SPEC
 62
     7
 10
-812.4999999999998
 20
1245.5117675
 30
0.0
 40
24.37060546875
  1
仕様
 41
0.7
 11
-812.4999999999998
 21
1269.88237296875
 31
0.0
 73
     3
  0
LINE
  5
5CE
  8
SPEC
  6
CONTINUOUS
 62
     7
 10
-499.9999999999999
 20
1231.5790675
 30
0.0
 11
-499.9999999999999
 21
669.0790674999997
 31
0.0
  0
LINE
  5
5CF
  8
SPEC
  6
CONTINUOUS
 62
     7
 10
650.0000000000001
 20
1231.5790675
 30
0.0
 11
650.0000000000001
 21
669.0790674999997
 31
0.0
  0
TEXT
  5
5D0
  8
SPEC
 62
     7
 10
-816.0
 20
676.9582452777776
 30
0.0
 40
18.95491536458333
  1
付属品
 41
0.7
 11
-816.0
 21
695.9131606423609
 31
0.0
 73
     3
  0
TEXT
  5
5D1
  8
SPEC
 62
     7
 10
-816.0
 20
751.9582452777776
 30
0.0
 40
18.95491536458333
  1
寸法(W×H×D)
 41
0.7
 11
-816.0
 21
770.9131606423609
 31
0.0
 73
     3
  0
TEXT
  5
5D2
  8
SPEC
 62
     7
 10
-816.0
 20
714.4582452777776
 30
0.0
 40
18.95491536458333
  1
質量
 41
0.7
 11
-816.0
 21
733.4131606423609
 31
0.0
 73
     3
  0
TEXT
  5
5D3
  8
SPEC
 62
     7
 10
-490.9999999999999
 20
751.9582452777776
 30
0.0
 40
18.95491536458333
  1
37.5×498×23mm(除突起部)
 41
0.7
 11
-490.9999999999999
 21
770.9131606423609
 31
0.0
 73
     3
  0
TEXT
  5
5D4
  8
SPEC
 62
     7
 10
-490.9999999999999
 20
714.4582452777776
 30
0.0
 40
18.95491536458333
  1
526g
 41
0.7
 11
-490.9999999999999
 21
733.4131606423609
 31
0.0
 73
     3
  0
LINE
  5
5D5
  8
SPEC
  6
CONTINUOUS
 62
     7
 10
-824.9999999999998
 20
1156.5790675
 30
0.0
 11
650.0000000000001
 21
1156.5790675
 31
0.0
  0
LINE
  5
5D6
  8
SPEC
  6
CONTINUOUS
 62
     7
 10
-824.9999999999998
 20
1119.0790675
 30
0.0
 11
650.0000000000001
 21
1119.0790675
 31
0.0
  0
LINE
  5
5D7
  8
SPEC
  6
CONTINUOUS
 62
     7
 10
-824.9999999999998
 20
1081.5790675
 30
0.0
 11
650.0000000000001
 21
1081.5790675
 31
0.0
  0
LINE
  5
5D8
  8
SPEC
  6
CONTINUOUS
 62
     7
 10
-824.9999999999998
 20
1044.0790675
 30
0.0
 11
650.0000000000001
 21
1044.0790675
 31
0.0
  0
LINE
  5
5D9
  8
SPEC
  6
CONTINUOUS
 62
     7
 10
-824.9999999999998
 20
1006.5790675
 30
0.0
 11
650.0000000000001
 21
1006.5790675
 31
0.0
  0
LINE
  5
5DA
  8
SPEC
  6
CONTINUOUS
 62
     7
 10
-824.9999999999998
 20
969.0790674999998
 30
0.0
 11
650.0000000000001
 21
969.0790674999998
 31
0.0
  0
LINE
  5
5DB
  8
SPEC
  6
CONTINUOUS
 62
     7
 10
-824.9999999999998
 20
931.5790674999998
 30
0.0
 11
650.0000000000001
 21
931.5790674999998
 31
0.0
  0
LINE
  5
5DC
  8
SPEC
  6
CONTINUOUS
 62
     7
 10
-824.9999999999998
 20
894.0790674999998
 30
0.0
 11
650.0000000000001
 21
894.0790674999998
 31
0.0
  0
LINE
  5
5DD
  8
SPEC
  6
CONTINUOUS
 62
     7
 10
-824.9999999999998
 20
856.5790674999998
 30
0.0
 11
650.0000000000001
 21
856.5790674999998
 31
0.0
  0
LINE
  5
5DE
  8
SPEC
  6
CONTINUOUS
 62
     7
 10
-824.9999999999998
 20
819.0790674999998
 30
0.0
 11
650.0000000000001
 21
819.0790674999998
 31
0.0
  0
LINE
  5
5DF
  8
SPEC
  6
CONTINUOUS
 62
     7
 10
-824.9999999999998
 20
781.5790674999998
 30
0.0
 11
650.0000000000001
 21
781.5790674999998
 31
0.0
  0
LINE
  5
5E0
  8
SPEC
  6
CONTINUOUS
 62
     7
 10
-824.9999999999998
 20
744.0790674999998
 30
0.0
 11
650.0000000000001
 21
744.0790674999998
 31
0.0
  0
LINE
  5
5E1
  8
SPEC
  6
CONTINUOUS
 62
     7
 10
-824.9999999999998
 20
706.5790674999998
 30
0.0
 11
650.0000000000001
 21
706.5790674999998
 31
0.0
  0
LINE
  5
5E2
  8
SPEC
  6
CONTINUOUS
 62
     7
 10
-824.9999999999998
 20
669.0790674999998
 30
0.0
 11
650.0000000000002
 21
669.0790674999998
 31
0.0
  0
TEXT
  5
5E3
  8
SPEC
 62
     7
 10
-816.0
 20
1201.958245277778
 30
0.0
 40
18.95491536458333
  1
インピーダンス
 41
0.7
 11
-816.0
 21
1220.913160642361
 31
0.0
 73
     3
  0
TEXT
  5
5E4
  8
SPEC
 62
     7
 10
-816.0
 20
1164.458245277778
 30
0.0
 40
18.95491536458333
  1
周波数特性
 41
0.7
 11
-816.0
 21
1183.413160642361
 31
0.0
 73
     3
  0
TEXT
  5
5E5
  8
SPEC
 62
     7
 10
-816.0
 20
1126.958245277778
 30
0.0
 40
18.95491536458333
  1
システム
 41
0.7
 11
-816.0
 21
1145.913160642361
 31
0.0
 73
     3
  0
TEXT
  5
5E6
  8
SPEC
 62
     7
 10
-816.0
 20
1089.458245277778
 30
0.0
 40
18.95491536458333
  1
ドライバー数
 41
0.7
 11
-816.0
 21
1108.413160642361
 31
0.0
 73
     3
  0
TEXT
  5
5E7
  8
SPEC
 62
     7
 10
-816.0
 20
1051.958245277778
 30
0.0
 40
18.95491536458333
  1
定格出力
 41
0.7
 11
-816.0
 21
1070.913160642361
 31
0.0
 73
     3
  0
TEXT
  5
5E8
  8
SPEC
 62
     7
 10
-816.0
 20
1014.458245277778
 30
0.0
 40
18.95491536458333
  1
ピーク出力
 41
0.7
 11
-816.0
 21
1033.413160642361
 31
0.0
 73
     3
  0
TEXT
  5
5E9
  8
SPEC
 62
     7
 10
-816.0
 20
976.9582452777776
 30
0.0
 40
18.95491536458333
  1
カバレージ角
 41
0.7
 11
-816.0
 21
995.9131606423609
 31
0.0
 73
     3
  0
TEXT
  5
5EA
  8
SPEC
 62
     7
 10
-816.0
 20
939.4582452777776
 30
0.0
 40
18.95491536458333
  1
感度
 41
0.7
 11
-816.0
 21
958.4131606423609
 31
0.0
 73
     3
  0
TEXT
  5
5EB
  8
SPEC
 62
     7
 10
-816.0
 20
901.9582452777776
 30
0.0
 40
18.95491536458333
  1
最大音圧
 41
0.7
 11
-816.0
 21
920.9131606423609
 31
0.0
 73
     3
  0
TEXT
  5
5EC
  8
SPEC
 62
     7
 10
-816.0
 20
864.4582452777776
 30
0.0
 40
18.95491536458333
  1
シャーシ
 41
0.7
 11
-816.0
 21
883.4131606423609
 31
0.0
 73
     3
  0
TEXT
  5
5ED
  8
SPEC
 62
     7
 10
-816.0
 20
826.9582452777776
 30
0.0
 40
18.95491536458333
  1
カラー
 41
0.7
 11
-816.0
 21
845.9131606423609
 31
0.0
 73
     3
  0
TEXT
  5
5EE
  8
SPEC
 62
     7
 10
-816.0
 20
789.4582452777776
 30
0.0
 40
18.95491536458333
  1
マウント
 41
0.7
 11
-816.0
 21
808.4131606423609
 31
0.0
 73
     3
  0
TEXT
  5
5EF
  8
SPEC
 62
     7
 10
-491.0
 20
1201.958245277778
 30
0.0
 40
18.95491536458333
  1
8Ω
 41
0.7
 11
-491.0
 21
1220.913160642361
 31
0.0
 73
     3
  0
TEXT
  5
5F0
  8
SPEC
 62
     7
 10
-491.0
 20
1164.458245277778
 30
0.0
 40
18.95491536458333
  1
120Hz～20kHz
 41
0.7
 11
-491.0
 21
1183.413160642361
 31
0.0
 73
     3
  0
TEXT
  5
5F1
  8
SPEC
 62
     7
 10
-491.0
 20
1126.958245277778
 30
0.0
 40
18.95491536458333
  1
ラインアレイスピーカー
 41
0.7
 11
-491.0
 21
1145.913160642361
 31
0.0
 73
     3
  0
TEXT
  5
5F2
  8
SPEC
 62
     7
 10
-491.0
 20
1089.458245277778
 30
0.0
 40
18.95491536458333
  1
2
 41
0.7
 11
-491.0
 21
1108.413160642361
 31
0.0
 73
     3
  0
TEXT
  5
5F3
  8
SPEC
 62
     7
 10
-491.0
 20
1051.958245277778
 30
0.0
 40
18.95491536458333
  1
20W
 41
0.7
 11
-491.0
 21
1070.913160642361
 31
0.0
 73
     3
  0
TEXT
  5
5F4
  8
SPEC
 62
     7
 10
-491.0
 20
1014.458245277778
 30
0.0
 40
18.95491536458333
  1
40W
 41
0.7
 11
-491.0
 21
1033.413160642361
 31
0.0
 73
     3
  0
TEXT
  5
5F5
  8
SPEC
 62
     7
 10
-491.0
 20
976.9582452777776
 30
0.0
 40
18.95491536458333
  1
160°×40°
 41
0.7
 11
-491.0
 21
995.9131606423609
 31
0.0
 73
     3
  0
TEXT
  5
5F6
  8
SPEC
 62
     7
 10
-491.0
 20
939.4582452777776
 30
0.0
 40
18.95491536458333
  1
86dB/W/m
 41
0.7
 11
-491.0
 21
958.4131606423609
 31
0.0
 73
     3
  0
TEXT
  5
5F7
  8
SPEC
 62
     7
 10
-491.0
 20
901.9582452777776
 30
0.0
 40
18.95491536458333
  1
98dB
 41
0.7
 11
-491.0
 21
920.9131606423609
 31
0.0
 73
     3
  0
TEXT
  5
5F8
  8
SPEC
 62
     7
 10
-491.0
 20
864.4582452777776
 30
0.0
 40
18.95491536458333
  1
アルミニウム
 41
0.7
 11
-491.0
 21
883.4131606423609
 31
0.0
 73
     3
  0
TEXT
  5
5F9
  8
SPEC
 62
     7
 10
-491.0
 20
826.9582452777776
 30
0.0
 40
18.95491536458333
  1
白/黒
 41
0.7
 11
-491.0
 21
845.9131606423609
 31
0.0
 73
     3
  0
TEXT
  5
5FA
  8
SPEC
 62
     7
 10
-491.0
 20
789.4582452777776
 30
0.0
 40
18.95491536458333
  1
メタルブラケットによる壁面取付
 41
0.7
 11
-491.0
 21
808.4131606423609
 31
0.0
 73
     3
  0
TEXT
  5
5FB
  8
SPEC
 62
     7
 10
-490.9999999999999
 20
676.9582452777775
 30
0.0
 40
18.95491536458333
  1
ユーロブロック、取付金具、ねじ
 41
0.7
 11
-490.9999999999999
 21
695.9131606423608
 31
0.0
 73
     3
  0
TEXT
  5
5FC
  8
DIMNSIONS
 62
     7
 10
-199.9999999999999
 20
-1145.7260325
 30
0.0
 40
24.37060546875
  1
(単位：mm)
 41
0.7
 11
-199.9999999999999
 21
-1121.35542703125
 31
0.0
 73
     3
  0
LINE
  5
5FD
  8
DIMNSIONS
  6
CONTINUOUS
 62
     7
 10
-426.7493709732958
 20
-0.9999999999998863
 30
0.0
 11
-460.0
 21
-0.9999999999998863
 31
0.0
  0
LINE
  5
5FE
  8
DIMNSIONS
  6
CONTINUOUS
 62
     7
 10
-426.7493709732958
 20
-499.0
 30
0.0
 11
-460.0
 21
-499.0
 31
0.0
  0
LINE
  5
5FF
  8
DIMNSIONS
  6
CONTINUOUS
 62
     7
 10
-450.0
 20
-0.9999999999998863
 30
0.0
 11
-450.0
 21
-499.0
 31
0.0
  0
POLYLINE
  5
600
  8
DIMNSIONS
  6
CONTINUOUS
 62
     7
 66
     1
 10
0.0
 20
0.0
 30
0.0
 70
   128
  0
VERTEX
  5
857
  8
DIMNSIONS
  6
CONTINUOUS
 62
     7
 10
-455.3586567622059
 20
-20.99877929687489
 30
0.0
  0
VERTEX
  5
858
  8
DIMNSIONS
  6
CONTINUOUS
 62
     7
 10
-450.0
 20
-0.9999999999998863
 30
0.0
  0
VERTEX
  5
859
  8
DIMNSIONS
  6
CONTINUOUS
 62
     7
 10
-444.6413432377941
 20
-20.99877929687489
 30
0.0
  0
SEQEND
  5
895
  8
DIMNSIONS
  6
CONTINUOUS
 62
     7
  0
POLYLINE
  5
605
  8
DIMNSIONS
  6
CONTINUOUS
 62
     7
 66
     1
 10
0.0
 20
0.0
 30
0.0
 70
   128
  0
VERTEX
  5
85A
  8
DIMNSIONS
  6
CONTINUOUS
 62
     7
 10
-444.6413432377941
 20
-479.001220703125
 30
0.0
  0
VERTEX
  5
85B
  8
DIMNSIONS
  6
CONTINUOUS
 62
     7
 10
-450.0
 20
-499.0
 30
0.0
  0
VERTEX
  5
85C
  8
DIMNSIONS
  6
CONTINUOUS
 62
     7
 10
-455.3586567622059
 20
-479.001220703125
 30
0.0
  0
SEQEND
  5
896
  8
DIMNSIONS
  6
CONTINUOUS
 62
     7
  0
TEXT
  5
60A
  8
DIMNSIONS
 62
     7
 10
-459.9388888888889
 20
-276.4583333333333
 30
0.0
 40
27.07845052083335
  1
498
 50
90.0
 41
0.7
 11
-487.0173394097222
 21
-276.4583333333333
 31
0.0
 73
     3
  0
LINE
  5
60B
  8
DIMNSIONS
  6
CONTINUOUS
 62
     7
 10
-423.5422385791024
 20
150.0000000000001
 30
0.0
 11
-502.5000000000001
 21
150.0000000000001
 31
0.0
  0
LINE
  5
60C
  8
DIMNSIONS
  6
CONTINUOUS
 62
     7
 10
-428.3913526396944
 20
173.0000000000001
 30
0.0
 11
-502.5000000000001
 21
173.0000000000001
 31
0.0
  0
LINE
  5
60D
  8
DIMNSIONS
  6
CONTINUOUS
 62
     7
 10
-492.5000000000001
 20
173.0000000000001
 30
0.0
 11
-492.5000000000001
 21
150.0000000000001
 31
0.0
  0
LINE
  5
60E
  8
DIMNSIONS
  6
CONTINUOUS
 62
     7
 10
-492.5000000000001
 20
150.0000000000001
 30
0.0
 11
-492.5000000000001
 21
63.72222222222233
 31
0.0
  0
POLYLINE
  5
60F
  8
DIMNSIONS
  6
CONTINUOUS
 62
     7
 66
     1
 10
0.0
 20
0.0
 30
0.0
 70
   128
  0
VERTEX
  5
85D
  8
DIMNSIONS
  6
CONTINUOUS
 62
     7
 10
-497.858656762206
 20
130.0012207031251
 30
0.0
  0
VERTEX
  5
85E
  8
DIMNSIONS
  6
CONTINUOUS
 62
     7
 10
-492.5000000000001
 20
150.0000000000001
 30
0.0
  0
VERTEX
  5
85F
  8
DIMNSIONS
  6
CONTINUOUS
 62
     7
 10
-487.1413432377942
 20
130.0012207031251
 30
0.0
  0
SEQEND
  5
897
  8
DIMNSIONS
  6
CONTINUOUS
 62
     7
  0
LINE
  5
614
  8
DIMNSIONS
  6
CONTINUOUS
 62
     7
 10
-492.5000000000001
 20
173.0000000000001
 30
0.0
 11
-492.5000000000001
 21
208.0000000000001
 31
0.0
  0
POLYLINE
  5
615
  8
DIMNSIONS
  6
CONTINUOUS
 62
     7
 66
     1
 10
0.0
 20
0.0
 30
0.0
 70
   128
  0
VERTEX
  5
860
  8
DIMNSIONS
  6
CONTINUOUS
 62
     7
 10
-487.1413432377942
 20
192.9987792968751
 30
0.0
  0
VERTEX
  5
861
  8
DIMNSIONS
  6
CONTINUOUS
 62
     7
 10
-492.5000000000001
 20
173.0000000000001
 30
0.0
  0
VERTEX
  5
862
  8
DIMNSIONS
  6
CONTINUOUS
 62
     7
 10
-497.858656762206
 20
192.9987792968751
 30
0.0
  0
SEQEND
  5
898
  8
DIMNSIONS
  6
CONTINUOUS
 62
     7
  0
TEXT
  5
61A
  8
DIMNSIONS
 62
     7
 10
-502.4388888888889
 20
63.72222222222233
 30
0.0
 40
27.07845052083335
  1
23.0
 50
90.0
 41
0.7
 11
-529.5173394097222
 21
63.72222222222233
 31
0.0
 73
     3
  0
LINE
  5
61B
  8
DIMNSIONS
  6
CONTINUOUS
 62
     7
 10
-418.7523580093567
 20
-509.0003354671524
 30
0.0
 11
-418.7523580093567
 21
-560.0
 31
0.0
  0
LINE
  5
61C
  8
DIMNSIONS
  6
CONTINUOUS
 62
     7
 10
-381.2523611606701
 20
-509.0003354671524
 30
0.0
 11
-381.2523611606701
 21
-560.0
 31
0.0
  0
LINE
  5
61D
  8
DIMNSIONS
  6
CONTINUOUS
 62
     7
 10
-381.2523611606701
 20
-550.0
 30
0.0
 11
-418.7523580093567
 21
-550.0
 31
0.0
  0
LINE
  5
61E
  8
DIMNSIONS
  6
CONTINUOUS
 62
     7
 10
-418.7523580093567
 20
-550.0
 30
0.0
 11
-510.4332808651639
 21
-550.0
 31
0.0
  0
POLYLINE
  5
61F
  8
DIMNSIONS
  6
CONTINUOUS
 62
     7
 66
     1
 10
0.0
 20
0.0
 30
0.0
 70
   128
  0
VERTEX
  5
863
  8
DIMNSIONS
  6
CONTINUOUS
 62
     7
 10
-438.7511373062317
 20
-544.6413432377941
 30
0.0
  0
VERTEX
  5
864
  8
DIMNSIONS
  6
CONTINUOUS
 62
     7
 10
-418.7523580093567
 20
-550.0
 30
0.0
  0
VERTEX
  5
865
  8
DIMNSIONS
  6
CONTINUOUS
 62
     7
 10
-438.7511373062317
 20
-555.3586567622059
 30
0.0
  0
SEQEND
  5
899
  8
DIMNSIONS
  6
CONTINUOUS
 62
     7
  0
LINE
  5
624
  8
DIMNSIONS
  6
CONTINUOUS
 62
     7
 10
-381.2523611606701
 20
-550.0
 30
0.0
 11
-346.2523611606701
 21
-550.0
 31
0.0
  0
POLYLINE
  5
625
  8
DIMNSIONS
  6
CONTINUOUS
 62
     7
 66
     1
 10
0.0
 20
0.0
 30
0.0
 70
   128
  0
VERTEX
  5
866
  8
DIMNSIONS
  6
CONTINUOUS
 62
     7
 10
-361.2535818637951
 20
-555.3586567622059
 30
0.0
  0
VERTEX
  5
867
  8
DIMNSIONS
  6
CONTINUOUS
 62
     7
 10
-381.2523611606701
 20
-550.0
 30
0.0
  0
VERTEX
  5
868
  8
DIMNSIONS
  6
CONTINUOUS
 62
     7
 10
-361.2535818637951
 20
-544.6413432377941
 30
0.0
  0
SEQEND
  5
89A
  8
DIMNSIONS
  6
CONTINUOUS
 62
     7
  0
TEXT
  5
62A
  8
DIMNSIONS
 62
     7
 10
-510.4332808651639
 20
-540.0611111111111
 30
0.0
 40
27.07845052083335
  1
37.5
 41
0.7
 11
-510.4332808651639
 21
-512.9826605902778
 31
0.0
 73
     3
  0
LINE
  5
62B
  8
DIMNSIONS
  6
CONTINUOUS
 62
     7
 10
-419.5023572339013
 20
175.5000000000001
 30
0.0
 11
-460.0
 21
175.5000000000001
 31
0.0
  0
LINE
  5
62C
  8
DIMNSIONS
  6
CONTINUOUS
 62
     7
 10
-428.3913526396944
 20
173.0000000000001
 30
0.0
 11
-460.0
 21
173.0000000000001
 31
0.0
  0
LINE
  5
62D
  8
DIMNSIONS
  6
CONTINUOUS
 62
     7
 10
-450.0
 20
173.0000000000001
 30
0.0
 11
-450.0
 21
175.5000000000001
 31
0.0
  0
LINE
  5
62E
  8
DIMNSIONS
  6
CONTINUOUS
 62
     7
 10
-450.0
 20
175.5000000000001
 30
0.0
 11
-450.0
 21
245.138888888889
 31
0.0
  0
POLYLINE
  5
62F
  8
DIMNSIONS
  6
CONTINUOUS
 62
     7
 66
     1
 10
0.0
 20
0.0
 30
0.0
 70
   128
  0
VERTEX
  5
869
  8
DIMNSIONS
  6
CONTINUOUS
 62
     7
 10
-444.6413432377941
 20
195.4987792968751
 30
0.0
  0
VERTEX
  5
86A
  8
DIMNSIONS
  6
CONTINUOUS
 62
     7
 10
-450.0
 20
175.5000000000001
 30
0.0
  0
VERTEX
  5
86B
  8
DIMNSIONS
  6
CONTINUOUS
 62
     7
 10
-455.3586567622059
 20
195.4987792968751
 30
0.0
  0
SEQEND
  5
89B
  8
DIMNSIONS
  6
CONTINUOUS
 62
     7
  0
LINE
  5
634
  8
DIMNSIONS
  6
CONTINUOUS
 62
     7
 10
-450.0
 20
173.0000000000001
 30
0.0
 11
-450.0
 21
138.0000000000001
 31
0.0
  0
POLYLINE
  5
635
  8
DIMNSIONS
  6
CONTINUOUS
 62
     7
 66
     1
 10
0.0
 20
0.0
 30
0.0
 70
   128
  0
VERTEX
  5
86C
  8
DIMNSIONS
  6
CONTINUOUS
 62
     7
 10
-455.3586567622059
 20
153.0012207031251
 30
0.0
  0
VERTEX
  5
86D
  8
DIMNSIONS
  6
CONTINUOUS
 62
     7
 10
-450.0
 20
173.0000000000001
 30
0.0
  0
VERTEX
  5
86E
  8
DIMNSIONS
  6
CONTINUOUS
 62
     7
 10
-444.6413432377941
 20
153.0012207031251
 30
0.0
  0
SEQEND
  5
89C
  8
DIMNSIONS
  6
CONTINUOUS
 62
     7
  0
TEXT
  5
63A
  8
DIMNSIONS
 62
     7
 10
-459.9388888888889
 20
192.2222222222223
 30
0.0
 40
27.07845052083335
  1
2.5
 50
90.0
 41
0.7
 11
-487.0173394097222
 21
192.2222222222223
 31
0.0
 73
     3
  0
LINE
  5
63B
  8
DIMNSIONS
  6
CONTINUOUS
 62
     7
 10
-121.0023572339013
 20
58.90000000000015
 30
0.0
 11
-121.0023572339013
 21
-4.699999999999818
 31
0.0
  0
LINE
  5
63C
  8
DIMNSIONS
  6
CONTINUOUS
 62
     7
 10
-98.80235723390135
 20
58.90000000000015
 30
0.0
 11
-98.80235723390135
 21
-4.699999999999818
 31
0.0
  0
LINE
  5
63D
  8
DIMNSIONS
  6
CONTINUOUS
 62
     7
 10
-98.80235723390135
 20
5.300000000000182
 30
0.0
 11
-121.0023572339013
 21
5.300000000000182
 31
0.0
  0
LINE
  5
63E
  8
DIMNSIONS
  6
CONTINUOUS
 62
     7
 10
-121.0023572339013
 20
5.300000000000182
 30
0.0
 11
-156.0023572339013
 21
5.300000000000182
 31
0.0
  0
POLYLINE
  5
63F
  8
DIMNSIONS
  6
CONTINUOUS
 62
     7
 66
     1
 10
0.0
 20
0.0
 30
0.0
 70
   128
  0
VERTEX
  5
86F
  8
DIMNSIONS
  6
CONTINUOUS
 62
     7
 10
-141.0011365307763
 20
10.65865676220609
 30
0.0
  0
VERTEX
  5
870
  8
DIMNSIONS
  6
CONTINUOUS
 62
     7
 10
-121.0023572339013
 20
5.300000000000182
 30
0.0
  0
VERTEX
  5
871
  8
DIMNSIONS
  6
CONTINUOUS
 62
     7
 10
-141.0011365307763
 20
-0.058656762205735
 30
0.0
  0
SEQEND
  5
89D
  8
DIMNSIONS
  6
CONTINUOUS
 62
     7
  0
LINE
  5
644
  8
DIMNSIONS
  6
CONTINUOUS
 62
     7
 10
-98.80235723390135
 20
5.300000000000182
 30
0.0
 11
-12.12457945612353
 21
5.300000000000182
 31
0.0
  0
POLYLINE
  5
645
  8
DIMNSIONS
  6
CONTINUOUS
 62
     7
 66
     1
 10
0.0
 20
0.0
 30
0.0
 70
   128
  0
VERTEX
  5
872
  8
DIMNSIONS
  6
CONTINUOUS
 62
     7
 10
-78.80357793702635
 20
-0.0586567622057297
 30
0.0
  0
VERTEX
  5
873
  8
DIMNSIONS
  6
CONTINUOUS
 62
     7
 10
-98.80235723390135
 20
5.300000000000182
 30
0.0
  0
VERTEX
  5
874
  8
DIMNSIONS
  6
CONTINUOUS
 62
     7
 10
-78.80357793702635
 20
10.65865676220609
 30
0.0
  0
SEQEND
  5
89E
  8
DIMNSIONS
  6
CONTINUOUS
 62
     7
  0
TEXT
  5
64A
  8
DIMNSIONS
 62
     7
 10
-82.68013501167908
 20
15.23888888888908
 30
0.0
 40
27.07845052083335
  1
22.2
 41
0.7
 11
-82.68013501167908
 21
42.31733940972244
 31
0.0
 73
     3
  0
LINE
  5
64B
  8
DIMNSIONS
  6
CONTINUOUS
 62
     7
 10
-121.9023572339013
 20
59.80000000000018
 30
0.0
 11
-157.4023572339013
 21
59.80000000000018
 31
0.0
  0
LINE
  5
64C
  8
DIMNSIONS
  6
CONTINUOUS
 62
     7
 10
-133.0023572339014
 20
105.3000000000002
 30
0.0
 11
-157.4023572339013
 21
105.3000000000002
 31
0.0
  0
LINE
  5
64D
  8
DIMNSIONS
  6
CONTINUOUS
 62
     7
 10
-147.4023572339013
 20
59.80000000000018
 30
0.0
 11
-147.4023572339013
 21
105.3000000000002
 31
0.0
  0
POLYLINE
  5
64E
  8
DIMNSIONS
  6
CONTINUOUS
 62
     7
 66
     1
 10
0.0
 20
0.0
 30
0.0
 70
   128
  0
VERTEX
  5
875
  8
DIMNSIONS
  6
CONTINUOUS
 62
     7
 10
-142.0437004716954
 20
79.79877929687518
 30
0.0
  0
VERTEX
  5
876
  8
DIMNSIONS
  6
CONTINUOUS
 62
     7
 10
-147.4023572339013
 20
59.80000000000018
 30
0.0
  0
VERTEX
  5
877
  8
DIMNSIONS
  6
CONTINUOUS
 62
     7
 10
-152.7610139961072
 20
79.79877929687518
 30
0.0
  0
SEQEND
  5
89F
  8
DIMNSIONS
  6
CONTINUOUS
 62
     7
  0
POLYLINE
  5
653
  8
DIMNSIONS
  6
CONTINUOUS
 62
     7
 66
     1
 10
0.0
 20
0.0
 30
0.0
 70
   128
  0
VERTEX
  5
878
  8
DIMNSIONS
  6
CONTINUOUS
 62
     7
 10
-152.7610139961072
 20
85.30122070312518
 30
0.0
  0
VERTEX
  5
879
  8
DIMNSIONS
  6
CONTINUOUS
 62
     7
 10
-147.4023572339013
 20
105.3000000000002
 30
0.0
  0
VERTEX
  5
87A
  8
DIMNSIONS
  6
CONTINUOUS
 62
     7
 10
-142.0437004716954
 20
85.30122070312518
 30
0.0
  0
SEQEND
  5
8A0
  8
DIMNSIONS
  6
CONTINUOUS
 62
     7
  0
TEXT
  5
658
  8
DIMNSIONS
 62
     7
 10
-162.3412461227902
 20
47.2722222222224
 30
0.0
 40
27.07845052083335
  1
45.5
 50
90.0
 41
0.7
 11
-189.4196966436236
 21
47.2722222222224
 31
0.0
 73
     3
  0
LINE
  5
659
  8
DIMNSIONS
  6
CONTINUOUS
 62
     7
 10
-121.9023572339013
 20
155.3000000000002
 30
0.0
 11
-157.4023572339013
 21
155.3000000000002
 31
0.0
  0
LINE
  5
65A
  8
DIMNSIONS
  6
CONTINUOUS
 62
     7
 10
-133.0023572339014
 20
188.0000000000002
 30
0.0
 11
-157.4023572339013
 21
188.0000000000002
 31
0.0
  0
LINE
  5
65B
  8
DIMNSIONS
  6
CONTINUOUS
 62
     7
 10
-147.4023572339013
 20
188.0000000000002
 30
0.0
 11
-147.4023572339013
 21
155.3000000000002
 31
0.0
  0
LINE
  5
65C
  8
DIMNSIONS
  6
CONTINUOUS
 62
     7
 10
-147.4023572339013
 20
155.3000000000002
 30
0.0
 11
-147.4023572339013
 21
120.3000000000002
 31
0.0
  0
POLYLINE
  5
65D
  8
DIMNSIONS
  6
CONTINUOUS
 62
     7
 66
     1
 10
0.0
 20
0.0
 30
0.0
 70
   128
  0
VERTEX
  5
87B
  8
DIMNSIONS
  6
CONTINUOUS
 62
     7
 10
-152.7610139961072
 20
135.3012207031252
 30
0.0
  0
VERTEX
  5
87C
  8
DIMNSIONS
  6
CONTINUOUS
 62
     7
 10
-147.4023572339013
 20
155.3000000000002
 30
0.0
  0
VERTEX
  5
87D
  8
DIMNSIONS
  6
CONTINUOUS
 62
     7
 10
-142.0437004716954
 20
135.3012207031252
 30
0.0
  0
SEQEND
  5
8A1
  8
DIMNSIONS
  6
CONTINUOUS
 62
     7
  0
LINE
  5
662
  8
DIMNSIONS
  6
CONTINUOUS
 62
     7
 10
-147.4023572339013
 20
188.0000000000002
 30
0.0
 11
-147.4023572339013
 21
223.0000000000002
 31
0.0
  0
POLYLINE
  5
663
  8
DIMNSIONS
  6
CONTINUOUS
 62
     7
 66
     1
 10
0.0
 20
0.0
 30
0.0
 70
   128
  0
VERTEX
  5
87E
  8
DIMNSIONS
  6
CONTINUOUS
 62
     7
 10
-142.0437004716954
 20
207.9987792968752
 30
0.0
  0
VERTEX
  5
87F
  8
DIMNSIONS
  6
CONTINUOUS
 62
     7
 10
-147.4023572339013
 20
188.0000000000002
 30
0.0
  0
VERTEX
  5
880
  8
DIMNSIONS
  6
CONTINUOUS
 62
     7
 10
-152.7610139961072
 20
207.9987792968752
 30
0.0
  0
SEQEND
  5
8A2
  8
DIMNSIONS
  6
CONTINUOUS
 62
     7
  0
TEXT
  5
668
  8
DIMNSIONS
 62
     7
 10
-162.3412461227902
 20
136.3722222222224
 30
0.0
 40
27.07845052083335
  1
32.7
 50
90.0
 41
0.7
 11
-189.4196966436236
 21
136.3722222222224
 31
0.0
 73
     3
  0
LINE
  5
669
  8
DIMNSIONS
  6
CONTINUOUS
 62
     7
 10
526.9
 20
0.8000000000001819
 30
0.0
 11
490.0
 21
0.8000000000001819
 31
0.0
  0
LINE
  5
66A
  8
DIMNSIONS
  6
CONTINUOUS
 62
     7
 10
526.9
 20
-500.8000534341134
 30
0.0
 11
490.0
 21
-500.8000534341134
 31
0.0
  0
LINE
  5
66B
  8
DIMNSIONS
  6
CONTINUOUS
 62
     7
 10
500.0
 20
0.8000000000001819
 30
0.0
 11
500.0
 21
-500.8000534341134
 31
0.0
  0
POLYLINE
  5
66C
  8
DIMNSIONS
  6
CONTINUOUS
 62
     7
 66
     1
 10
0.0
 20
0.0
 30
0.0
 70
   128
  0
VERTEX
  5
881
  8
DIMNSIONS
  6
CONTINUOUS
 62
     7
 10
494.6413432377941
 20
-19.19877929687482
 30
0.0
  0
VERTEX
  5
882
  8
DIMNSIONS
  6
CONTINUOUS
 62
     7
 10
500.0
 20
0.8000000000001819
 30
0.0
  0
VERTEX
  5
883
  8
DIMNSIONS
  6
CONTINUOUS
 62
     7
 10
505.3586567622059
 20
-19.19877929687482
 30
0.0
  0
SEQEND
  5
8A3
  8
DIMNSIONS
  6
CONTINUOUS
 62
     7
  0
POLYLINE
  5
671
  8
DIMNSIONS
  6
CONTINUOUS
 62
     7
 66
     1
 10
0.0
 20
0.0
 30
0.0
 70
   128
  0
VERTEX
  5
884
  8
DIMNSIONS
  6
CONTINUOUS
 62
     7
 10
505.3586567622059
 20
-480.8012741372384
 30
0.0
  0
VERTEX
  5
885
  8
DIMNSIONS
  6
CONTINUOUS
 62
     7
 10
500.0
 20
-500.8000534341134
 30
0.0
  0
VERTEX
  5
886
  8
DIMNSIONS
  6
CONTINUOUS
 62
     7
 10
494.6413432377941
 20
-480.8012741372384
 30
0.0
  0
SEQEND
  5
8A4
  8
DIMNSIONS
  6
CONTINUOUS
 62
     7
  0
TEXT
  5
676
  8
DIMNSIONS
 62
     7
 10
490.0611111111111
 20
-294.0972489392788
 30
0.0
 40
27.07845052083335
  1
501.6
 50
90.0
 41
0.7
 11
462.9826605902778
 21
-294.0972489392788
 31
0.0
 73
     3
  0
LINE
  5
677
  8
DIMNSIONS
  6
CONTINUOUS
 62
     7
 10
526.4577614208977
 20
150.0
 30
0.0
 11
490.0000000000001
 21
150.0
 31
0.0
  0
LINE
  5
678
  8
DIMNSIONS
  6
CONTINUOUS
 62
     7
 10
526.8976427660987
 20
185.4000000000001
 30
0.0
 11
490.0000000000001
 21
185.4000000000001
 31
0.0
  0
LINE
  5
679
  8
DIMNSIONS
  6
CONTINUOUS
 62
     7
 10
500.0000000000001
 20
185.4000000000001
 30
0.0
 11
500.0000000000001
 21
150.0
 31
0.0
  0
LINE
  5
67A
  8
DIMNSIONS
  6
CONTINUOUS
 62
     7
 10
500.0000000000001
 20
150.0
 30
0.0
 11
500.0000000000001
 21
115.0
 31
0.0
  0
POLYLINE
  5
67B
  8
DIMNSIONS
  6
CONTINUOUS
 62
     7
 66
     1
 10
0.0
 20
0.0
 30
0.0
 70
   128
  0
VERTEX
  5
887
  8
DIMNSIONS
  6
CONTINUOUS
 62
     7
 10
494.6413432377942
 20
130.001220703125
 30
0.0
  0
VERTEX
  5
888
  8
DIMNSIONS
  6
CONTINUOUS
 62
     7
 10
500.0000000000001
 20
150.0
 30
0.0
  0
VERTEX
  5
889
  8
DIMNSIONS
  6
CONTINUOUS
 62
     7
 10
505.358656762206
 20
130.001220703125
 30
0.0
  0
SEQEND
  5
8A5
  8
DIMNSIONS
  6
CONTINUOUS
 62
     7
  0
LINE
  5
680
  8
DIMNSIONS
  6
CONTINUOUS
 62
     7
 10
500.0000000000001
 20
185.4000000000001
 30
0.0
 11
500.0000000000001
 21
220.4000000000001
 31
0.0
  0
POLYLINE
  5
681
  8
DIMNSIONS
  6
CONTINUOUS
 62
     7
 66
     1
 10
0.0
 20
0.0
 30
0.0
 70
   128
  0
VERTEX
  5
88A
  8
DIMNSIONS
  6
CONTINUOUS
 62
     7
 10
505.358656762206
 20
205.3987792968751
 30
0.0
  0
VERTEX
  5
88B
  8
DIMNSIONS
  6
CONTINUOUS
 62
     7
 10
500.0000000000001
 20
185.4000000000001
 30
0.0
  0
VERTEX
  5
88C
  8
DIMNSIONS
  6
CONTINUOUS
 62
     7
 10
494.6413432377942
 20
205.3987792968751
 30
0.0
  0
SEQEND
  5
8A6
  8
DIMNSIONS
  6
CONTINUOUS
 62
     7
  0
TEXT
  5
686
  8
DIMNSIONS
 62
     7
 10
485.0611111111112
 20
132.4222222222223
 30
0.0
 40
27.07845052083335
  1
35.5
 50
90.0
 41
0.7
 11
457.9826605902778
 21
132.4222222222223
 31
0.0
 73
     3
  0
LINE
  5
687
  8
DIMNSIONS
  6
CONTINUOUS
 62
     7
 10
531.2476419906434
 20
-509.0003354671524
 30
0.0
 11
531.2476419906434
 21
-560.0
 31
0.0
  0
LINE
  5
688
  8
DIMNSIONS
  6
CONTINUOUS
 62
     7
 10
568.74763883933
 20
-509.0003354671524
 30
0.0
 11
568.74763883933
 21
-560.0
 31
0.0
  0
LINE
  5
689
  8
DIMNSIONS
  6
CONTINUOUS
 62
     7
 10
568.74763883933
 20
-550.0
 30
0.0
 11
531.2476419906434
 21
-550.0
 31
0.0
  0
LINE
  5
68A
  8
DIMNSIONS
  6
CONTINUOUS
 62
     7
 10
531.2476419906434
 20
-550.0
 30
0.0
 11
452.2208877155286
 21
-550.0
 31
0.0
  0
POLYLINE
  5
68B
  8
DIMNSIONS
  6
CONTINUOUS
 62
     7
 66
     1
 10
0.0
 20
0.0
 30
0.0
 70
   128
  0
VERTEX
  5
88D
  8
DIMNSIONS
  6
CONTINUOUS
 62
     7
 10
511.2488626937684
 20
-544.6413432377941
 30
0.0
  0
VERTEX
  5
88E
  8
DIMNSIONS
  6
CONTINUOUS
 62
     7
 10
531.2476419906434
 20
-550.0
 30
0.0
  0
VERTEX
  5
88F
  8
DIMNSIONS
  6
CONTINUOUS
 62
     7
 10
511.2488626937684
 20
-555.3586567622059
 30
0.0
  0
SEQEND
  5
8A7
  8
DIMNSIONS
  6
CONTINUOUS
 62
     7
  0
LINE
  5
690
  8
DIMNSIONS
  6
CONTINUOUS
 62
     7
 10
568.74763883933
 20
-550.0
 30
0.0
 11
603.74763883933
 21
-550.0
 31
0.0
  0
POLYLINE
  5
691
  8
DIMNSIONS
  6
CONTINUOUS
 62
     7
 66
     1
 10
0.0
 20
0.0
 30
0.0
 70
   128
  0
VERTEX
  5
890
  8
DIMNSIONS
  6
CONTINUOUS
 62
     7
 10
588.746418136205
 20
-555.3586567622059
 30
0.0
  0
VERTEX
  5
891
  8
DIMNSIONS
  6
CONTINUOUS
 62
     7
 10
568.74763883933
 20
-550.0
 30
0.0
  0
VERTEX
  5
892
  8
DIMNSIONS
  6
CONTINUOUS
 62
     7
 10
588.746418136205
 20
-544.6413432377941
 30
0.0
  0
SEQEND
  5
8A8
  8
DIMNSIONS
  6
CONTINUOUS
 62
     7
  0
TEXT
  5
696
  8
DIMNSIONS
 62
     7
 10
452.2208877155286
 20
-540.0611111111111
 30
0.0
 40
27.07845052083335
  1
37.5
 41
0.7
 11
452.2208877155286
 21
-512.9826605902778
 31
0.0
 73
     3
  0
LINE
  5
697
  8
DATA
  6
CONTINUOUS
 62
     7
 10
-288.7935622153869
 20
-3.001293115623412
 30
0.0
 11
-288.7935622153869
 21
-496.9987068843766
 31
0.0
  0
LINE
  5
698
  8
DATA
  6
CONTINUOUS
 62
     7
 10
-311.5237469802083
 20
-2.999942218873514
 30
0.0
 11
-288.5237469802083
 21
-3.001309151239866
 31
0.0
  0
LINE
  5
699
  8
DATA
  6
CONTINUOUS
 62
     7
 10
-311.5237469802083
 20
-2.999942218873514
 30
0.0
 11
-311.5237469802083
 21
-497.0000577811272
 31
0.0
  0
ARC
  5
69A
  8
DATA
  6
CONTINUOUS
 62
     7
 10
-412.5421790480344
 20
150.9259157117438
 30
0.0
 40
0.5000000000000674
 50
359.1158442726942
 51
51.84157011198153
  0
CIRCLE
  5
69B
  8
DATA
  6
CONTINUOUS
 62
     7
 10
-400.0023572339014
 20
162.5000000000001
 30
0.0
 40
3.450000000000045
  0
LINE
  5
69C
  8
DATA
  6
CONTINUOUS
 62
     7
 10
-409.9023572339013
 20
-495.8999999999999
 30
0.0
 11
-409.9023572339013
 21
-4.100000000000136
 31
0.0
  0
LINE
  5
69D
  8
DATA
  6
CONTINUOUS
 62
     7
 10
-411.4523572339052
 20
-2.999664532847646
 30
0.0
 11
-411.4523572339052
 21
-497.0003354671522
 31
0.0
  0
LINE
  5
69E
  8
DATA
  6
CONTINUOUS
 62
     7
 10
-410.3023572339014
 20
-4.0
 30
0.0
 11
-410.3023572339014
 21
-496.0
 31
0.0
  0
LINE
  5
69F
  8
DATA
  6
CONTINUOUS
 62
     7
 10
-410.0023572339013
 20
-496.0
 30
0.0
 11
-410.0023572339013
 21
-4.0
 31
0.0
  0
LINE
  5
6A0
  8
DATA
  6
CONTINUOUS
 62
     7
 10
-411.9523572339015
 20
-2.999664532847646
 30
0.0
 11
-411.9523572339015
 21
-497.0003354671524
 31
0.0
  0
LINE
  5
6A1
  8
DATA
  6
CONTINUOUS
 62
     7
 10
-412.1423026254775
 20
-497.0003354671525
 30
0.0
 11
-412.1423026254775
 21
-2.999664532847646
 31
0.0
  0
LINE
  5
6A2
  8
DATA
  6
CONTINUOUS
 62
     7
 10
-390.1023572339014
 20
-495.8999999999999
 30
0.0
 11
-409.9023572339013
 21
-495.8999999999999
 31
0.0
  0
LINE
  5
6A3
  8
DATA
  6
CONTINUOUS
 62
     7
 10
-381.2523572339013
 20
-496.0
 30
0.0
 11
-418.7523572339013
 21
-496.0
 31
0.0
  0
LINE
  5
6A4
  8
DATA
  6
CONTINUOUS
 62
     7
 10
-381.2523611606701
 20
-497.0003354671524
 30
0.0
 11
-381.2476388393298
 21
-2.999664532847646
 31
0.0
  0
LINE
  5
6A5
  8
DATA
  6
CONTINUOUS
 62
     7
 10
-418.7514254488563
 20
-2.99971796696093
 30
0.0
 11
-418.7523580093567
 21
-497.0003354671524
 31
0.0
  0
LINE
  5
6A6
  8
DATA
  6
CONTINUOUS
 62
     7
 10
-381.2523611606701
 20
-497.0003354671524
 30
0.0
 11
-418.7523580093567
 21
-497.0003354671524
 31
0.0
  0
LINE
  5
6A7
  8
DATA
  6
CONTINUOUS
 62
     7
 10
-385.2506290267042
 20
-499.0000000000001
 30
0.0
 11
-414.7493709732958
 21
-499.0
 31
0.0
  0
TEXT
  5
6A8
  8
DATA
 62
     7
 10
474.9999999999999
 20
-1120.6515825
 30
0.0
 40
18.95491536458333
  1
商業空間用スピーカー
 41
0.7
 11
474.9999999999999
 21
-1101.696667135417
 31
0.0
 73
     3
  0
TEXT
  5
6A9
  8
DATA
 62
     7
 10
499.9999999999999
 20
-1084.6120325
 30
0.0
 40
24.37060546875
  1
BEC
 41
0.7
 11
499.9999999999999
 21
-1060.24142703125
 31
0.0
 73
     3
  0
TEXT
  5
6AA
  8
DATA
 62
     7
 10
-879.9999999999999
 20
-1189.658154722222
 30
0.0
 40
18.95491536458333
  1
※仕様及び外観は予告なく変更されることがあります。 
 41
0.7
 11
-879.9999999999999
 21
-1170.703239357639
 31
0.0
 73
     3
  0
TEXT
  5
6AB
  8
DATA
 62
     7
 10
-879.9999999999999
 20
-1214.352599166667
 30
0.0
 40
18.95491536458333
  1
　また、同一商品でも若干の個体差があることがあります。ご了承ください。
 41
0.7
 11
-879.9999999999999
 21
-1195.397683802084
 31
0.0
 73
     3
  0
TEXT
  5
6AC
  8
DATA
 62
     7
 10
499.9999999999999
 20
-1157.1120325
 30
0.0
 40
24.37060546875
  1
IC-50
 41
0.7
 11
499.9999999999999
 21
-1132.74142703125
 31
0.0
 73
     3
  0
LINE
  5
6AD
  8
DATA
  6
CONTINUOUS
 62
     7
 10
-390.1023572339014
 20
-495.8999999999999
 30
0.0
 11
-390.1023572339014
 21
-4.100000000000136
 31
0.0
  0
LINE
  5
6AE
  8
DATA
  6
CONTINUOUS
 62
     7
 10
-390.0023572339013
 20
-4.0
 30
0.0
 11
-390.0023572339013
 21
-496.0
 31
0.0
  0
LINE
  5
6AF
  8
DATA
  6
CONTINUOUS
 62
     7
 10
-389.7023572339015
 20
-496.0
 30
0.0
 11
-389.7023572339015
 21
-4.0
 31
0.0
  0
LINE
  5
6B0
  8
DATA
  6
CONTINUOUS
 62
     7
 10
-388.0523572339014
 20
-2.999664532847646
 30
0.0
 11
-388.0523572339014
 21
-497.0003354671521
 31
0.0
  0
LINE
  5
6B1
  8
DATA
  6
CONTINUOUS
 62
     7
 10
-388.5523572338978
 20
-497.0003354671522
 30
0.0
 11
-388.5523572338978
 21
-2.999664532847646
 31
0.0
  0
LINE
  5
6B2
  8
DATA
  6
CONTINUOUS
 62
     3
 10
-411.9516379356667
 20
-496.4999999999918
 30
0.0
 11
-411.9523572339015
 21
-496.4999999999918
 31
0.0
  0
LINE
  5
6B3
  8
DATA
  6
CONTINUOUS
 62
     3
 10
-412.0444154994573
 20
-496.4999999999916
 30
0.0
 11
-412.0448823207433
 21
-496.4999999999916
 31
0.0
  0
LINE
  5
6B4
  8
DATA
  6
CONTINUOUS
 62
     3
 10
-411.9450389105407
 20
-496.4999999999918
 30
0.0
 11
-411.9453004636585
 21
-496.4999999999918
 31
0.0
  0
LINE
  5
6B5
  8
DATA
  6
CONTINUOUS
 62
     3
 10
-411.9501427944436
 20
-496.4999999999918
 30
0.0
 11
-411.9506294587323
 21
-496.4999999999918
 31
0.0
  0
LINE
  5
6B6
  8
DATA
  6
CONTINUOUS
 62
     3
 10
-388.0590762992686
 20
-496.4999999999918
 30
0.0
 11
-388.0594518387077
 21
-496.4999999999918
 31
0.0
  0
LINE
  5
6B7
  8
DATA
  6
CONTINUOUS
 62
     3
 10
-387.9924328397954
 20
-496.4999999999916
 30
0.0
 11
-387.9928533766418
 21
-496.4999999999916
 31
0.0
  0
LINE
  5
6B8
  8
DATA
  6
CONTINUOUS
 62
     3
 10
-388.0513323760434
 20
-496.4999999999918
 30
0.0
 11
-388.0523572339014
 21
-496.4999999999918
 31
0.0
  0
LINE
  5
6B9
  8
DATA
  6
CONTINUOUS
 62
     7
 10
-387.8624118423261
 20
-497.0003354671521
 30
0.0
 11
-387.8624118423252
 21
-2.999664532847646
 31
0.0
  0
LINE
  5
6BA
  8
DATA
  6
CONTINUOUS
 62
     7
 10
-386.2857388013816
 20
169.0000000000001
 30
0.0
 11
-413.7189756664209
 21
169.0000000000001
 31
0.0
  0
LINE
  5
6BB
  8
DATA
  6
CONTINUOUS
 62
     3
 10
-392.194428358368
 20
154.0000000000001
 30
0.0
 11
-393.5954318474135
 21
154.0000000000001
 31
0.0
  0
LINE
  5
6BC
  8
DATA
  6
CONTINUOUS
 62
     7
 10
-390.9590230775057
 20
154.0000000000001
 30
0.0
 11
-409.0456913902968
 21
154.0000000000001
 31
0.0
  0
LINE
  5
6BD
  8
DATA
  6
CONTINUOUS
 62
     7
 10
-383.6133618281081
 20
173.0000000000001
 30
0.0
 11
-416.3913526396944
 21
173.0000000000001
 31
0.0
  0
LINE
  5
6BE
  8
DATA
  6
CONTINUOUS
 62
     7
 10
-390.6023572339012
 20
173.0000000000001
 30
0.0
 11
-390.6023572339012
 21
175.0000000000001
 31
0.0
  0
LINE
  5
6BF
  8
DATA
  6
CONTINUOUS
 62
     7
 10
-409.4023572339013
 20
173.0000000000001
 30
0.0
 11
-409.4023572339013
 21
175.0000000000001
 31
0.0
  0
LINE
  5
6C0
  8
DATA
  6
CONTINUOUS
 62
     7
 10
-390.6023572339012
 20
175.0000000000001
 30
0.0
 11
-409.4023572339013
 21
175.0000000000001
 31
0.0
  0
LINE
  5
6C1
  8
DATA
  6
CONTINUOUS
 62
     7
 10
-392.2523572339013
 20
175.5000000000001
 30
0.0
 11
-398.7523572339013
 21
175.5000000000001
 31
0.0
  0
LINE
  5
6C2
  8
DATA
  6
CONTINUOUS
 62
     7
 10
-392.2523572339013
 20
175.5000000000001
 30
0.0
 11
-392.2523572339013
 21
175.0000000000001
 31
0.0
  0
LINE
  5
6C3
  8
DATA
  6
CONTINUOUS
 62
     7
 10
-398.7523572339013
 20
175.0000000000001
 30
0.0
 11
-398.7523572339013
 21
175.5000000000001
 31
0.0
  0
LINE
  5
6C4
  8
DATA
  6
CONTINUOUS
 62
     7
 10
-311.5237469802083
 20
-4.0
 30
0.0
 11
-288.5237469802083
 21
-4.0
 31
0.0
  0
LINE
  5
6C5
  8
DATA
  6
CONTINUOUS
 62
     7
 10
-288.5237469802083
 20
-3.001309151239866
 30
0.0
 11
-288.5237469802083
 21
-496.9986908487601
 31
0.0
  0
LINE
  5
6C6
  8
DATA
  6
CONTINUOUS
 62
     7
 10
-292.5237469802083
 20
-1.0
 30
0.0
 11
-307.5237469802083
 21
-1.0
 31
0.0
  0
LINE
  5
6C7
  8
DATA
  6
CONTINUOUS
 62
     7
 10
-310.205584609636
 20
-3.000020559691279
 30
0.0
 11
-310.205584609636
 21
-496.9999794403089
 31
0.0
  0
LINE
  5
6C8
  8
DATA
  6
CONTINUOUS
 62
     7
 10
-310.5978423561592
 20
-2.999997247090846
 30
0.0
 11
-310.597842356171
 21
-497.0000027529096
 31
0.0
  0
LINE
  5
6C9
  8
DATA
  6
CONTINUOUS
 62
     7
 10
-311.0237469802083
 20
-2.99997193479453
 30
0.0
 11
-311.0237469802083
 21
-497.0000280652062
 31
0.0
  0
ARC
  5
6CA
  8
DATA
  6
CONTINUOUS
 62
     7
 10
-414.4989740266315
 20
-493.4981080082256
 30
0.0
 40
5.507586959826418
 50
219.4848614070568
 51
267.3942063321343
  0
ARC
  5
6CB
  8
DATA
  6
CONTINUOUS
 62
     7
 10
-385.5010259733685
 20
-493.4981080082257
 30
0.0
 40
5.507586959826439
 50
272.6057936678657
 51
320.5151385929432
  0
LINE
  5
6CC
  8
DATA
  6
CONTINUOUS
 62
     7
 10
-390.1023572339014
 20
-4.100000000000136
 30
0.0
 11
-409.9023572339013
 21
-4.100000000000136
 31
0.0
  0
LINE
  5
6CD
  8
DATA
  6
CONTINUOUS
 62
     7
 10
-381.2523572339013
 20
-4.0
 30
0.0
 11
-418.7523572339013
 21
-4.0
 31
0.0
  0
LINE
  5
6CE
  8
DATA
  6
CONTINUOUS
 62
     7
 10
-381.2476388393298
 20
-2.999664532847646
 30
0.0
 11
-418.7523580093567
 21
-2.999664532847646
 31
0.0
  0
LINE
  5
6CF
  8
DATA
  6
CONTINUOUS
 62
     7
 10
-385.2506290267042
 20
-0.9999999999998863
 30
0.0
 11
-414.7493709732958
 21
-1.0
 31
0.0
  0
LINE
  5
6D0
  8
DATA
  6
CONTINUOUS
 62
     3
 10
-411.9516379356667
 20
-3.500000000008185
 30
0.0
 11
-411.9523572339015
 21
-3.500000000008185
 31
0.0
  0
LINE
  5
6D1
  8
DATA
  6
CONTINUOUS
 62
     3
 10
-412.0444154994573
 20
-3.500000000008413
 30
0.0
 11
-412.0448823207433
 21
-3.500000000008413
 31
0.0
  0
LINE
  5
6D2
  8
DATA
  6
CONTINUOUS
 62
     3
 10
-411.9450389105407
 20
-3.500000000008185
 30
0.0
 11
-411.9453004636585
 21
-3.500000000008185
 31
0.0
  0
LINE
  5
6D3
  8
DATA
  6
CONTINUOUS
 62
     3
 10
-411.9501427944436
 20
-3.500000000008185
 30
0.0
 11
-411.9506294587323
 21
-3.500000000008185
 31
0.0
  0
LINE
  5
6D4
  8
DATA
  6
CONTINUOUS
 62
     3
 10
-388.0590762992686
 20
-3.500000000008185
 30
0.0
 11
-388.0594518387077
 21
-3.500000000008185
 31
0.0
  0
LINE
  5
6D5
  8
DATA
  6
CONTINUOUS
 62
     3
 10
-387.9924328397954
 20
-3.500000000008413
 30
0.0
 11
-387.9928533766418
 21
-3.500000000008413
 31
0.0
  0
LINE
  5
6D6
  8
DATA
  6
CONTINUOUS
 62
     3
 10
-388.0513323760434
 20
-3.500000000008185
 30
0.0
 11
-388.0523572339014
 21
-3.500000000008185
 31
0.0
  0
ARC
  5
6D7
  8
DATA
  6
CONTINUOUS
 62
     7
 10
-414.4989740266315
 20
-6.501891991774414
 30
0.0
 40
5.507586959826439
 50
92.60579366786573
 51
140.5151385929432
  0
ARC
  5
6D8
  8
DATA
  6
CONTINUOUS
 62
     7
 10
-385.5010259733685
 20
-6.501891991774301
 30
0.0
 40
5.507586959826418
 50
39.48486140705676
 51
87.39420633213429
  0
CIRCLE
  5
6D9
  8
DATA
  6
CONTINUOUS
 62
     7
 10
-400.0023572339014
 20
162.5000000000001
 30
0.0
 40
1.699013475883336
  0
LINE
  5
6DA
  8
DATA
  6
CONTINUOUS
 62
     3
 10
-411.417406590216
 20
153.0239948167347
 30
0.0
 11
-411.4180580078799
 21
153.0242358336055
 31
0.0
  0
LINE
  5
6DB
  8
DATA
  6
CONTINUOUS
 62
     7
 10
-412.0422385790997
 20
150.4999999999994
 30
0.0
 11
-412.0422385790997
 21
150.9259046239748
 31
0.0
  0
ARC
  5
6DC
  8
DATA
  6
CONTINUOUS
 62
     7
 10
-400.9718815353631
 20
164.6143427999936
 30
0.0
 40
17.81723389424976
 50
152.7736046551604
 51
171.2236888566933
  0
ARC
  5
6DD
  8
DATA
  6
CONTINUOUS
 62
     7
 10
-416.3905777985966
 20
172.498133436451
 30
0.0
 40
0.5018671616944883
 50
90.08845994662558
 51
147.7599842221009
  0
ARC
  5
6DE
  8
DATA
  6
CONTINUOUS
 62
     7
 10
-400.9954310861677
 20
164.8683666406461
 30
0.0
 40
17.75692614773356
 50
172.0221756720749
 51
199.8093410443048
  0
ARC
  5
6DF
  8
DATA
  6
CONTINUOUS
 62
     7
 10
-401.5526422980845
 20
164.8246910275327
 30
0.0
 40
17.21852019055991
 50
200.3009714927342
 51
231.6620834123746
  0
ARC
  5
6E0
  8
DATA
  6
CONTINUOUS
 62
     7
 10
-401.5670379577995
 20
164.8112328523735
 30
0.0
 40
13.1990781878816
 50
163.0805933023097
 51
231.6767797436282
  0
ARC
  5
6E1
  8
DATA
  6
CONTINUOUS
 62
     7
 10
-413.7199603374552
 20
168.501832334139
 30
0.0
 40
0.4981686390035031
 50
89.88675013480724
 51
162.3942466121136
  0
ARC
  5
6E2
  8
DATA
  6
CONTINUOUS
 62
     7
 10
-409.0345218446371
 20
154.5273895201818
 30
0.0
 40
0.527507786433271
 50
226.8416555931761
 51
268.786718087102
  0
LINE
  5
6E3
  8
DATA
  6
CONTINUOUS
 62
     7
 10
-409.7517471032425
 20
154.4562243437188
 30
0.0
 11
-409.3953461091779
 21
154.1425904624044
 31
0.0
  0
ARC
  5
6E4
  8
DATA
  6
CONTINUOUS
 62
     7
 10
-387.4625354197681
 20
150.9259157117438
 30
0.0
 40
0.500000000000067
 50
128.1584298880184
 51
180.8841557273058
  0
LINE
  5
6E5
  8
DATA
  6
CONTINUOUS
 62
     3
 10
-388.5873078775865
 20
153.0239948167347
 30
0.0
 11
-388.5866564599226
 21
153.0242358336055
 31
0.0
  0
LINE
  5
6E6
  8
DATA
  6
CONTINUOUS
 62
     7
 10
-387.9624758887028
 20
150.4999999999994
 30
0.0
 11
-387.9624758887028
 21
150.9259046239748
 31
0.0
  0
ARC
  5
6E7
  8
DATA
  6
CONTINUOUS
 62
     7
 10
-399.0328329324394
 20
164.6143427999936
 30
0.0
 40
17.81723389424984
 50
8.776311143306696
 51
27.22639534483961
  0
ARC
  5
6E8
  8
DATA
  6
CONTINUOUS
 62
     7
 10
-383.6141366692059
 20
172.498133436451
 30
0.0
 40
0.5018671616944882
 50
32.24001577789912
 51
89.91154005337444
  0
ARC
  5
6E9
  8
DATA
  6
CONTINUOUS
 62
     7
 10
-399.0092833816348
 20
164.8683666406461
 30
0.0
 40
17.75692614773361
 50
340.1906589556951
 51
7.977824327925134
  0
ARC
  5
6EA
  8
DATA
  6
CONTINUOUS
 62
     7
 10
-398.452072169718
 20
164.8246910275327
 30
0.0
 40
17.21852019055985
 50
308.3379165876253
 51
339.6990285072657
  0
ARC
  5
6EB
  8
DATA
  6
CONTINUOUS
 62
     7
 10
-398.437676510003
 20
164.8112328523735
 30
0.0
 40
13.19907818788154
 50
308.3232202563718
 51
16.91940669769031
  0
ARC
  5
6EC
  8
DATA
  6
CONTINUOUS
 62
     7
 10
-386.2847541303473
 20
168.501832334139
 30
0.0
 40
0.4981686390034132
 50
17.60575338788635
 51
90.11324986519277
  0
ARC
  5
6ED
  8
DATA
  6
CONTINUOUS
 62
     7
 10
-390.9701926231654
 20
154.5273895201818
 30
0.0
 40
0.5275077864332823
 50
271.2132819128979
 51
313.1583444068239
  0
LINE
  5
6EE
  8
DATA
  6
CONTINUOUS
 62
     7
 10
-390.25296736456
 20
154.4562243437188
 30
0.0
 11
-390.6093683586246
 21
154.1425904624044
 31
0.0
  0
LINE
  5
6EF
  8
DATA
  6
CONTINUOUS
 62
     7
 10
-388.4624758887001
 20
150.0000000000001
 30
0.0
 11
-411.5422385791024
 21
150.0000000000001
 31
0.0
  0
ARC
  5
6F0
  8
DATA
  6
CONTINUOUS
 62
     7
 10
-411.5422385790994
 20
150.5000000000003
 30
0.0
 40
0.5000000000002274
 50
180.0000000000196
 51
269.9999999996613
  0
ARC
  5
6F1
  8
DATA
  6
CONTINUOUS
 62
     7
 10
-388.4624758887031
 20
150.5000000000003
 30
0.0
 40
0.5000000000001705
 50
270.0000000003387
 51
359.9999999999804
  0
ARC
  5
6F2
  8
DATA
  6
CONTINUOUS
 62
     7
 10
-307.2764293203973
 20
-6.494635319621977
 30
0.0
 40
5.50019848009976
 50
92.57718654710781
 51
140.5529158070487
  0
ARC
  5
6F3
  8
DATA
  6
CONTINUOUS
 62
     7
 10
-292.7710646400193
 20
-6.495944470861843
 30
0.0
 40
5.500198480099781
 50
39.44708419295136
 51
87.42281345289219
  0
LINE
  5
6F4
  8
DATA
  6
CONTINUOUS
 62
     7
 10
-311.5237469802083
 20
-497.0000577811272
 30
0.0
 11
-288.5237469802083
 21
-496.9986908487601
 31
0.0
  0
LINE
  5
6F5
  8
DATA
  6
CONTINUOUS
 62
     7
 10
-311.5237469802083
 20
-496.0
 30
0.0
 11
-288.5237469802083
 21
-496.0
 31
0.0
  0
LINE
  5
6F6
  8
DATA
  6
CONTINUOUS
 62
     7
 10
-292.5237469802083
 20
-499.0
 30
0.0
 11
-307.5237469802083
 21
-499.0
 31
0.0
  0
ARC
  5
6F7
  8
DATA
  6
CONTINUOUS
 62
     7
 10
-307.2764293203973
 20
-493.5053646803781
 30
0.0
 40
5.500198480099744
 50
219.4470841929509
 51
267.4228134528922
  0
ARC
  5
6F8
  8
DATA
  6
CONTINUOUS
 62
     7
 10
-292.7710646400193
 20
-493.5040555291382
 30
0.0
 40
5.500198480099703
 50
272.5771865471078
 51
320.5529158070491
  0
LINE
  5
6F9
  8
DATA
  6
CONTINUOUS
 62
     7
 10
-407.5023572339013
 20
175.0000000000001
 30
0.0
 11
-407.5023572339013
 21
175.5000000000001
 31
0.0
  0
LINE
  5
6FA
  8
DATA
  6
CONTINUOUS
 62
     7
 10
-405.1523572339012
 20
175.0000000000001
 30
0.0
 11
-405.1523572339012
 21
175.5000000000001
 31
0.0
  0
LINE
  5
6FB
  8
DATA
  6
CONTINUOUS
 62
     7
 10
-403.8523572339013
 20
175.5000000000001
 30
0.0
 11
-403.8523572339013
 21
175.0000000000001
 31
0.0
  0
LINE
  5
6FC
  8
DATA
  6
CONTINUOUS
 62
     7
 10
-401.5023571830846
 20
175.5000000000001
 30
0.0
 11
-407.5023572339013
 21
175.5000000000001
 31
0.0
  0
LINE
  5
6FD
  8
DATA
  6
CONTINUOUS
 62
     7
 10
-401.5023571830846
 20
175.0000000000001
 30
0.0
 11
-401.5023571830846
 21
175.5000000000001
 31
0.0
  0
LINE
  5
6FE
  8
DATA
  6
CONTINUOUS
 62
     7
 10
-121.0023572339014
 20
70.9000000000002
 30
0.0
 11
-121.0023572339014
 21
105.3000000000002
 31
0.0
  0
LINE
  5
6FF
  8
DATA
  6
CONTINUOUS
 62
     7
 10
-103.9623572339013
 20
92.80000000000018
 30
0.0
 11
-115.8423572339013
 21
92.80000000000018
 31
0.0
  0
LINE
  5
700
  8
DATA
  6
CONTINUOUS
 62
     7
 10
-98.80235723390135
 20
105.3000000000002
 30
0.0
 11
-98.80235723390135
 21
70.9000000000002
 31
0.0
  0
LINE
  5
701
  8
DATA
  6
CONTINUOUS
 62
     7
 10
-121.0023572339014
 20
105.3000000000002
 30
0.0
 11
-98.80235723390135
 21
105.3000000000002
 31
0.0
  0
ARC
  5
702
  8
DATA
  6
CONTINUOUS
 62
     7
 10
-109.9023572339013
 20
70.90000000000015
 30
0.0
 40
11.09999999999994
 50
180.0
 51
0.0
  0
LINE
  5
703
  8
DATA
  6
CONTINUOUS
 62
     7
 10
-116.8423572339013
 20
93.80000000000018
 30
0.0
 11
-116.8423572339013
 21
103.5000000000001
 31
0.0
  0
LINE
  5
704
  8
DATA
  6
CONTINUOUS
 62
     7
 10
-102.9623572339013
 20
93.80000000000018
 30
0.0
 11
-102.9623572339013
 21
103.5000000000001
 31
0.0
  0
LINE
  5
705
  8
DATA
  6
CONTINUOUS
 62
     7
 10
-121.0023572339014
 20
103.5000000000002
 30
0.0
 11
-98.80235723390135
 21
103.5000000000002
 31
0.0
  0
ARC
  5
706
  8
DATA
  6
CONTINUOUS
 62
     7
 10
-115.8423572339013
 20
93.80000000000018
 30
0.0
 40
0.9999999999999716
 50
180.0
 51
270.0
  0
ARC
  5
707
  8
DATA
  6
CONTINUOUS
 62
     7
 10
-103.9623572339013
 20
93.80000000000018
 30
0.0
 40
1.0
 50
270.0
 51
0.0
  0
ARC
  5
708
  8
DATA
  6
CONTINUOUS
 62
     7
 10
-109.9023572339013
 20
71.1000000000002
 30
0.0
 40
2.100000000000023
 50
180.0
 51
0.0
  0
ARC
  5
709
  8
DATA
  6
CONTINUOUS
 62
     7
 10
-109.9023572339013
 20
80.90000000000015
 30
0.0
 40
2.100000000000023
 50
0.0
 51
180.0
  0
LINE
  5
70A
  8
DATA
  6
CONTINUOUS
 62
     7
 10
-112.0023572339013
 20
80.90000000000015
 30
0.0
 11
-112.0023572339013
 21
71.1000000000002
 31
0.0
  0
LINE
  5
70B
  8
DATA
  6
CONTINUOUS
 62
     7
 10
-107.8023572339013
 20
71.1000000000002
 30
0.0
 11
-107.8023572339013
 21
80.90000000000015
 31
0.0
  0
ARC
  5
70C
  8
DATA
  6
CONTINUOUS
 62
     7
 10
-109.9023572339014
 20
81.00000000000017
 30
0.0
 40
3.499999999999943
 50
0.0
 51
180.0
  0
ARC
  5
70D
  8
DATA
  6
CONTINUOUS
 62
     7
 10
-109.9023572339013
 20
71.00000000000017
 30
0.0
 40
3.5
 50
180.0
 51
0.0
  0
LINE
  5
70E
  8
DATA
  6
CONTINUOUS
 62
     7
 10
-113.4023572339013
 20
81.00000000000017
 30
0.0
 11
-113.4023572339013
 21
71.00000000000017
 31
0.0
  0
LINE
  5
70F
  8
DATA
  6
CONTINUOUS
 62
     7
 10
-106.4023572339013
 20
71.00000000000017
 30
0.0
 11
-106.4023572339013
 21
81.00000000000017
 31
0.0
  0
LINE
  5
710
  8
DATA
  6
CONTINUOUS
 62
     7
 10
-121.0023572339014
 20
188.0000000000002
 30
0.0
 11
-98.80235723390135
 21
188.0000000000002
 31
0.0
  0
LINE
  5
711
  8
DATA
  6
CONTINUOUS
 62
     7
 10
-121.0023572339014
 20
166.4000000000001
 30
0.0
 11
-121.0023572339014
 21
188.0000000000002
 31
0.0
  0
LINE
  5
712
  8
DATA
  6
CONTINUOUS
 62
     7
 10
-98.80235723390135
 20
188.0000000000002
 30
0.0
 11
-98.80235723390135
 21
166.4000000000001
 31
0.0
  0
ARC
  5
713
  8
DATA
  6
CONTINUOUS
 62
     7
 10
-109.9023572339013
 20
166.4000000000001
 30
0.0
 40
11.09999999999994
 50
180.0
 51
0.0
  0
CIRCLE
  5
714
  8
DATA
  6
CONTINUOUS
 62
     7
 10
-109.9023572339013
 20
165.1000000000001
 30
0.0
 40
3.5
  0
CIRCLE
  5
715
  8
DATA
  6
CONTINUOUS
 62
     7
 10
-109.9023572339013
 20
165.1000000000001
 30
0.0
 40
5.0
  0
LINE
  5
716
  8
DATA
  6
CONTINUOUS
 62
     7
 10
-103.9623572339013
 20
174.3000000000002
 30
0.0
 11
-115.8423572339013
 21
174.3000000000002
 31
0.0
  0
LINE
  5
717
  8
DATA
  6
CONTINUOUS
 62
     7
 10
-116.8423572339013
 20
175.3000000000002
 30
0.0
 11
-116.8423572339013
 21
188.0000000000002
 31
0.0
  0
LINE
  5
718
  8
DATA
  6
CONTINUOUS
 62
     7
 10
-102.9623572339013
 20
175.3000000000002
 30
0.0
 11
-102.9623572339013
 21
188.0000000000002
 31
0.0
  0
ARC
  5
719
  8
DATA
  6
CONTINUOUS
 62
     7
 10
-115.8423572339013
 20
175.3000000000002
 30
0.0
 40
0.9999999999999716
 50
180.0
 51
270.0
  0
ARC
  5
71A
  8
DATA
  6
CONTINUOUS
 62
     7
 10
-103.9623572339013
 20
175.3000000000002
 30
0.0
 40
1.0
 50
270.0
 51
0.0
  0
LINE
  5
71B
  8
DATA
  6
CONTINUOUS
 62
     7
 10
-116.8423572339014
 20
186.2000000000003
 30
0.0
 11
-102.9623572339012
 21
186.2000000000003
 31
0.0
  0
LINE
  5
71C
  8
DATA
  6
CONTINUOUS
 62
     7
 10
-84.90235723390131
 20
105.3000000000002
 30
0.0
 11
-56.20235723390121
 21
105.3000000000002
 31
0.0
  0
LINE
  5
71D
  8
DATA
  6
CONTINUOUS
 62
     7
 10
-84.90235723390131
 20
103.5000000000002
 30
0.0
 11
-56.20235723390115
 21
103.5000000000002
 31
0.0
  0
LINE
  5
71E
  8
DATA
  6
CONTINUOUS
 62
     7
 10
-84.90235723390131
 20
105.3000000000002
 30
0.0
 11
-84.90235723390131
 21
103.5000000000002
 31
0.0
  0
LINE
  5
71F
  8
DATA
  6
CONTINUOUS
 62
     7
 10
-52.20235723390121
 20
101.3000000000002
 30
0.0
 11
-52.20235723390121
 21
59.80000000000018
 31
0.0
  0
LINE
  5
720
  8
DATA
  6
CONTINUOUS
 62
     7
 10
-54.00235723390122
 20
59.80000000000018
 30
0.0
 11
-52.20235723390121
 21
59.80000000000018
 31
0.0
  0
LINE
  5
721
  8
DATA
  6
CONTINUOUS
 62
     7
 10
-54.00235723390122
 20
101.3000000000002
 30
0.0
 11
-54.00235723390122
 21
59.80000000000018
 31
0.0
  0
ARC
  5
722
  8
DATA
  6
CONTINUOUS
 62
     7
 10
-56.20235723390121
 20
101.3000000000002
 30
0.0
 40
4.0
 50
0.0
 51
90.0
  0
ARC
  5
723
  8
DATA
  6
CONTINUOUS
 62
     7
 10
-56.20235723390115
 20
101.3000000000001
 30
0.0
 40
2.199999999999932
 50
0.0000000000014779
 51
90.00000000000148
  0
TEXT
  5
724
  8
DATA
 62
     7
 10
-152.8668320602902
 20
-45.7392252604165
 30
0.0
 40
27.07845052083335
  1
取付金具
 41
0.7
 72
     1
 11
-109.9023572339013
 21
-32.19999999999982
 31
0.0
 73
     2
  0
LINE
  5
725
  8
DATA
  6
CONTINUOUS
 62
     7
 10
-197.4023572339013
 20
-57.19999999999982
 30
0.0
 11
-22.40235723390131
 21
-57.19999999999982
 31
0.0
  0
LINE
  5
726
  8
DATA
  6
CONTINUOUS
 62
     7
 10
540.0976427660987
 20
-495.8999999999999
 30
0.0
 11
540.0976427660987
 21
-4.100000000000136
 31
0.0
  0
LINE
  5
727
  8
DATA
  6
CONTINUOUS
 62
     7
 10
538.5476427660949
 20
-2.999664532847646
 30
0.0
 11
538.5476427660949
 21
-497.0003354671522
 31
0.0
  0
LINE
  5
728
  8
DATA
  6
CONTINUOUS
 62
     7
 10
539.6976427660986
 20
-4.0
 30
0.0
 11
539.6976427660986
 21
-496.0
 31
0.0
  0
LINE
  5
729
  8
DATA
  6
CONTINUOUS
 62
     7
 10
539.9976427660988
 20
-496.0
 30
0.0
 11
539.9976427660988
 21
-4.0
 31
0.0
  0
LINE
  5
72A
  8
DATA
  6
CONTINUOUS
 62
     7
 10
538.0476427660985
 20
-2.999664532847646
 30
0.0
 11
538.0476427660985
 21
-497.0003354671524
 31
0.0
  0
LINE
  5
72B
  8
DATA
  6
CONTINUOUS
 62
     7
 10
537.8576973745226
 20
-497.0003354671525
 30
0.0
 11
537.8576973745226
 21
-2.999664532847646
 31
0.0
  0
LINE
  5
72C
  8
DATA
  6
CONTINUOUS
 62
     7
 10
559.8976427660987
 20
-495.8999999999999
 30
0.0
 11
540.0976427660987
 21
-495.8999999999999
 31
0.0
  0
LINE
  5
72D
  8
DATA
  6
CONTINUOUS
 62
     7
 10
568.7476427660988
 20
-496.0
 30
0.0
 11
531.2476427660988
 21
-496.0
 31
0.0
  0
LINE
  5
72E
  8
DATA
  6
CONTINUOUS
 62
     7
 10
568.74763883933
 20
-497.0003354671524
 30
0.0
 11
568.7523611606703
 21
-2.999664532847646
 31
0.0
  0
LINE
  5
72F
  8
DATA
  6
CONTINUOUS
 62
     7
 10
531.2485745511437
 20
-2.99971796696093
 30
0.0
 11
531.2476419906434
 21
-497.0003354671524
 31
0.0
  0
LINE
  5
730
  8
DATA
  6
CONTINUOUS
 62
     7
 10
568.74763883933
 20
-497.0003354671524
 30
0.0
 11
531.2476419906434
 21
-497.0003354671524
 31
0.0
  0
LINE
  5
731
  8
DATA
  6
CONTINUOUS
 62
     7
 10
564.7493709732958
 20
-499.0000000000001
 30
0.0
 11
535.2506290267042
 21
-499.0
 31
0.0
  0
LINE
  5
732
  8
DATA
  6
CONTINUOUS
 62
     7
 10
559.8976427660987
 20
-495.8999999999999
 30
0.0
 11
559.8976427660987
 21
-4.100000000000136
 31
0.0
  0
LINE
  5
733
  8
DATA
  6
CONTINUOUS
 62
     7
 10
559.9976427660988
 20
-4.0
 30
0.0
 11
559.9976427660988
 21
-496.0
 31
0.0
  0
LINE
  5
734
  8
DATA
  6
CONTINUOUS
 62
     7
 10
560.2976427660985
 20
-496.0
 30
0.0
 11
560.2976427660985
 21
-4.0
 31
0.0
  0
LINE
  5
735
  8
DATA
  6
CONTINUOUS
 62
     7
 10
561.9476427660986
 20
-2.999664532847646
 30
0.0
 11
561.9476427660986
 21
-497.0003354671521
 31
0.0
  0
LINE
  5
736
  8
DATA
  6
CONTINUOUS
 62
     7
 10
561.4476427661023
 20
-497.0003354671522
 30
0.0
 11
561.4476427661023
 21
-2.999664532847646
 31
0.0
  0
LINE
  5
737
  8
DATA
  6
CONTINUOUS
 62
     7
 10
538.0483620643333
 20
-496.4999999999918
 30
0.0
 11
538.0476427660985
 21
-496.4999999999918
 31
0.0
  0
LINE
  5
738
  8
DATA
  6
CONTINUOUS
 62
     7
 10
537.9555845005427
 20
-496.4999999999916
 30
0.0
 11
537.9551176792568
 21
-496.4999999999916
 31
0.0
  0
LINE
  5
739
  8
DATA
  6
CONTINUOUS
 62
     7
 10
538.0549610894593
 20
-496.4999999999918
 30
0.0
 11
538.0546995363416
 21
-496.4999999999918
 31
0.0
  0
LINE
  5
73A
  8
DATA
  6
CONTINUOUS
 62
     7
 10
538.0498572055565
 20
-496.4999999999918
 30
0.0
 11
538.0493705412678
 21
-496.4999999999918
 31
0.0
  0
LINE
  5
73B
  8
DATA
  6
CONTINUOUS
 62
     7
 10
561.9409237007314
 20
-496.4999999999918
 30
0.0
 11
561.9405481612923
 21
-496.4999999999918
 31
0.0
  0
LINE
  5
73C
  8
DATA
  6
CONTINUOUS
 62
     7
 10
562.0075671602046
 20
-496.4999999999916
 30
0.0
 11
562.0071466233583
 21
-496.4999999999916
 31
0.0
  0
LINE
  5
73D
  8
DATA
  6
CONTINUOUS
 62
     7
 10
561.9486676239567
 20
-496.4999999999918
 30
0.0
 11
561.9476427660986
 21
-496.4999999999918
 31
0.0
  0
LINE
  5
73E
  8
DATA
  6
CONTINUOUS
 62
     7
 10
562.1375881576739
 20
-497.0003354671521
 30
0.0
 11
562.1375881576748
 21
-2.999664532847646
 31
0.0
  0
ARC
  5
73F
  8
DATA
  6
CONTINUOUS
 62
     7
 10
535.5010259733685
 20
-493.4981080082256
 30
0.0
 40
5.507586959826418
 50
219.4848614070568
 51
267.3942063321343
  0
ARC
  5
740
  8
DATA
  6
CONTINUOUS
 62
     7
 10
564.4989740266315
 20
-493.4981080082257
 30
0.0
 40
5.507586959826439
 50
272.6057936678657
 51
320.5151385929432
  0
LINE
  5
741
  8
DATA
  6
CONTINUOUS
 62
     7
 10
559.8976427660987
 20
-4.100000000000136
 30
0.0
 11
540.0976427660987
 21
-4.100000000000136
 31
0.0
  0
LINE
  5
742
  8
DATA
  6
CONTINUOUS
 62
     7
 10
568.7476427660988
 20
-4.0
 30
0.0
 11
531.2476427660988
 21
-4.0
 31
0.0
  0
LINE
  5
743
  8
DATA
  6
CONTINUOUS
 62
     7
 10
568.7523611606703
 20
-2.999664532847646
 30
0.0
 11
531.2476419906434
 21
-2.999664532847646
 31
0.0
  0
LINE
  5
744
  8
DATA
  6
CONTINUOUS
 62
     7
 10
564.7493709732958
 20
-0.9999999999998863
 30
0.0
 11
535.2506290267042
 21
-1.0
 31
0.0
  0
LINE
  5
745
  8
DATA
  6
CONTINUOUS
 62
     7
 10
538.0483620643333
 20
-3.500000000008185
 30
0.0
 11
538.0476427660985
 21
-3.500000000008185
 31
0.0
  0
LINE
  5
746
  8
DATA
  6
CONTINUOUS
 62
     7
 10
537.9555845005427
 20
-3.500000000008413
 30
0.0
 11
537.9551176792568
 21
-3.500000000008413
 31
0.0
  0
LINE
  5
747
  8
DATA
  6
CONTINUOUS
 62
     7
 10
538.0549610894593
 20
-3.500000000008185
 30
0.0
 11
538.0546995363416
 21
-3.500000000008185
 31
0.0
  0
LINE
  5
748
  8
DATA
  6
CONTINUOUS
 62
     7
 10
538.0498572055565
 20
-3.500000000008185
 30
0.0
 11
538.0493705412678
 21
-3.500000000008185
 31
0.0
  0
LINE
  5
749
  8
DATA
  6
CONTINUOUS
 62
     7
 10
561.9409237007314
 20
-3.500000000008185
 30
0.0
 11
561.9405481612923
 21
-3.500000000008185
 31
0.0
  0
LINE
  5
74A
  8
DATA
  6
CONTINUOUS
 62
     7
 10
562.0075671602046
 20
-3.500000000008413
 30
0.0
 11
562.0071466233583
 21
-3.500000000008413
 31
0.0
  0
LINE
  5
74B
  8
DATA
  6
CONTINUOUS
 62
     7
 10
561.9486676239567
 20
-3.500000000008185
 30
0.0
 11
561.9476427660986
 21
-3.500000000008185
 31
0.0
  0
ARC
  5
74C
  8
DATA
  6
CONTINUOUS
 62
     7
 10
535.5010259733685
 20
-6.501891991774414
 30
0.0
 40
5.507586959826439
 50
92.60579366786573
 51
140.5151385929432
  0
ARC
  5
74D
  8
DATA
  6
CONTINUOUS
 62
     7
 10
564.4989740266315
 20
-6.501891991774301
 30
0.0
 40
5.507586959826418
 50
39.48486140705676
 51
87.39420633213429
  0
LINE
  5
74E
  8
DATA
  6
CONTINUOUS
 62
     7
 10
661.2064377846132
 20
-3.001293115623412
 30
0.0
 11
661.2064377846132
 21
-496.9987068843766
 31
0.0
  0
LINE
  5
74F
  8
DATA
  6
CONTINUOUS
 62
     7
 10
638.4762530197918
 20
-2.999942218873514
 30
0.0
 11
661.4762530197918
 21
-3.001309151239866
 31
0.0
  0
LINE
  5
750
  8
DATA
  6
CONTINUOUS
 62
     7
 10
638.4762530197918
 20
-2.999942218873514
 30
0.0
 11
638.4762530197918
 21
-497.0000577811272
 31
0.0
  0
LINE
  5
751
  8
DATA
  6
CONTINUOUS
 62
     7
 10
638.4762530197918
 20
-4.0
 30
0.0
 11
661.4762530197918
 21
-4.0
 31
0.0
  0
LINE
  5
752
  8
DATA
  6
CONTINUOUS
 62
     7
 10
661.4762530197918
 20
-3.001309151239866
 30
0.0
 11
661.4762530197918
 21
-496.9986908487601
 31
0.0
  0
LINE
  5
753
  8
DATA
  6
CONTINUOUS
 62
     7
 10
657.4762530197918
 20
-1.0
 30
0.0
 11
642.4762530197918
 21
-1.0
 31
0.0
  0
LINE
  5
754
  8
DATA
  6
CONTINUOUS
 62
     7
 10
639.7944153903641
 20
-3.000020559691279
 30
0.0
 11
639.7944153903641
 21
-496.9999794403089
 31
0.0
  0
LINE
  5
755
  8
DATA
  6
CONTINUOUS
 62
     7
 10
639.4021576438408
 20
-2.999997247090846
 30
0.0
 11
639.402157643829
 21
-497.0000027529096
 31
0.0
  0
LINE
  5
756
  8
DATA
  6
CONTINUOUS
 62
     7
 10
638.9762530197918
 20
-2.99997193479453
 30
0.0
 11
638.9762530197918
 21
-497.0000280652062
 31
0.0
  0
ARC
  5
757
  8
DATA
  6
CONTINUOUS
 62
     7
 10
642.7235706796027
 20
-6.494635319621977
 30
0.0
 40
5.500198480099757
 50
92.57718654710723
 51
140.5529158070483
  0
ARC
  5
758
  8
DATA
  6
CONTINUOUS
 62
     7
 10
657.2289353599807
 20
-6.495944470861843
 30
0.0
 40
5.500198480099825
 50
39.44708419295098
 51
87.42281345289162
  0
LINE
  5
759
  8
DATA
  6
CONTINUOUS
 62
     7
 10
638.4762530197918
 20
-497.0000577811272
 30
0.0
 11
661.4762530197918
 21
-496.9986908487601
 31
0.0
  0
LINE
  5
75A
  8
DATA
  6
CONTINUOUS
 62
     7
 10
638.4762530197918
 20
-496.0
 30
0.0
 11
661.4762530197918
 21
-496.0
 31
0.0
  0
LINE
  5
75B
  8
DATA
  6
CONTINUOUS
 62
     7
 10
657.4762530197918
 20
-499.0
 30
0.0
 11
642.4762530197918
 21
-499.0
 31
0.0
  0
ARC
  5
75C
  8
DATA
  6
CONTINUOUS
 62
     7
 10
642.7235706796027
 20
-493.5053646803781
 30
0.0
 40
5.500198480099701
 50
219.4470841929513
 51
267.4228134528927
  0
ARC
  5
75D
  8
DATA
  6
CONTINUOUS
 62
     7
 10
657.2289353599807
 20
-493.5040555291382
 30
0.0
 40
5.500198480099706
 50
272.5771865471085
 51
320.5529158070495
  0
LINE
  5
75E
  8
DATA
  6
CONTINUOUS
 62
     7
 10
663.4762530197918
 20
-485.0000000000001
 30
0.0
 11
661.4762530197918
 21
-485.0000000000001
 31
0.0
  0
LINE
  5
75F
  8
DATA
  6
CONTINUOUS
 62
     7
 10
663.4762530197918
 20
-527.0
 30
0.0
 11
661.4762530197918
 21
-527.0
 31
0.0
  0
LINE
  5
760
  8
DATA
  6
CONTINUOUS
 62
     7
 10
663.4762530197918
 20
-426.9999999999997
 30
0.0
 11
663.4762530197918
 21
-485.0000000000001
 31
0.0
  0
LINE
  5
761
  8
DATA
  6
CONTINUOUS
 62
     7
 10
664.4762530197918
 20
-462.0000000000001
 30
0.0
 11
663.4762530197918
 21
-462.0000000000001
 31
0.0
  0
LINE
  5
762
  8
DATA
  6
CONTINUOUS
 62
     7
 10
664.4762530197918
 20
-468.0000000000001
 30
0.0
 11
663.4762530197918
 21
-468.0000000000001
 31
0.0
  0
LINE
  5
763
  8
DATA
  6
CONTINUOUS
 62
     7
 10
664.4762530197918
 20
-462.0000000000001
 30
0.0
 11
664.4762530197918
 21
-468.0000000000001
 31
0.0
  0
ARC
  5
764
  8
DATA
  6
CONTINUOUS
 62
     7
 10
537.4578209519657
 20
150.9259157117437
 30
0.0
 40
0.5000000000000674
 50
359.1158442726942
 51
51.84157011198153
  0
LINE
  5
765
  8
DATA
  6
CONTINUOUS
 62
     7
 10
563.7142611986185
 20
169.0
 30
0.0
 11
561.0976427660987
 21
169.0
 31
0.0
  0
LINE
  5
766
  8
DATA
  6
CONTINUOUS
 62
     7
 10
538.8976427660987
 20
169.0
 30
0.0
 11
536.2810243335791
 21
169.0
 31
0.0
  0
LINE
  5
767
  8
DATA
  6
CONTINUOUS
 62
     7
 10
557.805571641632
 20
154.0
 30
0.0
 11
556.4045681525865
 21
154.0
 31
0.0
  0
LINE
  5
768
  8
DATA
  6
CONTINUOUS
 62
     7
 10
559.0409769224943
 20
154.0
 30
0.0
 11
555.2101277780674
 21
154.0
 31
0.0
  0
LINE
  5
769
  8
DATA
  6
CONTINUOUS
 62
     7
 10
544.7851577541298
 20
154.0
 30
0.0
 11
540.9543086097033
 21
154.0
 31
0.0
  0
LINE
  5
76A
  8
DATA
  6
CONTINUOUS
 62
     7
 10
566.386638171892
 20
173.0
 30
0.0
 11
561.0976427660987
 21
173.0
 31
0.0
  0
LINE
  5
76B
  8
DATA
  6
CONTINUOUS
 62
     7
 10
556.9376427660986
 20
173.0
 30
0.0
 11
543.0576427660988
 21
173.0
 31
0.0
  0
LINE
  5
76C
  8
DATA
  6
CONTINUOUS
 62
     7
 10
538.8976427660987
 20
173.0
 30
0.0
 11
533.6086473603057
 21
173.0
 31
0.0
  0
LINE
  5
76D
  8
DATA
  6
CONTINUOUS
 62
     7
 10
556.9376427660987
 20
175.0
 30
0.0
 11
543.0576427660988
 21
175.0
 31
0.0
  0
LINE
  5
76E
  8
DATA
  6
CONTINUOUS
 62
     7
 10
556.9376427660986
 20
175.5
 30
0.0
 11
551.2476427660988
 21
175.5
 31
0.0
  0
LINE
  5
76F
  8
DATA
  6
CONTINUOUS
 62
     7
 10
551.2476427660988
 20
175.0
 30
0.0
 11
551.2476427660988
 21
175.5
 31
0.0
  0
LINE
  5
770
  8
DATA
  6
CONTINUOUS
 62
     7
 10
538.5825934097841
 20
153.0239948167346
 30
0.0
 11
538.5819419921202
 21
153.0242358336054
 31
0.0
  0
LINE
  5
771
  8
DATA
  6
CONTINUOUS
 62
     7
 10
537.9577614209004
 20
150.4999999999993
 30
0.0
 11
537.9577614209004
 21
150.9259046239747
 31
0.0
  0
ARC
  5
772
  8
DATA
  6
CONTINUOUS
 62
     7
 10
549.0281184646369
 20
164.6143427999934
 30
0.0
 40
17.81723389424976
 50
152.7736046551604
 51
171.2236888566933
  0
ARC
  5
773
  8
DATA
  6
CONTINUOUS
 62
     7
 10
533.6094222014035
 20
172.4981334364509
 30
0.0
 40
0.5018671616944883
 50
90.08845994662558
 51
147.7599842221009
  0
ARC
  5
774
  8
DATA
  6
CONTINUOUS
 62
     7
 10
549.0045689138324
 20
164.8683666406459
 30
0.0
 40
17.75692614773367
 50
172.022175672075
 51
199.8093410443048
  0
ARC
  5
775
  8
DATA
  6
CONTINUOUS
 62
     7
 10
548.4473577019155
 20
164.8246910275325
 30
0.0
 40
17.21852019055991
 50
200.3009714927342
 51
231.6620834123746
  0
ARC
  5
776
  8
DATA
  6
CONTINUOUS
 62
     7
 10
548.4329620422004
 20
164.8112328523734
 30
0.0
 40
13.1990781878816
 50
163.0805933023097
 51
231.6767797436286
  0
ARC
  5
777
  8
DATA
  6
CONTINUOUS
 62
     7
 10
536.2800396625448
 20
168.5018323341388
 30
0.0
 40
0.4981686390035031
 50
89.88675013480724
 51
162.3942466121176
  0
ARC
  5
778
  8
DATA
  6
CONTINUOUS
 62
     7
 10
540.9654781553629
 20
154.5273895201817
 30
0.0
 40
0.527507786433271
 50
226.8416555931761
 51
268.786718087102
  0
LINE
  5
779
  8
DATA
  6
CONTINUOUS
 62
     7
 10
540.2482528967575
 20
154.4562243437186
 30
0.0
 11
540.6046538908222
 21
154.1425904624043
 31
0.0
  0
ARC
  5
77A
  8
DATA
  6
CONTINUOUS
 62
     7
 10
562.5374645802319
 20
150.9259157117437
 30
0.0
 40
0.500000000000067
 50
128.1584298880184
 51
180.8841557273058
  0
LINE
  5
77B
  8
DATA
  6
CONTINUOUS
 62
     7
 10
561.4126921224135
 20
153.0239948167346
 30
0.0
 11
561.4133435400774
 21
153.0242358336054
 31
0.0
  0
LINE
  5
77C
  8
DATA
  6
CONTINUOUS
 62
     7
 10
562.0375241112972
 20
150.4999999999993
 30
0.0
 11
562.0375241112972
 21
150.9259046239747
 31
0.0
  0
ARC
  5
77D
  8
DATA
  6
CONTINUOUS
 62
     7
 10
550.9671670675607
 20
164.6143427999934
 30
0.0
 40
17.81723389424984
 50
8.776311143306696
 51
27.22639534483961
  0
ARC
  5
77E
  8
DATA
  6
CONTINUOUS
 62
     7
 10
566.3858633307941
 20
172.4981334364509
 30
0.0
 40
0.5018671616944882
 50
32.24001577789912
 51
89.91154005337444
  0
ARC
  5
77F
  8
DATA
  6
CONTINUOUS
 62
     7
 10
550.9907166183652
 20
164.8683666406459
 30
0.0
 40
17.75692614773361
 50
340.1906589556951
 51
7.977824327925192
  0
ARC
  5
780
  8
DATA
  6
CONTINUOUS
 62
     7
 10
551.5479278302821
 20
164.8246910275325
 30
0.0
 40
17.21852019055985
 50
308.3379165876253
 51
339.6990285072657
  0
ARC
  5
781
  8
DATA
  6
CONTINUOUS
 62
     7
 10
551.562323489997
 20
164.8112328523734
 30
0.0
 40
13.19907818788161
 50
308.3232202563722
 51
16.91940669769031
  0
ARC
  5
782
  8
DATA
  6
CONTINUOUS
 62
     7
 10
563.7152458696528
 20
168.5018323341388
 30
0.0
 40
0.4981686390033049
 50
17.6057533878903
 51
90.11324986519276
  0
ARC
  5
783
  8
DATA
  6
CONTINUOUS
 62
     7
 10
559.0298073768347
 20
154.5273895201817
 30
0.0
 40
0.5275077864332823
 50
271.2132819128979
 51
313.1583444068239
  0
LINE
  5
784
  8
DATA
  6
CONTINUOUS
 62
     7
 10
559.7470326354401
 20
154.4562243437186
 30
0.0
 11
559.3906316413754
 21
154.1425904624043
 31
0.0
  0
LINE
  5
785
  8
DATA
  6
CONTINUOUS
 62
     7
 10
561.5375241113
 20
150.0
 30
0.0
 11
538.4577614208977
 21
150.0
 31
0.0
  0
ARC
  5
786
  8
DATA
  6
CONTINUOUS
 62
     7
 10
538.4577614209006
 20
150.5000000000002
 30
0.0
 40
0.5000000000002274
 50
180.0000000000196
 51
269.9999999996613
  0
ARC
  5
787
  8
DATA
  6
CONTINUOUS
 62
     7
 10
561.537524111297
 20
150.5000000000002
 30
0.0
 40
0.5000000000001705
 50
270.0000000003387
 51
359.9999999999804
  0
LINE
  5
788
  8
DATA
  6
CONTINUOUS
 62
     7
 10
544.8476427660987
 20
175.0
 30
0.0
 11
544.8476427660987
 21
175.5
 31
0.0
  0
LINE
  5
789
  8
DATA
  6
CONTINUOUS
 62
     7
 10
546.1476427660987
 20
175.5
 30
0.0
 11
546.1476427660987
 21
175.0
 31
0.0
  0
LINE
  5
78A
  8
DATA
  6
CONTINUOUS
 62
     7
 10
548.4976428169155
 20
175.5
 30
0.0
 11
543.0576427660988
 21
175.5
 31
0.0
  0
LINE
  5
78B
  8
DATA
  6
CONTINUOUS
 62
     7
 10
548.4976428169155
 20
175.0
 30
0.0
 11
548.4976428169155
 21
175.5
 31
0.0
  0
LINE
  5
78C
  8
DATA
  6
CONTINUOUS
 62
     7
 10
538.8976427660987
 20
185.4000000000001
 30
0.0
 11
561.0976427660987
 21
185.4000000000001
 31
0.0
  0
LINE
  5
78D
  8
DATA
  6
CONTINUOUS
 62
     7
 10
538.8976427660987
 20
163.8
 30
0.0
 11
538.8976427660987
 21
185.4000000000001
 31
0.0
  0
LINE
  5
78E
  8
DATA
  6
CONTINUOUS
 62
     7
 10
561.0976427660987
 20
185.4000000000001
 30
0.0
 11
561.0976427660987
 21
163.8
 31
0.0
  0
ARC
  5
78F
  8
DATA
  6
CONTINUOUS
 62
     7
 10
549.9976427660986
 20
163.8
 30
0.0
 40
11.09999999999991
 50
180.0
 51
0.0
  0
CIRCLE
  5
790
  8
DATA
  6
CONTINUOUS
 62
     7
 10
549.9976427660986
 20
162.5
 30
0.0
 40
3.800000000000068
  0
CIRCLE
  5
791
  8
DATA
  6
CONTINUOUS
 62
     7
 10
549.9976427660986
 20
162.5
 30
0.0
 40
5.0
  0
LINE
  5
792
  8
DATA
  6
CONTINUOUS
 62
     7
 10
555.9376427660986
 20
171.7
 30
0.0
 11
544.0576427660988
 21
171.7
 31
0.0
  0
LINE
  5
793
  8
DATA
  6
CONTINUOUS
 62
     7
 10
543.0576427660988
 20
172.7
 30
0.0
 11
543.0576427660988
 21
185.4000000000001
 31
0.0
  0
LINE
  5
794
  8
DATA
  6
CONTINUOUS
 62
     7
 10
556.9376427660986
 20
172.7
 30
0.0
 11
556.9376427660986
 21
185.4000000000001
 31
0.0
  0
ARC
  5
795
  8
DATA
  6
CONTINUOUS
 62
     7
 10
544.0576427660988
 20
172.7
 30
0.0
 40
1.0
 50
180.0
 51
270.0
  0
ARC
  5
796
  8
DATA
  6
CONTINUOUS
 62
     7
 10
555.9376427660986
 20
172.7
 30
0.0
 40
1.0
 50
270.0
 51
0.0
  0
LINE
  5
797
  8
DATA
  6
CONTINUOUS
 62
     7
 10
543.0576427660985
 20
183.6000000000001
 30
0.0
 11
556.9376427660989
 21
183.6000000000001
 31
0.0
  0
LINE
  5
798
  8
DATA
  6
CONTINUOUS
 62
     7
 10
641.1762530197916
 20
0.8000000000001819
 30
0.0
 11
669.8762530197919
 21
0.8000000000001819
 31
0.0
  0
LINE
  5
799
  8
DATA
  6
CONTINUOUS
 62
     7
 10
641.1762530197916
 20
-0.9999999999998295
 30
0.0
 11
669.8762530197919
 21
-0.9999999999998295
 31
0.0
  0
LINE
  5
79A
  8
DATA
  6
CONTINUOUS
 62
     7
 10
641.1762530197916
 20
0.8000000000001819
 30
0.0
 11
641.1762530197916
 21
-0.9999999999998295
 31
0.0
  0
LINE
  5
79B
  8
DATA
  6
CONTINUOUS
 62
     7
 10
673.8762530197919
 20
-3.199999999999818
 30
0.0
 11
673.8762530197919
 21
-44.69999999999982
 31
0.0
  0
LINE
  5
79C
  8
DATA
  6
CONTINUOUS
 62
     7
 10
672.0762530197917
 20
-44.69999999999982
 30
0.0
 11
673.8762530197919
 21
-44.69999999999982
 31
0.0
  0
LINE
  5
79D
  8
DATA
  6
CONTINUOUS
 62
     7
 10
672.0762530197917
 20
-3.199999999999818
 30
0.0
 11
672.0762530197917
 21
-44.69999999999982
 31
0.0
  0
ARC
  5
79E
  8
DATA
  6
CONTINUOUS
 62
     7
 10
669.8762530197919
 20
-3.199999999999818
 30
0.0
 40
4.0
 50
0.0
 51
90.0
  0
ARC
  5
79F
  8
DATA
  6
CONTINUOUS
 62
     7
 10
669.8762530197919
 20
-3.199999999999875
 30
0.0
 40
2.199999999999818
 50
0.0000000000014779
 51
90.0
  0
LINE
  5
7A0
  8
DATA
  6
CONTINUOUS
 62
     7
 10
538.9
 20
0.8000000000001819
 30
0.0
 11
561.1
 21
0.8000000000001819
 31
0.0
  0
LINE
  5
7A1
  8
DATA
  6
CONTINUOUS
 62
     7
 10
538.9
 20
-0.9999999999998295
 30
0.0
 11
538.9
 21
0.8000000000001819
 31
0.0
  0
LINE
  5
7A2
  8
DATA
  6
CONTINUOUS
 62
     7
 10
561.1
 20
0.8000000000001819
 30
0.0
 11
561.1
 21
-0.9999999999998295
 31
0.0
  0
LINE
  5
7A3
  8
DATA
  6
CONTINUOUS
 62
     7
 10
641.1762530197916
 20
-500.8000534341134
 30
0.0
 11
669.8762530197919
 21
-500.8000534341134
 31
0.0
  0
LINE
  5
7A4
  8
DATA
  6
CONTINUOUS
 62
     7
 10
641.1762530197916
 20
-499.0000534341133
 30
0.0
 11
669.8762530197919
 21
-499.0000534341133
 31
0.0
  0
LINE
  5
7A5
  8
DATA
  6
CONTINUOUS
 62
     7
 10
641.1762530197916
 20
-500.8000534341134
 30
0.0
 11
641.1762530197916
 21
-499.0000534341133
 31
0.0
  0
LINE
  5
7A6
  8
DATA
  6
CONTINUOUS
 62
     7
 10
673.8762530197919
 20
-496.8000534341134
 30
0.0
 11
673.8762530197919
 21
-455.3000534341134
 31
0.0
  0
LINE
  5
7A7
  8
DATA
  6
CONTINUOUS
 62
     7
 10
672.0762530197917
 20
-455.3000534341134
 30
0.0
 11
673.8762530197919
 21
-455.3000534341134
 31
0.0
  0
LINE
  5
7A8
  8
DATA
  6
CONTINUOUS
 62
     7
 10
672.0762530197917
 20
-496.8000534341134
 30
0.0
 11
672.0762530197917
 21
-455.3000534341134
 31
0.0
  0
ARC
  5
7A9
  8
DATA
  6
CONTINUOUS
 62
     7
 10
669.8762530197919
 20
-496.8000534341134
 30
0.0
 40
4.0
 50
270.0
 51
0.0
  0
ARC
  5
7AA
  8
DATA
  6
CONTINUOUS
 62
     7
 10
669.8762530197919
 20
-496.8000534341132
 30
0.0
 40
2.200000000000045
 50
270.0
 51
359.999999999997
  0
LINE
  5
7AB
  8
DATA
  6
CONTINUOUS
 62
     7
 10
538.9
 20
-500.8000534341134
 30
0.0
 11
561.1
 21
-500.8000534341134
 31
0.0
  0
LINE
  5
7AC
  8
DATA
  6
CONTINUOUS
 62
     7
 10
538.9
 20
-499.0000534341133
 30
0.0
 11
538.9
 21
-500.8000534341134
 31
0.0
  0
LINE
  5
7AD
  8
DATA
  6
CONTINUOUS
 62
     7
 10
561.1
 20
-500.8000534341134
 30
0.0
 11
561.1
 21
-499.0000534341133
 31
0.0
  0
TEXT
  5
7AE
  8
DATA
 62
     7
 10
523.5485080295139
 20
-626.0392252604166
 30
0.0
 40
27.07845052083335
  1
金具取付け姿図
 41
0.7
 72
     1
 11
600.0
 21
-612.5
 31
0.0
 73
     2
  0
LINE
  5
7AF
  8
DATA
  6
CONTINUOUS
 62
     7
 10
462.5
 20
-637.5
 30
0.0
 11
737.5
 21
-637.5
 31
0.0
  0
LINE
  5
7B0
  8
DATA
  6
CONTINUOUS
 62
     7
 10
548.4976427660986
 20
162.5
 30
0.0
 11
551.4976427660986
 21
162.5
 31
0.0
  0
LINE
  5
7B1
  8
DATA
  6
CONTINUOUS
 62
     7
 10
549.9976427660987
 20
161.0
 30
0.0
 11
549.9976427660987
 21
164.0
 31
0.0
  0
LINE
  5
7B2
  8
DATA
  6
______-15
 62
     7
 10
350.0
 20
250.0
 30
0.0
 11
349.9999999999999
 21
-1037.5
 31
0.0
  0
LINE
  5
7B3
  8
DATA
  6
______-15
 62
     7
 10
350.0
 20
250.0
 30
0.0
 11
900.0
 21
250.0
 31
0.0
  0
LINE
  5
7B4
  8
DATA
  6
CONTINUOUS
 62
     7
 10
-286.5237469802083
 20
-484.9999999999997
 30
0.0
 11
-288.5237469802083
 21
-484.9999999999997
 31
0.0
  0
LINE
  5
7B5
  8
DATA
  6
CONTINUOUS
 62
     7
 10
-286.5237469802083
 20
-526.9999999999995
 30
0.0
 11
-288.5237469802083
 21
-526.9999999999995
 31
0.0
  0
LINE
  5
7B6
  8
DATA
  6
CONTINUOUS
 62
     7
 10
-286.5237469802083
 20
-426.9999999999992
 30
0.0
 11
-286.5237469802083
 21
-484.9999999999997
 31
0.0
  0
LINE
  5
7B7
  8
DATA
  6
CONTINUOUS
 62
     7
 10
-285.5237469802083
 20
-461.9999999999997
 30
0.0
 11
-286.5237469802083
 21
-461.9999999999997
 31
0.0
  0
LINE
  5
7B8
  8
DATA
  6
CONTINUOUS
 62
     7
 10
-285.5237469802083
 20
-467.9999999999997
 30
0.0
 11
-286.5237469802083
 21
-467.9999999999997
 31
0.0
  0
LINE
  5
7B9
  8
DATA
  6
CONTINUOUS
 62
     7
 10
-285.5237469802083
 20
-461.9999999999997
 30
0.0
 11
-285.5237469802083
 21
-467.9999999999997
 31
0.0
  0
VIEWPORT
  5
7BA
 67
     1
  8
0
 10
128.5
 20
97.5
 30
0.0
 40
314.226
 41
222.18
 68
     1
 69
     1
1001
ACAD
1000
MVIEW
1002
{
1070
    16
1010
0.0
1020
0.0
1030
0.0
1020
0.0
1030
0.0
1010
0.0
1020
0.0
1030
1.0
1020
0.0
1030
1.0
1040
0.0
1040
222.18
1040
128.5
1040
97.5
1040
50.0
1040
0.0
1040
0.0
1070
     0
1070
   100
1070
     0
1070
     3
1070
     0
1070
     0
1070
     0
1070
     0
1040
0.0
1040
0.0
1040
0.0
1040
10.0
1040
10.0
1040
10.0
1040
10.0
1070
     0
1002
{
1002
}
1002
}
  0
ENDSEC
  0
EOF
