  0
SECTION
  2
HEADER
  9
$ACADVER
  1
AC1009
  9
$INSBASE
 10
0.0
 20
0.0
 30
0.0
  9
$EXTMIN
 10
-620.04394195979012
 20
-931.86802805586376
 30
-0.0000091266791281
  9
$EXTMAX
 10
820.0439486653122
 20
1204.8007422151641
 30
0.0000075569969975
  9
$LIMMIN
 10
0.0
 20
0.0
  9
$LIMMAX
 10
0.0
 20
0.0
  9
$ORTHOMODE
 70
     0
  9
$REGENMODE
 70
     1
  9
$FILLMODE
 70
     1
  9
$QTEXTMODE
 70
     0
  9
$MIRRTEXT
 70
     1
  9
$DRAGMODE
 70
     2
  9
$LTSCALE
 40
40.640000000000001
  9
$OSMODE
 70
   231
  9
$ATTMODE
 70
     1
  9
$TEXTSIZE
 40
0.0
  9
$TRACEWID
 40
1.0
  9
$TEXTSTYLE
  7
STANDARD
  9
$CLAYER
  8
DATA
  9
$CELTYPE
  6
BYLAYER
  9
$CECOLOR
 62
   256
  9
$DIMSCALE
 40
1.0
  9
$DIMASZ
 40
0.18
  9
$DIMEXO
 40
0.0625
  9
$DIMDLI
 40
0.38
  9
$DIMRND
 40
0.0
  9
$DIMDLE
 40
0.0
  9
$DIMEXE
 40
0.18
  9
$DIMTP
 40
0.0
  9
$DIMTM
 40
0.0
  9
$DIMTXT
 40
0.18
  9
$DIMCEN
 40
0.09
  9
$DIMTSZ
 40
0.0
  9
$DIMTOL
 70
     0
  9
$DIMLIM
 70
     0
  9
$DIMTIH
 70
     1
  9
$DIMTOH
 70
     1
  9
$DIMSE1
 70
     0
  9
$DIMSE2
 70
     0
  9
$DIMTAD
 70
     0
  9
$DIMZIN
 70
     0
  9
$DIMBLK
  1

  9
$DIMASO
 70
     1
  9
$DIMSHO
 70
     1
  9
$DIMPOST
  1

  9
$DIMAPOST
  1

  9
$DIMALT
 70
     0
  9
$DIMALTD
 70
     2
  9
$DIMALTF
 40
25.399999999999999
  9
$DIMLFAC
 40
1.0
  9
$DIMTOFL
 70
     0
  9
$DIMTVP
 40
0.0
  9
$DIMTIX
 70
     0
  9
$DIMSOXD
 70
     0
  9
$DIMSAH
 70
     0
  9
$DIMBLK1
  1

  9
$DIMBLK2
  1

  9
$DIMSTYLE
  2
STANDARD
  9
$DIMCLRD
 70
     0
  9
$DIMCLRE
 70
     0
  9
$DIMCLRT
 70
     0
  9
$DIMTFAC
 40
1.0
  9
$DIMGAP
 40
0.09
  9
$LUNITS
 70
     2
  9
$LUPREC
 70
     4
  9
$SKETCHINC
 40
0.1
  9
$FILLETRAD
 40
0.0
  9
$AUNITS
 70
     0
  9
$AUPREC
 70
     0
  9
$MENU
  1
acad
  9
$ELEVATION
 40
0.0
  9
$PELEVATION
 40
0.0
  9
$THICKNESS
 40
0.0
  9
$LIMCHECK
 70
     0
  9
$BLIPMODE
 70
     0
  9
$CHAMFERA
 40
0.0
  9
$CHAMFERB
 40
0.0
  9
$SKPOLY
 70
     0
  9
$TDCREATE
 40
2456029.666643519
  9
$TDUPDATE
 40
2456029.6699617831
  9
$TDINDWG
 40
0.0002132292
  9
$TDUSRTIMER
 40
0.0002132292
  9
$USRTIMER
 70
     1
  9
$ANGBASE
 50
0.0
  9
$ANGDIR
 70
     0
  9
$PDMODE
 70
     1
  9
$PDSIZE
 40
-2.0
  9
$PLINEWID
 40
0.0
  9
$COORDS
 70
     2
  9
$SPLFRAME
 70
     0
  9
$SPLINETYPE
 70
     6
  9
$SPLINESEGS
 70
     8
  9
$ATTDIA
 70
     0
  9
$ATTREQ
 70
     1
  9
$HANDLING
 70
     1
  9
$HANDSEED
  5
2BF
  9
$SURFTAB1
 70
     6
  9
$SURFTAB2
 70
     6
  9
$SURFTYPE
 70
     6
  9
$SURFU
 70
     6
  9
$SURFV
 70
     6
  9
$UCSNAME
  2

  9
$UCSORG
 10
0.0
 20
0.0
 30
0.0
  9
$UCSXDIR
 10
1.0
 20
0.0
 30
0.0
  9
$UCSYDIR
 10
0.0
 20
1.0
 30
0.0
  9
$PUCSNAME
  2

  9
$PUCSORG
 10
0.0
 20
0.0
 30
0.0
  9
$PUCSXDIR
 10
1.0
 20
0.0
 30
0.0
  9
$PUCSYDIR
 10
0.0
 20
1.0
 30
0.0
  9
$USERI1
 70
     0
  9
$USERI2
 70
     0
  9
$USERI3
 70
     0
  9
$USERI4
 70
     0
  9
$USERI5
 70
     0
  9
$USERR1
 40
0.0
  9
$USERR2
 40
0.0
  9
$USERR3
 40
0.0
  9
$USERR4
 40
0.0
  9
$USERR5
 40
0.0
  9
$WORLDVIEW
 70
     1
  9
$SHADEDGE
 70
     3
  9
$SHADEDIF
 70
    70
  9
$TILEMODE
 70
     1
  9
$MAXACTVP
 70
    64
  9
$PLIMCHECK
 70
     0
  9
$PEXTMIN
 10
1.0000000000000000E+020
 20
1.0000000000000000E+020
 30
1.0000000000000000E+020
  9
$PEXTMAX
 10
-1.0000000000000000E+020
 20
-1.0000000000000000E+020
 30
-1.0000000000000000E+020
  9
$PLIMMIN
 10
0.0
 20
0.0
  9
$PLIMMAX
 10
12.0
 20
9.0
  9
$UNITMODE
 70
     0
  9
$VISRETAIN
 70
     0
  9
$PLINEGEN
 70
     1
  9
$PSLTSCALE
 70
     0
  0
ENDSEC
  0
SECTION
  2
TABLES
  0
TABLE
  2
VPORT
 70
     1
  0
VPORT
  2
*ACTIVE
 70
     0
 10
0.0
 20
0.0
 11
1.0
 21
1.0
 12
100.0000033527612
 22
136.46635707965021
 13
0.0
 23
0.0
 14
1.0
 24
1.0
 15
0.0
 25
0.0
 16
0.0
 26
0.0
 36
1.0
 17
0.0
 27
0.0
 37
0.0
 40
2153.3832586955732
 41
2.1540469973890342
 42
50.0
 43
0.0
 44
0.0
 50
0.0
 51
0.0
 71
     0
 72
  2000
 73
     1
 74
     1
 75
     0
 76
     0
 77
     0
 78
     0
  0
ENDTAB
  0
TABLE
  2
LTYPE
 70
    11
  0
LTYPE
  2
CONTINUOUS
 70
     0
  3
Solid line
 72
    65
 73
     0
 40
0.0
  0
ENDTAB
  0
TABLE
  2
LAYER
 70
     5
  0
LAYER
  2
0
 70
     0
 62
     7
  6
CONTINUOUS
  0
LAYER
  2
DATA
 70
     0
 62
     7
  6
CONTINUOUS
  0
LAYER
  2
HIBINO-BASE
 70
     0
 62
     7
  6
CONTINUOUS
  0
LAYER
  2
SPEC
 70
     0
 62
     7
  6
CONTINUOUS
  0
LAYER
  2
DIMNSIONS
 70
     0
 62
     7
  6
CONTINUOUS
  0
ENDTAB
  0
TABLE
  2
STYLE
 70
     3
  0
STYLE
  2
STANDARD
 70
     0
 40
0.0
 41
1.0
 50
0.0
 71
     0
 42
0.0
  3
txt
  4
BIGFONT.SHX
  0
STYLE
  2
_______
 70
     0
 40
0.0
 41
1.0
 50
0.0
 71
     0
 42
0.0
  3
txt
  4
ＭＳ ゴシック
  0
ENDTAB
  0
TABLE
  2
VIEW
 70
     0
  0
ENDTAB
  0
TABLE
  2
UCS
 70
     0
  0
ENDTAB
  0
TABLE
  2
APPID
 70
     4
  0
APPID
  2
ACAD
 70
     0
  0
APPID
  2
ACADANNOTATIVE
 70
     0
  0
APPID
  2
ACAD_NAV_VCDISPLAY
 70
     0
  0
APPID
  2
ACAD_MLEADERVER
 70
     0
  0
ENDTAB
  0
TABLE
  2
DIMSTYLE
 70
     2
  0
DIMSTYLE
  2
STANDARD
 70
     0
  3

  4

  5

  6

  7

 40
1.0
 41
0.18
 42
0.0625
 43
0.38
 44
0.18
 45
0.0
 46
0.0
 47
0.0
 48
0.0
140
0.18
141
0.09
142
0.0
143
25.399999999999999
144
1.0
145
0.0
146
1.0
147
0.09
 71
     0
 72
     0
 73
     1
 74
     1
 75
     0
 76
     0
 77
     0
 78
     0
170
     0
171
     2
172
     0
173
     0
174
     0
175
     0
176
     0
177
     0
178
     0
  0
ENDTAB
  0
ENDSEC
  0
SECTION
  2
BLOCKS
  0
BLOCK
  8
0
  2
$MODEL_SPACE
 70
     0
 10
0.0
 20
0.0
 30
0.0
  3
$MODEL_SPACE
  1

  0
ENDBLK
  5
250
  8
0
  0
BLOCK
 67
     1
  8
0
  2
$PAPER_SPACE
 70
     0
 10
0.0
 20
0.0
 30
0.0
  3
$PAPER_SPACE
  1

  0
ENDBLK
  5
24C
 67
     1
  8
0
  0
ENDSEC
  0
SECTION
  2
ENTITIES
  0
LINE
  5
2C
  8
HIBINO-BASE
  6
CONTINUOUS
 62
     7
 10
-619.99999999999989
 20
1204.7355352640609
 30
0.0
 11
820.0
 21
1204.7355352640609
 31
0.0
  0
LINE
  5
2D
  8
HIBINO-BASE
  6
CONTINUOUS
 62
     7
 10
820.0
 20
-875.26446473593853
 30
0.0
 11
-619.99999999999989
 21
-875.26446473593853
 31
0.0
  0
LINE
  5
2E
  8
HIBINO-BASE
  6
CONTINUOUS
 62
     7
 10
-619.99999999999989
 20
-875.26446473593853
 30
0.0
 11
-619.99999999999989
 21
1204.7355352640609
 31
0.0
  0
LINE
  5
2F
  8
HIBINO-BASE
  6
CONTINUOUS
 62
     7
 10
820.0
 20
1204.7355352640609
 30
0.0
 11
820.0
 21
-875.26446473593853
 31
0.0
  0
LINE
  5
30
  8
HIBINO-BASE
  6
CONTINUOUS
 62
     7
 10
100.0
 20
-695.26446473593853
 30
0.0
 11
820.0
 21
-695.26446473593853
 31
0.0
  0
LINE
  5
31
  8
HIBINO-BASE
  6
CONTINUOUS
 62
     7
 10
100.0
 20
-875.26446473593853
 30
0.0
 11
100.0
 21
-695.26446473593853
 31
0.0
  0
TEXT
  5
32
  8
HIBINO-BASE
 62
     7
 10
107.2
 20
-715.33401140260526
 30
0.0
 40
13.03072916666666
  1
NOTE
  7
_______
 11
107.2
 21
-702.30328223593847
 31
0.0
 73
     3
  0
LINE
  5
33
  8
HIBINO-BASE
  6
CONTINUOUS
 62
     7
 10
380.0
 20
-875.26446473593853
 30
0.0
 11
380.0
 21
-695.26446473593853
 31
0.0
  0
TEXT
  5
34
  8
HIBINO-BASE
 62
     7
 10
387.19999999999999
 20
-715.33401140260526
 30
0.0
 40
13.03072916666666
  1
TITLE
  7
_______
 11
387.19999999999999
 21
-702.30328223593847
 31
0.0
 73
     3
  0
LINE
  5
35
  8
HIBINO-BASE
  6
CONTINUOUS
 62
     7
 10
100.0
 20
-795.26446473593853
 30
0.0
 11
820.0
 21
-795.26446473593853
 31
0.0
  0
TEXT
  5
36
  8
HIBINO-BASE
 62
     7
 10
487.19999999999987
 20
-814.88345140260537
 30
0.0
 40
13.03072916666666
  1
DRAWN
  7
_______
 11
487.19999999999987
 21
-801.85272223593859
 31
0.0
 73
     3
  0
TEXT
  5
37
  8
HIBINO-BASE
 62
     7
 10
287.19999999999999
 20
-814.88345140260537
 30
0.0
 40
13.03072916666666
  1
DATE
  7
_______
 11
287.19999999999999
 21
-801.85272223593859
 31
0.0
 73
     3
  0
TEXT
  5
38
  8
HIBINO-BASE
 62
     7
 10
207.19999999999999
 20
-814.88345140260537
 30
0.0
 40
13.03072916666666
  1
SCALE
  7
_______
 11
207.19999999999999
 21
-801.85272223593859
 31
0.0
 73
     3
  0
TEXT
  5
39
  8
HIBINO-BASE
 62
     7
 10
387.19999999999999
 20
-814.88345140260537
 30
0.0
 40
13.03072916666666
  1
DESIGN
  7
_______
 11
387.19999999999999
 21
-801.85272223593859
 31
0.0
 73
     3
  0
TEXT
  5
3A
  8
HIBINO-BASE
 62
     7
 10
687.19999999999982
 20
-814.88345140260537
 30
0.0
 40
13.03072916666666
  1
DRAWING NO.
  7
_______
 11
687.19999999999982
 21
-801.85272223593859
 31
0.0
 73
     3
  0
TEXT
  5
3B
  8
HIBINO-BASE
 62
     7
 10
587.19999999999982
 20
-814.88345140260537
 30
0.0
 40
13.03072916666666
  1
CHECK
  7
_______
 11
587.19999999999982
 21
-801.85272223593859
 31
0.0
 73
     3
  0
LINE
  5
3C
  8
HIBINO-BASE
  6
CONTINUOUS
 62
     7
 10
215.0
 20
-865.26446473593865
 30
0.0
 11
245.0
 21
-835.26446473593853
 31
0.0
  0
TEXT
  5
3D
  8
HIBINO-BASE
 62
     7
 10
210.0
 20
-844.13601140260516
 30
0.0
 40
13.03072916666666
  1
1
  7
_______
 11
210.0
 21
-831.1052822359386
 31
0.0
 73
     3
  0
LINE
  5
3E
  8
HIBINO-BASE
  6
CONTINUOUS
 62
     7
 10
200.0
 20
-875.26446473593853
 30
0.0
 11
200.0
 21
-795.26446473593853
 31
0.0
  0
LINE
  5
3F
  8
HIBINO-BASE
  6
CONTINUOUS
 62
     7
 10
279.99999999999989
 20
-875.26446473593853
 30
0.0
 11
279.99999999999989
 21
-795.26446473593853
 31
0.0
  0
LINE
  5
40
  8
HIBINO-BASE
  6
CONTINUOUS
 62
     7
 10
480.0
 20
-795.26446473593853
 30
0.0
 11
480.0
 21
-875.26446473593853
 31
0.0
  0
LINE
  5
41
  8
HIBINO-BASE
  6
CONTINUOUS
 62
     7
 10
680.0
 20
-795.26446473593853
 30
0.0
 11
680.0
 21
-875.26446473593853
 31
0.0
  0
LINE
  5
42
  8
HIBINO-BASE
  6
CONTINUOUS
 62
     7
 10
579.99999999999977
 20
-875.26446473593853
 30
0.0
 11
579.99999999999977
 21
-795.26446473593853
 31
0.0
  0
TEXT
  5
43
  8
HIBINO-BASE
 62
     7
 10
286.85232000000002
 20
-852.35529140260508
 30
0.0
 40
13.03072916666666
  1
'11.10.
  7
_______
 11
286.85232000000002
 21
-839.32456223593852
 31
0.0
 73
     3
  0
TEXT
  5
44
  8
HIBINO-BASE
 62
     7
 10
240.0
 20
-859.13601140260516
 30
0.0
 40
13.03072916666666
  1
8
  7
_______
 11
240.0
 21
-846.1052822359386
 31
0.0
 73
     3
  0
TEXT
  5
45
  8
HIBINO-BASE
 62
     7
 10
492.04648008827678
 20
-852.35529140260508
 30
0.0
 40
13.03072916666666
  1
T.Ootake
  7
_______
 11
492.04648008827678
 21
-839.32456223593852
 31
0.0
 73
     3
  0
TEXT
  5
46
  8
HIBINO-BASE
 62
     7
 10
131.06666666666669
 20
-859.45646473593865
 30
0.0
 40
26.061458333333331
  1
A4
  7
_______
 11
131.06666666666669
 21
-833.3950064026053
 31
0.0
 73
     3
  0
TEXT
  5
47
  8
HIBINO-BASE
 62
     7
 10
107.6666666666666
 20
-816.22010473593855
 30
0.0
 40
13.03072916666666
  1
PAPER SIZE
  7
_______
 11
107.6666666666666
 21
-803.18937556927187
 31
0.0
 73
     3
  0
TEXT
  5
48
  8
HIBINO-BASE
 62
     7
 10
-597.92291794487835
 20
-926.66638660934859
 30
0.0
 40
28.233246527777769
  1
Hibino-Intersound Corporation
  7
_______
 11
-597.92291794487835
 21
-898.43314008157085
 31
0.0
 73
     3
  0
TEXT
  5
49
  8
HIBINO-BASE
 62
     7
 10
261.44487744171118
 20
-923.85768058303324
 30
0.0
 40
28.233246527777769
  1
ヒビノインターサウンド株式会社
  7
_______
 11
261.44487744171118
 21
-895.62443405525539
 31
0.0
 73
     3
  0
LINE
  5
4A
  8
SPEC
  6
CONTINUOUS
 62
     7
 10
-559.99999999999977
 20
1124.7355352640609
 30
0.0
 11
620.0
 21
1124.7355352640609
 31
0.0
  0
LINE
  5
4B
  8
SPEC
  6
CONTINUOUS
 62
     7
 10
-559.99999999999977
 20
1094.7355352640609
 30
0.0
 11
620.0
 21
1094.7355352640609
 31
0.0
  0
LINE
  5
4C
  8
SPEC
  6
CONTINUOUS
 62
     7
 10
-559.99999999999977
 20
1034.7355352640609
 30
0.0
 11
620.0
 21
1034.7355352640609
 31
0.0
  0
LINE
  5
4D
  8
SPEC
  6
CONTINUOUS
 62
     7
 10
-559.99999999999977
 20
1064.7355352640609
 30
0.0
 11
620.0
 21
1064.7355352640609
 31
0.0
  0
LINE
  5
4E
  8
SPEC
  6
CONTINUOUS
 62
     7
 10
-559.99999999999977
 20
1124.7355352640609
 30
0.0
 11
-559.99999999999977
 21
674.73553526406124
 31
0.0
  0
TEXT
  5
4F
  8
SPEC
 62
     7
 10
-549.99999999999989
 20
1135.8816952640609
 30
0.0
 40
19.546093750000001
  1
仕様
  7
_______
 11
-549.99999999999989
 21
1155.4277890140611
 31
0.0
 73
     3
  0
LINE
  5
50
  8
SPEC
  6
CONTINUOUS
 62
     7
 10
-300.0
 20
1124.7355352640609
 30
0.0
 11
-300.0
 21
674.73553526406124
 31
0.0
  0
LINE
  5
51
  8
SPEC
  6
CONTINUOUS
 62
     7
 10
620.0
 20
1124.7355352640609
 30
0.0
 11
620.0
 21
674.73553526406124
 31
0.0
  0
LINE
  5
52
  8
SPEC
  6
CONTINUOUS
 62
     7
 10
-559.99999999999977
 20
1004.735535264061
 30
0.0
 11
620.0
 21
1004.735535264061
 31
0.0
  0
LINE
  5
53
  8
SPEC
  6
CONTINUOUS
 62
     7
 10
-559.99999999999977
 20
974.73553526406101
 30
0.0
 11
620.0
 21
974.73553526406101
 31
0.0
  0
LINE
  5
54
  8
SPEC
  6
CONTINUOUS
 62
     7
 10
-559.99999999999977
 20
944.73553526406113
 30
0.0
 11
620.0
 21
944.73553526406113
 31
0.0
  0
LINE
  5
55
  8
SPEC
  6
CONTINUOUS
 62
     7
 10
-300.0
 20
914.73553526406113
 30
0.0
 11
620.0
 21
914.73553526406113
 31
0.0
  0
LINE
  5
56
  8
SPEC
  6
CONTINUOUS
 62
     7
 10
-559.99999999999977
 20
884.73553526406124
 30
0.0
 11
620.0
 21
884.73553526406124
 31
0.0
  0
LINE
  5
57
  8
SPEC
  6
CONTINUOUS
 62
     7
 10
-559.99999999999977
 20
854.73553526406113
 30
0.0
 11
620.0
 21
854.73553526406113
 31
0.0
  0
LINE
  5
58
  8
SPEC
  6
CONTINUOUS
 62
     7
 10
-559.99999999999977
 20
824.73553526406101
 30
0.0
 11
620.0
 21
824.73553526406101
 31
0.0
  0
LINE
  5
59
  8
SPEC
  6
CONTINUOUS
 62
     7
 10
-559.99999999999977
 20
794.73553526406113
 30
0.0
 11
620.0
 21
794.73553526406113
 31
0.0
  0
LINE
  5
5A
  8
SPEC
  6
CONTINUOUS
 62
     7
 10
-559.99999999999977
 20
764.73553526406113
 30
0.0
 11
620.0
 21
764.73553526406113
 31
0.0
  0
LINE
  5
5B
  8
SPEC
  6
CONTINUOUS
 62
     7
 10
-559.99999999999977
 20
734.73553526406113
 30
0.0
 11
620.0
 21
734.73553526406113
 31
0.0
  0
TEXT
  5
5C
  8
SPEC
 62
     7
 10
-553.68724868353513
 20
713.20860190374333
 30
0.0
 40
15.202517361111109
  1
寸法
  7
_______
 11
-553.68724868353513
 21
728.41111926485439
 31
0.0
 73
     3
  0
TEXT
  5
5D
  8
SPEC
 62
     7
 10
-292.79012347256202
 20
711.98318915901723
 30
0.0
 40
15.202517361111109
  1
230(W)\U+00D7348(H)\U+00D7263(D)mm(突起部含まず）
  7
_______
 11
-292.79012347256202
 21
727.18570652012829
 31
0.0
 73
     3
  0
TEXT
  5
5E
  8
SPEC
 62
     7
 10
-292.91494814439812
 20
682.08916256484622
 30
0.0
 40
15.202517361111109
  1
約7kg
  7
_______
 11
-292.91494814439812
 21
697.29167992595717
 31
0.0
 73
     3
  0
TEXT
  5
5F
  8
SPEC
 62
     7
 10
-553.28876325257602
 20
683.63114520739566
 30
0.0
 40
15.202517361111109
  1
重量
  7
_______
 11
-553.28876325257602
 21
698.83366256850672
 31
0.0
 73
     3
  0
TEXT
  5
60
  8
SPEC
 62
     7
 10
-552.98399021754312
 20
833.13854302011976
 30
0.0
 40
15.202517361111109
  1
入力コネクター
  7
_______
 11
-552.98399021754312
 21
848.3410603812307
 31
0.0
 73
     3
  0
TEXT
  5
61
  8
SPEC
 62
     7
 10
-292.85020605909091
 20
832.89142791911354
 30
0.0
 40
15.202517361111109
  1
2\U+00D7Neutrik NL4MP
  7
_______
 11
-292.85020605909091
 21
848.0939452802246
 31
0.0
 73
     3
  0
TEXT
  5
62
  8
SPEC
 62
     7
 10
-552.99815082546081
 20
802.42526407383275
 30
0.0
 40
15.202517361111109
  1
公称インピーダンス
  7
_______
 11
-552.99815082546081
 21
817.62778143494359
 31
0.0
 73
     3
  0
TEXT
  5
63
  8
SPEC
 62
     7
 10
-293.78080466747252
 20
802.10470685732082
 30
0.0
 40
15.202517361111109
  1
16\U+03A9
  7
_______
 11
-293.78080466747252
 21
817.307224218432
 31
0.0
 73
     3
  0
TEXT
  5
64
  8
SPEC
 62
     7
 10
-554.17787657528174
 20
862.81708378860264
 30
0.0
 40
15.202517361111109
  1
クロスオーバー
  7
_______
 11
-554.17787657528174
 21
878.01960114971371
 31
0.0
 73
     3
  0
TEXT
  5
65
  8
SPEC
 62
     7
 10
-293.86533478388719
 20
862.88686454844321
 30
0.0
 40
15.202517361111109
  1
1.5kHzバッシブ
  7
_______
 11
-293.86533478388719
 21
878.08938190955416
 31
0.0
 73
     3
  0
TEXT
  5
66
  8
SPEC
 62
     7
 10
-293.14824908986628
 20
893.02730373646045
 30
0.0
 40
15.202517361111109
  1
高域：1インチネオジム磁石採用、1.75インチ(44.4mm）ボイスコイル
  7
_______
 11
-293.14824908986628
 21
908.2298210975714
 31
0.0
 73
     3
  0
TEXT
  5
67
  8
SPEC
 62
     7
 10
-558.99676044464195
 20
923.61599952068218
 30
0.0
 40
15.202517361111109
  1
ドライバー構成
  7
_______
 11
-558.99676044464195
 21
938.81851688179324
 31
0.0
 73
     3
  0
TEXT
  5
68
  8
SPEC
 62
     7
 10
-292.93157928147639
 20
922.0831194045096
 30
0.0
 40
15.202517361111109
  1
低域：8インチネオジム磁石採用、2インチ(52mm)ボイスコイル
  7
_______
 11
-292.93157928147639
 21
937.28563676562078
 31
0.0
 73
     3
  0
TEXT
  5
69
  8
SPEC
 62
     7
 10
-554.3204878296815
 20
952.60034627312154
 30
0.0
 40
15.202517361111109
  1
カバレージ角
  7
_______
 11
-554.3204878296815
 21
967.80286363423249
 31
0.0
 73
     3
  0
TEXT
  5
6A
  8
SPEC
 62
     7
 10
-292.8642507778705
 20
952.12853187600206
 30
0.0
 40
15.202517361111109
  1
90\U+00B0円錐
  7
_______
 11
-292.8642507778705
 21
967.33104923711335
 31
0.0
 73
     3
  0
TEXT
  5
6B
  8
SPEC
 62
     7
 10
-552.85372879857437
 20
982.66851146025749
 30
0.0
 40
15.202517361111109
  1
最大音圧
  7
_______
 11
-552.85372879857437
 21
997.87102882136867
 31
0.0
 73
     3
  0
TEXT
  5
6C
  8
SPEC
 62
     7
 10
-293.74707327478319
 20
982.13843825001015
 30
0.0
 40
15.202517361111109
  1
124dB
  7
_______
 11
-293.74707327478319
 21
997.34095561112099
 31
0.0
 73
     3
  0
TEXT
  5
6D
  8
SPEC
 62
     7
 10
-552.99963325093825
 20
1012.962805452799
 30
0.0
 40
15.202517361111109
  1
感度
  7
_______
 11
-552.99963325093825
 21
1028.1653228139101
 31
0.0
 73
     3
  0
TEXT
  5
6E
  8
SPEC
 62
     7
 10
-292.72532111223882
 20
1011.54271763389
 30
0.0
 40
15.202517361111109
  1
95dB
  7
_______
 11
-292.72532111223882
 21
1026.7452349950011
 31
0.0
 73
     3
  0
TEXT
  5
6F
  8
SPEC
 62
     7
 10
-553.22450129975823
 20
1042.8272736517911
 30
0.0
 40
15.202517361111109
  1
許容入力(AES/ピーク）
  7
_______
 11
-553.22450129975823
 21
1058.029791012902
 31
0.0
 73
     3
  0
TEXT
  5
70
  8
SPEC
 62
     7
 10
-292.73127574889872
 20
1041.821917001997
 30
0.0
 40
15.202517361111109
  1
250W/1000W
  7
_______
 11
-292.73127574889872
 21
1057.0244343631091
 31
0.0
 73
     3
  0
TEXT
  5
71
  8
SPEC
 62
     7
 10
-552.90284603195175
 20
1072.153476424721
 30
0.0
 40
15.202517361111109
  1
周波数特性
  7
_______
 11
-552.90284603195175
 21
1087.355993785832
 31
0.0
 73
     3
  0
TEXT
  5
72
  8
SPEC
 62
     7
 10
-293.17696433319958
 20
1072.5603359582351
 30
0.0
 40
15.202517361111109
  1
70Hz～20kHz(-3dB)
  7
_______
 11
-293.17696433319958
 21
1087.762853319346
 31
0.0
 73
     3
  0
TEXT
  5
73
  8
SPEC
 62
     7
 10
-553.32534608511571
 20
1102.2141741152041
 30
0.0
 40
15.202517361111109
  1
形式
  7
_______
 11
-553.32534608511571
 21
1117.416691476315
 31
0.0
 73
     3
  0
TEXT
  5
74
  8
SPEC
 62
     7
 10
-292.88878461309559
 20
1102.217110633798
 30
0.0
 40
15.202517361111109
  1
2-Wayフルレンジ・スピーカーシステム
  7
_______
 11
-292.88878461309559
 21
1117.4196279949099
 31
0.0
 73
     3
  0
TEXT
  5
75
  8
SPEC
 62
     7
 10
-554.20548590948351
 20
772.04978206587157
 30
0.0
 40
15.202517361111109
  1
エンクロージャー
  7
_______
 11
-554.20548590948351
 21
787.25229942698274
 31
0.0
 73
     3
  0
TEXT
  5
76
  8
SPEC
 62
     7
 10
-293.76933786955402
 20
772.75826520076862
 30
0.0
 40
15.202517361111109
  1
12/15mm合板
  7
_______
 11
-293.76933786955402
 21
787.96078256187968
 31
0.0
 73
     3
  0
TEXT
  5
77
  8
SPEC
 62
     7
 10
-552.84494238186915
 20
742.38224412267266
 30
0.0
 40
15.202517361111109
  1
仕上げ
  7
_______
 11
-552.84494238186915
 21
757.58476148378384
 31
0.0
 73
     3
  0
TEXT
  5
78
  8
SPEC
 62
     7
 10
-293.12015200720469
 20
743.47485328105404
 30
0.0
 40
15.202517361111109
  1
黒
  7
_______
 11
-293.12015200720469
 21
758.67737064216499
 31
0.0
 73
     3
  0
LINE
  5
79
  8
SPEC
  6
CONTINUOUS
 62
     7
 10
-559.99999999999977
 20
704.73553526406124
 30
0.0
 11
620.0
 21
704.73553526406124
 31
0.0
  0
LINE
  5
7A
  8
SPEC
  6
CONTINUOUS
 62
     7
 10
-559.99999999999977
 20
674.73553526406124
 30
0.0
 11
620.0
 21
674.73553526406124
 31
0.0
  0
TEXT
  5
7B
  8
DIMNSIONS
 62
     7
 10
-60.000000000000021
 20
-777.10854473593849
 30
0.0
 40
19.546093750000001
  1
(単位：mm)
  7
_______
 11
-60.000000000000021
 21
-757.56245098593854
 31
0.0
 73
     3
  0
LINE
  5
7C
  8
DIMNSIONS
  6
CONTINUOUS
 62
     7
 10
-316.0
 20
-200.0
 30
0.0
 11
-416.0
 21
-200.0
 31
0.0
  0
LINE
  5
7D
  8
DIMNSIONS
  6
CONTINUOUS
 62
     7
 10
-315.99338920632277
 20
148.00000000000011
 30
0.0
 11
-416.0
 21
148.00000000000011
 31
0.0
  0
LINE
  5
7E
  8
DIMNSIONS
  6
CONTINUOUS
 62
     7
 10
-400.0
 20
-200.0
 30
0.0
 11
-400.0
 21
148.00000000000011
 31
0.0
  0
LINE
  5
7F
  8
DIMNSIONS
  6
CONTINUOUS
 62
     7
 10
-400.0
 20
-200.0
 30
0.0
 11
-405.36031836120202
 21
-179.99501953124999
 31
0.0
  0
LINE
  5
80
  8
DIMNSIONS
  6
CONTINUOUS
 62
     7
 10
-400.0
 20
-200.0
 30
0.0
 11
-394.63968163879798
 21
-179.99501953124999
 31
0.0
  0
LINE
  5
81
  8
DIMNSIONS
  6
CONTINUOUS
 62
     7
 10
-400.0
 20
148.00000000000011
 30
0.0
 11
-394.63968163879798
 21
127.99501953125009
 31
0.0
  0
LINE
  5
82
  8
DIMNSIONS
  6
CONTINUOUS
 62
     7
 10
-400.0
 20
148.00000000000011
 30
0.0
 11
-405.36031836120202
 21
127.99501953125009
 31
0.0
  0
TEXT
  5
83
  8
DIMNSIONS
 62
     7
 10
-407.95111111111089
 20
-47.166666666666572
 30
0.0
 40
21.71788194444445
  1
348
 50
90.0
  7
_______
 11
-429.6689930555554
 21
-47.166666666666572
 31
0.0
 73
     3
  0
LINE
  5
84
  8
DIMNSIONS
  6
CONTINUOUS
 62
     7
 10
-300.0
 20
-216.0
 30
0.0
 11
-300.0
 21
-266.0
 31
0.0
  0
LINE
  5
85
  8
DIMNSIONS
  6
CONTINUOUS
 62
     7
 10
-69.997205772028352
 20
-216.0
 30
0.0
 11
-69.997205772028352
 21
-266.0
 31
0.0
  0
LINE
  5
86
  8
DIMNSIONS
  6
CONTINUOUS
 62
     7
 10
-300.0
 20
-250.0
 30
0.0
 11
-69.997205772028352
 21
-250.0
 31
0.0
  0
LINE
  5
87
  8
DIMNSIONS
  6
CONTINUOUS
 62
     7
 10
-300.0
 20
-250.0
 30
0.0
 11
-279.99501953125002
 21
-244.63968163879801
 31
0.0
  0
LINE
  5
88
  8
DIMNSIONS
  6
CONTINUOUS
 62
     7
 10
-300.0
 20
-250.0
 30
0.0
 11
-279.99501953125002
 21
-255.36031836120199
 31
0.0
  0
LINE
  5
89
  8
DIMNSIONS
  6
CONTINUOUS
 62
     7
 10
-69.997205772028352
 20
-250.0
 30
0.0
 11
-90.002186240778357
 21
-255.36031836120199
 31
0.0
  0
LINE
  5
8A
  8
DIMNSIONS
  6
CONTINUOUS
 62
     7
 10
-69.997205772028352
 20
-250.0
 30
0.0
 11
-90.002186240778357
 21
-244.63968163879801
 31
0.0
  0
TEXT
  5
8B
  8
DIMNSIONS
 62
     7
 10
-206.16526955268091
 20
-242.04888888888891
 30
0.0
 40
21.71788194444445
  1
230
  7
_______
 11
-206.16526955268091
 21
-220.3310069444444
 31
0.0
 73
     3
  0
LINE
  5
8C
  8
DIMNSIONS
  6
CONTINUOUS
 62
     7
 10
-200.99935780368389
 20
-612.9999999992649
 30
0.0
 11
-416.0
 21
-612.9999999992649
 31
0.0
  0
LINE
  5
8D
  8
DIMNSIONS
  6
CONTINUOUS
 62
     7
 10
-200.99935780368389
 20
-350.0
 30
0.0
 11
-416.0
 21
-350.0
 31
0.0
  0
LINE
  5
8E
  8
DIMNSIONS
  6
CONTINUOUS
 62
     7
 10
-400.0
 20
-612.9999999992649
 30
0.0
 11
-400.0
 21
-350.0
 31
0.0
  0
LINE
  5
8F
  8
DIMNSIONS
  6
CONTINUOUS
 62
     7
 10
-400.0
 20
-612.9999999992649
 30
0.0
 11
-405.36031836120202
 21
-592.99501953051492
 31
0.0
  0
LINE
  5
90
  8
DIMNSIONS
  6
CONTINUOUS
 62
     7
 10
-400.0
 20
-612.9999999992649
 30
0.0
 11
-394.63968163879798
 21
-592.99501953051492
 31
0.0
  0
LINE
  5
91
  8
DIMNSIONS
  6
CONTINUOUS
 62
     7
 10
-400.0
 20
-350.0
 30
0.0
 11
-394.63968163879798
 21
-370.00498046874998
 31
0.0
  0
LINE
  5
92
  8
DIMNSIONS
  6
CONTINUOUS
 62
     7
 10
-400.0
 20
-350.0
 30
0.0
 11
-405.36031836120202
 21
-370.00498046874998
 31
0.0
  0
TEXT
  5
93
  8
DIMNSIONS
 62
     7
 10
-407.95111111111089
 20
-502.66666666629908
 30
0.0
 40
21.71788194444445
  1
263
 50
90.0
  7
_______
 11
-429.6689930555554
 21
-502.66666666629908
 31
0.0
 73
     3
  0
TEXT
  5
94
  8
DATA
 62
     7
 10
499.18327392135762
 20
-788.21257734658627
 30
0.0
 40
19.546093750000001
  1
D8
  7
_______
 11
499.18327392135762
 21
-768.66648359658632
 31
0.0
 73
     3
  0
TEXT
  5
95
  8
DATA
 62
     7
 10
499.18327392135762
 20
-722.22802015922741
 30
0.0
 40
19.546093750000001
  1
CODA
  7
_______
 11
499.18327392135762
 21
-702.68192640922734
 31
0.0
 73
     3
  0
TEXT
  5
96
  8
DATA
 62
     7
 10
-539.99999999999977
 20
-841.36046473593854
 30
0.0
 40
13.03072916666666
  1
仕様および外観は予告なく変更されることがありますので、ご了承ください。
  7
_______
 11
-539.99999999999977
 21
-828.32973556927175
 31
0.0
 73
     3
  0
CIRCLE
  5
97
  8
DATA
  6
CONTINUOUS
 62
     7
 10
-184.99935780368389
 20
-25.999999999999918
 30
0.0
 40
103.0
  0
CIRCLE
  5
98
  8
DATA
  6
CONTINUOUS
 62
     7
 10
-185.00000000055991
 20
-374.49999999935949
 30
0.0
 40
5.0
  0
CIRCLE
  5
99
  8
DATA
  6
CONTINUOUS
 62
     7
 10
-185.00000000055991
 20
-374.49999999935949
 30
0.0
 40
6.0
  0
CIRCLE
  5
9A
  8
DATA
  6
CONTINUOUS
 62
     7
 10
-185.00000000055991
 20
-546.49999999935926
 30
0.0
 40
6.0
  0
CIRCLE
  5
9B
  8
DATA
  6
CONTINUOUS
 62
     7
 10
-185.00000000055991
 20
-419.4999999993592
 30
0.0
 40
6.0
  0
CIRCLE
  5
9C
  8
DATA
  6
CONTINUOUS
 62
     7
 10
-185.00000000055991
 20
-482.99999999935909
 30
0.0
 40
6.0
  0
CIRCLE
  5
9D
  8
DATA
  6
CONTINUOUS
 62
     7
 10
491.00397366766799
 20
-78.500000001646299
 30
0.0
 40
6.0
  0
CIRCLE
  5
9E
  8
DATA
  6
CONTINUOUS
 62
     7
 10
539.0039736676672
 20
-78.500000001646299
 30
0.0
 40
6.0
  0
CIRCLE
  5
9F
  8
DATA
  6
CONTINUOUS
 62
     7
 10
539.0039736676672
 20
-141.5000000016463
 30
0.0
 40
6.0
  0
CIRCLE
  5
A0
  8
DATA
  6
CONTINUOUS
 62
     7
 10
491.00397366766799
 20
-141.5000000016463
 30
0.0
 40
6.0
  0
POLYLINE
  5
A1
  8
DATA
  6
CONTINUOUS
 62
     7
 66
     1
 10
0.0
 20
0.0
 30
0.0
 70
     8
  0
VERTEX
  5
A2
  8
DATA
  6
CONTINUOUS
 62
     7
 10
590.06162199403525
 20
135.9999999983539
 30
0.0000075564873896
 70
    32
  0
VERTEX
  5
A3
  8
DATA
  6
CONTINUOUS
 62
     7
 10
590.06162199403525
 20
-188.0000000016463
 30
0.0000075564878443
 70
    32
  0
SEQEND
  5
A4
  8
DATA
  6
CONTINUOUS
 62
     7
  0
POLYLINE
  5
A5
  8
DATA
  6
CONTINUOUS
 62
     7
 66
     1
 10
0.0
 20
0.0
 30
0.0
 70
     8
  0
VERTEX
  5
A6
  8
DATA
  6
CONTINUOUS
 62
     7
 10
439.94299116028009
 20
135.9999999983539
 30
0.0000075564873896
 70
    32
  0
VERTEX
  5
A7
  8
DATA
  6
CONTINUOUS
 62
     7
 10
439.94299116027912
 20
-188.0000000016463
 30
0.0000075564878443
 70
    32
  0
SEQEND
  5
A8
  8
DATA
  6
CONTINUOUS
 62
     7
  0
ARC
  5
A9
  8
DATA
  6
CONTINUOUS
 62
     7
 10
485.5023065771577
 20
47.999999998353857
 30
0.0
 40
8.9999999999999396
 50
99.594068226851704
 51
253.8723797868364
  0
ARC
  5
AA
  8
DATA
  6
CONTINUOUS
 62
     7
 10
485.5023065771577
 20
47.999999998353857
 30
0.0
 40
9.0000000000000995
 50
286.1276202131636
 51
80.405931773148268
  0
CIRCLE
  5
AB
  8
DATA
  6
CONTINUOUS
 62
     7
 10
485.5023065771577
 20
47.999999998353857
 30
0.0
 40
12.00000000000011
  0
CIRCLE
  5
AC
  8
DATA
  6
CONTINUOUS
 62
     7
 10
496.81601507614408
 20
36.686291499368743
 30
0.0
 40
3.0
  0
ARC
  5
AD
  8
DATA
  6
CONTINUOUS
 62
     7
 10
485.5023065771577
 20
47.999999998353857
 30
0.0
 40
4.0000000000000524
 50
224.99999999999571
 51
315.00000000000432
  0
LINE
  5
AE
  8
DATA
  6
CONTINUOUS
 62
     7
 10
483.0023065771577
 20
39.35419176545885
 30
0.0
 11
483.0023065771577
 21
37.801960971167773
 31
0.0
  0
LINE
  5
AF
  8
DATA
  6
CONTINUOUS
 62
     7
 10
488.0023065771577
 20
39.35419176545885
 30
0.0
 11
488.0023065771577
 21
37.801960971167773
 31
0.0
  0
ARC
  5
B0
  8
DATA
  6
CONTINUOUS
 62
     7
 10
485.5023065771577
 20
47.999999998353857
 30
0.0
 40
10.50000000000006
 50
256.22585300196312
 51
283.77414699803683
  0
CIRCLE
  5
B1
  8
DATA
  6
CONTINUOUS
 62
     7
 10
496.81601507614408
 20
36.686291499368743
 30
0.0
 40
1.0
  0
ARC
  5
B2
  8
DATA
  6
CONTINUOUS
 62
     7
 10
485.5023065771577
 20
47.999999998353857
 30
0.0
 40
3.000000000000044
 50
315.00000000000267
 51
44.99999999999693
  0
ARC
  5
B3
  8
DATA
  6
CONTINUOUS
 62
     7
 10
485.5023065771577
 20
47.999999998353857
 30
0.0
 40
3.000000000000024
 50
135.00000000000301
 51
224.9999999999973
  0
LINE
  5
B4
  8
DATA
  6
CONTINUOUS
 62
     7
 10
483.38098623359889
 20
45.878679654793842
 30
0.0
 11
482.67387945241182
 21
45.17157287360785
 31
0.0
  0
LINE
  5
B5
  8
DATA
  6
CONTINUOUS
 62
     7
 10
487.6236269207177
 20
45.878679654793842
 30
0.0
 11
488.33073370190391
 21
45.17157287360785
 31
0.0
  0
LINE
  5
B6
  8
DATA
  6
CONTINUOUS
 62
     7
 10
483.38098623359889
 20
50.121320341912963
 30
0.0
 11
482.67387945241182
 21
50.828427123099857
 31
0.0
  0
LINE
  5
B7
  8
DATA
  6
CONTINUOUS
 62
     7
 10
487.6236269207177
 20
50.121320341912963
 30
0.0
 11
488.33073370190391
 21
50.828427123099857
 31
0.0
  0
ARC
  5
B8
  8
DATA
  6
CONTINUOUS
 62
     7
 10
485.5023065771577
 20
47.999999998353857
 30
0.0
 40
4.0000000000000311
 50
44.999999999995389
 51
135.0000000000046
  0
CIRCLE
  5
B9
  8
DATA
  6
CONTINUOUS
 62
     7
 10
474.1885980781729
 20
59.313708497338972
 30
0.0
 40
1.0
  0
CIRCLE
  5
BA
  8
DATA
  6
CONTINUOUS
 62
     7
 10
474.1885980781729
 20
59.313708497338972
 30
0.0
 40
3.0
  0
LINE
  5
BB
  8
DATA
  6
CONTINUOUS
 62
     7
 10
484.0023065771577
 20
56.874119673002781
 30
0.0
 11
484.0023065771577
 21
58.499999998353893
 31
0.0
  0
LINE
  5
BC
  8
DATA
  6
CONTINUOUS
 62
     7
 10
487.0023065771577
 20
56.874119673002781
 30
0.0
 11
487.0023065771577
 21
58.499999998353893
 31
0.0
  0
LINE
  5
BD
  8
DATA
  6
CONTINUOUS
 62
     7
 10
484.0023065771577
 20
58.499999998353893
 30
0.0
 11
487.0023065771577
 21
58.499999998353893
 31
0.0
  0
CIRCLE
  5
BE
  8
DATA
  6
CONTINUOUS
 62
     7
 10
544.50230657715815
 20
47.999999998353857
 30
0.0
 40
12.0
  0
ARC
  5
BF
  8
DATA
  6
CONTINUOUS
 62
     7
 10
544.50230657715815
 20
47.999999998353857
 30
0.0
 40
8.9999999999999396
 50
99.594068226851704
 51
253.8723797868364
  0
ARC
  5
C0
  8
DATA
  6
CONTINUOUS
 62
     7
 10
544.50230657715815
 20
47.999999998353857
 30
0.0
 40
9.0000000000000995
 50
286.1276202131636
 51
80.405931773148268
  0
CIRCLE
  5
C1
  8
DATA
  6
CONTINUOUS
 62
     7
 10
555.81601507614323
 20
36.686291499368743
 30
0.0
 40
1.0
  0
CIRCLE
  5
C2
  8
DATA
  6
CONTINUOUS
 62
     7
 10
555.81601507614323
 20
36.686291499368743
 30
0.0
 40
3.0
  0
ARC
  5
C3
  8
DATA
  6
CONTINUOUS
 62
     7
 10
544.50230657715815
 20
47.999999998353857
 30
0.0
 40
4.0000000000000524
 50
224.99999999999571
 51
315.00000000000432
  0
ARC
  5
C4
  8
DATA
  6
CONTINUOUS
 62
     7
 10
544.50230657715815
 20
47.999999998353857
 30
0.0
 40
10.50000000000006
 50
256.22585300196312
 51
283.77414699803683
  0
LINE
  5
C5
  8
DATA
  6
CONTINUOUS
 62
     7
 10
542.00230657715815
 20
39.35419176545885
 30
0.0
 11
542.00230657715815
 21
37.801960971167773
 31
0.0
  0
LINE
  5
C6
  8
DATA
  6
CONTINUOUS
 62
     7
 10
547.00230657715815
 20
39.35419176545885
 30
0.0
 11
547.00230657715815
 21
37.801960971167773
 31
0.0
  0
ARC
  5
C7
  8
DATA
  6
CONTINUOUS
 62
     7
 10
544.50230657715815
 20
47.999999998353857
 30
0.0
 40
4.0000000000000311
 50
44.999999999995389
 51
135.0000000000046
  0
LINE
  5
C8
  8
DATA
  6
CONTINUOUS
 62
     7
 10
542.38098623359929
 20
50.121320341912963
 30
0.0
 11
541.67387945241205
 21
50.828427123099857
 31
0.0
  0
LINE
  5
C9
  8
DATA
  6
CONTINUOUS
 62
     7
 10
542.38098623359929
 20
45.878679654793842
 30
0.0
 11
541.67387945241205
 21
45.17157287360785
 31
0.0
  0
ARC
  5
CA
  8
DATA
  6
CONTINUOUS
 62
     7
 10
544.50230657715815
 20
47.999999998353857
 30
0.0
 40
3.000000000000024
 50
135.00000000000301
 51
224.9999999999973
  0
LINE
  5
CB
  8
DATA
  6
CONTINUOUS
 62
     7
 10
546.62362692071815
 20
50.121320341912963
 30
0.0
 11
547.33073370190425
 21
50.828427123099857
 31
0.0
  0
LINE
  5
CC
  8
DATA
  6
CONTINUOUS
 62
     7
 10
546.62362692071815
 20
45.878679654793842
 30
0.0
 11
547.33073370190425
 21
45.17157287360785
 31
0.0
  0
ARC
  5
CD
  8
DATA
  6
CONTINUOUS
 62
     7
 10
544.50230657715815
 20
47.999999998353857
 30
0.0
 40
3.000000000000044
 50
315.00000000000267
 51
44.99999999999693
  0
CIRCLE
  5
CE
  8
DATA
  6
CONTINUOUS
 62
     7
 10
533.18859807817319
 20
59.313708497338972
 30
0.0
 40
3.0
  0
LINE
  5
CF
  8
DATA
  6
CONTINUOUS
 62
     7
 10
546.00230657715815
 20
58.499999998353893
 30
0.0
 11
543.00230657715815
 21
58.499999998353893
 31
0.0
  0
CIRCLE
  5
D0
  8
DATA
  6
CONTINUOUS
 62
     7
 10
533.18859807817319
 20
59.313708497338972
 30
0.0
 40
1.0
  0
LINE
  5
D1
  8
DATA
  6
CONTINUOUS
 62
     7
 10
543.00230657715815
 20
56.874119673002781
 30
0.0
 11
543.00230657715815
 21
58.499999998353893
 31
0.0
  0
LINE
  5
D2
  8
DATA
  6
CONTINUOUS
 62
     7
 10
546.00230657715815
 20
56.874119673002781
 30
0.0
 11
546.00230657715815
 21
58.499999998353893
 31
0.0
  0
CIRCLE
  5
D3
  8
DATA
  6
CONTINUOUS
 62
     7
 10
-184.99935780368389
 20
-25.999999999999918
 30
0.0
 40
91.399999999999963
  0
ARC
  5
D4
  8
DATA
  6
CONTINUOUS
 62
     7
 10
-184.99935780368389
 20
-25.999999999999918
 30
0.0
 40
101.0
 50
137.48893203113391
 51
222.51106796886461
  0
ARC
  5
D5
  8
DATA
  6
CONTINUOUS
 62
     7
 10
-184.99935780368389
 20
-25.999999999999918
 30
0.0
 40
102.5
 50
136.14193220720301
 51
223.8580677927894
  0
CIRCLE
  5
D6
  8
DATA
  6
CONTINUOUS
 62
     7
 10
-184.99935780368389
 20
-25.999999999999918
 30
0.0
 40
89.399999999999949
  0
CIRCLE
  5
D7
  8
DATA
  6
CONTINUOUS
 62
     7
 10
-184.99935780368389
 20
-25.999999999999918
 30
0.0
 40
87.399999999999963
  0
ARC
  5
D8
  8
DATA
  6
CONTINUOUS
 62
     7
 10
-184.99935780368389
 20
-25.999999999999918
 30
0.0
 40
101.0000000000001
 50
46.857034853132042
 51
133.14296514686779
  0
ARC
  5
D9
  8
DATA
  6
CONTINUOUS
 62
     7
 10
-184.99935780368389
 20
-25.999999999999918
 30
0.0
 40
102.5
 50
45.51003502919999
 51
134.4899649707987
  0
ARC
  5
DA
  8
DATA
  6
CONTINUOUS
 62
     7
 10
-184.99935780368389
 20
-25.999999999999918
 30
0.0
 40
101.0
 50
226.85703485313491
 51
313.14296514686492
  0
ARC
  5
DB
  8
DATA
  6
CONTINUOUS
 62
     7
 10
-184.99935780368389
 20
-25.999999999999918
 30
0.0
 40
102.5
 50
225.5100350292102
 51
314.48996497079497
  0
ARC
  5
DC
  8
DATA
  6
CONTINUOUS
 62
     7
 10
-184.99935780368389
 20
-25.999999999999918
 30
0.0
 40
101.0
 50
317.48893203113118
 51
42.511067968866719
  0
ARC
  5
DD
  8
DATA
  6
CONTINUOUS
 62
     7
 10
-184.99935780368389
 20
-25.999999999999918
 30
0.0
 40
102.5000000000001
 50
316.14193220720091
 51
43.858067792798742
  0
CIRCLE
  5
DE
  8
DATA
  6
CONTINUOUS
 62
     7
 10
-184.99935780368389
 20
-25.999999999999918
 30
0.0
 40
24.696203530903411
  0
CIRCLE
  5
DF
  8
DATA
  6
CONTINUOUS
 62
     7
 10
-184.99935780368389
 20
-25.999999999999918
 30
0.0
 40
12.70000000000004
  0
LINE
  5
E0
  8
DATA
  6
CONTINUOUS
 62
     7
 10
-300.00000000055991
 20
-389.99999999935937
 30
0.0
 11
-300.00000000055991
 21
-469.99999999935909
 31
0.0
  0
ARC
  5
E1
  8
DATA
  6
CONTINUOUS
 62
     7
 10
-128.692792122751
 20
-470.88898576289353
 30
0.0
 40
171.30951452437969
 50
179.7026705664851
 51
224.91836925829799
  0
ARC
  5
E2
  8
DATA
  6
CONTINUOUS
 62
     7
 10
-184.99949999770311
 20
-502.5419119426752
 30
0.0
 40
110.4580880578152
 50
233.95238822240589
 51
306.04761177759372
  0
ARC
  5
E3
  8
DATA
  6
CONTINUOUS
 62
     7
 10
-241.68595354904701
 20
-470.73456825425808
 30
0.0
 40
171.6875249876193
 50
315.13462327816308
 51
0.2451418015460831
  0
LINE
  5
E4
  8
DATA
  6
CONTINUOUS
 62
     7
 10
-70.000000000560036
 20
-469.9999999993608
 30
0.0
 11
-70.000000000560036
 21
-389.99999999935937
 31
0.0
  0
ARC
  5
E5
  8
DATA
  6
CONTINUOUS
 62
     7
 10
-109.79114882442001
 20
-401.77897822284541
 30
0.0
 40
41.497949982039742
 50
16.48981041263557
 51
74.209224842859371
  0
ARC
  5
E6
  8
DATA
  6
CONTINUOUS
 62
     7
 10
-185.00000000055991
 20
-671.7188737873779
 30
0.0
 40
321.71887378801881
 50
74.402789743926434
 51
105.5972102560735
  0
ARC
  5
E7
  8
DATA
  6
CONTINUOUS
 62
     7
 10
-257.99768469092612
 20
-404.01728788833429
 30
0.0
 40
44.279553420652427
 50
107.7561879982063
 51
161.54477674629791
  0
LINE
  5
E8
  8
DATA
  6
CONTINUOUS
 62
     7
 10
400.0
 20
-188.0000000016463
 30
0.0
 11
400.0
 21
-200.0000000016463
 31
0.0
  0
LINE
  5
E9
  8
DATA
  6
CONTINUOUS
 62
     7
 10
400.0
 20
-200.0000000016463
 30
0.0
 11
630.00392747806416
 21
-200.0000000016463
 31
0.0
  0
LINE
  5
EA
  8
DATA
  6
CONTINUOUS
 62
     7
 10
630.00392747806416
 20
-200.0000000016463
 30
0.0
 11
630.00444285553215
 21
-188.0000000016463
 31
0.0
  0
LINE
  5
EB
  8
DATA
  6
CONTINUOUS
 62
     7
 10
630.00444285553215
 20
-188.0000000016463
 30
0.0
 11
400.0
 21
-188.0000000016463
 31
0.0
  0
LINE
  5
EC
  8
DATA
  6
CONTINUOUS
 62
     7
 10
400.00000000024392
 20
135.9999999983539
 30
0.0
 11
400.00230657715792
 21
-188.0000000016463
 31
0.0
  0
LINE
  5
ED
  8
DATA
  6
CONTINUOUS
 62
     7
 10
400.00230657715792
 20
-188.0000000016463
 30
0.0
 11
630.00393349628405
 21
-188.0000000016463
 31
0.0
  0
LINE
  5
EE
  8
DATA
  6
CONTINUOUS
 62
     7
 10
630.00393349628405
 20
-188.0000000016463
 30
0.0
 11
630.00230656233725
 21
135.9999999983539
 31
0.0
  0
LINE
  5
EF
  8
DATA
  6
CONTINUOUS
 62
     7
 10
630.00230656233725
 20
135.9999999983539
 30
0.0
 11
400.00000000024392
 21
135.9999999983539
 31
0.0
  0
LINE
  5
F0
  8
DATA
  6
CONTINUOUS
 62
     7
 10
400.0023065771569
 20
147.9999999983539
 30
0.0
 11
630.00230656233725
 21
147.9999999983539
 31
0.0
  0
LINE
  5
F1
  8
DATA
  6
CONTINUOUS
 62
     7
 10
630.00230656233725
 20
147.9999999983539
 30
0.0
 11
630.00230656233725
 21
135.9999999983539
 31
0.0
  0
LINE
  5
F2
  8
DATA
  6
CONTINUOUS
 62
     7
 10
630.00230656233725
 20
135.9999999983539
 30
0.0
 11
400.00230657715792
 21
135.9999999983539
 31
0.0
  0
LINE
  5
F3
  8
DATA
  6
CONTINUOUS
 62
     7
 10
400.00230657715792
 20
135.9999999983539
 30
0.0
 11
400.0023065771569
 21
147.9999999983539
 31
0.0
  0
LINE
  5
F4
  8
DATA
  6
CONTINUOUS
 62
     7
 10
-154.99949999770399
 20
-576.00000000049056
 30
0.0
 11
-214.99949999770399
 21
-576.00000000049079
 31
0.0
  0
ARC
  5
F5
  8
DATA
  6
CONTINUOUS
 62
     7
 10
-214.9994999977049
 20
-581.00000000049045
 30
0.0
 40
4.9999999999995444
 50
89.99999999999477
 51
180.0000000000052
  0
LINE
  5
F6
  8
DATA
  6
CONTINUOUS
 62
     7
 10
-219.99949999770399
 20
-581.00000000049101
 30
0.0
 11
-219.99949999770399
 21
-587.91740278924055
 31
0.0
  0
ARC
  5
F7
  8
DATA
  6
CONTINUOUS
 62
     7
 10
-211.9994999977049
 20
-587.91740278924101
 30
0.0
 40
7.9999999999995453
 50
179.9999999999975
 51
252.80319024831721
  0
ARC
  5
F8
  8
DATA
  6
CONTINUOUS
 62
     7
 10
-184.9994999977049
 20
-500.67730008602058
 30
0.0
 40
99.322699914470164
 50
252.80319024831451
 51
287.19680975168569
  0
ARC
  5
F9
  8
DATA
  6
CONTINUOUS
 62
     7
 10
-157.9994999977049
 20
-587.91740278924044
 30
0.0
 40
8.0000000000001883
 50
287.1968097516866
 51
0.0
  0
LINE
  5
FA
  8
DATA
  6
CONTINUOUS
 62
     7
 10
-149.99949999770399
 20
-587.91740278924044
 30
0.0
 11
-149.99949999770399
 21
-581.00000000049056
 31
0.0
  0
ARC
  5
FB
  8
DATA
  6
CONTINUOUS
 62
     7
 10
-154.99949999770399
 20
-581.00000000049045
 30
0.0
 40
4.9999999999997717
 50
359.99999999999869
 51
90.000000000002615
  0
LINE
  5
FC
  8
DATA
  6
CONTINUOUS
 62
     7
 10
540.96677267122516
 20
51.535533904285842
 30
0.0
 11
540.25966589003906
 21
52.242640685472992
 31
0.0
  0
ARC
  5
FD
  8
DATA
  6
CONTINUOUS
 62
     7
 10
544.50230657715815
 20
47.999999998353857
 30
0.0
 40
5.9999999999997451
 50
45.000000000000192
 51
134.9999999999998
  0
LINE
  5
FE
  8
DATA
  6
CONTINUOUS
 62
     7
 10
548.74494726427724
 20
52.242640685472992
 30
0.0
 11
548.03784048309114
 21
51.535533904285842
 31
0.0
  0
ARC
  5
FF
  8
DATA
  6
CONTINUOUS
 62
     7
 10
544.50230657715815
 20
47.999999998353857
 30
0.0
 40
4.9999999999998987
 50
314.99999999999972
 51
45.0
  0
LINE
  5
100
  8
DATA
  6
CONTINUOUS
 62
     7
 10
548.03784048309114
 20
44.464466092420722
 30
0.0
 11
548.74494726427724
 21
43.757359311234737
 31
0.0
  0
ARC
  5
101
  8
DATA
  6
CONTINUOUS
 62
     7
 10
544.50230657715815
 20
47.999999998353857
 30
0.0
 40
5.9999999999997451
 50
225.00000000000011
 51
314.99999999999972
  0
LINE
  5
102
  8
DATA
  6
CONTINUOUS
 62
     7
 10
540.25966589003906
 20
43.757359311234737
 30
0.0
 11
540.96677267122516
 21
44.464466092420722
 31
0.0
  0
ARC
  5
103
  8
DATA
  6
CONTINUOUS
 62
     7
 10
544.50230657715815
 20
47.999999998353857
 30
0.0
 40
4.9999999999998792
 50
135.0
 51
225.0000000000002
  0
LINE
  5
104
  8
DATA
  6
CONTINUOUS
 62
     7
 10
489.03784048309092
 20
51.535533904285842
 30
0.0
 11
489.7449472642769
 21
52.242640685472992
 31
0.0
  0
ARC
  5
105
  8
DATA
  6
CONTINUOUS
 62
     7
 10
485.5023065771577
 20
47.999999998353857
 30
0.0
 40
5.9999999999998259
 50
44.999999999999417
 51
134.9999999999998
  0
LINE
  5
106
  8
DATA
  6
CONTINUOUS
 62
     7
 10
481.25966589003878
 20
52.242640685472992
 30
0.0
 11
481.96677267122482
 21
51.535533904285842
 31
0.0
  0
ARC
  5
107
  8
DATA
  6
CONTINUOUS
 62
     7
 10
485.5023065771577
 20
47.999999998353857
 30
0.0
 40
4.9999999999998792
 50
135.0
 51
225.0000000000002
  0
LINE
  5
108
  8
DATA
  6
CONTINUOUS
 62
     7
 10
481.96677267122482
 20
44.464466092420722
 30
0.0
 11
481.25966589003878
 21
43.757359311234737
 31
0.0
  0
ARC
  5
109
  8
DATA
  6
CONTINUOUS
 62
     7
 10
485.5023065771577
 20
47.999999998353857
 30
0.0
 40
5.9999999999997451
 50
225.00000000000011
 51
315.00000000000063
  0
LINE
  5
10A
  8
DATA
  6
CONTINUOUS
 62
     7
 10
489.7449472642769
 20
43.757359311234737
 30
0.0
 11
489.03784048309092
 21
44.464466092420722
 31
0.0
  0
ARC
  5
10B
  8
DATA
  6
CONTINUOUS
 62
     7
 10
485.5023065771577
 20
47.999999998353857
 30
0.0
 40
4.9999999999998987
 50
314.99999999999972
 51
45.0
  0
LINE
  5
10C
  8
DATA
  6
CONTINUOUS
 62
     7
 10
460.50230657715798
 20
21.999999998352909
 30
0.0
 11
460.50230657715798
 21
73.999999998353886
 31
0.0
  0
ARC
  5
10D
  8
DATA
  6
CONTINUOUS
 62
     7
 10
465.5023065771577
 20
73.999999998353886
 30
0.0
 40
5.0
 50
90.0
 51
179.9999999999973
  0
LINE
  5
10E
  8
DATA
  6
CONTINUOUS
 62
     7
 10
465.5023065771577
 20
78.999999998353886
 30
0.0
 11
564.50230657715917
 21
78.999999998353886
 31
0.0
  0
ARC
  5
10F
  8
DATA
  6
CONTINUOUS
 62
     7
 10
564.50230657715917
 20
73.999999998354781
 30
0.0
 40
4.9999999999990896
 50
0.0
 51
90.0
  0
LINE
  5
110
  8
DATA
  6
CONTINUOUS
 62
     7
 10
569.50230657715815
 20
73.999999998354781
 30
0.0
 11
569.50230657715815
 21
21.999999998352909
 31
0.0
  0
ARC
  5
111
  8
DATA
  6
CONTINUOUS
 62
     7
 10
564.50230657715724
 20
21.999999998353811
 30
0.0
 40
5.0000000000006812
 50
270.00000000000779
 51
359.99999999999221
  0
LINE
  5
112
  8
DATA
  6
CONTINUOUS
 62
     7
 10
564.50230657715815
 20
16.999999998352902
 30
0.0
 11
465.5023065771569
 21
16.999999998353811
 31
0.0
  0
ARC
  5
113
  8
DATA
  6
CONTINUOUS
 62
     7
 10
465.50230657715588
 20
21.999999998351761
 30
0.0
 40
4.9999999999985212
 50
179.99999999998951
 51
270.00000000000529
  0
LINE
  5
114
  8
DATA
  6
CONTINUOUS
 62
     7
 10
-299.99338920632289
 20
148.00000000000011
 30
0.0
 11
-69.999357803683793
 21
148.00000000000011
 31
0.0
  0
LINE
  5
115
  8
DATA
  6
CONTINUOUS
 62
     7
 10
-69.999357803683793
 20
148.00000000000011
 30
0.0
 11
-69.997205772028352
 21
-200.0
 31
0.0
  0
LINE
  5
116
  8
DATA
  6
CONTINUOUS
 62
     7
 10
-69.997205772028352
 20
-200.0
 30
0.0
 11
-300.0
 21
-200.0
 31
0.0
  0
LINE
  5
117
  8
DATA
  6
CONTINUOUS
 62
     7
 10
-300.0
 20
-200.0
 30
0.0
 11
-299.99338920632289
 21
148.00000000000011
 31
0.0
  0
LINE
  5
118
  8
DATA
  6
CONTINUOUS
 62
     7
 10
-300.0
 20
-188.0
 30
0.0
 11
-69.997279988812366
 21
-187.9985776634071
 31
0.0
  0
CIRCLE
  5
119
  8
DATA
  6
CONTINUOUS
 62
     7
 10
-115.52611655210769
 20
-94.71123689805313
 30
0.0
 40
5.0
  0
CIRCLE
  5
11A
  8
DATA
  6
CONTINUOUS
 62
     7
 10
-254.47259905526519
 20
-94.71123689805313
 30
0.0
 40
5.0
  0
LINE
  5
11B
  8
DATA
  6
CONTINUOUS
 62
     7
 10
-187.16506351002101
 20
-547.74999999935915
 30
0.0
 11
-185.00000000055991
 21
-548.99999999935915
 31
0.0
  0
LINE
  5
11C
  8
DATA
  6
CONTINUOUS
 62
     7
 10
-185.00000000055991
 20
-548.99999999935915
 30
0.0
 11
-182.834936491099
 21
-547.74999999935915
 31
0.0
  0
LINE
  5
11D
  8
DATA
  6
CONTINUOUS
 62
     7
 10
-182.834936491099
 20
-547.74999999935915
 30
0.0
 11
-182.834936491099
 21
-545.24999999935915
 31
0.0
  0
LINE
  5
11E
  8
DATA
  6
CONTINUOUS
 62
     7
 10
-182.834936491099
 20
-545.24999999935915
 30
0.0
 11
-185.00000000055991
 21
-543.99999999935926
 31
0.0
  0
LINE
  5
11F
  8
DATA
  6
CONTINUOUS
 62
     7
 10
-185.00000000055991
 20
-543.99999999935926
 30
0.0
 11
-187.16506351002101
 21
-545.24999999935915
 31
0.0
  0
LINE
  5
120
  8
DATA
  6
CONTINUOUS
 62
     7
 10
-187.16506351002101
 20
-545.24999999935915
 30
0.0
 11
-187.16506351002101
 21
-547.74999999935915
 31
0.0
  0
LINE
  5
121
  8
DATA
  6
CONTINUOUS
 62
     7
 10
-187.16506351002101
 20
-484.2499999993592
 30
0.0
 11
-185.00000000055991
 21
-485.4999999993592
 31
0.0
  0
LINE
  5
122
  8
DATA
  6
CONTINUOUS
 62
     7
 10
-185.00000000055991
 20
-485.4999999993592
 30
0.0
 11
-182.834936491099
 21
-484.2499999993592
 31
0.0
  0
LINE
  5
123
  8
DATA
  6
CONTINUOUS
 62
     7
 10
-182.834936491099
 20
-484.2499999993592
 30
0.0
 11
-182.834936491099
 21
-481.7499999993592
 31
0.0
  0
LINE
  5
124
  8
DATA
  6
CONTINUOUS
 62
     7
 10
-182.834936491099
 20
-481.7499999993592
 30
0.0
 11
-185.00000000055991
 21
-480.49999999935937
 31
0.0
  0
LINE
  5
125
  8
DATA
  6
CONTINUOUS
 62
     7
 10
-185.00000000055991
 20
-480.49999999935937
 30
0.0
 11
-187.16506351002101
 21
-481.7499999993592
 31
0.0
  0
LINE
  5
126
  8
DATA
  6
CONTINUOUS
 62
     7
 10
-187.16506351002101
 20
-481.7499999993592
 30
0.0
 11
-187.16506351002101
 21
-484.2499999993592
 31
0.0
  0
LINE
  5
127
  8
DATA
  6
CONTINUOUS
 62
     7
 10
-186.50000000055991
 20
-371.90192378800629
 30
0.0
 11
-188.00000000055991
 21
-374.49999999935949
 31
0.0
  0
LINE
  5
128
  8
DATA
  6
CONTINUOUS
 62
     7
 10
-188.00000000055991
 20
-374.49999999935949
 30
0.0
 11
-186.50000000055991
 21
-377.09807621071229
 31
0.0
  0
LINE
  5
129
  8
DATA
  6
CONTINUOUS
 62
     7
 10
-186.50000000055991
 20
-377.09807621071229
 30
0.0
 11
-183.50000000055991
 21
-377.09807621071229
 31
0.0
  0
LINE
  5
12A
  8
DATA
  6
CONTINUOUS
 62
     7
 10
-183.50000000055991
 20
-377.09807621071229
 30
0.0
 11
-182.00000000055991
 21
-374.49999999935949
 31
0.0
  0
LINE
  5
12B
  8
DATA
  6
CONTINUOUS
 62
     7
 10
-182.00000000055991
 20
-374.49999999935949
 30
0.0
 11
-183.50000000055991
 21
-371.90192378800629
 31
0.0
  0
LINE
  5
12C
  8
DATA
  6
CONTINUOUS
 62
     7
 10
-183.50000000055991
 20
-371.90192378800629
 30
0.0
 11
-186.50000000055991
 21
-371.90192378800629
 31
0.0
  0
LINE
  5
12D
  8
DATA
  6
CONTINUOUS
 62
     7
 10
-187.16506351002101
 20
-420.7499999993592
 30
0.0
 11
-185.00000000055991
 21
-421.9999999993592
 31
0.0
  0
LINE
  5
12E
  8
DATA
  6
CONTINUOUS
 62
     7
 10
-185.00000000055991
 20
-421.9999999993592
 30
0.0
 11
-182.834936491099
 21
-420.7499999993592
 31
0.0
  0
LINE
  5
12F
  8
DATA
  6
CONTINUOUS
 62
     7
 10
-182.834936491099
 20
-420.7499999993592
 30
0.0
 11
-182.834936491099
 21
-418.2499999993592
 31
0.0
  0
LINE
  5
130
  8
DATA
  6
CONTINUOUS
 62
     7
 10
-182.834936491099
 20
-418.2499999993592
 30
0.0
 11
-185.00000000055991
 21
-416.99999999935932
 31
0.0
  0
LINE
  5
131
  8
DATA
  6
CONTINUOUS
 62
     7
 10
-185.00000000055991
 20
-416.99999999935932
 30
0.0
 11
-187.16506351002101
 21
-418.2499999993592
 31
0.0
  0
LINE
  5
132
  8
DATA
  6
CONTINUOUS
 62
     7
 10
-187.16506351002101
 20
-418.2499999993592
 30
0.0
 11
-187.16506351002101
 21
-420.7499999993592
 31
0.0
  0
LINE
  5
133
  8
DATA
  6
CONTINUOUS
 62
     7
 10
480.0023065771577
 20
-188.0000000016463
 30
0.0
 11
480.0023065771577
 21
-164.0000000016463
 31
0.0
  0
ARC
  5
134
  8
DATA
  6
CONTINUOUS
 62
     7
 10
490.00230657715798
 20
-164.00000000164721
 30
0.0
 40
10.000000000000449
 50
90.000000000002615
 51
179.9999999999973
  0
LINE
  5
135
  8
DATA
  6
CONTINUOUS
 62
     7
 10
490.00230657715798
 20
-154.0000000016463
 30
0.0
 11
540.00230657715815
 21
-154.0000000016463
 31
0.0
  0
ARC
  5
136
  8
DATA
  6
CONTINUOUS
 62
     7
 10
540.00230657715724
 20
-164.0000000016463
 30
0.0
 40
10.000000000000229
 50
0.0000000000013074
 51
89.999999999998664
  0
LINE
  5
137
  8
DATA
  6
CONTINUOUS
 62
     7
 10
550.00230657715815
 20
-164.0000000016463
 30
0.0
 11
550.00280658001429
 21
-188.0000000016463
 31
0.0
  0
LINE
  5
138
  8
DATA
  6
CONTINUOUS
 62
     7
 10
488.83891015820598
 20
-142.7500000016463
 30
0.0
 11
491.00397366766799
 21
-144.0000000016463
 31
0.0
  0
LINE
  5
139
  8
DATA
  6
CONTINUOUS
 62
     7
 10
491.00397366766799
 20
-144.0000000016463
 30
0.0
 11
493.16903717712881
 21
-142.7500000016463
 31
0.0
  0
LINE
  5
13A
  8
DATA
  6
CONTINUOUS
 62
     7
 10
493.16903717712881
 20
-142.7500000016463
 30
0.0
 11
493.16903717712881
 21
-140.2500000016463
 31
0.0
  0
LINE
  5
13B
  8
DATA
  6
CONTINUOUS
 62
     7
 10
493.16903717712881
 20
-140.2500000016463
 30
0.0
 11
491.00397366766799
 21
-139.0000000016463
 31
0.0
  0
LINE
  5
13C
  8
DATA
  6
CONTINUOUS
 62
     7
 10
491.00397366766799
 20
-139.0000000016463
 30
0.0
 11
488.83891015820598
 21
-140.2500000016463
 31
0.0
  0
LINE
  5
13D
  8
DATA
  6
CONTINUOUS
 62
     7
 10
488.83891015820598
 20
-140.2500000016463
 30
0.0
 11
488.83891015820598
 21
-142.7500000016463
 31
0.0
  0
LINE
  5
13E
  8
DATA
  6
CONTINUOUS
 62
     7
 10
536.83891015820632
 20
-142.7500000016463
 30
0.0
 11
539.0039736676672
 21
-144.0000000016463
 31
0.0
  0
LINE
  5
13F
  8
DATA
  6
CONTINUOUS
 62
     7
 10
539.0039736676672
 20
-144.0000000016463
 30
0.0
 11
541.16903717712819
 21
-142.7500000016463
 31
0.0
  0
LINE
  5
140
  8
DATA
  6
CONTINUOUS
 62
     7
 10
541.16903717712819
 20
-142.7500000016463
 30
0.0
 11
541.16903717712819
 21
-140.2500000016463
 31
0.0
  0
LINE
  5
141
  8
DATA
  6
CONTINUOUS
 62
     7
 10
541.16903717712819
 20
-140.2500000016463
 30
0.0
 11
539.0039736676672
 21
-139.0000000016463
 31
0.0
  0
LINE
  5
142
  8
DATA
  6
CONTINUOUS
 62
     7
 10
539.0039736676672
 20
-139.0000000016463
 30
0.0
 11
536.83891015820632
 21
-140.2500000016463
 31
0.0
  0
LINE
  5
143
  8
DATA
  6
CONTINUOUS
 62
     7
 10
536.83891015820632
 20
-140.2500000016463
 30
0.0
 11
536.83891015820632
 21
-142.7500000016463
 31
0.0
  0
LINE
  5
144
  8
DATA
  6
CONTINUOUS
 62
     7
 10
488.83891015820598
 20
-79.750000001646299
 30
0.0
 11
491.00397366766799
 21
-81.000000001646299
 31
0.0
  0
LINE
  5
145
  8
DATA
  6
CONTINUOUS
 62
     7
 10
491.00397366766799
 20
-81.000000001646299
 30
0.0
 11
493.16903717712881
 21
-79.750000001646299
 31
0.0
  0
LINE
  5
146
  8
DATA
  6
CONTINUOUS
 62
     7
 10
493.16903717712881
 20
-79.750000001646299
 30
0.0
 11
493.16903717712881
 21
-77.250000001646299
 31
0.0
  0
LINE
  5
147
  8
DATA
  6
CONTINUOUS
 62
     7
 10
493.16903717712881
 20
-77.250000001646299
 30
0.0
 11
491.00397366766799
 21
-76.000000001646299
 31
0.0
  0
LINE
  5
148
  8
DATA
  6
CONTINUOUS
 62
     7
 10
491.00397366766799
 20
-76.000000001646299
 30
0.0
 11
488.83891015820598
 21
-77.250000001646299
 31
0.0
  0
LINE
  5
149
  8
DATA
  6
CONTINUOUS
 62
     7
 10
488.83891015820598
 20
-77.250000001646299
 30
0.0
 11
488.83891015820598
 21
-79.750000001646299
 31
0.0
  0
LINE
  5
14A
  8
DATA
  6
CONTINUOUS
 62
     7
 10
536.83891015820632
 20
-79.750000001646299
 30
0.0
 11
539.0039736676672
 21
-81.000000001646299
 31
0.0
  0
LINE
  5
14B
  8
DATA
  6
CONTINUOUS
 62
     7
 10
539.0039736676672
 20
-81.000000001646299
 30
0.0
 11
541.16903717712819
 21
-79.750000001646299
 31
0.0
  0
LINE
  5
14C
  8
DATA
  6
CONTINUOUS
 62
     7
 10
541.16903717712819
 20
-79.750000001646299
 30
0.0
 11
541.16903717712819
 21
-77.250000001646299
 31
0.0
  0
LINE
  5
14D
  8
DATA
  6
CONTINUOUS
 62
     7
 10
541.16903717712819
 20
-77.250000001646299
 30
0.0
 11
539.0039736676672
 21
-76.000000001646299
 31
0.0
  0
LINE
  5
14E
  8
DATA
  6
CONTINUOUS
 62
     7
 10
539.0039736676672
 20
-76.000000001646299
 30
0.0
 11
536.83891015820632
 21
-77.250000001646299
 31
0.0
  0
LINE
  5
14F
  8
DATA
  6
CONTINUOUS
 62
     7
 10
536.83891015820632
 20
-77.250000001646299
 30
0.0
 11
536.83891015820632
 21
-79.750000001646299
 31
0.0
  0
CIRCLE
  5
150
  8
DATA
  6
CONTINUOUS
 62
     7
 10
-115.52611655210519
 20
42.711236898048007
 30
0.0
 40
5.0
  0
LINE
  5
151
  8
DATA
  6
CONTINUOUS
 62
     7
 10
-287.99935780368372
 20
136.00000000000011
 30
0.0
 11
-287.99935780368372
 21
116.0000000000001
 31
0.0
  0
LINE
  5
152
  8
DATA
  6
CONTINUOUS
 62
     7
 10
-287.99935780368372
 20
116.0000000000001
 30
0.0
 11
-81.999357803683793
 21
116.0000000000001
 31
0.0
  0
LINE
  5
153
  8
DATA
  6
CONTINUOUS
 62
     7
 10
-81.999357803683793
 20
116.0000000000001
 30
0.0
 11
-81.999357803683793
 21
136.00000000000011
 31
0.0
  0
LINE
  5
154
  8
DATA
  6
CONTINUOUS
 62
     7
 10
-81.999357803683793
 20
136.00000000000011
 30
0.0
 11
-287.99935780368372
 21
136.00000000000011
 31
0.0
  0
LINE
  5
155
  8
DATA
  6
CONTINUOUS
 62
     7
 10
-300.0
 20
136.00000000000011
 30
0.0
 11
-69.999357803683793
 21
136.00000000000011
 31
0.0
  0
CIRCLE
  5
156
  8
DATA
  6
CONTINUOUS
 62
     7
 10
-254.47259905526241
 20
42.711236898048007
 30
0.0
 40
5.0
  0
LINE
  5
157
  8
DATA
  6
CONTINUOUS
 62
     7
 10
480.0023065771577
 20
135.9999999983539
 30
0.0
 11
480.0023065771577
 21
111.9999999983538
 31
0.0
  0
ARC
  5
158
  8
DATA
  6
CONTINUOUS
 62
     7
 10
490.0023065771569
 20
111.9999999983538
 30
0.0
 40
9.9999999999998863
 50
179.99999999999869
 51
270.00000000000131
  0
LINE
  5
159
  8
DATA
  6
CONTINUOUS
 62
     7
 10
490.00230657715798
 20
101.9999999983539
 30
0.0
 11
540.00230657715815
 21
101.9999999983539
 31
0.0
  0
ARC
  5
15A
  8
DATA
  6
CONTINUOUS
 62
     7
 10
540.00230657715724
 20
111.9999999983538
 30
0.0
 40
10.000000000000201
 50
270.00000000000261
 51
359.99999999999869
  0
LINE
  5
15B
  8
DATA
  6
CONTINUOUS
 62
     7
 10
550.00230657715815
 20
111.9999999983538
 30
0.0
 11
550.00280658001429
 21
135.9999999983539
 31
0.0
  0
LINE
  5
15C
  8
DATA
  6
CONTINUOUS
 62
     7
 10
-255.01180539922919
 20
-92.698891426618047
 30
0.0
 11
-252.99945992779359
 21
-93.238097770580907
 31
0.0
  0
LINE
  5
15D
  8
DATA
  6
CONTINUOUS
 62
     7
 10
-252.99945992779359
 20
-93.238097770580907
 30
0.0
 11
-252.4602535838298
 21
-95.250443242017113
 31
0.0
  0
LINE
  5
15E
  8
DATA
  6
CONTINUOUS
 62
     7
 10
-252.4602535838298
 20
-95.250443242017113
 30
0.0
 11
-253.93339271130171
 21
-96.723582369489122
 31
0.0
  0
LINE
  5
15F
  8
DATA
  6
CONTINUOUS
 62
     7
 10
-253.93339271130171
 20
-96.723582369489122
 30
0.0
 11
-255.9457381827369
 21
-96.184376025525125
 31
0.0
  0
LINE
  5
160
  8
DATA
  6
CONTINUOUS
 62
     7
 10
-255.9457381827369
 20
-96.184376025525125
 30
0.0
 11
-256.48494452670087
 21
-94.172030554090043
 31
0.0
  0
LINE
  5
161
  8
DATA
  6
CONTINUOUS
 62
     7
 10
-256.48494452670087
 20
-94.172030554090043
 30
0.0
 11
-255.01180539922919
 21
-92.698891426618047
 31
0.0
  0
LINE
  5
162
  8
DATA
  6
CONTINUOUS
 62
     7
 10
-116.06532289607171
 20
-92.698891426618047
 30
0.0
 11
-114.0529774246362
 21
-93.238097770580907
 31
0.0
  0
LINE
  5
163
  8
DATA
  6
CONTINUOUS
 62
     7
 10
-114.0529774246362
 20
-93.238097770580907
 30
0.0
 11
-113.5137710806724
 21
-95.250443242017113
 31
0.0
  0
LINE
  5
164
  8
DATA
  6
CONTINUOUS
 62
     7
 10
-113.5137710806724
 20
-95.250443242017113
 30
0.0
 11
-114.98691020814439
 21
-96.723582369489122
 31
0.0
  0
LINE
  5
165
  8
DATA
  6
CONTINUOUS
 62
     7
 10
-114.98691020814439
 20
-96.723582369489122
 30
0.0
 11
-116.9992556795798
 21
-96.184376025525125
 31
0.0
  0
LINE
  5
166
  8
DATA
  6
CONTINUOUS
 62
     7
 10
-116.9992556795798
 20
-96.184376025525125
 30
0.0
 11
-117.5384620235437
 21
-94.172030554090043
 31
0.0
  0
LINE
  5
167
  8
DATA
  6
CONTINUOUS
 62
     7
 10
-117.5384620235437
 20
-94.172030554090043
 30
0.0
 11
-116.06532289607171
 21
-92.698891426618047
 31
0.0
  0
LINE
  5
168
  8
DATA
  6
CONTINUOUS
 62
     7
 10
-255.01180539922649
 20
40.698891426612008
 30
0.0
 11
-252.9994599277907
 21
41.238097770575997
 31
0.0
  0
LINE
  5
169
  8
DATA
  6
CONTINUOUS
 62
     7
 10
-252.9994599277907
 20
41.238097770575997
 30
0.0
 11
-252.46025358382721
 21
43.250443242011997
 31
0.0
  0
LINE
  5
16A
  8
DATA
  6
CONTINUOUS
 62
     7
 10
-252.46025358382721
 20
43.250443242011997
 30
0.0
 11
-253.93339271129929
 21
44.723582369484006
 31
0.0
  0
LINE
  5
16B
  8
DATA
  6
CONTINUOUS
 62
     7
 10
-253.93339271129929
 20
44.723582369484006
 30
0.0
 11
-255.9457381827346
 21
44.18437602552001
 31
0.0
  0
LINE
  5
16C
  8
DATA
  6
CONTINUOUS
 62
     7
 10
-255.9457381827346
 20
44.18437602552001
 30
0.0
 11
-256.4849445266986
 21
42.17203055408401
 31
0.0
  0
LINE
  5
16D
  8
DATA
  6
CONTINUOUS
 62
     7
 10
-256.4849445266986
 20
42.17203055408401
 30
0.0
 11
-255.01180539922649
 21
40.698891426612008
 31
0.0
  0
LINE
  5
16E
  8
DATA
  6
CONTINUOUS
 62
     7
 10
-116.0653228960692
 20
40.698891426612008
 30
0.0
 11
-114.0529774246332
 21
41.238097770575997
 31
0.0
  0
LINE
  5
16F
  8
DATA
  6
CONTINUOUS
 62
     7
 10
-114.0529774246332
 20
41.238097770575997
 30
0.0
 11
-113.5137710806699
 21
43.250443242011102
 31
0.0
  0
LINE
  5
170
  8
DATA
  6
CONTINUOUS
 62
     7
 10
-113.5137710806699
 20
43.250443242011102
 30
0.0
 11
-114.98691020814201
 21
44.723582369484006
 31
0.0
  0
LINE
  5
171
  8
DATA
  6
CONTINUOUS
 62
     7
 10
-114.98691020814201
 20
44.723582369484006
 30
0.0
 11
-116.9992556795773
 21
44.18437602552001
 31
0.0
  0
LINE
  5
172
  8
DATA
  6
CONTINUOUS
 62
     7
 10
-116.9992556795773
 20
44.18437602552001
 30
0.0
 11
-117.5384620235413
 21
42.17203055408401
 31
0.0
  0
LINE
  5
173
  8
DATA
  6
CONTINUOUS
 62
     7
 10
-117.5384620235413
 20
42.17203055408401
 30
0.0
 11
-116.0653228960692
 21
40.698891426612008
 31
0.0
  0
LINE
  5
174
  8
DATA
  6
CONTINUOUS
 62
     7
 10
502.605640758177
 20
-8.0000000016470967
 30
0.0
 11
527.40564075817713
 21
-8.0000000016470967
 31
0.0
  0
POLYLINE
  5
175
  8
DATA
  6
CONTINUOUS
 62
     7
 66
     1
 10
0.0
 20
0.0
 30
0.0
 70
   128
  0
VERTEX
  5
274
  8
DATA
  6
CONTINUOUS
 62
     7
 10
502.605640758177
 20
-8.0000000016470967
 30
0.0
  0
VERTEX
  5
275
  8
DATA
  6
CONTINUOUS
 62
     7
 10
527.40564075817713
 20
-8.0000000016470967
 30
0.0
  0
VERTEX
  5
276
  8
DATA
  6
CONTINUOUS
 62
     7
 10
527.40564075817713
 20
-8.0000000016470967
 30
0.0
 42
-0.4142135623730736
  0
VERTEX
  5
277
  8
DATA
  6
CONTINUOUS
 62
     7
 10
530.50564075817692
 20
-11.10000000164723
 30
0.0
  0
VERTEX
  5
278
  8
DATA
  6
CONTINUOUS
 62
     7
 10
530.50564075817692
 20
-45.900000001647179
 30
0.0
  0
VERTEX
  5
279
  8
DATA
  6
CONTINUOUS
 62
     7
 10
530.50564075817692
 20
-45.900000001647179
 30
0.0
 42
-0.4142135623730092
  0
VERTEX
  5
27A
  8
DATA
  6
CONTINUOUS
 62
     7
 10
527.40564075817611
 20
-49.000000001647102
 30
0.0
  0
VERTEX
  5
27B
  8
DATA
  6
CONTINUOUS
 62
     7
 10
502.605640758177
 20
-49.000000001647102
 30
0.0
  0
VERTEX
  5
27C
  8
DATA
  6
CONTINUOUS
 62
     7
 10
502.6056407581749
 20
-49.000000001647102
 30
0.0
 42
-0.4142135623730092
  0
VERTEX
  5
27D
  8
DATA
  6
CONTINUOUS
 62
     7
 10
499.50564075817692
 20
-45.900000001647179
 30
0.0
  0
VERTEX
  5
27E
  8
DATA
  6
CONTINUOUS
 62
     7
 10
499.5056407581759
 20
-11.10000000164723
 30
0.0
  0
VERTEX
  5
27F
  8
DATA
  6
CONTINUOUS
 62
     7
 10
499.5056407581759
 20
-11.10000000164723
 30
0.0
 42
-0.4142135623730092
  0
VERTEX
  5
280
  8
DATA
  6
CONTINUOUS
 62
     7
 10
502.605640758177
 20
-8.0000000016470967
 30
0.0
  0
SEQEND
  5
281
  8
DATA
  6
CONTINUOUS
 62
     7
  0
CIRCLE
  5
184
  8
DATA
  6
CONTINUOUS
 62
     7
 10
-184.99999999968281
 20
324.50000000000051
 30
0.0
 40
6.0
  0
CIRCLE
  5
185
  8
DATA
  6
CONTINUOUS
 62
     7
 10
-184.99999999968281
 20
324.50000000000051
 30
0.0
 40
5.0
  0
CIRCLE
  5
186
  8
DATA
  6
CONTINUOUS
 62
     7
 10
-106.9999999996829
 20
388.00000000000023
 30
0.0
 40
6.0
  0
CIRCLE
  5
187
  8
DATA
  6
CONTINUOUS
 62
     7
 10
-262.99999999968458
 20
387.99999999999773
 30
0.0
 40
6.0000000000001128
  0
CIRCLE
  5
188
  8
DATA
  6
CONTINUOUS
 62
     7
 10
-184.99999999968341
 20
369.50000000000023
 30
0.0
 40
6.0
  0
CIRCLE
  5
189
  8
DATA
  6
CONTINUOUS
 62
     7
 10
-184.99999999968281
 20
433.00000000000011
 30
0.0
 40
6.0
  0
CIRCLE
  5
18A
  8
DATA
  6
CONTINUOUS
 62
     7
 10
-184.99999999968281
 20
496.50000000000023
 30
0.0
 40
6.0
  0
LINE
  5
18B
  8
DATA
  6
CONTINUOUS
 62
     7
 10
-154.9994999968269
 20
526.00000000113164
 30
0.0
 11
-214.9994999968269
 21
526.00000000113187
 31
0.0
  0
ARC
  5
18C
  8
DATA
  6
CONTINUOUS
 62
     7
 10
-214.9994999968275
 20
531.00000000113141
 30
0.0
 40
4.9999999999995444
 50
179.9999999999948
 51
270.00000000000517
  0
LINE
  5
18D
  8
DATA
  6
CONTINUOUS
 62
     7
 10
-219.99949999682701
 20
531.00000000113198
 30
0.0
 11
-219.99949999682701
 21
537.91740278988163
 31
0.0
  0
ARC
  5
18E
  8
DATA
  6
CONTINUOUS
 62
     7
 10
-211.99949999682761
 20
537.91740278988186
 30
0.0
 40
7.9999999999995497
 50
107.19680975168281
 51
180.0000000000023
  0
ARC
  5
18F
  8
DATA
  6
CONTINUOUS
 62
     7
 10
-184.99949999682721
 20
450.6773000866616
 30
0.0
 40
99.322699914470064
 50
72.803190248314294
 51
107.19680975168539
  0
ARC
  5
190
  8
DATA
  6
CONTINUOUS
 62
     7
 10
-157.99949999682721
 20
537.91740278988129
 30
0.0
 40
8.0000000000002274
 50
0.0
 51
72.803190248313456
  0
LINE
  5
191
  8
DATA
  6
CONTINUOUS
 62
     7
 10
-149.9994999968269
 20
537.91740278988129
 30
0.0
 11
-149.9994999968269
 21
531.00000000113164
 31
0.0
  0
ARC
  5
192
  8
DATA
  6
CONTINUOUS
 62
     7
 10
-154.99949999682681
 20
531.00000000113141
 30
0.0
 40
4.9999999999998863
 50
269.99999999999869
 51
0.0000000000013642
  0
LINE
  5
193
  8
DATA
  6
CONTINUOUS
 62
     7
 10
-299.99999999968429
 20
340.0000000000004
 30
0.0
 11
-299.99999999968429
 21
420.00000000000011
 31
0.0
  0
ARC
  5
194
  8
DATA
  6
CONTINUOUS
 62
     7
 10
-128.69279212187371
 20
420.88898576353449
 30
0.0
 40
171.30951452437969
 50
135.08163074170201
 51
180.2973294335149
  0
ARC
  5
195
  8
DATA
  6
CONTINUOUS
 62
     7
 10
-184.9994999968259
 20
452.54191194331628
 30
0.0
 40
110.4580880578152
 50
53.952388222406171
 51
126.0476117775944
  0
ARC
  5
196
  8
DATA
  6
CONTINUOUS
 62
     7
 10
-241.68595354817
 20
420.73456825489922
 30
0.0
 40
171.68752498761879
 50
359.7548581984538
 51
44.865376721836917
  0
LINE
  5
197
  8
DATA
  6
CONTINUOUS
 62
     7
 10
-69.99999999968334
 20
420.00000000000171
 30
0.0
 11
-69.99999999968334
 21
340.0000000000004
 31
0.0
  0
ARC
  5
198
  8
DATA
  6
CONTINUOUS
 62
     7
 10
-109.7911488235423
 20
351.77897822348638
 30
0.0
 40
41.497949982039643
 50
285.79077515714039
 51
343.51018958736432
  0
ARC
  5
199
  8
DATA
  6
CONTINUOUS
 62
     7
 10
-184.99999999968281
 20
621.71887378801898
 30
0.0
 40
321.71887378801921
 50
254.40278974392641
 51
285.59721025607348
  0
ARC
  5
19A
  8
DATA
  6
CONTINUOUS
 62
     7
 10
-257.99768469004891
 20
354.01728788897537
 30
0.0
 40
44.279553420653201
 50
198.45522325370169
 51
252.24381200179329
  0
LINE
  5
19B
  8
DATA
  6
CONTINUOUS
 62
     7
 10
-182.83493649022171
 20
497.75000000000011
 30
0.0
 11
-184.99999999968281
 21
499.00000000000011
 31
0.0
  0
LINE
  5
19C
  8
DATA
  6
CONTINUOUS
 62
     7
 10
-184.99999999968281
 20
499.00000000000011
 30
0.0
 11
-187.16506350914389
 21
497.75000000000011
 31
0.0
  0
LINE
  5
19D
  8
DATA
  6
CONTINUOUS
 62
     7
 10
-187.16506350914389
 20
497.75000000000011
 30
0.0
 11
-187.16506350914389
 21
495.25000000000011
 31
0.0
  0
LINE
  5
19E
  8
DATA
  6
CONTINUOUS
 62
     7
 10
-187.16506350914389
 20
495.25000000000011
 30
0.0
 11
-184.99999999968281
 21
494.00000000000023
 31
0.0
  0
LINE
  5
19F
  8
DATA
  6
CONTINUOUS
 62
     7
 10
-184.99999999968281
 20
494.00000000000023
 30
0.0
 11
-182.83493649022171
 21
495.25000000000011
 31
0.0
  0
LINE
  5
1A0
  8
DATA
  6
CONTINUOUS
 62
     7
 10
-182.83493649022171
 20
495.25000000000011
 30
0.0
 11
-182.83493649022171
 21
497.75000000000011
 31
0.0
  0
LINE
  5
1A1
  8
DATA
  6
CONTINUOUS
 62
     7
 10
-182.83493649022171
 20
434.25000000000023
 30
0.0
 11
-184.99999999968281
 21
435.50000000000023
 31
0.0
  0
LINE
  5
1A2
  8
DATA
  6
CONTINUOUS
 62
     7
 10
-184.99999999968281
 20
435.50000000000023
 30
0.0
 11
-187.16506350914389
 21
434.25000000000023
 31
0.0
  0
LINE
  5
1A3
  8
DATA
  6
CONTINUOUS
 62
     7
 10
-187.16506350914389
 20
434.25000000000023
 30
0.0
 11
-187.16506350914389
 21
431.75000000000023
 31
0.0
  0
LINE
  5
1A4
  8
DATA
  6
CONTINUOUS
 62
     7
 10
-187.16506350914389
 20
431.75000000000023
 30
0.0
 11
-184.99999999968281
 21
430.5000000000004
 31
0.0
  0
LINE
  5
1A5
  8
DATA
  6
CONTINUOUS
 62
     7
 10
-184.99999999968281
 20
430.5000000000004
 30
0.0
 11
-182.83493649022171
 21
431.75000000000023
 31
0.0
  0
LINE
  5
1A6
  8
DATA
  6
CONTINUOUS
 62
     7
 10
-182.83493649022171
 20
431.75000000000023
 30
0.0
 11
-182.83493649022171
 21
434.25000000000023
 31
0.0
  0
LINE
  5
1A7
  8
DATA
  6
CONTINUOUS
 62
     7
 10
-104.83493649022191
 20
389.25000000000023
 30
0.0
 11
-106.9999999996829
 21
390.50000000000023
 31
0.0
  0
LINE
  5
1A8
  8
DATA
  6
CONTINUOUS
 62
     7
 10
-106.9999999996829
 20
390.50000000000023
 30
0.0
 11
-109.16506350914401
 21
389.25000000000023
 31
0.0
  0
LINE
  5
1A9
  8
DATA
  6
CONTINUOUS
 62
     7
 10
-109.16506350914401
 20
389.25000000000023
 30
0.0
 11
-109.16506350914401
 21
386.7500000000004
 31
0.0
  0
LINE
  5
1AA
  8
DATA
  6
CONTINUOUS
 62
     7
 10
-109.16506350914401
 20
386.7500000000004
 30
0.0
 11
-106.9999999996829
 21
385.50000000000023
 31
0.0
  0
LINE
  5
1AB
  8
DATA
  6
CONTINUOUS
 62
     7
 10
-106.9999999996829
 20
385.50000000000023
 30
0.0
 11
-104.83493649022191
 21
386.7500000000004
 31
0.0
  0
LINE
  5
1AC
  8
DATA
  6
CONTINUOUS
 62
     7
 10
-104.83493649022191
 20
386.7500000000004
 30
0.0
 11
-104.83493649022191
 21
389.25000000000023
 31
0.0
  0
LINE
  5
1AD
  8
DATA
  6
CONTINUOUS
 62
     7
 10
-182.8349364902223
 20
370.75000000000023
 30
0.0
 11
-184.99999999968341
 21
372.00000000000023
 31
0.0
  0
LINE
  5
1AE
  8
DATA
  6
CONTINUOUS
 62
     7
 10
-184.99999999968341
 20
372.00000000000023
 30
0.0
 11
-187.1650635091444
 21
370.75000000000023
 31
0.0
  0
LINE
  5
1AF
  8
DATA
  6
CONTINUOUS
 62
     7
 10
-187.1650635091444
 20
370.75000000000023
 30
0.0
 11
-187.1650635091444
 21
368.25000000000023
 31
0.0
  0
LINE
  5
1B0
  8
DATA
  6
CONTINUOUS
 62
     7
 10
-187.1650635091444
 20
368.25000000000023
 30
0.0
 11
-184.99999999968341
 21
367.0000000000004
 31
0.0
  0
LINE
  5
1B1
  8
DATA
  6
CONTINUOUS
 62
     7
 10
-184.99999999968341
 20
367.0000000000004
 30
0.0
 11
-182.8349364902223
 21
368.25000000000023
 31
0.0
  0
LINE
  5
1B2
  8
DATA
  6
CONTINUOUS
 62
     7
 10
-182.8349364902223
 20
368.25000000000023
 30
0.0
 11
-182.8349364902223
 21
370.75000000000023
 31
0.0
  0
LINE
  5
1B3
  8
DATA
  6
CONTINUOUS
 62
     7
 10
-186.4999999996829
 20
321.90192378864742
 30
0.0
 11
-187.9999999996829
 21
324.50000000000051
 31
0.0
  0
LINE
  5
1B4
  8
DATA
  6
CONTINUOUS
 62
     7
 10
-187.9999999996829
 20
324.50000000000051
 30
0.0
 11
-186.4999999996829
 21
327.09807621135337
 31
0.0
  0
LINE
  5
1B5
  8
DATA
  6
CONTINUOUS
 62
     7
 10
-186.4999999996829
 20
327.09807621135337
 30
0.0
 11
-183.4999999996829
 21
327.09807621135337
 31
0.0
  0
LINE
  5
1B6
  8
DATA
  6
CONTINUOUS
 62
     7
 10
-183.4999999996829
 20
327.09807621135337
 30
0.0
 11
-181.9999999996829
 21
324.50000000000051
 31
0.0
  0
LINE
  5
1B7
  8
DATA
  6
CONTINUOUS
 62
     7
 10
-181.9999999996829
 20
324.50000000000051
 30
0.0
 11
-183.4999999996829
 21
321.90192378864742
 31
0.0
  0
LINE
  5
1B8
  8
DATA
  6
CONTINUOUS
 62
     7
 10
-183.4999999996829
 20
321.90192378864742
 30
0.0
 11
-186.4999999996829
 21
321.90192378864742
 31
0.0
  0
LINE
  5
1B9
  8
DATA
  6
CONTINUOUS
 62
     7
 10
-260.83493649022341
 20
389.24999999999761
 30
0.0
 11
-262.99999999968458
 21
390.49999999999773
 31
0.0
  0
LINE
  5
1BA
  8
DATA
  6
CONTINUOUS
 62
     7
 10
-262.99999999968458
 20
390.49999999999773
 30
0.0
 11
-265.16506350914568
 21
389.24999999999761
 31
0.0
  0
LINE
  5
1BB
  8
DATA
  6
CONTINUOUS
 62
     7
 10
-265.16506350914568
 20
389.24999999999761
 30
0.0
 11
-265.16506350914568
 21
386.74999999999761
 31
0.0
  0
LINE
  5
1BC
  8
DATA
  6
CONTINUOUS
 62
     7
 10
-265.16506350914568
 20
386.74999999999761
 30
0.0
 11
-262.99999999968458
 21
385.49999999999773
 31
0.0
  0
LINE
  5
1BD
  8
DATA
  6
CONTINUOUS
 62
     7
 10
-262.99999999968458
 20
385.49999999999773
 30
0.0
 11
-260.83493649022341
 21
386.74999999999761
 31
0.0
  0
LINE
  5
1BE
  8
DATA
  6
CONTINUOUS
 62
     7
 10
-260.83493649022341
 20
386.74999999999761
 30
0.0
 11
-260.83493649022341
 21
389.24999999999761
 31
0.0
  0
POLYLINE
  5
1BF
  8
DATA
  6
CONTINUOUS
 62
     7
 66
     1
 10
0.0
 20
0.0
 30
0.0
 70
     8
  0
VERTEX
  5
1C0
  8
DATA
  6
CONTINUOUS
 62
     7
 10
197.70725932882809
 20
135.9999999983539
 30
-0.0000047179346421
 70
    32
  0
VERTEX
  5
1C1
  8
DATA
  6
CONTINUOUS
 62
     7
 10
197.7073556631268
 20
-188.0000000016463
 30
-0.0000091261700526
 70
    32
  0
SEQEND
  5
1C2
  8
DATA
  6
CONTINUOUS
 62
     7
  0
POLYLINE
  5
1C3
  8
DATA
  6
CONTINUOUS
 62
     7
 66
     1
 10
0.0
 20
0.0
 30
0.0
 70
     8
  0
VERTEX
  5
1C4
  8
DATA
  6
CONTINUOUS
 62
     7
 10
313.00000000000199
 20
-188.0000000016463
 30
-0.0000047179347007
 70
    32
  0
VERTEX
  5
1C5
  8
DATA
  6
CONTINUOUS
 62
     7
 10
313.00000000000199
 20
135.9999999983539
 30
-0.000004717934786
 70
    32
  0
SEQEND
  5
1C6
  8
DATA
  6
CONTINUOUS
 62
     7
  0
CIRCLE
  5
1C7
  8
DATA
  6
CONTINUOUS
 62
     7
 10
225.00000000000199
 20
-26.000000001646189
 30
0.0
 40
6.0
  0
CIRCLE
  5
1C8
  8
DATA
  6
CONTINUOUS
 62
     7
 10
225.00000000000199
 20
-163.0000000016463
 30
0.0
 40
6.0
  0
LINE
  5
1C9
  8
DATA
  6
CONTINUOUS
 62
     7
 10
273.00000000000199
 20
-188.0000000016463
 30
0.0
 11
273.00000000000199
 21
135.9999999983539
 31
0.0
  0
LINE
  5
1CA
  8
DATA
  6
CONTINUOUS
 62
     7
 10
273.00000000000199
 20
135.9999999983539
 30
0.0
 11
74.999999999999872
 21
135.9999999983539
 31
0.0
  0
LINE
  5
1CB
  8
DATA
  6
CONTINUOUS
 62
     7
 10
74.999999999999872
 20
135.9999999983539
 30
0.0
 11
74.99999999999784
 21
-188.0000000016463
 31
0.0
  0
LINE
  5
1CC
  8
DATA
  6
CONTINUOUS
 62
     7
 10
74.99999999999784
 20
-188.0000000016463
 30
0.0
 11
273.00000000000199
 21
-188.0000000016463
 31
0.0
  0
LINE
  5
1CD
  8
DATA
  6
CONTINUOUS
 62
     7
 10
313.00000000000199
 20
-188.0000000016463
 30
0.0
 11
49.999999999460897
 21
-188.0000000016463
 31
0.0
  0
LINE
  5
1CE
  8
DATA
  6
CONTINUOUS
 62
     7
 10
49.999999999460897
 20
-188.0000000016463
 30
0.0
 11
50.0
 21
-200.0000000016463
 31
0.0
  0
LINE
  5
1CF
  8
DATA
  6
CONTINUOUS
 62
     7
 10
50.0
 20
-200.0000000016463
 30
0.0
 11
313.00000000000199
 21
-200.0000000016463
 31
0.0
  0
LINE
  5
1D0
  8
DATA
  6
CONTINUOUS
 62
     7
 10
313.00000000000199
 20
-200.0000000016463
 30
0.0
 11
313.00000000000199
 21
-188.0000000016463
 31
0.0
  0
LINE
  5
1D1
  8
DATA
  6
CONTINUOUS
 62
     7
 10
227.1650635094629
 20
-164.2500000016463
 30
0.0
 11
225.00000000000199
 21
-165.5000000016463
 31
0.0
  0
LINE
  5
1D2
  8
DATA
  6
CONTINUOUS
 62
     7
 10
225.00000000000199
 20
-165.5000000016463
 30
0.0
 11
222.83493649054009
 21
-164.2500000016463
 31
0.0
  0
LINE
  5
1D3
  8
DATA
  6
CONTINUOUS
 62
     7
 10
222.83493649054009
 20
-164.2500000016463
 30
0.0
 11
222.83493649054009
 21
-161.75000000164721
 31
0.0
  0
LINE
  5
1D4
  8
DATA
  6
CONTINUOUS
 62
     7
 10
222.83493649054009
 20
-161.75000000164721
 30
0.0
 11
225.00000000000199
 21
-160.5000000016463
 31
0.0
  0
LINE
  5
1D5
  8
DATA
  6
CONTINUOUS
 62
     7
 10
225.00000000000199
 20
-160.5000000016463
 30
0.0
 11
227.1650635094629
 21
-161.75000000164721
 31
0.0
  0
LINE
  5
1D6
  8
DATA
  6
CONTINUOUS
 62
     7
 10
227.1650635094629
 20
-161.75000000164721
 30
0.0
 11
227.1650635094629
 21
-164.2500000016463
 31
0.0
  0
LINE
  5
1D7
  8
DATA
  6
CONTINUOUS
 62
     7
 10
227.1650635094629
 20
-27.250000001646189
 30
0.0
 11
225.00000000000199
 21
-28.500000001646189
 31
0.0
  0
LINE
  5
1D8
  8
DATA
  6
CONTINUOUS
 62
     7
 10
225.00000000000199
 20
-28.500000001646189
 30
0.0
 11
222.83493649054009
 21
-27.250000001646189
 31
0.0
  0
LINE
  5
1D9
  8
DATA
  6
CONTINUOUS
 62
     7
 10
222.83493649054009
 20
-27.250000001646189
 30
0.0
 11
222.83493649054009
 21
-24.750000001646189
 31
0.0
  0
LINE
  5
1DA
  8
DATA
  6
CONTINUOUS
 62
     7
 10
222.83493649054009
 20
-24.750000001646189
 30
0.0
 11
225.00000000000199
 21
-23.500000001646189
 31
0.0
  0
LINE
  5
1DB
  8
DATA
  6
CONTINUOUS
 62
     7
 10
225.00000000000199
 20
-23.500000001646189
 30
0.0
 11
227.1650635094629
 21
-24.750000001646189
 31
0.0
  0
LINE
  5
1DC
  8
DATA
  6
CONTINUOUS
 62
     7
 10
227.1650635094629
 20
-24.750000001646189
 30
0.0
 11
227.1650635094629
 21
-27.250000001646189
 31
0.0
  0
LINE
  5
1DD
  8
DATA
  6
CONTINUOUS
 62
     7
 10
313.00000000000199
 20
147.9999999983539
 30
0.0
 11
49.999999998867899
 21
147.9999999983539
 31
0.0
  0
LINE
  5
1DE
  8
DATA
  6
CONTINUOUS
 62
     7
 10
49.999999998867899
 20
147.9999999983539
 30
0.0
 11
49.999999998867899
 21
135.9999999983539
 31
0.0
  0
LINE
  5
1DF
  8
DATA
  6
CONTINUOUS
 62
     7
 10
49.999999998867899
 20
135.9999999983539
 30
0.0
 11
313.00000000000199
 21
135.9999999983539
 31
0.0
  0
LINE
  5
1E0
  8
DATA
  6
CONTINUOUS
 62
     7
 10
313.00000000000199
 20
135.9999999983539
 30
0.0
 11
313.00000000000199
 21
147.9999999983539
 31
0.0
  0
TEXT
  5
1E1
  8
DATA
 62
     7
 10
490.42094861143721
 20
-751.02491954522259
 30
0.0
 40
13.03072916666666
  1
2-Wayフルレンジ・スピーカーシステム
  7
_______
 11
490.42094861143721
 21
-737.99419037855603
 31
0.0
 73
     3
  0
ENDSEC
  0
EOF
